999
DXF file: C:\Aktuell-Internet\CAD-Daten-NEU\2vwa-20.dxf
999
Pro/ENGINEER 2001400 by Parametric Technology Corporation
0
SECTION
2
HEADER
9
$ACADVER
1
AC1014
9
$EXTMAX
10
420.0000000000
20
297.0000000000
9
$EXTMIN
10
0.0000000000
20
0.0000000000
9
$LIMMIN
10
0.0000000000
20
0.0000000000
9
$LIMMAX
10
420.0000000000
20
297.0000000000
9
$VIEWCTR
10
210.0000000000
20
148.5000000000
9
$VIEWSIZE
40
297.0000000000
9
$CLAYER
8
0
9
$LTSCALE
40
23.1000000000
9
$CELTYPE
6
BYLAYER
9
$DIMSCALE
40
1
9
$DIMASZ
40
3.5000000000
9
$DIMEXO
40
2.6250000000
9
$DIMDLI
40
15.9600000000
9
$DIMEXE
40
7.5600000000
9
$DIMCEN
40
3.7800000000
9
$DIMLFAC
40
1.0000000000
9
$DIMTXT
40
3.5000000000
9
$DIMTOL
70
1
9
$DIMTFAC
40
0.6000000000
9
$DIMTP
40
0.0050000000
9
$DIMTM
40
0.0050000000
9
$HANDSEED
5
2E0
0
ENDSEC
0
SECTION
2
CLASSES
0
ENDSEC
0
SECTION
2
TABLES
0
TABLE
2
VPORT
5
8
100
AcDbSymbolTable
70
2
0
VPORT
5
1F4
100
AcDbSymbolTableRecord
100
AcDbViewportTableRecord
2
*ACTIVE
70
0
10
0.0
20
0.0
11
1.0
21
1.0
12
210.0000000000
22
148.5000000000
13
0.0
23
0.0
14
1.0
24
1.0
15
0.0
25
0.0
16
0.0
26
0.0
36
1.0
17
0.0
27
0.0
37
0.0
40
297.0000000000
41
1.4141414141
42
50.0
43
0.0
44
0.0
50
0.0
51
0.0
71
0
72
100
73
1
74
1
75
0
76
0
77
0
78
0
0
ENDTAB
0
TABLE
2
LTYPE
5
5
100
AcDbSymbolTable
70
6
0
LTYPE
5
14
100
AcDbSymbolTableRecord
100
AcDbLinetypeTableRecord
2
BYBLOCK
70
0
3

72
65
73
0
40
0.0
0
LTYPE
5
15
100
AcDbSymbolTableRecord
100
AcDbLinetypeTableRecord
2
BYLAYER
70
0
3

72
65
73
0
40
0.0
0
LTYPE
5
16
100
AcDbSymbolTableRecord
100
AcDbLinetypeTableRecord
2
CONTINUOUS
70
64
3
Solid line
72
65
73
0
40
0
0
LTYPE
5
1F5
100
AcDbSymbolTableRecord
100
AcDbLinetypeTableRecord
2
CENTER
70
64
3
____ _ ____ _ ____ _ ____ _ ____ _ ____ _ ____
72
65
73
4
40
0.6
49
0.375
74
0
49
-0.075
74
0
49
0.075
74
0
49
-0.075
74
0
0
LTYPE
5
1F6
100
AcDbSymbolTableRecord
100
AcDbLinetypeTableRecord
2
HIDDEN
70
64
3
- - - - - - - - - - - - - - - - - - - -
72
65
73
2
40
0.2
49
0.1
74
0
49
-0.1
74
0
0
LTYPE
5
1F7
100
AcDbSymbolTableRecord
100
AcDbLinetypeTableRecord
2
PHANTOM
70
64
3
_____ _ _ _____ _ _ _____ _ _ _____
72
65
73
6
40
0.8
49
0.45
74
0
49
-0.05
74
0
49
0.1
74
0
49
-0.05
74
0
49
0.1
74
0
49
-0.05
74
0
0
LTYPE
5
1F8
100
AcDbSymbolTableRecord
100
AcDbLinetypeTableRecord
2
DOT
70
64
3
. . . . . . . . . . . . . . . . . . . .
72
65
73
2
40
0.2
49
0.1
74
0
49
-0.1
74
0
0
LTYPE
5
1F9
100
AcDbSymbolTableRecord
100
AcDbLinetypeTableRecord
2
DASHED
70
64
3
- - - - - - - - - - - - - - - - - - - -
72
65
73
2
40
0.2
49
0.1
74
0
49
-0.1
74
0
0
ENDTAB
0
TABLE
2
LAYER
5
2
100
AcDbSymbolTable
70
36
0
LAYER
5
10
100
AcDbSymbolTableRecord
100
AcDbLayerTableRecord
2
0
70
0
62
7
6
CONTINUOUS
0
LAYER
5
1FA
100
AcDbSymbolTableRecord
100
AcDbLayerTableRecord
2
DEFAULT_1
70
0
62
7
6
CENTER
0
LAYER
5
1FB
100
AcDbSymbolTableRecord
100
AcDbLayerTableRecord
2
DEFAULT_2
70
0
62
8
6
HIDDEN
0
LAYER
5
1FC
100
AcDbSymbolTableRecord
100
AcDbLayerTableRecord
2
DEFAULT_3
70
0
62
7
6
PHANTOM
0
LAYER
5
1FD
100
AcDbSymbolTableRecord
100
AcDbLayerTableRecord
2
ZEICHNUNGSBEMASSUNGEN
70
0
62
7
6
CONTINUOUS
0
ENDTAB
0
TABLE
2
STYLE
5
3
100
AcDbSymbolTable
70
1
0
STYLE
5
11
100
AcDbSymbolTableRecord
100
AcDbTextStyleTableRecord
2
STANDARD
70
0
40
0.0
41
1.0
50
0.0
71
0
42
0.0
3
txt
4

0
STYLE
5
1FE
100
AcDbSymbolTableRecord
100
AcDbTextStyleTableRecord
2
TEXTSTYLE_0
70
0
40
0.0
41
0.80
50
0.0
71
0
42
0.2
3
txt
4

0
ENDTAB
0
TABLE
2
VIEW
5
6
100
AcDbSymbolTable
70
0
0
ENDTAB
0
TABLE
2
UCS
5
7
100
AcDbSymbolTable
70
0
0
ENDTAB
0
TABLE
2
APPID
5
9
100
AcDbSymbolTable
70
1
0
APPID
5
1FF
100
AcDbSymbolTableRecord
100
AcDbRegAppTableRecord
2
ACAD
70
0
0
ENDTAB
0
TABLE
2
DIMSTYLE
5
A
100
AcDbSymbolTable
70
1
0
DIMSTYLE
105
200
100
AcDbSymbolTableRecord
100
AcDbDimStyleTableRecord
2
STANDARD
70
0
3

4

5

6

7

40
1.0
41
0.18
42
0.0625
43
0.38
44
0.18
45
0.0
46
0.0
47
0.0050000000
48
0.0050000000
140
3.5000000000
141
0.09
142
0.0
143
25.4
144
1.0000000000
145
0.0
146
0.6000000000
147
0.09
71
1
72
0
73
1
74
1
75
0
76
0
77
0
78
0
170
0
171
2
172
0
173
0
174
0
175
0
176
0
177
0
178
0
270
2
271
3
272
4
273
2
274
2
340
11
275
0
280
0
281
0
282
0
283
1
284
0
285
0
286
0
287
3
288
0
0
ENDTAB
0
TABLE
2
BLOCK_RECORD
5
1
100
AcDbSymbolTable
70
0
0
BLOCK_RECORD
5
1B
100
AcDbSymbolTableRecord
100
AcDbBlockTableRecord
2
*MODEL_SPACE
0
BLOCK_RECORD
5
1C
100
AcDbSymbolTableRecord
100
AcDbBlockTableRecord
2
*PAPER_SPACE
0
ENDTAB
0
ENDSEC
0
SECTION
2
BLOCKS
0
BLOCK
5
1E
100
AcDbEntity
8
0
100
AcDbBlockBegin
2
*MODEL_SPACE
70
0
10
0.0
20
0.0
30
0.0
3
*MODEL_SPACE
1

0
ENDBLK
5
1F
100
AcDbEntity
8
0
100
AcDbBlockEnd
0
BLOCK
5
20
100
AcDbEntity
8
0
100
AcDbBlockBegin
2
*PAPER_SPACE
70
0
10
0.0
20
0.0
30
0.0
3
*PAPER_SPACE
1

0
ENDBLK
5
21
100
AcDbEntity
8
0
100
AcDbBlockEnd
0
ENDSEC
0
SECTION
2
ENTITIES
0
TEXT
5
201
100
AcDbEntity
8
0
100
AcDbText
62
2
6
CONTINUOUS
10
260.7621889217
20
132.7473053607
7
TEXTSTYLE_0
40
7.0000000000
1
VWA-20/VIP
50
90.0000000000
72
5
11
260.7621889217
21
191.2473031291
100
AcDbText
0
LINE
5
202
100
AcDbEntity
8
0
100
AcDbLine
62
7
6
CONTINUOUS
10
0.0000000000
20
0.0000000000
11
0.0000000000
21
297.0000000000
0
LINE
5
203
100
AcDbEntity
8
0
100
AcDbLine
62
7
6
CONTINUOUS
10
0.0000000000
20
0.0000000000
11
420.0000000000
21
0.0000000000
0
LINE
5
204
100
AcDbEntity
8
0
100
AcDbLine
62
7
6
CONTINUOUS
10
0.0000000000
20
297.0000000000
11
420.0000000000
21
297.0000000000
0
LINE
5
205
100
AcDbEntity
8
0
100
AcDbLine
62
7
6
CONTINUOUS
10
420.0000000000
20
0.0000000000
11
420.0000000000
21
297.0000000000
0
LINE
5
206
100
AcDbEntity
8
0
100
AcDbLine
62
7
6
CONTINUOUS
10
187.8365513473
20
50.3200434122
11
149.0865513473
21
50.3200434122
0
LINE
5
207
100
AcDbEntity
8
0
100
AcDbLine
62
7
6
CONTINUOUS
10
126.5865513473
20
50.3200434122
11
87.8365513473
21
50.3200434122
0
LINE
5
208
100
AcDbEntity
8
0
100
AcDbLine
62
7
6
CONTINUOUS
10
149.0865513473
20
66.5700434122
11
126.5865513473
21
66.5700434122
0
LINE
5
209
100
AcDbEntity
8
DEFAULT_1
100
AcDbLine
62
2
6
CENTER
10
106.3365513473
20
79.0700434122
11
84.1238899591
21
79.0700434122
0
LINE
5
20A
100
AcDbEntity
8
DEFAULT_1
100
AcDbLine
62
2
6
CENTER
10
106.3365513473
20
79.0700434122
11
189.3233584032
21
79.0700434122
0
LINE
5
20B
100
AcDbEntity
8
0
100
AcDbLine
62
7
6
CONTINUOUS
10
101.6282176166
20
91.1711071406
11
102.6698850780
21
90.5328093443
0
LINE
5
20C
100
AcDbEntity
8
0
100
AcDbLine
62
7
6
CONTINUOUS
10
112.4615513473
20
90.3200434122
11
113.2948847800
21
90.3200434122
0
LINE
5
20D
100
AcDbEntity
8
0
100
AcDbLine
62
7
6
CONTINUOUS
10
161.1698850780
20
90.3200434122
11
162.8365513473
21
90.3200434122
0
LINE
5
20E
100
AcDbEntity
8
0
100
AcDbLine
62
7
6
CONTINUOUS
10
167.8365513473
20
90.3200434122
11
169.0865513473
21
90.3200434122
0
LINE
5
20F
100
AcDbEntity
8
0
100
AcDbLine
62
7
6
CONTINUOUS
10
172.0032182127
20
90.3200434122
11
173.6698847800
21
90.3200434122
0
LINE
5
210
100
AcDbEntity
8
0
100
AcDbLine
62
7
6
CONTINUOUS
10
176.5865513473
20
90.3200434122
11
177.8365513473
21
90.3200434122
0
LINE
5
211
100
AcDbEntity
8
0
100
AcDbLine
62
7
6
CONTINUOUS
10
149.0865513473
20
91.0700434122
11
126.5865513473
21
91.0700434122
0
LINE
5
212
100
AcDbEntity
8
0
100
AcDbLine
62
7
6
CONTINUOUS
10
113.5032179147
20
91.3838730726
11
112.6698847800
21
91.3838730726
0
LINE
5
213
100
AcDbEntity
8
0
100
AcDbLine
62
7
6
CONTINUOUS
10
116.6282180078
20
92.6604686651
11
115.5865513473
21
92.6604686651
0
LINE
5
214
100
AcDbEntity
8
0
100
AcDbLine
62
7
6
CONTINUOUS
10
102.6698850780
20
90.5328093443
11
103.9198850780
21
90.3200434122
0
LINE
5
215
100
AcDbEntity
8
0
100
AcDbLine
62
7
6
CONTINUOUS
10
111.2115513473
20
90.5328093443
11
112.4615513473
21
90.3200434122
0
LINE
5
216
100
AcDbEntity
8
0
100
AcDbLine
62
7
6
CONTINUOUS
10
103.9198850780
20
91.3838730726
11
102.8782176166
21
91.5966390047
0
LINE
5
217
100
AcDbEntity
8
0
100
AcDbLine
62
7
6
CONTINUOUS
10
112.6698847800
20
91.3838730726
11
111.6282182127
21
91.5966390047
0
LINE
5
218
100
AcDbEntity
8
0
100
AcDbLine
62
7
6
CONTINUOUS
10
110.3782182127
20
90.9583412085
11
111.2115513473
21
90.5328093443
0
LINE
5
219
100
AcDbEntity
8
0
100
AcDbLine
62
7
6
CONTINUOUS
10
102.8782176166
20
91.5966390047
11
102.2532176166
21
92.0221708689
0
LINE
5
21A
100
AcDbEntity
8
0
100
AcDbLine
62
7
6
CONTINUOUS
10
111.6282182127
20
91.5966390047
11
111.0032182127
21
92.0221708689
0
LINE
5
21B
100
AcDbEntity
8
0
100
AcDbLine
62
7
6
CONTINUOUS
10
104.9615513473
20
99.0434476707
11
105.5865513473
21
98.6179158065
0
LINE
5
21C
100
AcDbEntity
8
0
100
AcDbLine
62
7
6
CONTINUOUS
10
101.0032176166
20
91.8094049368
11
101.6282176166
21
91.1711071406
0
LINE
5
21D
100
AcDbEntity
8
0
100
AcDbLine
62
7
6
CONTINUOUS
10
114.5448846310
20
91.5966390047
11
113.5032179147
21
91.3838730726
0
LINE
5
21E
100
AcDbEntity
8
0
100
AcDbLine
62
7
6
CONTINUOUS
10
104.9615513473
20
91.5966390047
11
103.9198850780
21
91.3838730726
0
LINE
5
21F
100
AcDbEntity
8
0
100
AcDbLine
62
7
6
CONTINUOUS
10
103.9198850780
20
90.3200434122
11
105.1698850780
21
90.5328093443
0
LINE
5
220
100
AcDbEntity
8
0
100
AcDbLine
62
7
6
CONTINUOUS
10
113.2948847800
20
90.3200434122
11
114.7532180637
21
90.5328093443
0
LINE
5
221
100
AcDbEntity
8
0
100
AcDbLine
62
7
6
CONTINUOUS
10
160.1282176166
20
96.9157882009
11
163.8782176166
21
96.9157882009
0
LINE
5
222
100
AcDbEntity
8
0
100
AcDbLine
62
7
6
CONTINUOUS
10
164.0865513473
20
97.7668519292
11
159.9198850780
21
97.7668519292
0
LINE
5
223
100
AcDbEntity
8
0
100
AcDbLine
62
7
6
CONTINUOUS
10
109.3365513473
20
99.2562136028
11
115.1698846310
21
99.2562136028
0
LINE
5
224
100
AcDbEntity
8
0
100
AcDbLine
62
7
6
CONTINUOUS
10
176.1698846310
20
100.3200434122
11
174.5032179147
21
100.3200434122
0
LINE
5
225
100
AcDbEntity
8
0
100
AcDbLine
62
7
6
CONTINUOUS
10
171.1698844820
20
100.3200434122
11
169.5032182127
21
100.3200434122
0
LINE
5
226
100
AcDbEntity
8
0
100
AcDbLine
62
7
6
CONTINUOUS
10
166.1698850780
20
100.3200434122
11
164.9198850780
21
100.3200434122
0
LINE
5
227
100
AcDbEntity
8
0
100
AcDbLine
62
7
6
CONTINUOUS
10
159.0865513473
20
100.3200434122
11
157.8365513473
21
100.3200434122
0
LINE
5
228
100
AcDbEntity
8
0
100
AcDbLine
62
7
6
CONTINUOUS
10
116.8365513473
20
100.3200434122
11
109.3365513473
21
100.3200434122
0
LINE
5
229
100
AcDbEntity
8
0
100
AcDbLine
62
7
6
CONTINUOUS
10
105.1698850780
20
100.1072774615
11
103.9198850780
21
100.3200434122
0
LINE
5
22A
100
AcDbEntity
8
0
100
AcDbLine
62
7
6
CONTINUOUS
10
103.9198850780
20
99.2562136028
11
104.9615513473
21
99.0434476707
0
LINE
5
22B
100
AcDbEntity
8
0
100
AcDbLine
62
7
6
CONTINUOUS
10
106.2115513473
20
99.4689796094
11
105.1698850780
21
100.1072774615
0
LINE
5
22C
100
AcDbEntity
8
0
100
AcDbLine
62
7
6
CONTINUOUS
10
109.5448844820
20
91.8094049368
11
110.3782182127
21
90.9583412085
0
LINE
5
22D
100
AcDbEntity
8
0
100
AcDbLine
62
7
6
CONTINUOUS
10
106.8365513473
20
98.8306817386
11
106.2115513473
21
99.4689796094
0
LINE
5
22E
100
AcDbEntity
8
0
100
AcDbLine
62
7
6
CONTINUOUS
10
102.2532176166
20
92.0221708689
11
101.4198850780
21
93.2987670574
0
LINE
5
22F
100
AcDbEntity
8
0
100
AcDbLine
62
7
6
CONTINUOUS
10
102.8782176166
20
99.0434476707
11
103.9198850780
21
99.2562136028
0
LINE
5
230
100
AcDbEntity
8
0
100
AcDbLine
62
7
6
CONTINUOUS
10
103.9198850780
20
100.3200434122
11
102.6698850780
21
100.1072774615
0
LINE
5
231
100
AcDbEntity
8
0
100
AcDbLine
62
7
6
CONTINUOUS
10
105.5865513473
20
98.6179158065
11
106.4198850780
21
97.3413200650
0
LINE
5
232
100
AcDbEntity
8
0
100
AcDbLine
62
7
6
CONTINUOUS
10
111.0032182127
20
92.0221708689
11
110.5865513473
21
92.6604686651
0
LINE
5
233
100
AcDbEntity
8
0
100
AcDbLine
62
7
6
CONTINUOUS
10
100.5865513473
20
92.6604686651
11
101.0032176166
21
91.8094049368
0
LINE
5
234
100
AcDbEntity
8
0
100
AcDbLine
62
7
6
CONTINUOUS
10
100.3782176166
20
93.2987670574
11
100.5865513473
21
92.6604686651
0
LINE
5
235
100
AcDbEntity
8
0
100
AcDbLine
62
7
6
CONTINUOUS
10
107.2532182127
20
97.9796178613
11
106.8365513473
21
98.8306817386
0
LINE
5
236
100
AcDbEntity
8
0
100
AcDbLine
62
7
6
CONTINUOUS
10
107.4615513473
20
97.3413200650
11
107.2532182127
21
97.9796178613
0
LINE
5
237
100
AcDbEntity
8
0
100
AcDbLine
62
7
6
CONTINUOUS
10
100.1698850780
20
94.3625967179
11
100.3782176166
21
93.2987670574
0
LINE
5
238
100
AcDbEntity
8
0
100
AcDbLine
62
7
6
CONTINUOUS
10
87.8365513473
20
50.3200434122
11
87.8365513473
21
66.5700434122
0
LINE
5
239
100
AcDbEntity
8
0
100
AcDbLine
62
7
6
CONTINUOUS
10
87.8365513473
20
91.0700434122
11
87.8365513473
21
197.3200434122
0
LINE
5
23A
100
AcDbEntity
8
0
100
AcDbLine
62
7
6
CONTINUOUS
10
94.4224107938
20
71.4470592545
11
94.4224107938
21
105.7786381961
0
LINE
5
23B
100
AcDbEntity
8
0
100
AcDbLine
62
7
6
CONTINUOUS
10
109.3365513473
20
92.6604686651
11
109.5448844820
21
91.8094049368
0
LINE
5
23C
100
AcDbEntity
8
0
100
AcDbLine
62
7
6
CONTINUOUS
10
107.6698844820
20
96.2774901066
11
107.4615513473
21
97.3413200650
0
LINE
5
23D
100
AcDbEntity
8
0
100
AcDbLine
62
7
6
CONTINUOUS
10
101.4198850780
20
93.2987670574
11
101.2115513473
21
94.5753626499
0
LINE
5
23E
100
AcDbEntity
8
0
100
AcDbLine
62
7
6
CONTINUOUS
10
106.4198850780
20
97.3413200650
11
106.6282176166
21
96.0647241745
0
LINE
5
23F
100
AcDbEntity
8
0
100
AcDbLine
62
7
6
CONTINUOUS
10
100.1698850780
20
96.2774901066
11
100.1698850780
21
94.3625967179
0
LINE
5
240
100
AcDbEntity
8
0
100
AcDbLine
62
7
6
CONTINUOUS
10
101.2115513473
20
94.5753626499
11
101.2115513473
21
96.0647241745
0
LINE
5
241
100
AcDbEntity
8
0
100
AcDbLine
62
7
6
CONTINUOUS
10
105.3365513473
20
209.3200434122
11
105.3365513473
21
197.3200434122
0
LINE
5
242
100
AcDbEntity
8
DEFAULT_1
100
AcDbLine
62
2
6
CENTER
10
106.3365513473
20
79.0700434122
11
106.3365513473
21
73.0700434122
0
LINE
5
243
100
AcDbEntity
8
DEFAULT_1
100
AcDbLine
62
2
6
CENTER
10
106.3365513473
20
79.0700434122
11
106.3365513473
21
85.0700434122
0
LINE
5
244
100
AcDbEntity
8
0
100
AcDbLine
62
7
6
CONTINUOUS
10
106.6282176166
20
96.0647241745
11
106.6282176166
21
94.5753626499
0
LINE
5
245
100
AcDbEntity
8
0
100
AcDbLine
62
7
6
CONTINUOUS
10
107.6698844820
20
94.3625967179
11
107.6698844820
21
96.2774901066
0
LINE
5
246
100
AcDbEntity
8
0
100
AcDbLine
62
7
6
CONTINUOUS
10
109.3365513473
20
100.3200434122
11
109.3365513473
21
99.2562136028
0
LINE
5
247
100
AcDbEntity
8
0
100
AcDbLine
62
7
6
CONTINUOUS
10
109.3365513473
20
93.0860011254
11
109.3365513473
21
92.6604686651
0
LINE
5
248
100
AcDbEntity
8
0
100
AcDbLine
62
7
6
CONTINUOUS
10
110.5865513473
20
92.6604686651
11
110.5865513473
21
93.0860011254
0
LINE
5
249
100
AcDbEntity
8
0
100
AcDbLine
62
7
6
CONTINUOUS
10
116.8365513473
20
99.2562136028
11
116.8365513473
21
100.3200434122
0
LINE
5
24A
100
AcDbEntity
8
0
100
AcDbLine
62
7
6
CONTINUOUS
10
101.2115513473
20
96.0647241745
11
101.4198850780
21
97.3413200650
0
LINE
5
24B
100
AcDbEntity
8
0
100
AcDbLine
62
7
6
CONTINUOUS
10
106.6282176166
20
94.5753626499
11
106.4198850780
21
93.2987670574
0
LINE
5
24C
100
AcDbEntity
8
0
100
AcDbLine
62
7
6
CONTINUOUS
10
100.3782176166
20
97.3413200650
11
100.1698850780
21
96.2774901066
0
LINE
5
24D
100
AcDbEntity
8
0
100
AcDbLine
62
7
6
CONTINUOUS
10
132.3599554687
20
186.4450428877
11
133.4833595901
21
187.2700444613
0
LINE
5
24E
100
AcDbEntity
8
0
100
AcDbLine
62
7
6
CONTINUOUS
10
133.4833595901
20
187.2700444613
11
134.3259126812
21
187.5450434122
0
LINE
5
24F
100
AcDbEntity
8
0
100
AcDbLine
62
7
6
CONTINUOUS
10
134.3259126812
20
185.8950434122
11
133.4833595901
21
185.6200428877
0
LINE
5
250
100
AcDbEntity
8
0
100
AcDbLine
62
7
6
CONTINUOUS
10
126.5865513473
20
50.3200434122
11
126.5865513473
21
107.0700434122
0
LINE
5
251
100
AcDbEntity
8
0
100
AcDbLine
62
7
6
CONTINUOUS
10
127.3365513473
20
212.8200434122
11
127.3365513473
21
278.7700434122
0
LINE
5
252
100
AcDbEntity
8
0
100
AcDbLine
62
7
6
CONTINUOUS
10
107.4615513473
20
93.2987670574
11
107.6698844820
21
94.3625967179
0
LINE
5
253
100
AcDbEntity
8
0
100
AcDbLine
62
7
6
CONTINUOUS
10
131.2365513473
20
183.9700428877
11
131.5174023777
21
185.3450439367
0
LINE
5
254
100
AcDbEntity
8
0
100
AcDbLine
62
7
6
CONTINUOUS
10
109.5448844820
20
93.9370648537
11
109.3365513473
21
93.0860011254
0
LINE
5
255
100
AcDbEntity
8
0
100
AcDbLine
62
7
6
CONTINUOUS
10
100.5865513473
20
97.9796178613
11
100.3782176166
21
97.3413200650
0
LINE
5
256
100
AcDbEntity
8
0
100
AcDbLine
62
7
6
CONTINUOUS
10
132.9216575294
20
185.0700434122
11
132.6408064991
21
184.2450434122
0
LINE
5
257
100
AcDbEntity
8
0
100
AcDbLine
62
7
6
CONTINUOUS
10
131.5174023777
20
185.3450439367
11
132.3599554687
21
186.4450428877
0
LINE
5
258
100
AcDbEntity
8
0
100
AcDbLine
62
7
6
CONTINUOUS
10
133.4833595901
20
185.6200428877
11
132.9216575294
21
185.0700434122
0
LINE
5
259
100
AcDbEntity
8
0
100
AcDbLine
62
7
6
CONTINUOUS
10
131.2365513473
20
160.3200434122
11
131.2365513473
21
161.9700434122
0
LINE
5
25A
100
AcDbEntity
8
0
100
AcDbLine
62
7
6
CONTINUOUS
10
131.2365513473
20
169.6700431500
11
131.2365513473
21
171.3200431500
0
LINE
5
25B
100
AcDbEntity
8
0
100
AcDbLine
62
7
6
CONTINUOUS
10
131.2365513473
20
173.5200434122
11
131.2365513473
21
175.1700434122
0
LINE
5
25C
100
AcDbEntity
8
0
100
AcDbLine
62
7
6
CONTINUOUS
10
131.2365513473
20
177.3700428877
11
131.2365513473
21
183.9700428877
0
LINE
5
25D
100
AcDbEntity
8
0
100
AcDbLine
62
7
6
CONTINUOUS
10
132.6408064991
20
184.2450434122
11
132.6408064991
21
179.0200428877
0
LINE
5
25E
100
AcDbEntity
8
0
100
AcDbLine
62
7
6
CONTINUOUS
10
136.8535727411
20
179.0200428877
11
136.8535727411
21
184.2450434122
0
LINE
5
25F
100
AcDbEntity
8
DEFAULT_1
100
AcDbLine
62
2
6
CENTER
10
137.8365513473
20
289.8302087661
11
137.8365513473
21
47.3200434122
0
LINE
5
260
100
AcDbEntity
8
0
100
AcDbLine
62
7
6
CONTINUOUS
10
138.5386789232
20
183.9700428877
11
138.5386789232
21
179.0200428877
0
LINE
5
261
100
AcDbEntity
8
0
100
AcDbLine
62
7
6
CONTINUOUS
10
116.4198846683
20
91.8094049368
11
116.6282180078
21
92.6604686651
0
LINE
5
262
100
AcDbEntity
8
0
100
AcDbLine
62
7
6
CONTINUOUS
10
107.2532182127
20
92.6604686651
11
107.4615513473
21
93.2987670574
0
LINE
5
263
100
AcDbEntity
8
0
100
AcDbLine
62
7
6
CONTINUOUS
10
101.0032176166
20
98.8306817386
11
100.5865513473
21
97.9796178613
0
LINE
5
264
100
AcDbEntity
8
0
100
AcDbLine
62
7
6
CONTINUOUS
10
131.2365513473
20
171.3200431500
11
144.4365513473
21
166.9200434122
0
LINE
5
265
100
AcDbEntity
8
0
100
AcDbLine
62
7
6
CONTINUOUS
10
142.7514449686
20
165.8200432811
11
131.2365513473
21
169.6700431500
0
LINE
5
266
100
AcDbEntity
8
0
100
AcDbLine
62
7
6
CONTINUOUS
10
157.8365513473
20
100.3200434122
11
161.1698850780
21
90.3200434122
0
LINE
5
267
100
AcDbEntity
8
0
100
AcDbLine
62
7
6
CONTINUOUS
10
162.0032176166
20
91.1711071406
11
160.1282176166
21
96.9157882009
0
LINE
5
268
100
AcDbEntity
8
0
100
AcDbLine
62
7
6
CONTINUOUS
10
159.9198850780
20
97.7668519292
11
159.0865513473
21
100.3200434122
0
LINE
5
269
100
AcDbEntity
8
0
100
AcDbLine
62
7
6
CONTINUOUS
10
144.4365513473
20
179.0200428877
11
144.4365513473
21
177.3700428877
0
LINE
5
26A
100
AcDbEntity
8
0
100
AcDbLine
62
7
6
CONTINUOUS
10
144.4365513473
20
175.1700434122
11
144.4365513473
21
173.5200434122
0
LINE
5
26B
100
AcDbEntity
8
0
100
AcDbLine
62
7
6
CONTINUOUS
10
144.4365513473
20
166.9200434122
11
144.4365513473
21
164.7200435434
0
LINE
5
26C
100
AcDbEntity
8
0
100
AcDbLine
62
7
6
CONTINUOUS
10
106.8365513473
20
91.8094049368
11
107.2532182127
21
92.6604686651
0
LINE
5
26D
100
AcDbEntity
8
0
100
AcDbLine
62
7
6
CONTINUOUS
10
110.5865513473
20
93.0860011254
11
111.0032182127
21
93.9370648537
0
LINE
5
26E
100
AcDbEntity
8
0
100
AcDbLine
62
7
6
CONTINUOUS
10
101.4198850780
20
97.3413200650
11
102.2532176166
21
98.6179158065
0
LINE
5
26F
100
AcDbEntity
8
0
100
AcDbLine
62
7
6
CONTINUOUS
10
131.2365513473
20
161.9700434122
11
142.7514449686
21
165.8200432811
0
LINE
5
270
100
AcDbEntity
8
0
100
AcDbLine
62
7
6
CONTINUOUS
10
144.4365513473
20
164.7200435434
11
131.2365513473
21
160.3200434122
0
LINE
5
271
100
AcDbEntity
8
0
100
AcDbLine
62
7
6
CONTINUOUS
10
144.4365513473
20
173.5200434122
11
131.2365513473
21
173.5200434122
0
LINE
5
272
100
AcDbEntity
8
0
100
AcDbLine
62
7
6
CONTINUOUS
10
131.2365513473
20
175.1700434122
11
144.4365513473
21
175.1700434122
0
LINE
5
273
100
AcDbEntity
8
0
100
AcDbLine
62
7
6
CONTINUOUS
10
144.4365513473
20
177.3700428877
11
131.2365513473
21
177.3700428877
0
LINE
5
274
100
AcDbEntity
8
0
100
AcDbLine
62
7
6
CONTINUOUS
10
136.8535727411
20
184.2450434122
11
136.5727217108
21
185.0700434122
0
LINE
5
275
100
AcDbEntity
8
0
100
AcDbLine
62
7
6
CONTINUOUS
10
138.2578278929
20
185.3450439367
11
138.5386789232
21
183.9700428877
0
LINE
5
276
100
AcDbEntity
8
0
100
AcDbLine
62
7
6
CONTINUOUS
10
148.3365513473
20
278.7697264854
11
148.3365513473
21
212.8200434122
0
LINE
5
277
100
AcDbEntity
8
0
100
AcDbLine
62
7
6
CONTINUOUS
10
149.0865513473
20
50.3200434122
11
149.0865513473
21
107.0700434122
0
LINE
5
278
100
AcDbEntity
8
0
100
AcDbLine
62
7
6
CONTINUOUS
10
106.4198850780
20
93.2987670574
11
105.5865513473
21
92.0221708689
0
LINE
5
279
100
AcDbEntity
8
0
100
AcDbLine
62
7
6
CONTINUOUS
10
109.9615513473
20
94.5753626499
11
109.5448844820
21
93.9370648537
0
LINE
5
27A
100
AcDbEntity
8
0
100
AcDbLine
62
7
6
CONTINUOUS
10
132.6408064991
20
179.0200428877
11
136.8535727411
21
179.0200428877
0
LINE
5
27B
100
AcDbEntity
8
0
100
AcDbLine
62
7
6
CONTINUOUS
10
138.5386789232
20
179.0200428877
11
144.4365513473
21
179.0200428877
0
LINE
5
27C
100
AcDbEntity
8
0
100
AcDbLine
62
7
6
CONTINUOUS
10
135.1684665590
20
185.8950434122
11
134.3259126812
21
185.8950434122
0
LINE
5
27D
100
AcDbEntity
8
0
100
AcDbLine
62
7
6
CONTINUOUS
10
136.0110196501
20
185.6200428877
11
135.1684665590
21
185.8950434122
0
LINE
5
27E
100
AcDbEntity
8
0
100
AcDbLine
62
7
6
CONTINUOUS
10
135.4493175894
20
187.5450434122
11
136.2918706804
21
187.2700444613
0
LINE
5
27F
100
AcDbEntity
8
0
100
AcDbLine
62
7
6
CONTINUOUS
10
136.2918706804
20
187.2700444613
11
137.4152748018
21
186.4450428877
0
LINE
5
280
100
AcDbEntity
8
0
100
AcDbLine
62
7
6
CONTINUOUS
10
136.5727217108
20
185.0700434122
11
136.0110196501
21
185.6200428877
0
LINE
5
281
100
AcDbEntity
8
0
100
AcDbLine
62
7
6
CONTINUOUS
10
137.4152748018
20
186.4450428877
11
138.2578278929
21
185.3450439367
0
LINE
5
282
100
AcDbEntity
8
0
100
AcDbLine
62
7
6
CONTINUOUS
10
170.3365513473
20
97.9796178613
11
172.0032182127
21
90.3200434122
0
LINE
5
283
100
AcDbEntity
8
0
100
AcDbLine
62
7
6
CONTINUOUS
10
115.5865513473
20
92.6604686651
11
115.1698846310
21
92.0221708689
0
LINE
5
284
100
AcDbEntity
8
0
100
AcDbLine
62
7
6
CONTINUOUS
10
101.6282176166
20
99.4689796094
11
101.0032176166
21
98.8306817386
0
LINE
5
285
100
AcDbEntity
8
0
100
AcDbLine
62
7
6
CONTINUOUS
10
134.3259126812
20
187.5450434122
11
135.4493175894
21
187.5450434122
0
LINE
5
286
100
AcDbEntity
8
0
100
AcDbLine
62
7
6
CONTINUOUS
10
172.8365513473
20
92.2349368010
11
171.1698844820
21
100.3200434122
0
LINE
5
287
100
AcDbEntity
8
0
100
AcDbLine
62
7
6
CONTINUOUS
10
177.8365513473
20
90.3200434122
11
176.1698846310
21
100.3200434122
0
LINE
5
288
100
AcDbEntity
8
0
100
AcDbLine
62
7
6
CONTINUOUS
10
175.3365513473
20
97.9796178613
11
176.5865513473
21
90.3200434122
0
LINE
5
289
100
AcDbEntity
8
0
100
AcDbLine
62
7
6
CONTINUOUS
10
170.3365513473
20
209.3200434122
11
170.3365513473
21
197.3200434122
0
LINE
5
28A
100
AcDbEntity
8
0
100
AcDbLine
62
7
6
CONTINUOUS
10
106.2115513473
20
91.1711071406
11
106.8365513473
21
91.8094049368
0
LINE
5
28B
100
AcDbEntity
8
0
100
AcDbLine
62
7
6
CONTINUOUS
10
187.8365513473
20
197.3200434122
11
87.8365513473
21
197.3200434122
0
LINE
5
28C
100
AcDbEntity
8
0
100
AcDbLine
62
7
6
CONTINUOUS
10
181.2506919009
20
71.4470592545
11
181.2506919009
21
105.7786381961
0
LINE
5
28D
100
AcDbEntity
8
0
100
AcDbLine
62
7
6
CONTINUOUS
10
169.0865513473
20
90.3200434122
11
170.3365513473
21
97.9796178613
0
LINE
5
28E
100
AcDbEntity
8
0
100
AcDbLine
62
7
6
CONTINUOUS
10
169.5032182127
20
100.3200434122
11
167.8365513473
21
90.3200434122
0
LINE
5
28F
100
AcDbEntity
8
0
100
AcDbLine
62
7
6
CONTINUOUS
10
115.5865513473
20
90.9583412085
11
116.4198846683
21
91.8094049368
0
LINE
5
290
100
AcDbEntity
8
0
100
AcDbLine
62
7
6
CONTINUOUS
10
111.0032182127
20
93.9370648537
11
116.8365513473
21
99.2562136028
0
LINE
5
291
100
AcDbEntity
8
0
100
AcDbLine
62
7
6
CONTINUOUS
10
115.1698846310
20
99.2562136028
11
109.9615513473
21
94.5753626499
0
LINE
5
292
100
AcDbEntity
8
0
100
AcDbLine
62
7
6
CONTINUOUS
10
102.2532176166
20
98.6179158065
11
102.8782176166
21
99.0434476707
0
LINE
5
293
100
AcDbEntity
8
0
100
AcDbLine
62
7
6
CONTINUOUS
10
102.6698850780
20
100.1072774615
11
101.6282176166
21
99.4689796094
0
LINE
5
294
100
AcDbEntity
8
0
100
AcDbLine
62
7
6
CONTINUOUS
10
187.8365513473
20
50.3200434122
11
187.8365513473
21
66.5700434122
0
LINE
5
295
100
AcDbEntity
8
0
100
AcDbLine
62
7
6
CONTINUOUS
10
187.8365513473
20
91.0700434122
11
187.8365513473
21
197.3200434122
0
LINE
5
296
100
AcDbEntity
8
0
100
AcDbLine
62
7
6
CONTINUOUS
10
174.5032179147
20
100.3200434122
11
172.8365513473
21
92.2349368010
0
LINE
5
297
100
AcDbEntity
8
0
100
AcDbLine
62
7
6
CONTINUOUS
10
173.6698847800
20
90.3200434122
11
175.3365513473
21
97.9796178613
0
LINE
5
298
100
AcDbEntity
8
0
100
AcDbLine
62
7
6
CONTINUOUS
10
164.9198850780
20
100.3200434122
11
164.0865513473
21
97.7668519292
0
LINE
5
299
100
AcDbEntity
8
0
100
AcDbLine
62
7
6
CONTINUOUS
10
163.8782176166
20
96.9157882009
11
162.0032176166
21
91.1711071406
0
LINE
5
29A
100
AcDbEntity
8
0
100
AcDbLine
62
7
6
CONTINUOUS
10
162.8365513473
20
90.3200434122
11
166.1698850780
21
100.3200434122
0
LINE
5
29B
100
AcDbEntity
8
0
100
AcDbLine
62
7
6
CONTINUOUS
10
105.5865513473
20
92.0221708689
11
104.9615513473
21
91.5966390047
0
LINE
5
29C
100
AcDbEntity
8
0
100
AcDbLine
62
7
6
CONTINUOUS
10
115.1698846310
20
92.0221708689
11
114.5448846310
21
91.5966390047
0
LINE
5
29D
100
AcDbEntity
8
0
100
AcDbLine
62
7
6
CONTINUOUS
10
105.1698850780
20
90.5328093443
11
106.2115513473
21
91.1711071406
0
LINE
5
29E
100
AcDbEntity
8
0
100
AcDbLine
62
7
6
CONTINUOUS
10
127.3365513473
20
212.8200434122
11
105.3365513473
21
209.3200434122
0
LINE
5
29F
100
AcDbEntity
8
0
100
AcDbLine
62
7
6
CONTINUOUS
10
170.3365513473
20
209.3200434122
11
148.3365513473
21
212.8200434122
0
LINE
5
2A0
100
AcDbEntity
8
0
100
AcDbLine
62
7
6
CONTINUOUS
10
114.7532180637
20
90.5328093443
11
115.5865513473
21
90.9583412085
0
LINE
5
2A1
100
AcDbEntity
8
DEFAULT_2
100
AcDbLine
62
8
6
HIDDEN
10
148.3365513473
20
238.0700434122
11
127.3365513473
21
238.0700434122
0
LINE
5
2A2
100
AcDbEntity
8
DEFAULT_1
100
AcDbLine
62
2
6
CENTER
10
124.3365513473
20
250.5700434122
11
151.3365513473
21
250.5700434122
0
LINE
5
2A3
100
AcDbEntity
8
DEFAULT_2
100
AcDbLine
62
8
6
HIDDEN
10
148.3365513473
20
263.0700434122
11
127.3365513473
21
263.0700434122
0
LINE
5
2A4
100
AcDbEntity
8
0
100
AcDbLine
62
7
6
CONTINUOUS
10
139.5365513473
20
287.5700434122
11
136.1365513473
21
287.5700434122
0
LINE
5
2A5
100
AcDbEntity
8
DEFAULT_1
100
AcDbLine
62
2
6
CENTER
10
297.6637028383
20
79.0700434122
11
241.9273495933
21
79.0700434122
0
LINE
5
2A6
100
AcDbEntity
8
0
100
AcDbLine
62
7
6
CONTINUOUS
10
219.8602272754
20
130.2165684271
11
219.8602272754
21
197.3200434122
0
LINE
5
2A7
100
AcDbEntity
8
0
100
AcDbLine
62
7
6
CONTINUOUS
10
233.5091169473
20
123.9047939368
11
219.8602006088
21
130.2693881509
0
LINE
5
2A8
100
AcDbEntity
8
0
100
AcDbLine
62
7
6
CONTINUOUS
10
237.3602272754
20
232.8853042284
11
237.3602272754
21
197.3200434122
0
LINE
5
2A9
100
AcDbEntity
8
0
100
AcDbLine
62
7
6
CONTINUOUS
10
245.0567517125
20
71.4470592545
11
245.0567517125
21
105.7786381961
0
LINE
5
2AA
100
AcDbEntity
8
0
100
AcDbLine
62
7
6
CONTINUOUS
10
321.0602272754
20
160.3200434122
11
321.5602272754
21
160.3200434122
0
LINE
5
2AB
100
AcDbEntity
8
DEFAULT_1
100
AcDbLine
62
2
6
CENTER
10
269.8602272754
20
250.5700434122
11
269.8602272754
21
46.3554564719
0
LINE
5
2AC
100
AcDbEntity
8
DEFAULT_1
100
AcDbLine
62
2
6
CENTER
10
269.8602272754
20
250.5700434122
11
269.8602272754
21
291.0842949805
0
LINE
5
2AD
100
AcDbEntity
8
0
100
AcDbLine
62
7
6
CONTINUOUS
10
321.0602272754
20
161.9700434122
11
321.5602272754
21
161.9700434122
0
LINE
5
2AE
100
AcDbEntity
8
0
100
AcDbLine
62
7
6
CONTINUOUS
10
321.0602272754
20
165.8200432811
11
321.5602272754
21
165.8200432811
0
LINE
5
2AF
100
AcDbEntity
8
0
100
AcDbLine
62
7
6
CONTINUOUS
10
321.0602272754
20
169.6700431500
11
321.5602272754
21
169.6700431500
0
LINE
5
2B0
100
AcDbEntity
8
0
100
AcDbLine
62
7
6
CONTINUOUS
10
321.0602272754
20
171.3200431500
11
321.5602272754
21
171.3200431500
0
LINE
5
2B1
100
AcDbEntity
8
0
100
AcDbLine
62
7
6
CONTINUOUS
10
321.0602272754
20
173.5200434122
11
321.5602272754
21
173.5200434122
0
LINE
5
2B2
100
AcDbEntity
8
0
100
AcDbLine
62
7
6
CONTINUOUS
10
321.0602272754
20
175.1700434122
11
321.5602272754
21
175.1700434122
0
LINE
5
2B3
100
AcDbEntity
8
0
100
AcDbLine
62
7
6
CONTINUOUS
10
321.0602272754
20
177.3700428877
11
321.5602272754
21
177.3700428877
0
LINE
5
2B4
100
AcDbEntity
8
0
100
AcDbLine
62
7
6
CONTINUOUS
10
321.0602272754
20
183.9700428877
11
321.5602272754
21
183.9700428877
0
LINE
5
2B5
100
AcDbEntity
8
0
100
AcDbLine
62
7
6
CONTINUOUS
10
321.0602272754
20
185.3450439367
11
321.5602272754
21
185.3450439367
0
LINE
5
2B6
100
AcDbEntity
8
0
100
AcDbLine
62
7
6
CONTINUOUS
10
321.0602272754
20
186.4450428877
11
321.5602272754
21
186.4450428877
0
LINE
5
2B7
100
AcDbEntity
8
0
100
AcDbLine
62
7
6
CONTINUOUS
10
321.0602272754
20
187.2700444613
11
321.5602272754
21
187.2700444613
0
LINE
5
2B8
100
AcDbEntity
8
0
100
AcDbLine
62
7
6
CONTINUOUS
10
294.6637028383
20
71.4470592545
11
294.6637028383
21
105.7786381961
0
LINE
5
2B9
100
AcDbEntity
8
0
100
AcDbLine
62
7
6
CONTINUOUS
10
321.0602272754
20
187.5450434122
11
321.5602272754
21
187.5450434122
0
LINE
5
2BA
100
AcDbEntity
8
0
100
AcDbLine
62
7
6
CONTINUOUS
10
302.3602272754
20
197.3200434122
11
302.3602272754
21
232.8853042284
0
LINE
5
2BB
100
AcDbEntity
8
0
100
AcDbLine
62
7
6
CONTINUOUS
10
319.8602272754
20
197.3200434122
11
219.8602272754
21
197.3200434122
0
LINE
5
2BC
100
AcDbEntity
8
0
100
AcDbLine
62
7
6
CONTINUOUS
10
302.3602272754
20
212.8200434122
11
302.1680648502
21
212.8200434122
0
LINE
5
2BD
100
AcDbEntity
8
0
100
AcDbLine
62
7
6
CONTINUOUS
10
319.8602272754
20
130.2165684271
11
319.8602272754
21
197.3200434122
0
LINE
5
2BE
100
AcDbEntity
8
0
100
AcDbLine
62
7
6
CONTINUOUS
10
321.0602272754
20
160.3200434122
11
321.0602272754
21
171.3200431500
0
LINE
5
2BF
100
AcDbEntity
8
0
100
AcDbLine
62
7
6
CONTINUOUS
10
321.0602272754
20
173.5200434122
11
321.0602272754
21
175.1700434122
0
LINE
5
2C0
100
AcDbEntity
8
0
100
AcDbLine
62
7
6
CONTINUOUS
10
321.0602272754
20
177.3700428877
11
321.0602272754
21
187.5450434122
0
LINE
5
2C1
100
AcDbEntity
8
0
100
AcDbLine
62
7
6
CONTINUOUS
10
321.5602272754
20
160.3200434122
11
321.5602272754
21
171.3200431500
0
LINE
5
2C2
100
AcDbEntity
8
0
100
AcDbLine
62
7
6
CONTINUOUS
10
321.5602272754
20
173.5200434122
11
321.5602272754
21
175.1700434122
0
LINE
5
2C3
100
AcDbEntity
8
0
100
AcDbLine
62
7
6
CONTINUOUS
10
321.5602272754
20
177.3700428877
11
321.5602272754
21
187.5450434122
0
LINE
5
2C4
100
AcDbEntity
8
0
100
AcDbLine
62
7
6
CONTINUOUS
10
319.8602539419
20
130.2693881509
11
306.2113376035
21
123.9047939368
0
LINE
5
2C5
100
AcDbEntity
8
DEFAULT_1
100
AcDbLine
62
2
6
CENTER
10
269.8602272754
20
250.5700434122
11
229.6158998272
21
250.5700434122
0
LINE
5
2C6
100
AcDbEntity
8
DEFAULT_1
100
AcDbLine
62
2
6
CENTER
10
269.8602272754
20
250.5700434122
11
308.7881949444
21
250.5700434122
0
ARC
5
2C7
100
AcDbEntity
8
0
100
AcDbCircle
62
7
6
CONTINUOUS
10
136.1365513473
20
278.7700434122
40
8.8000000000
100
AcDbArc
50
90.0000000000
51
180.0000000000
0
ARC
5
2C8
100
AcDbEntity
8
0
100
AcDbCircle
62
7
6
CONTINUOUS
10
139.5365513473
20
278.7700434122
40
8.8000000000
100
AcDbArc
50
0.0000000000
51
90.0000000000
0
CIRCLE
5
2C9
100
AcDbEntity
8
0
100
AcDbCircle
62
7
6
CONTINUOUS
10
106.3365513473
20
79.0700434122
40
3.0000000000
0
ARC
5
2CA
100
AcDbEntity
8
0
100
AcDbCircle
62
7
6
CONTINUOUS
10
137.8365513473
20
107.0700434122
40
11.2500000000
100
AcDbArc
50
0.0000000000
51
180.0000000000
0
CIRCLE
5
2CB
100
AcDbEntity
8
0
100
AcDbCircle
62
7
6
CONTINUOUS
10
269.8602272754
20
78.8200434122
40
12.2500000000
0
ARC
5
2CC
100
AcDbEntity
8
0
100
AcDbCircle
62
7
6
CONTINUOUS
10
269.8602272754
20
81.1200434122
40
30.8000000000
100
AcDbArc
50
243.5916151474
51
296.4083848526
0
ARC
5
2CD
100
AcDbEntity
8
0
100
AcDbCircle
62
7
6
CONTINUOUS
10
314.6637028383
20
105.7786381961
40
20.0000000000
100
AcDbArc
50
115.0000000000
51
180.0000000000
0
ARC
5
2CE
100
AcDbEntity
8
0
100
AcDbCircle
62
7
6
CONTINUOUS
10
225.0567517125
20
105.7786381961
40
20.0000000000
100
AcDbArc
50
0.0000000000
51
65.0000000000
0
ARC
5
2CF
100
AcDbEntity
8
0
100
AcDbCircle
62
7
6
CONTINUOUS
10
265.0567517125
20
71.4470592545
40
20.0000000000
100
AcDbArc
50
180.0000000000
51
243.5916151474
0
ARC
5
2D0
100
AcDbEntity
8
0
100
AcDbCircle
62
7
6
CONTINUOUS
10
274.6637028383
20
71.4470592545
40
20.0000000000
100
AcDbArc
50
296.4083848526
51
360.0000000000
0
CIRCLE
5
2D1
100
AcDbEntity
8
0
100
AcDbCircle
62
7
6
CONTINUOUS
10
269.8602272754
20
250.5700434122
40
12.5000000000
0
ARC
5
2D2
100
AcDbEntity
8
0
100
AcDbCircle
62
7
6
CONTINUOUS
10
269.8602272754
20
250.5700434122
40
37.0000000000
100
AcDbArc
50
331.4473626398
51
208.5526373602
0
SPLINE
5
2D3
100
AcDbEntity
8
0
100
AcDbSpline
62
7
6
CONTINUOUS
70
0
71
3
72
23
73
19
74
17
42
0.0000001000
43
0.0000001000
44
0.0000000001
40
0.0000000000
40
0.0000000000
40
0.0000000000
40
0.0000000000
40
0.0098772536
40
0.0390570871
40
0.0860675529
40
0.1488473594
40
0.2248819997
40
0.3113046141
40
0.4049434098
40
0.5023412002
40
0.5997483563
40
0.6931070956
40
0.7786010200
40
0.8535147593
40
0.9153002926
40
0.9615880949
40
0.9902930845
40
1.0000000000
40
1.0000000000
40
1.0000000000
40
1.0000000000
10
187.8365513473
20
66.5700434122
30
0.0000000000
10
187.8171625025
20
66.6491814993
30
0.0000000000
10
187.7411529918
20
66.9622749251
30
0.0000000000
10
187.5794390985
20
67.6536138976
30
0.0000000000
10
187.3369437252
20
68.7741389959
30
0.0000000000
10
187.0497697232
20
70.2801059889
30
0.0000000000
10
186.7608245772
20
72.1159167501
30
0.0000000000
10
186.5142660412
20
74.2146847937
30
0.0000000000
10
186.3491392234
20
76.4983675558
30
0.0000000000
10
186.2927300960
20
78.8780914361
30
0.0000000000
10
186.3547737407
20
81.2553629363
30
0.0000000000
10
186.5243924825
20
83.5287851014
30
0.0000000000
10
186.7727224658
20
85.6079697606
30
0.0000000000
10
187.0602612492
20
87.4185633611
30
0.0000000000
10
187.3443085001
20
88.9012841973
30
0.0000000000
10
187.5834685997
20
90.0040282187
30
0.0000000000
10
187.7427317866
20
90.6843513943
30
0.0000000000
10
187.8174968727
20
90.9922700977
30
0.0000000000
10
187.8365513473
20
91.0700434122
30
0.0000000000
11
187.8365513473
21
66.5700434122
31
0.0000000000
11
187.7788858416
21
66.8075801040
31
0.0000000000
11
187.6144385978
21
67.5107304745
31
0.0000000000
11
187.3684770541
21
68.6478182761
31
0.0000000000
11
187.0777082909
21
70.1740017085
31
0.0000000000
11
186.7855416606
21
72.0328383407
31
0.0000000000
11
186.5364621511
21
74.1570173251
31
0.0000000000
11
186.3697161154
21
76.4683243801
31
0.0000000000
11
186.3127399128
21
78.8779901943
31
0.0000000000
11
186.3754743914
21
81.2877448286
31
0.0000000000
11
186.5469887694
21
83.5917531532
31
0.0000000000
11
186.7974529649
21
85.6926256926
31
0.0000000000
11
187.0878500101
21
87.5236587511
31
0.0000000000
11
187.3752971741
21
89.0254262121
31
0.0000000000
11
187.6179782311
21
90.1449258654
31
0.0000000000
11
187.7798717997
21
90.8366052252
31
0.0000000000
11
187.8365513473
21
91.0700434122
31
0.0000000000
0
SPLINE
5
2D4
100
AcDbEntity
8
0
100
AcDbSpline
62
7
6
CONTINUOUS
70
0
71
3
72
23
73
19
74
17
42
0.0000001000
43
0.0000001000
44
0.0000000001
40
0.0000000000
40
0.0000000000
40
0.0000000000
40
0.0000000000
40
0.0097244629
40
0.0384796059
40
0.0848438339
40
0.1467445597
40
0.2217963454
40
0.3073987870
40
0.4007554335
40
0.4980958253
40
0.5954244882
40
0.6889988621
40
0.7753471776
40
0.8513090289
40
0.9140246913
40
0.9609859045
40
0.9901338693
40
1.0000000000
40
1.0000000000
40
1.0000000000
40
1.0000000000
10
87.8365513473
20
91.0700434122
30
0.0000000000
10
87.8556402678
20
90.9921295030
30
0.0000000000
10
87.9305359766
20
90.6836677999
30
0.0000000000
10
88.0900576771
20
90.0021839604
30
0.0000000000
10
88.3295889675
20
88.8974792193
30
0.0000000000
10
88.6140116741
20
87.4120601907
30
0.0000000000
10
88.9017377656
20
85.5984725208
30
0.0000000000
10
89.1498476085
20
83.5172280850
30
0.0000000000
10
89.3189132830
20
81.2434363448
30
0.0000000000
10
89.3803563973
20
78.8672896049
30
0.0000000000
10
89.3234978984
20
76.4892313622
30
0.0000000000
10
89.1581096133
20
74.2072884217
30
0.0000000000
10
88.9114815122
20
72.1102870241
30
0.0000000000
10
88.6226402999
20
70.2762250117
30
0.0000000000
10
88.3356688334
20
68.7717835720
30
0.0000000000
10
88.0933935656
20
67.6524371236
30
0.0000000000
10
87.9318449464
20
66.9618410037
30
0.0000000000
10
87.8559183588
20
66.6490923836
30
0.0000000000
10
87.8365513473
20
66.5700434122
30
0.0000000000
11
87.8365513473
21
91.0700434122
31
0.0000000000
11
87.8933324793
21
90.8361830130
31
0.0000000000
11
88.0554961011
21
90.1432921259
31
0.0000000000
11
88.2985251147
21
89.0219326014
31
0.0000000000
11
88.5863691797
21
87.5173385978
31
0.0000000000
11
88.8770159127
21
85.6828861156
31
0.0000000000
11
89.1273330994
21
83.5792914959
31
0.0000000000
11
89.2982598399
21
81.2752913555
31
0.0000000000
11
89.3603745052
21
78.8671733739
31
0.0000000000
11
89.3029450257
21
76.4592294467
31
0.0000000000
11
89.1359240764
21
74.1495405931
31
0.0000000000
11
88.8867817168
21
72.0272202228
31
0.0000000000
11
88.5947249307
21
70.1701897230
31
0.0000000000
11
88.3041663638
21
68.6455821411
31
0.0000000000
11
88.0584283774
21
67.5096930016
31
0.0000000000
11
87.8941524821
21
66.8073124813
31
0.0000000000
11
87.8365513473
21
66.5700434122
31
0.0000000000
0
SPLINE
5
2D5
100
AcDbEntity
8
0
100
AcDbSpline
62
7
6
CONTINUOUS
70
0
71
3
72
13
73
9
74
7
42
0.0000001000
43
0.0000001000
44
0.0000000001
40
0.0000000000
40
0.0000000000
40
0.0000000000
40
0.0000000000
40
0.0289168945
40
0.1158656107
40
0.2593309859
40
0.4553246797
40
0.7005569925
40
1.0000000000
40
1.0000000000
40
1.0000000000
40
1.0000000000
10
87.8365513473
20
50.3200434122
30
0.0000000000
10
87.8554613407
20
50.3507414542
30
0.0000000000
10
87.9311798663
20
50.4737752503
30
0.0000000000
10
88.1001939967
20
50.7494326928
30
0.0000000000
10
88.3765701735
20
51.2036194000
30
0.0000000000
10
88.7523680942
20
51.8283218416
30
0.0000000000
10
89.2229991275
20
52.6229128926
30
0.0000000000
10
89.5639402544
20
53.2102718872
30
0.0000000000
10
89.7497250998
20
53.5341256599
30
0.0000000000
11
87.8365513473
21
50.3200434122
31
0.0000000000
11
87.8932431100
21
50.4121610742
31
0.0000000000
11
88.0632428100
21
50.6894298339
31
0.0000000000
11
88.3421952424
21
51.1478682119
31
0.0000000000
11
88.7200841486
21
51.7760942901
31
0.0000000000
11
89.1875083721
21
52.5653698471
31
0.0000000000
11
89.7497250998
21
53.5341256599
31
0.0000000000
0
SPLINE
5
2D6
100
AcDbEntity
8
0
100
AcDbSpline
62
7
6
CONTINUOUS
70
0
71
3
72
18
73
14
74
12
42
0.0000001000
43
0.0000001000
44
0.0000000001
40
0.0000000000
40
0.0000000000
40
0.0000000000
40
0.0000000000
40
0.0834500853
40
0.1715058262
40
0.2630163106
40
0.3568967843
40
0.4521496691
40
0.5478503254
40
0.6431032038
40
0.7369836797
40
0.8284941679
40
0.9165499126
40
1.0000000000
40
1.0000000000
40
1.0000000000
40
1.0000000000
10
172.1672486591
20
123.9047939368
30
0.0000000000
10
170.3779066626
20
124.6928023369
30
0.0000000000
10
166.6114430442
20
126.1141607166
30
0.0000000000
10
160.6717811476
20
127.7785834728
30
0.0000000000
10
154.3830342779
20
129.0318944267
30
0.0000000000
10
147.8563464314
20
129.8685647696
30
0.0000000000
10
141.1915284613
20
130.2870333675
30
0.0000000000
10
134.4815747676
20
130.2870333795
30
0.0000000000
10
127.8167568950
20
129.8685648260
30
0.0000000000
10
121.2900690515
20
129.0318945344
30
0.0000000000
10
115.0013219509
20
127.7785835754
30
0.0000000000
10
109.0616598282
20
126.1141607807
30
0.0000000000
10
105.2951960781
20
124.6928023571
30
0.0000000000
10
103.5058540355
20
123.9047939368
30
0.0000000000
11
172.1672486591
21
123.9047939368
31
0.0000000000
11
166.6873436606
21
125.9964342930
31
0.0000000000
11
160.7318701950
21
127.6813780476
31
0.0000000000
11
154.4258831977
21
128.9486631412
31
0.0000000000
11
147.8816075465
21
129.7940105964
31
0.0000000000
11
141.1998438438
21
130.2165684210
31
0.0000000000
11
134.4732592361
21
130.2165684331
31
0.0000000000
11
127.7914959763
21
129.7940106756
31
0.0000000000
11
121.2472201709
21
128.9486632517
31
0.0000000000
11
114.9412329030
21
127.6813781445
31
0.0000000000
11
108.9857591774
21
125.9964343402
31
0.0000000000
11
103.5058540355
21
123.9047939368
31
0.0000000000
0
SPLINE
5
2D7
100
AcDbEntity
8
0
100
AcDbSpline
62
7
6
CONTINUOUS
70
0
71
3
72
13
73
9
74
7
42
0.0000001000
43
0.0000001000
44
0.0000000001
40
0.0000000000
40
0.0000000000
40
0.0000000000
40
0.0000000000
40
0.1201922327
40
0.2699713225
40
0.4392081320
40
0.6225571582
40
0.8132526671
40
1.0000000000
40
1.0000000000
40
1.0000000000
40
1.0000000000
10
89.7497250854
20
53.5341256290
30
0.0000000000
10
90.1225404273
20
54.1840045506
30
0.0000000000
10
90.8893908695
20
55.6843020647
30
0.0000000000
10
91.9608560734
20
58.2060596411
30
0.0000000000
10
92.9670128637
20
61.1750491334
30
0.0000000000
10
93.7833465311
20
64.4664137699
30
0.0000000000
10
94.3045007819
20
67.9285312296
30
0.0000000000
10
94.4224107938
20
70.2829636815
30
0.0000000000
10
94.4224107938
20
71.4470592545
30
0.0000000000
11
89.7497250854
21
53.5341256290
31
0.0000000000
11
90.7838949018
21
55.5297452866
31
0.0000000000
11
91.8826788076
21
58.1061851467
31
0.0000000000
11
92.8981129016
21
61.1036906355
31
0.0000000000
11
93.7207847814
21
64.4322705060
31
0.0000000000
11
94.2487320077
21
67.9590939154
31
0.0000000000
11
94.4224107938
21
71.4470592545
31
0.0000000000
0
SPLINE
5
2D8
100
AcDbEntity
8
0
100
AcDbSpline
62
7
6
CONTINUOUS
70
0
71
3
72
13
73
9
74
7
42
0.0000001000
43
0.0000001000
44
0.0000000001
40
0.0000000000
40
0.0000000000
40
0.0000000000
40
0.0000000000
40
0.1867473329
40
0.3774428418
40
0.5607918680
40
0.7300286775
40
0.8798077673
40
1.0000000000
40
1.0000000000
40
1.0000000000
40
1.0000000000
10
181.2506919009
20
71.4470592545
30
0.0000000000
10
181.2506919009
20
70.2829636815
30
0.0000000000
10
181.3686019128
20
67.9285312296
30
0.0000000000
10
181.8897561636
20
64.4664137699
30
0.0000000000
10
182.7060898309
20
61.1750491334
30
0.0000000000
10
183.7122466215
20
58.2060596412
30
0.0000000000
10
184.7837118245
20
55.6843020643
30
0.0000000000
10
185.5505622685
20
54.1840045512
30
0.0000000000
10
185.9233776093
20
53.5341256290
30
0.0000000000
11
181.2506919009
21
71.4470592545
31
0.0000000000
11
181.4243706870
21
67.9590939154
31
0.0000000000
11
181.9523179133
21
64.4322705060
31
0.0000000000
11
182.7749897930
21
61.1036906355
31
0.0000000000
11
183.7904238871
21
58.1061851467
31
0.0000000000
11
184.8892077929
21
55.5297452866
31
0.0000000000
11
185.9233776093
21
53.5341256290
31
0.0000000000
0
SPLINE
5
2D9
100
AcDbEntity
8
0
100
AcDbSpline
62
7
6
CONTINUOUS
70
0
71
3
72
13
73
9
74
7
42
0.0000001000
43
0.0000001000
44
0.0000000001
40
0.0000000000
40
0.0000000000
40
0.0000000000
40
0.0000000000
40
0.2994893198
40
0.5447177694
40
0.7406952960
40
0.8841496628
40
0.9710864622
40
1.0000000000
40
1.0000000000
40
1.0000000000
40
1.0000000000
10
185.9233776093
20
53.5341256290
30
0.0000000000
10
186.1091911862
20
53.2102217712
30
0.0000000000
10
186.4501593507
20
52.6228172740
30
0.0000000000
10
186.9208081922
20
51.8281986957
30
0.0000000000
10
187.2965868110
20
51.2035298155
30
0.0000000000
10
187.5729379255
20
50.7493849212
30
0.0000000000
10
187.7419349997
20
50.4737554634
30
0.0000000000
10
187.8176435492
20
50.3507378906
30
0.0000000000
10
187.8365513473
20
50.3200434122
30
0.0000000000
11
185.9233776093
21
53.5341256290
31
0.0000000000
11
186.4856820259
21
52.5652204259
31
0.0000000000
11
186.9530999904
21
51.7759579672
31
0.0000000000
11
187.3309583802
21
51.1477841125
31
0.0000000000
11
187.6098896876
21
50.6893810873
31
0.0000000000
11
187.7798661615
21
50.4121503777
31
0.0000000000
11
187.8365513473
21
50.3200434122
31
0.0000000000
0
SPLINE
5
2DA
100
AcDbEntity
8
0
100
AcDbSpline
62
7
6
CONTINUOUS
70
0
71
3
72
15
73
11
74
9
42
0.0000001000
43
0.0000001000
44
0.0000000001
40
0.0000000000
40
0.0000000000
40
0.0000000000
40
0.0000000000
40
0.1438949332
40
0.2813545018
40
0.4116032014
40
0.5362404559
40
0.6582188521
40
0.7766813429
40
0.8918033275
40
1.0000000000
40
1.0000000000
40
1.0000000000
40
1.0000000000
10
94.4224107938
20
105.7786381961
30
0.0000000000
10
94.4224107938
20
106.8100681497
30
0.0000000000
10
94.5107143299
20
108.8280359556
30
0.0000000000
10
94.9076266716
20
111.7558507692
30
0.0000000000
10
95.5689436878
20
114.4952184413
30
0.0000000000
10
96.5212592794
20
117.0318273275
30
0.0000000000
10
97.8071308418
20
119.3252726278
30
0.0000000000
10
99.4507755789
20
121.2947648578
30
0.0000000000
10
101.3764606210
20
122.8346272638
30
0.0000000000
10
102.7960862655
20
123.5922192775
30
0.0000000000
10
103.5058540355
20
123.9047939368
30
0.0000000000
11
94.4224107938
21
105.7786381961
31
0.0000000000
11
94.5606032069
21
108.8698406483
31
0.0000000000
11
94.9654860054
21
111.7978850741
31
0.0000000000
11
95.6344038792
21
114.5176782352
31
0.0000000000
11
96.5906685190
21
117.0214559915
31
0.0000000000
11
97.8876129596
21
119.3013831702
31
0.0000000000
11
99.5269932799
21
121.2511665554
31
0.0000000000
11
101.4583682436
21
122.7997777481
31
0.0000000000
11
103.5058540355
21
123.9047939368
31
0.0000000000
0
SPLINE
5
2DB
100
AcDbEntity
8
0
100
AcDbSpline
62
7
6
CONTINUOUS
70
0
71
3
72
15
73
11
74
9
42
0.0000001000
43
0.0000001000
44
0.0000000001
40
0.0000000000
40
0.0000000000
40
0.0000000000
40
0.0000000000
40
0.1082577681
40
0.2234391608
40
0.3419420607
40
0.4639967576
40
0.5888925786
40
0.7194583475
40
0.8566074534
40
1.0000000000
40
1.0000000000
40
1.0000000000
40
1.0000000000
10
172.1672486591
20
123.9047939368
30
0.0000000000
10
172.8774167449
20
123.5920429825
30
0.0000000000
10
174.2977842293
20
122.8339767039
30
0.0000000000
10
176.2241477658
20
121.2930775956
30
0.0000000000
10
177.8681443920
20
119.3222178448
30
0.0000000000
10
179.1546924938
20
117.0260482199
30
0.0000000000
10
180.1076081433
20
114.4846343400
30
0.0000000000
10
180.7678158499
20
111.7430255278
30
0.0000000000
10
181.1629450941
20
108.8185942172
30
0.0000000000
10
181.2506919009
20
106.8064663942
30
0.0000000000
10
181.2506919009
20
105.7786381961
30
0.0000000000
11
172.1672486591
21
123.9047939368
31
0.0000000000
11
174.2158364280
21
122.7990566362
31
0.0000000000
11
176.1479687219
21
121.2493504518
31
0.0000000000
11
177.7874611144
21
119.2985283029
31
0.0000000000
11
179.0845918277
21
117.0168215465
31
0.0000000000
11
180.0418462530
21
114.5074720479
31
0.0000000000
11
180.7108689610
21
111.7806856510
31
0.0000000000
11
181.1134729652
21
108.8590680698
31
0.0000000000
11
181.2506919009
21
105.7786381961
31
0.0000000000
0
ENDSEC
0
SECTION
2
OBJECTS
0
DICTIONARY
5
2DC
100
AcDbDictionary
3
ACAD_GROUP
350
2DD
3
ACAD_MLINESTYLE
350
2DE
0
DICTIONARY
5
2DD
102
{ACAD_REACTORS
330
2DC
102
}
100
AcDbDictionary
0
DICTIONARY
5
2DE
102
{ACAD_REACTORS
330
2DC
102
}
100
AcDbDictionary
3
STANDARD
350
2DF
0
MLINESTYLE
5
2DF
102
{ACAD_REACTORS
330
2DE
102
}
100
AcDbMlineStyle
2
STANDARD
70
0
3

62
256
51
90.0
52
90.0
71
2
49
0.5
62
256
6
BYLAYER
49
-0.5
62
256
6
BYLAYER
0
ENDSEC
0
EOF
