999
DXF file: 001-m34294-p-20.dxf
999
Pro/ENGINEER 2010140 by Parametric Technology Corporation
  0
SECTION
  2
HEADER
  9
$ACADVER
  1
AC1015
  9
$DWGCODEPAGE
  3
ANSI_1252
  9
$EXTMAX
 10
1189.0
 20
841.0
 30
0.0
  9
$EXTMIN
 10
0.0
 20
0.0
 30
0.0
  9
$LIMMIN
 10
0.0
 20
0.0
  9
$LIMMAX
 10
1189.0
 20
841.0
  9
$VIEWCTR
 10
594.5
 20
420.5
  9
$VIEWSIZE
 40
841.0
  9
$CLAYER
  8
0
  9
$LTSCALE
 40
65.395
  9
$CELTYPE
  6
BYLAYER
  9
$DIMSCALE
 40
1.0
  9
$DIMASZ
 40
3.5
  9
$DIMEXO
 40
7.43125
  9
$DIMDLI
 40
45.182
  9
$DIMEXE
 40
21.402
  9
$DIMCEN
 40
10.701
  9
$DIMLFAC
 40
1.0
  9
$DIMBLK
  1
_FILLED
  9
$DIMTXT
 40
3.5
  9
$DIMTOL
 70
1
  9
$DIMLIM
 70
0
  9
$DIMTFAC
 40
1.0
  9
$DIMTP
 40
0.005
  9
$DIMTM
 40
0.005
  9
$PDMODE
 70
3
  9
$PDSIZE
 40
0.3125
  9
$HANDSEED
  5
791
  9
$TILEMODE
 70
1
  9
$MEASUREMENT
 70
1
  9
$INSUNITS
 70
4
  0
ENDSEC
  0
SECTION
  2
CLASSES
  0
CLASS
  1
ACDBDICTIONARYWDFLT
  2
AcDbDictionaryWithDefault
  3
AutoCAD 2000
 90
0
280
0
281
0
  0
CLASS
  1
ACDBPLACEHOLDER
  2
AcDbPlaceHolder
  3
AutoCAD 2000
 90
0
280
0
281
0
  0
CLASS
  1
LAYOUT
  2
AcDbLayout
  3
AutoCAD 2000
 90
0
280
0
281
0
  0
ENDSEC
  0
SECTION
  2
TABLES
  0
TABLE
  2
VPORT
  5
8
100
AcDbSymbolTable
 70
2
  0
VPORT
  5
1F4
100
AcDbSymbolTableRecord
100
AcDbViewportTableRecord
  2
*ACTIVE
 70
0
 10
0.0
 20
0.0
 11
1.0
 21
1.0
 12
594.5
 22
420.5
 13
0.0
 23
0.0
 14
1.0
 24
1.0
 15
0.0
 25
0.0
 16
0.0
 26
0.0
 36
1.0
 17
0.0
 27
0.0
 37
0.0
 40
841.0
 41
1.4137931034
 42
50.0
 43
0.0
 44
0.0
 50
0.0
 51
0.0
 71
0
 72
100
 73
1
 74
1
 75
0
 76
0
 77
0
 78
0
  0
ENDTAB
  0
TABLE
  2
LTYPE
  5
5
100
AcDbSymbolTable
 70
6
  0
LTYPE
  5
14
100
AcDbSymbolTableRecord
100
AcDbLinetypeTableRecord
  2
BYBLOCK
 70
0
  3

 72
65
 73
0
 40
0.0
  0
LTYPE
  5
15
100
AcDbSymbolTableRecord
100
AcDbLinetypeTableRecord
  2
BYLAYER
 70
0
  3

 72
65
 73
0
 40
0.0
  0
LTYPE
  5
16
100
AcDbSymbolTableRecord
100
AcDbLinetypeTableRecord
  2
CONTINUOUS
 70
64
  3
Solid line
 72
65
 73
0
 40
0.0
  0
LTYPE
  5
1F5
100
AcDbSymbolTableRecord
100
AcDbLinetypeTableRecord
  2
CENTER
 70
64
  3
____ _ ____ _ ____ _ ____ _ ____ _ ____ _ ____
 72
65
 73
4
 40
0.6
 49
0.375
 74
0
 49
-0.075
 74
0
 49
0.075
 74
0
 49
-0.075
 74
0
  0
LTYPE
  5
1F6
100
AcDbSymbolTableRecord
100
AcDbLinetypeTableRecord
  2
HIDDEN
 70
64
  3
- - - - - - - - - - - - - - - - - - - -
 72
65
 73
2
 40
0.2
 49
0.1
 74
0
 49
-0.1
 74
0
  0
LTYPE
  5
1F7
100
AcDbSymbolTableRecord
100
AcDbLinetypeTableRecord
  2
PHANTOM
 70
64
  3
_____ _ _ _____ _ _ _____ _ _ _____
 72
65
 73
6
 40
0.8
 49
0.45
 74
0
 49
-0.05
 74
0
 49
0.1
 74
0
 49
-0.05
 74
0
 49
0.1
 74
0
 49
-0.05
 74
0
  0
LTYPE
  5
1F8
100
AcDbSymbolTableRecord
100
AcDbLinetypeTableRecord
  2
DOT
 70
64
  3
. . . . . . . . . . . . . . . . . . . .
 72
65
 73
2
 40
0.2
 49
0.1
 74
0
 49
-0.1
 74
0
  0
LTYPE
  5
1F9
100
AcDbSymbolTableRecord
100
AcDbLinetypeTableRecord
  2
DASHED
 70
64
  3
- - - - - - - - - - - - - - - - - - - -
 72
65
 73
2
 40
0.2
 49
0.1
 74
0
 49
-0.1
 74
0
  0
ENDTAB
  0
TABLE
  2
LAYER
  5
2
100
AcDbSymbolTable
 70
36
  0
LAYER
  5
10
100
AcDbSymbolTableRecord
100
AcDbLayerTableRecord
  2
0
 70
0
 62
7
  6
CONTINUOUS
370
-3
390
F
  0
LAYER
  5
1FA
100
AcDbSymbolTableRecord
100
AcDbLayerTableRecord
  2
DEFAULT_1
 70
0
 62
7
  6
CENTER
370
-3
390
F
  0
LAYER
  5
1FB
100
AcDbSymbolTableRecord
100
AcDbLayerTableRecord
  2
DEFAULT_2
 70
0
 62
8
  6
HIDDEN
370
-3
390
F
  0
LAYER
  5
1FC
100
AcDbSymbolTableRecord
100
AcDbLayerTableRecord
  2
DEFAULT_3
 70
0
 62
7
  6
PHANTOM
370
-3
390
F
  0
LAYER
  5
1FD
100
AcDbSymbolTableRecord
100
AcDbLayerTableRecord
  2
BEZUGSACHSEN
 70
0
 62
7
  6
CONTINUOUS
370
-3
390
F
  0
LAYER
  5
1FE
100
AcDbSymbolTableRecord
100
AcDbLayerTableRecord
  2
BEZUGSEBENEN
 70
0
 62
7
  6
CONTINUOUS
370
-3
390
F
  0
LAYER
  5
1FF
100
AcDbSymbolTableRecord
100
AcDbLayerTableRecord
  2
BG_STARTBEZUEGE
 70
0
 62
7
  6
CONTINUOUS
370
-3
390
F
  0
LAYER
  5
200
100
AcDbSymbolTableRecord
100
AcDbLayerTableRecord
  2
FASEN
 70
0
 62
7
  6
CONTINUOUS
370
-3
390
F
  0
LAYER
  5
201
100
AcDbSymbolTableRecord
100
AcDbLayerTableRecord
  2
HILFEN
 70
0
 62
7
  6
CONTINUOUS
370
-3
390
F
  0
LAYER
  5
202
100
AcDbSymbolTableRecord
100
AcDbLayerTableRecord
  2
KONSTRUKTIONSELEMENTE
 70
0
 62
7
  6
CONTINUOUS
370
-3
390
F
  0
LAYER
  5
203
100
AcDbSymbolTableRecord
100
AcDbLayerTableRecord
  2
NORM
 70
0
 62
7
  6
CONTINUOUS
370
-3
390
F
  0
LAYER
  5
204
100
AcDbSymbolTableRecord
100
AcDbLayerTableRecord
  2
PLATZIERUNG
 70
0
 62
7
  6
CONTINUOUS
370
-3
390
F
  0
LAYER
  5
205
100
AcDbSymbolTableRecord
100
AcDbLayerTableRecord
  2
RUNDUNGEN
 70
0
 62
7
  6
CONTINUOUS
370
-3
390
F
  0
LAYER
  5
206
100
AcDbSymbolTableRecord
100
AcDbLayerTableRecord
  2
TEIL_STARTBEZUEGE
 70
0
 62
7
  6
CONTINUOUS
370
-3
390
F
  0
LAYER
  5
207
100
AcDbSymbolTableRecord
100
AcDbLayerTableRecord
  2
T_STARTBEZUEGE
 70
0
 62
7
  6
CONTINUOUS
370
-3
390
F
  0
ENDTAB
  0
TABLE
  2
STYLE
  5
3
100
AcDbSymbolTable
 70
1
  0
STYLE
  5
11
100
AcDbSymbolTableRecord
100
AcDbTextStyleTableRecord
  2
STANDARD
 70
0
 40
0.0
 41
0.7
 50
0.0
 71
0
 42
0.2
  3
txt
  4

  0
STYLE
  5
208
100
AcDbSymbolTableRecord
100
AcDbTextStyleTableRecord
  2
TEXTSTYLE_1
 70
0
 40
0.0
 41
0.8
 50
0.0
 71
0
 42
0.2
  3
gdt
  4

  0
ENDTAB
  0
TABLE
  2
VIEW
  5
6
100
AcDbSymbolTable
 70
0
  0
ENDTAB
  0
TABLE
  2
UCS
  5
7
100
AcDbSymbolTable
 70
0
  0
ENDTAB
  0
TABLE
  2
APPID
  5
9
100
AcDbSymbolTable
 70
1
  0
APPID
  5
209
100
AcDbSymbolTableRecord
100
AcDbRegAppTableRecord
  2
ACAD
 70
0
  0
ENDTAB
  0
TABLE
  2
BLOCK_RECORD
  5
1
100
AcDbSymbolTable
 70
0
  0
BLOCK_RECORD
  5
20A
100
AcDbSymbolTableRecord
100
AcDbBlockTableRecord
  2
*Model_Space
  0
BLOCK_RECORD
  5
20B
100
AcDbSymbolTableRecord
100
AcDbBlockTableRecord
  2
*Paper_Space
  0
ENDTAB
  0
TABLE
  2
DIMSTYLE
  5
A
100
AcDbSymbolTable
 70
1
100
AcDbDimStyleTable
 71
0
  0
DIMSTYLE
105
20C
100
AcDbSymbolTableRecord
100
AcDbDimStyleTableRecord
  2
STANDARD
 70
0
  3

  4

 40
1.0
 41
3.5
 42
0.0625
 43
0.38
 44
0.18
 45
0.0
 46
0.0
 47
0.005
 48
0.005
140
3.5
141
0.09
142
0.0
143
25.4
144
1.0
145
0.0
146
1.0
147
0.09
 71
1.0
 72
0.0
 73
0
 74
0
 75
0
 76
0
 77
1
 78
8
170
0
171
2
172
0
173
0
174
0
175
0
176
0
177
0
178
5
270
2
271
3
272
3
273
2
274
2
275
0
280
0
281
0
282
0
283
1
284
8
285
0
286
0
287
3
288
0
340
11
  0
ENDTAB
  0
ENDSEC
  0
SECTION
  2
BLOCKS
  0
BLOCK
  5
20
100
AcDbEntity
  8
0
100
AcDbBlockBegin
  2
*Model_Space
 70
0
 10
0.0
 20
0.0
 30
0.0
  3
*Model_Space
  1

  0
ENDBLK
  5
21
100
AcDbEntity
  8
0
100
AcDbBlockEnd
  0
BLOCK
  5
1C
100
AcDbEntity
  8
0
100
AcDbBlockBegin
  2
*Paper_Space
 70
0
 10
0.0
 20
0.0
 30
0.0
  3
*Paper_Space
  1

  0
ENDBLK
  5
1D
100
AcDbEntity
  8
0
100
AcDbBlockEnd
  0
ENDSEC
  0
SECTION
  2
ENTITIES
  0
MTEXT
  5
20D
100
AcDbEntity
  8
0
100
AcDbMText
 62
5
  6
CONTINUOUS
  7
STANDARD
 71
3
 72
1
 10
544.1242203331
 20
363.3376248933
 30
0.0
 11
1.0
 21
0.0
 31
0.0
 44
0.9
  1
1:1
 40
3.5
 41
5.25
  0
MTEXT
  5
20E
100
AcDbEntity
  8
0
100
AcDbMText
 62
5
  6
CONTINUOUS
  7
STANDARD
 71
2
 72
1
 10
297.5541848606
 20
647.4717446065
 30
0.0
 11
0.0
 21
1.0
 31
0.0
 44
0.9
  1
RUD\PVUW - 28
 40
10.0
 41
68.3333333333
  0
MTEXT
  5
20F
100
AcDbEntity
  8
0
100
AcDbMText
 62
5
  6
CONTINUOUS
  7
STANDARD
 71
2
 72
1
 10
724.0358115215
 20
573.4579120558
 30
0.0
 11
1.0
 21
0.0
 31
0.0
 44
0.9
  1
RUD\PVUW - 28
 40
10.0
 41
68.3333333333
  0
MTEXT
  5
210
100
AcDbEntity
  8
0
100
AcDbMText
 62
5
  6
CONTINUOUS
  7
STANDARD
 71
2
 72
1
 10
358.4012443175
 20
151.1173600057
 30
0.0
 11
1.0
 21
0.0
 31
0.0
 44
0.9
  1
RUD\PVUW - 28
 40
10.0
 41
68.3333333333
  0
LINE
  5
211
100
AcDbEntity
  8
0
100
AcDbLine
 62
7
  6
CONTINUOUS
 10
0.0
 20
0.0
 11
0.0
 21
841.0
  0
LINE
  5
212
100
AcDbEntity
  8
0
100
AcDbLine
 62
7
  6
CONTINUOUS
 10
0.0
 20
0.0
 11
1189.0
 21
0.0
  0
LINE
  5
213
100
AcDbEntity
  8
0
100
AcDbLine
 62
7
  6
CONTINUOUS
 10
0.0
 20
841.0
 11
1189.0
 21
841.0
  0
LINE
  5
214
100
AcDbEntity
  8
0
100
AcDbLine
 62
7
  6
CONTINUOUS
 10
1189.0
 20
0.0
 11
1189.0
 21
841.0
  0
LINE
  5
215
100
AcDbEntity
  8
0
100
AcDbLine
 62
7
  6
CONTINUOUS
 10
409.4796681384
 20
391.2979361886
 11
395.3450877188
 21
391.2979361886
  0
LINE
  5
216
100
AcDbEntity
  8
BEZUGSACHSEN
100
AcDbLine
 62
7
  6
CONTINUOUS
 10
319.614248558
 20
391.2979361886
 11
305.4796681384
 21
391.2979361886
  0
LINE
  5
217
100
AcDbEntity
  8
0
100
AcDbLine
 62
7
  6
CONTINUOUS
 10
373.2296681384
 20
416.0479361886
 11
341.7296681384
 21
416.0479361886
  0
LINE
  5
218
100
AcDbEntity
  8
0
100
AcDbLine
 62
7
  6
CONTINUOUS
 10
373.2296681384
 20
455.5479361886
 11
341.7296681384
 21
455.5479361886
  0
LINE
  5
219
100
AcDbEntity
  8
BEZUGSACHSEN
100
AcDbLine
 62
7
  6
CONTINUOUS
 10
283.4796681384
 20
513.2979361886
 11
283.4796681384
 21
400.7038351466
  0
LINE
  5
21A
100
AcDbEntity
  8
BEZUGSACHSEN
100
AcDbLine
 62
7
  6
CONTINUOUS
 10
283.4796681384
 20
522.5979361886
 11
283.4796681384
 21
693.6920372307
  0
LINE
  5
21B
100
AcDbEntity
  8
BEZUGSACHSEN
100
AcDbLine
 62
7
  6
CONTINUOUS
 10
287.4796681384
 20
519.2979361886
 11
287.4796681384
 21
517.2979361886
  0
LINE
  5
21C
100
AcDbEntity
  8
0
100
AcDbLine
 62
7
  6
CONTINUOUS
 10
308.8546681384
 20
597.1511277313
 11
308.2713348138
 21
596.5553831214
  0
LINE
  5
21D
100
AcDbEntity
  8
0
100
AcDbLine
 62
7
  6
CONTINUOUS
 10
309.1463348399
 20
596.406446969
 11
309.5838348399
 21
596.7043192739
  0
LINE
  5
21E
100
AcDbEntity
  8
0
100
AcDbLine
 62
7
  6
CONTINUOUS
 10
283.4796681384
 20
522.5979361886
 11
286.4796681384
 21
519.5979361886
  0
LINE
  5
21F
100
AcDbEntity
  8
0
100
AcDbLine
 62
7
  6
CONTINUOUS
 10
308.2713348138
 20
596.5553831214
 11
308.1255014761
 21
595.9596385116
  0
LINE
  5
220
100
AcDbEntity
  8
0
100
AcDbLine
 62
7
  6
CONTINUOUS
 10
313.0838349442
 20
591.7894255126
 11
313.2296681384
 21
592.2362340743
  0
LINE
  5
221
100
AcDbEntity
  8
0
100
AcDbLine
 62
7
  6
CONTINUOUS
 10
312.3546681384
 20
595.6617657894
 11
312.0630013327
 21
595.0660211796
  0
LINE
  5
222
100
AcDbEntity
  8
0
100
AcDbLine
 62
7
  6
CONTINUOUS
 10
312.5005013327
 20
592.2362340743
 11
312.3546681384
 21
591.9383617694
  0
LINE
  5
223
100
AcDbEntity
  8
0
100
AcDbLine
 62
7
  6
CONTINUOUS
 10
308.8546681384
 20
595.9596385116
 11
309.1463348399
 21
596.406446969
  0
LINE
  5
224
100
AcDbEntity
  8
0
100
AcDbLine
 62
7
  6
CONTINUOUS
 10
312.6463349442
 20
594.6192127222
 11
312.9380013327
 21
595.0660211796
  0
LINE
  5
225
100
AcDbEntity
  8
0
100
AcDbLine
 62
7
  6
CONTINUOUS
 10
312.7921681384
 20
591.3426170552
 11
313.0838349442
 21
591.7894255126
  0
LINE
  5
226
100
AcDbEntity
  8
0
100
AcDbLine
 62
7
  6
CONTINUOUS
 10
315.2713345269
 20
597.5979361886
 11
314.3963349442
 21
596.5553831214
  0
LINE
  5
227
100
AcDbEntity
  8
0
100
AcDbLine
 62
7
  6
CONTINUOUS
 10
314.3963349442
 20
595.3638934845
 11
315.2713345269
 21
596.406446969
  0
LINE
  5
228
100
AcDbEntity
  8
0
100
AcDbLine
 62
7
  6
CONTINUOUS
 10
312.0630013327
 20
595.0660211796
 11
311.7713349442
 21
594.7681488747
  0
LINE
  5
229
100
AcDbEntity
  8
0
100
AcDbLine
 62
7
  6
CONTINUOUS
 10
312.3546681384
 20
591.9383617694
 11
312.0630013327
 21
591.6404893601
  0
LINE
  5
22A
100
AcDbEntity
  8
0
100
AcDbLine
 62
7
  6
CONTINUOUS
 10
312.0630013327
 20
594.1724042649
 11
312.6463349442
 21
594.6192127222
  0
LINE
  5
22B
100
AcDbEntity
  8
0
100
AcDbLine
 62
7
  6
CONTINUOUS
 10
321.1046681384
 20
593.7255958075
 11
321.6880017499
 21
594.1724042649
  0
LINE
  5
22C
100
AcDbEntity
  8
0
100
AcDbLine
 62
7
  6
CONTINUOUS
 10
312.3546681384
 20
591.0447446982
 11
312.7921681384
 21
591.3426170552
  0
LINE
  5
22D
100
AcDbEntity
  8
0
100
AcDbLine
 62
7
  6
CONTINUOUS
 10
321.5421681384
 20
594.9170850272
 11
320.8130017499
 21
594.4702765698
  0
LINE
  5
22E
100
AcDbEntity
  8
0
100
AcDbLine
 62
7
  6
CONTINUOUS
 10
309.438001437
 20
597.4490000362
 11
308.8546681384
 21
597.1511277313
  0
LINE
  5
22F
100
AcDbEntity
  8
0
100
AcDbLine
 62
7
  6
CONTINUOUS
 10
312.0630013327
 20
591.6404893601
 11
311.7713349442
 21
591.4915532077
  0
LINE
  5
230
100
AcDbEntity
  8
0
100
AcDbLine
 62
7
  6
CONTINUOUS
 10
311.7713349442
 20
590.7468723541
 11
312.3546681384
 21
591.0447446982
  0
LINE
  5
231
100
AcDbEntity
  8
0
100
AcDbLine
 62
7
  6
CONTINUOUS
 10
311.7713349442
 20
594.7681488747
 11
310.8963347356
 21
594.4702765698
  0
LINE
  5
232
100
AcDbEntity
  8
0
100
AcDbLine
 62
7
  6
CONTINUOUS
 10
397.875501437
 20
498.1915531034
 11
397.1463347356
 21
498.0426169509
  0
LINE
  5
233
100
AcDbEntity
  8
0
100
AcDbLine
 62
7
  6
CONTINUOUS
 10
318.8338345269
 20
497.8936807985
 11
319.5630013327
 21
497.4468723411
  0
LINE
  5
234
100
AcDbEntity
  8
0
100
AcDbLine
 62
7
  6
CONTINUOUS
 10
319.7088349442
 20
498.1915531034
 11
319.2713349442
 21
498.4894254083
  0
LINE
  5
235
100
AcDbEntity
  8
0
100
AcDbLine
 62
7
  6
CONTINUOUS
 10
321.1671681384
 20
503.4043191696
 11
321.6046681384
 21
503.1064468647
  0
LINE
  5
236
100
AcDbEntity
  8
0
100
AcDbLine
 62
7
  6
CONTINUOUS
 10
318.3963345269
 20
498.3404892558
 11
318.8338345269
 21
497.8936807985
  0
LINE
  5
237
100
AcDbEntity
  8
0
100
AcDbLine
 62
7
  6
CONTINUOUS
 10
319.2713349442
 20
498.4894254083
 11
318.6880017499
 21
499.3830427403
  0
LINE
  5
238
100
AcDbEntity
  8
0
100
AcDbLine
 62
7
  6
CONTINUOUS
 10
318.1046681384
 20
498.9362338657
 11
318.3963345269
 21
498.3404892558
  0
LINE
  5
239
100
AcDbEntity
  8
0
100
AcDbLine
 62
7
  6
CONTINUOUS
 10
310.3130015413
 20
594.4702765698
 11
310.3130015413
 21
593.8745319599
  0
LINE
  5
23A
100
AcDbEntity
  8
0
100
AcDbLine
 62
7
  6
CONTINUOUS
 10
312.3546681384
 20
595.9596385116
 11
312.3546681384
 21
595.6617657894
  0
LINE
  5
23B
100
AcDbEntity
  8
0
100
AcDbLine
 62
7
  6
CONTINUOUS
 10
312.5005013327
 20
592.8319786841
 11
312.5005013327
 21
592.2362340743
  0
LINE
  5
23C
100
AcDbEntity
  8
0
100
AcDbLine
 62
7
  6
CONTINUOUS
 10
312.9380013327
 20
595.0660211796
 11
313.0838349442
 21
595.6617657894
  0
LINE
  5
23D
100
AcDbEntity
  8
0
100
AcDbLine
 62
7
  6
CONTINUOUS
 10
324.6046681384
 20
592.6830425317
 11
324.4588353614
 21
592.2362340743
  0
LINE
  5
23E
100
AcDbEntity
  8
0
100
AcDbLine
 62
7
  6
CONTINUOUS
 10
325.0421681384
 20
591.7894255126
 11
325.3338353614
 21
592.5341063792
  0
LINE
  5
23F
100
AcDbEntity
  8
0
100
AcDbLine
 62
7
  6
CONTINUOUS
 10
318.1880017499
 20
591.3426170552
 11
317.3130017499
 21
589.7043191696
  0
LINE
  5
240
100
AcDbEntity
  8
0
100
AcDbLine
 62
7
  6
CONTINUOUS
 10
318.0421681384
 20
589.7043191696
 11
318.9171681384
 21
591.3426170552
  0
LINE
  5
241
100
AcDbEntity
  8
0
100
AcDbLine
 62
7
  6
CONTINUOUS
 10
324.4588353614
 20
592.2362340743
 11
324.1671681384
 21
591.7894255126
  0
LINE
  5
242
100
AcDbEntity
  8
0
100
AcDbLine
 62
7
  6
CONTINUOUS
 10
324.6046681384
 20
591.1936808506
 11
325.0421681384
 21
591.7894255126
  0
LINE
  5
243
100
AcDbEntity
  8
0
100
AcDbLine
 62
7
  6
CONTINUOUS
 10
324.1671681384
 20
591.7894255126
 11
323.7296681384
 21
591.4915532077
  0
LINE
  5
244
100
AcDbEntity
  8
0
100
AcDbLine
 62
7
  6
CONTINUOUS
 10
323.8755009155
 20
590.7468723541
 11
324.6046681384
 21
591.1936808506
  0
LINE
  5
245
100
AcDbEntity
  8
0
100
AcDbLine
 62
7
  6
CONTINUOUS
 10
391.3130017499
 20
498.1915531034
 11
390.7296681384
 21
498.0426169509
  0
LINE
  5
246
100
AcDbEntity
  8
0
100
AcDbLine
 62
7
  6
CONTINUOUS
 10
389.5630017499
 20
500.276659655
 11
390.1463345269
 21
500.4255958075
  0
LINE
  5
247
100
AcDbEntity
  8
0
100
AcDbLine
 62
7
  6
CONTINUOUS
 10
391.3130017499
 20
501.1702765698
 11
390.7296681384
 21
501.0213404173
  0
LINE
  5
248
100
AcDbEntity
  8
0
100
AcDbLine
 62
7
  6
CONTINUOUS
 10
389.5630017499
 20
503.4043191696
 11
390.1463345269
 21
503.553255322
  0
LINE
  5
249
100
AcDbEntity
  8
0
100
AcDbLine
 62
7
  6
CONTINUOUS
 10
390.7296681384
 20
497.2979361886
 11
391.4588345269
 21
497.4468723411
  0
LINE
  5
24A
100
AcDbEntity
  8
0
100
AcDbLine
 62
7
  6
CONTINUOUS
 10
390.0005017499
 20
504.2979361886
 11
389.2713345269
 21
504.1490000231
  0
LINE
  5
24B
100
AcDbEntity
  8
0
100
AcDbLine
 62
7
  6
CONTINUOUS
 10
397.0005015413
 20
497.2979361886
 11
398.0213348399
 21
497.4468723411
  0
LINE
  5
24C
100
AcDbEntity
  8
BEZUGSACHSEN
100
AcDbLine
 62
7
  6
CONTINUOUS
 10
329.4795447864
 20
493.4979361886
 11
309.4796516326
 21
493.4979361886
  0
LINE
  5
24D
100
AcDbEntity
  8
RUNDUNGEN
100
AcDbLine
 62
7
  6
CONTINUOUS
 10
385.4797914905
 20
493.4979361886
 11
405.4796846442
 21
493.4979361886
  0
LINE
  5
24E
100
AcDbEntity
  8
0
100
AcDbLine
 62
7
  6
CONTINUOUS
 10
324.2296681384
 20
497.2979361886
 11
325.1046681384
 21
497.2979361886
  0
LINE
  5
24F
100
AcDbEntity
  8
0
100
AcDbLine
 62
7
  6
CONTINUOUS
 10
390.1463345269
 20
497.2979361886
 11
390.7296681384
 21
497.2979361886
  0
LINE
  5
250
100
AcDbEntity
  8
0
100
AcDbLine
 62
7
  6
CONTINUOUS
 10
396.4171681384
 20
497.2979361886
 11
397.0005015413
 21
497.2979361886
  0
LINE
  5
251
100
AcDbEntity
  8
0
100
AcDbLine
 62
7
  6
CONTINUOUS
 10
397.1463347356
 20
498.0426169509
 11
396.5630015413
 21
498.0426169509
  0
LINE
  5
252
100
AcDbEntity
  8
0
100
AcDbLine
 62
7
  6
CONTINUOUS
 10
390.7296681384
 20
498.0426169509
 11
390.1463345269
 21
498.0426169509
  0
LINE
  5
253
100
AcDbEntity
  8
0
100
AcDbLine
 62
7
  6
CONTINUOUS
 10
399.3338348008
 20
498.9362338657
 11
398.6046681384
 21
498.9362338657
  0
LINE
  5
254
100
AcDbEntity
  8
0
100
AcDbLine
 62
7
  6
CONTINUOUS
 10
390.1463345269
 20
500.4255958075
 11
390.7296681384
 21
500.4255958075
  0
LINE
  5
255
100
AcDbEntity
  8
0
100
AcDbLine
 62
7
  6
CONTINUOUS
 10
390.7296681384
 20
501.0213404173
 11
390.1463345269
 21
501.0213404173
  0
LINE
  5
256
100
AcDbEntity
  8
0
100
AcDbLine
 62
7
  6
CONTINUOUS
 10
319.5630013327
 20
497.4468723411
 11
320.4380013327
 21
497.2979361886
  0
LINE
  5
257
100
AcDbEntity
  8
0
100
AcDbLine
 62
7
  6
CONTINUOUS
 10
321.3130013327
 20
504.1490000231
 11
320.4380013327
 21
504.2979361886
  0
LINE
  5
258
100
AcDbEntity
  8
0
100
AcDbLine
 62
7
  6
CONTINUOUS
 10
320.4380013327
 20
498.0426169509
 11
319.7088349442
 21
498.1915531034
  0
LINE
  5
259
100
AcDbEntity
  8
0
100
AcDbLine
 62
7
  6
CONTINUOUS
 10
320.4380013327
 20
503.553255322
 11
321.1671681384
 21
503.4043191696
  0
LINE
  5
25A
100
AcDbEntity
  8
0
100
AcDbLine
 62
7
  6
CONTINUOUS
 10
322.0421681384
 20
503.7021915266
 11
321.3130013327
 21
504.1490000231
  0
LINE
  5
25B
100
AcDbEntity
  8
0
100
AcDbLine
 62
7
  6
CONTINUOUS
 10
322.4796681384
 20
503.2553830171
 11
322.0421681384
 21
503.7021915266
  0
LINE
  5
25C
100
AcDbEntity
  8
0
100
AcDbLine
 62
7
  6
CONTINUOUS
 10
321.6046681384
 20
503.1064468647
 11
322.1880013327
 21
502.2128298456
  0
LINE
  5
25D
100
AcDbEntity
  8
0
100
AcDbLine
 62
7
  6
CONTINUOUS
 10
322.7713347356
 20
502.659638303
 11
322.4796681384
 21
503.2553830171
  0
LINE
  5
25E
100
AcDbEntity
  8
0
100
AcDbLine
 62
7
  6
CONTINUOUS
 10
317.9588345269
 20
499.3830427403
 11
318.1046681384
 21
498.9362338657
  0
LINE
  5
25F
100
AcDbEntity
  8
0
100
AcDbLine
 62
7
  6
CONTINUOUS
 10
322.9171681384
 20
502.2128298456
 11
322.7713347356
 21
502.659638303
  0
LINE
  5
260
100
AcDbEntity
  8
0
100
AcDbLine
 62
7
  6
CONTINUOUS
 10
317.8130017499
 20
500.1277235026
 11
317.9588345269
 21
499.3830427403
  0
LINE
  5
261
100
AcDbEntity
  8
0
100
AcDbLine
 62
7
  6
CONTINUOUS
 10
318.6880017499
 20
499.3830427403
 11
318.5421681384
 21
500.276659655
  0
LINE
  5
262
100
AcDbEntity
  8
0
100
AcDbLine
 62
7
  6
CONTINUOUS
 10
313.0838349442
 20
595.6617657894
 11
313.0838349442
 21
595.9596385116
  0
LINE
  5
263
100
AcDbEntity
  8
0
100
AcDbLine
 62
7
  6
CONTINUOUS
 10
313.2296681384
 20
592.2362340743
 11
313.2296681384
 21
592.8319786841
  0
LINE
  5
264
100
AcDbEntity
  8
0
100
AcDbLine
 62
7
  6
CONTINUOUS
 10
314.3963349442
 20
596.5553831214
 11
314.3963349442
 21
595.3638934845
  0
LINE
  5
265
100
AcDbEntity
  8
0
100
AcDbLine
 62
7
  6
CONTINUOUS
 10
315.2713345269
 20
596.406446969
 11
315.2713345269
 21
590.5979361886
  0
LINE
  5
266
100
AcDbEntity
  8
0
100
AcDbLine
 62
7
  6
CONTINUOUS
 10
316.1463345269
 20
590.5979361886
 11
316.1463345269
 21
597.5979361886
  0
LINE
  5
267
100
AcDbEntity
  8
0
100
AcDbLine
 62
7
  6
CONTINUOUS
 10
317.8130017499
 20
501.4681488747
 11
317.8130017499
 21
500.1277235026
  0
LINE
  5
268
100
AcDbEntity
  8
0
100
AcDbLine
 62
7
  6
CONTINUOUS
 10
318.5421681384
 20
500.276659655
 11
318.5421681384
 21
501.3192127222
  0
LINE
  5
269
100
AcDbEntity
  8
0
100
AcDbLine
 62
7
  6
CONTINUOUS
 10
320.0838345269
 20
597.5979361886
 11
320.0838345269
 21
593.7255958075
  0
LINE
  5
26A
100
AcDbEntity
  8
0
100
AcDbLine
 62
7
  6
CONTINUOUS
 10
320.8130017499
 20
594.4702765698
 11
320.8130017499
 21
596.8532554263
  0
LINE
  5
26B
100
AcDbEntity
  8
0
100
AcDbLine
 62
7
  6
CONTINUOUS
 10
322.3338349442
 20
501.3192127222
 11
322.3338349442
 21
500.276659655
  0
LINE
  5
26C
100
AcDbEntity
  8
0
100
AcDbLine
 62
7
  6
CONTINUOUS
 10
323.0630015413
 20
500.1277235026
 11
323.0630015413
 21
501.4681488747
  0
LINE
  5
26D
100
AcDbEntity
  8
0
100
AcDbLine
 62
7
  6
CONTINUOUS
 10
324.2296681384
 20
504.2979361886
 11
324.2296681384
 21
497.2979361886
  0
LINE
  5
26E
100
AcDbEntity
  8
0
100
AcDbLine
 62
7
  6
CONTINUOUS
 10
321.1671681384
 20
498.1915531034
 11
320.4380013327
 21
498.0426169509
  0
LINE
  5
26F
100
AcDbEntity
  8
0
100
AcDbLine
 62
7
  6
CONTINUOUS
 10
319.7088349442
 20
503.4043191696
 11
320.4380013327
 21
503.553255322
  0
LINE
  5
270
100
AcDbEntity
  8
0
100
AcDbLine
 62
7
  6
CONTINUOUS
 10
320.4380013327
 20
497.2979361886
 11
321.3130013327
 21
497.4468723411
  0
LINE
  5
271
100
AcDbEntity
  8
0
100
AcDbLine
 62
7
  6
CONTINUOUS
 10
320.4380013327
 20
504.2979361886
 11
319.5630013327
 21
504.1490000231
  0
LINE
  5
272
100
AcDbEntity
  8
0
100
AcDbLine
 62
7
  6
CONTINUOUS
 10
390.1463345269
 20
503.553255322
 11
390.7296681384
 21
503.553255322
  0
LINE
  5
273
100
AcDbEntity
  8
0
100
AcDbLine
 62
7
  6
CONTINUOUS
 10
394.2296681384
 20
503.553255322
 11
398.313001437
 21
503.553255322
  0
LINE
  5
274
100
AcDbEntity
  8
0
100
AcDbLine
 62
7
  6
CONTINUOUS
 10
399.4796681384
 20
504.2979361886
 11
394.2296681384
 21
504.2979361886
  0
LINE
  5
275
100
AcDbEntity
  8
0
100
AcDbLine
 62
7
  6
CONTINUOUS
 10
390.8755017499
 20
504.2979361886
 11
390.0005017499
 21
504.2979361886
  0
LINE
  5
276
100
AcDbEntity
  8
0
100
AcDbLine
 62
7
  6
CONTINUOUS
 10
325.1046681384
 20
504.2979361886
 11
324.2296681384
 21
504.2979361886
  0
LINE
  5
277
100
AcDbEntity
  8
RUNDUNGEN
100
AcDbLine
 62
7
  6
CONTINUOUS
 10
405.4796832962
 20
507.4979361886
 11
385.4797877271
 21
507.4979361886
  0
LINE
  5
278
100
AcDbEntity
  8
BEZUGSACHSEN
100
AcDbLine
 62
7
  6
CONTINUOUS
 10
309.4796529806
 20
507.4979361886
 11
329.4795485498
 21
507.4979361886
  0
LINE
  5
279
100
AcDbEntity
  8
0
100
AcDbLine
 62
7
  6
CONTINUOUS
 10
283.4796681384
 20
513.2979361886
 11
431.4796681384
 21
513.2979361886
  0
LINE
  5
27A
100
AcDbEntity
  8
0
100
AcDbLine
 62
7
  6
CONTINUOUS
 10
395.5421681384
 20
497.4468723411
 11
396.4171681384
 21
497.2979361886
  0
LINE
  5
27B
100
AcDbEntity
  8
0
100
AcDbLine
 62
7
  6
CONTINUOUS
 10
389.4171681384
 20
497.4468723411
 11
390.1463345269
 21
497.2979361886
  0
LINE
  5
27C
100
AcDbEntity
  8
0
100
AcDbLine
 62
7
  6
CONTINUOUS
 10
396.5630015413
 20
498.0426169509
 11
395.8338349442
 21
498.1915531034
  0
LINE
  5
27D
100
AcDbEntity
  8
0
100
AcDbLine
 62
7
  6
CONTINUOUS
 10
391.6046681384
 20
504.1490000231
 11
390.8755017499
 21
504.2979361886
  0
LINE
  5
27E
100
AcDbEntity
  8
0
100
AcDbLine
 62
7
  6
CONTINUOUS
 10
390.1463345269
 20
498.0426169509
 11
389.5630017499
 21
498.1915531034
  0
LINE
  5
27F
100
AcDbEntity
  8
0
100
AcDbLine
 62
7
  6
CONTINUOUS
 10
390.7296681384
 20
500.4255958075
 11
391.3130017499
 21
500.276659655
  0
LINE
  5
280
100
AcDbEntity
  8
0
100
AcDbLine
 62
7
  6
CONTINUOUS
 10
390.1463345269
 20
501.0213404173
 11
389.5630017499
 21
501.1702765698
  0
LINE
  5
281
100
AcDbEntity
  8
0
100
AcDbLine
 62
7
  6
CONTINUOUS
 10
390.7296681384
 20
503.553255322
 11
391.3130017499
 21
503.4043191696
  0
LINE
  5
282
100
AcDbEntity
  8
0
100
AcDbLine
 62
7
  6
CONTINUOUS
 10
307.9796681384
 20
592.2362340743
 11
308.1255014761
 21
591.7894255126
  0
LINE
  5
283
100
AcDbEntity
  8
0
100
AcDbLine
 62
7
  6
CONTINUOUS
 10
323.0630015413
 20
501.4681488747
 11
322.9171681384
 21
502.2128298456
  0
LINE
  5
284
100
AcDbEntity
  8
0
100
AcDbLine
 62
7
  6
CONTINUOUS
 10
322.1880013327
 20
502.2128298456
 11
322.3338349442
 21
501.3192127222
  0
LINE
  5
285
100
AcDbEntity
  8
0
100
AcDbLine
 62
7
  6
CONTINUOUS
 10
324.6046681384
 20
592.9809148366
 11
324.6046681384
 21
592.6830425317
  0
LINE
  5
286
100
AcDbEntity
  8
0
100
AcDbLine
 62
7
  6
CONTINUOUS
 10
325.0421681384
 20
596.8532554263
 11
325.0421681384
 21
597.5979361886
  0
LINE
  5
287
100
AcDbEntity
  8
0
100
AcDbLine
 62
7
  6
CONTINUOUS
 10
325.1046681384
 20
498.4894254083
 11
325.1046681384
 21
504.2979361886
  0
LINE
  5
288
100
AcDbEntity
  8
0
100
AcDbLine
 62
7
  6
CONTINUOUS
 10
325.3338353614
 20
592.5341063792
 11
325.3338353614
 21
593.129850989
  0
LINE
  5
289
100
AcDbEntity
  8
0
100
AcDbLine
 62
7
  6
CONTINUOUS
 10
325.9796681384
 20
498.3404892558
 11
325.9796681384
 21
499.5319788927
  0
LINE
  5
28A
100
AcDbEntity
  8
0
100
AcDbLine
 62
7
  6
CONTINUOUS
 10
326.5005009155
 20
595.3638934845
 11
326.5005009155
 21
594.7681488747
  0
LINE
  5
28B
100
AcDbEntity
  8
0
100
AcDbLine
 62
7
  6
CONTINUOUS
 10
327.6671681384
 20
596.5553831214
 11
327.6671681384
 21
595.3638934845
  0
LINE
  5
28C
100
AcDbEntity
  8
0
100
AcDbLine
 62
7
  6
CONTINUOUS
 10
327.6671681384
 20
594.7681488747
 11
327.6671681384
 21
591.7894255126
  0
LINE
  5
28D
100
AcDbEntity
  8
0
100
AcDbLine
 62
7
  6
CONTINUOUS
 10
328.3963353614
 20
592.0872979218
 11
328.3963353614
 21
594.7681488747
  0
LINE
  5
28E
100
AcDbEntity
  8
0
100
AcDbLine
 62
7
  6
CONTINUOUS
 10
328.3963353614
 20
595.3638934845
 11
328.3963353614
 21
596.5553831214
  0
LINE
  5
28F
100
AcDbEntity
  8
0
100
AcDbLine
 62
7
  6
CONTINUOUS
 10
329.7088353614
 20
590.5979361886
 11
329.7088353614
 21
591.1936808506
  0
LINE
  5
290
100
AcDbEntity
  8
0
100
AcDbLine
 62
7
  6
CONTINUOUS
 10
330.0005009155
 20
594.7681488747
 11
330.0005009155
 21
595.3638934845
  0
LINE
  5
291
100
AcDbEntity
  8
BEZUGSACHSEN
100
AcDbLine
 62
7
  6
CONTINUOUS
 10
333.4796681384
 20
596.8979427544
 11
333.4796681384
 21
590.8979319366
  0
LINE
  5
292
100
AcDbEntity
  8
BEZUGSACHSEN
100
AcDbLine
 62
7
  6
CONTINUOUS
 10
333.4796681384
 20
503.4979405259
 11
333.4796681384
 21
497.4979296096
  0
LINE
  5
293
100
AcDbEntity
  8
0
100
AcDbLine
 62
7
  6
CONTINUOUS
 10
318.5421681384
 20
501.3192127222
 11
318.6880017499
 21
502.2128298456
  0
LINE
  5
294
100
AcDbEntity
  8
0
100
AcDbLine
 62
7
  6
CONTINUOUS
 10
322.3338349442
 20
500.276659655
 11
322.1880013327
 21
499.3830427403
  0
LINE
  5
295
100
AcDbEntity
  8
0
100
AcDbLine
 62
7
  6
CONTINUOUS
 10
317.9588345269
 20
502.2128298456
 11
317.8130017499
 21
501.4681488747
  0
LINE
  5
296
100
AcDbEntity
  8
0
100
AcDbLine
 62
7
  6
CONTINUOUS
 10
322.9171681384
 20
499.3830427403
 11
323.0630015413
 21
500.1277235026
  0
LINE
  5
297
100
AcDbEntity
  8
0
100
AcDbLine
 62
7
  6
CONTINUOUS
 10
318.1046681384
 20
502.659638303
 11
317.9588345269
 21
502.2128298456
  0
LINE
  5
298
100
AcDbEntity
  8
0
100
AcDbLine
 62
7
  6
CONTINUOUS
 10
283.4796681384
 20
513.2979361886
 11
287.4796681384
 21
517.2979361886
  0
LINE
  5
299
100
AcDbEntity
  8
BEZUGSACHSEN
100
AcDbLine
 62
7
  6
CONTINUOUS
 10
427.4796681384
 20
517.2979361886
 11
287.4796681384
 21
517.2979361886
  0
LINE
  5
29A
100
AcDbEntity
  8
0
100
AcDbLine
 62
7
  6
CONTINUOUS
 10
287.4796681384
 20
517.2979361886
 11
427.4796681384
 21
517.2979361886
  0
LINE
  5
29B
100
AcDbEntity
  8
BEZUGSACHSEN
100
AcDbLine
 62
7
  6
CONTINUOUS
 10
427.4796681384
 20
519.2979361886
 11
287.4796681384
 21
519.2979361886
  0
LINE
  5
29C
100
AcDbEntity
  8
0
100
AcDbLine
 62
7
  6
CONTINUOUS
 10
286.4796681384
 20
519.5979361886
 11
428.4796681384
 21
519.5979361886
  0
LINE
  5
29D
100
AcDbEntity
  8
0
100
AcDbLine
 62
7
  6
CONTINUOUS
 10
365.5101983818
 20
522.4807789011
 11
349.4491461006
 21
522.4807789011
  0
LINE
  5
29E
100
AcDbEntity
  8
0
100
AcDbLine
 62
7
  6
CONTINUOUS
 10
431.4796681384
 20
522.5979361886
 11
367.7623666049
 21
522.5979347117
  0
LINE
  5
29F
100
AcDbEntity
  8
0
100
AcDbLine
 62
7
  6
CONTINUOUS
 10
283.4796681384
 20
522.5979361886
 11
347.196969672
 21
522.5979347117
  0
LINE
  5
2A0
100
AcDbEntity
  8
RUNDUNGEN
100
AcDbLine
 62
7
  6
CONTINUOUS
 10
365.4796681384
 20
522.5979361886
 11
349.4796681384
 21
522.5979361886
  0
LINE
  5
2A1
100
AcDbEntity
  8
BEZUGSACHSEN
100
AcDbLine
 62
7
  6
CONTINUOUS
 10
349.4797662537
 20
522.5979361886
 11
365.4795700232
 21
522.5979361886
  0
LINE
  5
2A2
100
AcDbEntity
  8
0
100
AcDbLine
 62
7
  6
CONTINUOUS
 10
388.6880017499
 20
500.8724042649
 11
388.9796681384
 21
500.7234681124
  0
LINE
  5
2A3
100
AcDbEntity
  8
0
100
AcDbLine
 62
7
  6
CONTINUOUS
 10
394.9588349442
 20
497.744744646
 11
395.5421681384
 21
497.4468723411
  0
LINE
  5
2A4
100
AcDbEntity
  8
0
100
AcDbLine
 62
7
  6
CONTINUOUS
 10
389.5630017499
 20
501.1702765698
 11
388.9796681384
 21
501.4681488747
  0
LINE
  5
2A5
100
AcDbEntity
  8
0
100
AcDbLine
 62
7
  6
CONTINUOUS
 10
392.1880017499
 20
500.5745319599
 11
391.8963345269
 21
500.7234681124
  0
LINE
  5
2A6
100
AcDbEntity
  8
0
100
AcDbLine
 62
7
  6
CONTINUOUS
 10
391.3130017499
 20
503.4043191696
 11
391.8963345269
 21
503.1064468647
  0
LINE
  5
2A7
100
AcDbEntity
  8
0
100
AcDbLine
 62
7
  6
CONTINUOUS
 10
388.6880017499
 20
497.8936807985
 11
389.4171681384
 21
497.4468723411
  0
LINE
  5
2A8
100
AcDbEntity
  8
0
100
AcDbLine
 62
7
  6
CONTINUOUS
 10
308.8546681384
 20
591.9383617694
 11
308.7088347877
 21
592.2362340743
  0
LINE
  5
2A9
100
AcDbEntity
  8
0
100
AcDbLine
 62
7
  6
CONTINUOUS
 10
313.2296681384
 20
592.8319786841
 11
313.0838349442
 21
593.4277235026
  0
LINE
  5
2AA
100
AcDbEntity
  8
0
100
AcDbLine
 62
7
  6
CONTINUOUS
 10
313.0838349442
 20
595.9596385116
 11
312.9380013327
 21
596.5553831214
  0
LINE
  5
2AB
100
AcDbEntity
  8
BEZUGSACHSEN
100
AcDbLine
 62
7
  6
CONTINUOUS
 10
341.7296681384
 20
402.6263141904
 11
341.7296681384
 21
469.7477197029
  0
LINE
  5
2AC
100
AcDbEntity
  8
BEZUGSACHSEN
100
AcDbLine
 62
7
  6
CONTINUOUS
 10
341.7296681384
 20
624.6481529898
 11
341.7296681384
 21
691.7694511559
  0
LINE
  5
2AD
100
AcDbEntity
  8
BEZUGSACHSEN
100
AcDbLine
 62
7
  6
CONTINUOUS
 10
343.4796681384
 20
569.5979400541
 11
343.4796681384
 21
528.5979445754
  0
LINE
  5
2AE
100
AcDbEntity
  8
0
100
AcDbLine
 62
7
  6
CONTINUOUS
 10
322.7713347356
 20
498.9362338657
 11
322.9171681384
 21
499.3830427403
  0
LINE
  5
2AF
100
AcDbEntity
  8
0
100
AcDbLine
 62
7
  6
CONTINUOUS
 10
318.3963345269
 20
503.2553830171
 11
318.1046681384
 21
502.659638303
  0
LINE
  5
2B0
100
AcDbEntity
  8
0
100
AcDbLine
 62
7
  6
CONTINUOUS
 10
392.3338345269
 20
503.7021915266
 11
391.6046681384
 21
504.1490000231
  0
LINE
  5
2B1
100
AcDbEntity
  8
0
100
AcDbLine
 62
7
  6
CONTINUOUS
 10
395.8338349442
 20
498.1915531034
 11
395.3963349442
 21
498.4894254083
  0
LINE
  5
2B2
100
AcDbEntity
  8
0
100
AcDbLine
 62
7
  6
CONTINUOUS
 10
389.5630017499
 20
498.1915531034
 11
388.9796681384
 21
498.6383615608
  0
LINE
  5
2B3
100
AcDbEntity
  8
0
100
AcDbLine
 62
7
  6
CONTINUOUS
 10
388.1046681384
 20
501.3192127222
 11
388.6880017499
 21
500.8724042649
  0
LINE
  5
2B4
100
AcDbEntity
  8
0
100
AcDbLine
 62
7
  6
CONTINUOUS
 10
391.3130017499
 20
500.276659655
 11
391.8963345269
 21
499.8298511977
  0
LINE
  5
2B5
100
AcDbEntity
  8
0
100
AcDbLine
 62
7
  6
CONTINUOUS
 10
388.2505017499
 20
498.3404892558
 11
388.6880017499
 21
497.8936807985
  0
LINE
  5
2B6
100
AcDbEntity
  8
0
100
AcDbLine
 62
7
  6
CONTINUOUS
 10
308.1255014761
 20
591.7894255126
 11
308.4171681384
 21
591.3426170552
  0
LINE
  5
2B7
100
AcDbEntity
  8
0
100
AcDbLine
 62
7
  6
CONTINUOUS
 10
313.0838349442
 20
593.4277235026
 11
312.7921681384
 21
593.8745319599
  0
LINE
  5
2B8
100
AcDbEntity
  8
0
100
AcDbLine
 62
7
  6
CONTINUOUS
 10
312.0630013327
 20
596.406446969
 11
312.3546681384
 21
595.9596385116
  0
LINE
  5
2B9
100
AcDbEntity
  8
0
100
AcDbLine
 62
7
  6
CONTINUOUS
 10
312.2088349442
 20
593.4277235026
 11
312.5005013327
 21
592.8319786841
  0
LINE
  5
2BA
100
AcDbEntity
  8
0
100
AcDbLine
 62
7
  6
CONTINUOUS
 10
320.0838345269
 20
592.3851702267
 11
320.3755017499
 21
591.7894255126
  0
LINE
  5
2BB
100
AcDbEntity
  8
0
100
AcDbLine
 62
7
  6
CONTINUOUS
 10
321.2505017499
 20
591.7894255126
 11
320.9588345269
 21
592.3851702267
  0
LINE
  5
2BC
100
AcDbEntity
  8
0
100
AcDbLine
 62
7
  6
CONTINUOUS
 10
325.3338353614
 20
593.129850989
 11
325.0421681384
 21
593.8745319599
  0
LINE
  5
2BD
100
AcDbEntity
  8
0
100
AcDbLine
 62
7
  6
CONTINUOUS
 10
324.4588353614
 20
593.4277235026
 11
324.6046681384
 21
592.9809148366
  0
LINE
  5
2BE
100
AcDbEntity
  8
0
100
AcDbLine
 62
7
  6
CONTINUOUS
 10
328.5421681384
 20
591.6404893601
 11
328.3963353614
 21
592.0872979218
  0
LINE
  5
2BF
100
AcDbEntity
  8
0
100
AcDbLine
 62
7
  6
CONTINUOUS
 10
322.4796681384
 20
498.3404892558
 11
322.7713347356
 21
498.9362338657
  0
LINE
  5
2C0
100
AcDbEntity
  8
0
100
AcDbLine
 62
7
  6
CONTINUOUS
 10
318.6880017499
 20
502.2128298456
 11
319.2713349442
 21
503.1064468647
  0
LINE
  5
2C1
100
AcDbEntity
  8
0
100
AcDbLine
 62
7
  6
CONTINUOUS
 10
322.1880013327
 20
499.3830427403
 11
321.6046681384
 21
498.4894254083
  0
LINE
  5
2C2
100
AcDbEntity
  8
0
100
AcDbLine
 62
7
  6
CONTINUOUS
 10
398.5630013327
 20
603.3638934845
 11
396.9588347356
 21
601.4277235026
  0
LINE
  5
2C3
100
AcDbEntity
  8
0
100
AcDbLine
 62
7
  6
CONTINUOUS
 10
395.3546681384
 20
598.5979361886
 11
396.9588347356
 21
600.5341063792
  0
LINE
  5
2C4
100
AcDbEntity
  8
0
100
AcDbLine
 62
7
  6
CONTINUOUS
 10
404.6880017499
 20
603.3638934845
 11
403.0838345269
 21
601.4277235026
  0
LINE
  5
2C5
100
AcDbEntity
  8
0
100
AcDbLine
 62
7
  6
CONTINUOUS
 10
401.4796681384
 20
598.5979361886
 11
403.0838345269
 21
600.5341063792
  0
LINE
  5
2C6
100
AcDbEntity
  8
0
100
AcDbLine
 62
7
  6
CONTINUOUS
 10
396.5213347356
 20
600.9809148366
 11
394.4796681384
 21
598.5979361886
  0
LINE
  5
2C7
100
AcDbEntity
  8
0
100
AcDbLine
 62
7
  6
CONTINUOUS
 10
397.3963347356
 20
600.9809148366
 11
399.4380013327
 21
603.3638934845
  0
LINE
  5
2C8
100
AcDbEntity
  8
0
100
AcDbLine
 62
7
  6
CONTINUOUS
 10
402.6463345269
 20
600.9809148366
 11
400.6046681384
 21
598.5979361886
  0
LINE
  5
2C9
100
AcDbEntity
  8
0
100
AcDbLine
 62
7
  6
CONTINUOUS
 10
403.5213345269
 20
600.9809148366
 11
405.5630017499
 21
603.3638934845
  0
LINE
  5
2CA
100
AcDbEntity
  8
0
100
AcDbLine
 62
7
  6
CONTINUOUS
 10
394.3755013327
 20
498.3404892558
 11
394.9588349442
 21
497.744744646
  0
LINE
  5
2CB
100
AcDbEntity
  8
0
100
AcDbLine
 62
7
  6
CONTINUOUS
 10
392.6255013327
 20
500.1277235026
 11
392.1880017499
 21
500.5745319599
  0
LINE
  5
2CC
100
AcDbEntity
  8
0
100
AcDbLine
 62
7
  6
CONTINUOUS
 10
392.7713349442
 20
503.2553830171
 11
392.3338345269
 21
503.7021915266
  0
LINE
  5
2CD
100
AcDbEntity
  8
0
100
AcDbLine
 62
7
  6
CONTINUOUS
 10
309.1463348399
 20
591.6404893601
 11
308.8546681384
 21
591.9383617694
  0
LINE
  5
2CE
100
AcDbEntity
  8
0
100
AcDbLine
 62
7
  6
CONTINUOUS
 10
320.3755017499
 20
591.7894255126
 11
320.8130017499
 21
591.1936808506
  0
LINE
  5
2CF
100
AcDbEntity
  8
0
100
AcDbLine
 62
7
  6
CONTINUOUS
 10
388.9796681384
 20
501.4681488747
 11
388.5421681384
 21
502.0638936931
  0
LINE
  5
2D0
100
AcDbEntity
  8
0
100
AcDbLine
 62
7
  6
CONTINUOUS
 10
325.0421681384
 20
593.8745319599
 11
324.6046681384
 21
594.4702765698
  0
LINE
  5
2D1
100
AcDbEntity
  8
0
100
AcDbLine
 62
7
  6
CONTINUOUS
 10
324.1671681384
 20
593.8745319599
 11
324.4588353614
 21
593.4277235026
  0
LINE
  5
2D2
100
AcDbEntity
  8
0
100
AcDbLine
 62
7
  6
CONTINUOUS
 10
388.9796681384
 20
498.6383615608
 11
388.6880017499
 21
499.0851704354
  0
LINE
  5
2D3
100
AcDbEntity
  8
0
100
AcDbLine
 62
7
  6
CONTINUOUS
 10
327.6671681384
 20
591.7894255126
 11
327.9588353614
 21
591.1936808506
  0
LINE
  5
2D4
100
AcDbEntity
  8
0
100
AcDbLine
 62
7
  6
CONTINUOUS
 10
325.9796681384
 20
499.5319788927
 11
325.1046681384
 21
498.4894254083
  0
LINE
  5
2D5
100
AcDbEntity
  8
0
100
AcDbLine
 62
7
  6
CONTINUOUS
 10
325.1046681384
 20
497.2979361886
 11
325.9796681384
 21
498.3404892558
  0
LINE
  5
2D6
100
AcDbEntity
  8
0
100
AcDbLine
 62
7
  6
CONTINUOUS
 10
318.8338345269
 20
503.7021915266
 11
318.3963345269
 21
503.2553830171
  0
LINE
  5
2D7
100
AcDbEntity
  8
0
100
AcDbLine
 62
7
  6
CONTINUOUS
 10
322.0421681384
 20
497.8936807985
 11
322.4796681384
 21
498.3404892558
  0
LINE
  5
2D8
100
AcDbEntity
  8
0
100
AcDbLine
 62
7
  6
CONTINUOUS
 10
308.4171681384
 20
591.3426170552
 11
308.8546681384
 21
591.0447446982
  0
LINE
  5
2D9
100
AcDbEntity
  8
0
100
AcDbLine
 62
7
  6
CONTINUOUS
 10
311.7713349442
 20
593.7255958075
 11
312.2088349442
 21
593.4277235026
  0
LINE
  5
2DA
100
AcDbEntity
  8
0
100
AcDbLine
 62
7
  6
CONTINUOUS
 10
312.9380013327
 20
596.5553831214
 11
312.3546681384
 21
597.1511277313
  0
LINE
  5
2DB
100
AcDbEntity
  8
0
100
AcDbLine
 62
7
  6
CONTINUOUS
 10
391.8963345269
 20
503.1064468647
 11
392.3338345269
 21
502.5107021505
  0
LINE
  5
2DC
100
AcDbEntity
  8
0
100
AcDbLine
 62
7
  6
CONTINUOUS
 10
391.8963345269
 20
499.8298511977
 11
392.1880017499
 21
499.3830427403
  0
LINE
  5
2DD
100
AcDbEntity
  8
0
100
AcDbLine
 62
7
  6
CONTINUOUS
 10
395.3963349442
 20
498.4894254083
 11
395.1046681384
 21
498.9362338657
  0
LINE
  5
2DE
100
AcDbEntity
  8
0
100
AcDbLine
 62
7
  6
CONTINUOUS
 10
392.9171681384
 20
499.5319788927
 11
392.6255013327
 21
500.1277235026
  0
LINE
  5
2DF
100
AcDbEntity
  8
0
100
AcDbLine
 62
7
  6
CONTINUOUS
 10
387.9588345269
 20
499.0851704354
 11
388.2505017499
 21
498.3404892558
  0
LINE
  5
2E0
100
AcDbEntity
  8
0
100
AcDbLine
 62
7
  6
CONTINUOUS
 10
387.8130017499
 20
502.0638936931
 11
388.1046681384
 21
501.3192127222
  0
LINE
  5
2E1
100
AcDbEntity
  8
RUNDUNGEN
100
AcDbLine
 62
7
  6
CONTINUOUS
 10
371.4796681384
 20
569.5979400541
 11
371.4796681384
 21
528.5979445754
  0
LINE
  5
2E2
100
AcDbEntity
  8
RUNDUNGEN
100
AcDbLine
 62
7
  6
CONTINUOUS
 10
373.2296681384
 20
402.6263141904
 11
373.2296681384
 21
469.7477197029
  0
LINE
  5
2E3
100
AcDbEntity
  8
RUNDUNGEN
100
AcDbLine
 62
7
  6
CONTINUOUS
 10
373.2296681384
 20
624.6481529898
 11
373.2296681384
 21
691.7694511559
  0
LINE
  5
2E4
100
AcDbEntity
  8
RUNDUNGEN
100
AcDbLine
 62
7
  6
CONTINUOUS
 10
379.4796681384
 20
587.8979308479
 11
379.4796681384
 21
594.8979601383
  0
LINE
  5
2E5
100
AcDbEntity
  8
RUNDUNGEN
100
AcDbLine
 62
7
  6
CONTINUOUS
 10
381.4796681384
 20
503.4979361886
 11
381.4796681384
 21
497.4979361886
  0
LINE
  5
2E6
100
AcDbEntity
  8
0
100
AcDbLine
 62
7
  6
CONTINUOUS
 10
319.2713349442
 20
503.1064468647
 11
319.7088349442
 21
503.4043191696
  0
LINE
  5
2E7
100
AcDbEntity
  8
0
100
AcDbLine
 62
7
  6
CONTINUOUS
 10
321.6046681384
 20
498.4894254083
 11
321.1671681384
 21
498.1915531034
  0
LINE
  5
2E8
100
AcDbEntity
  8
0
100
AcDbLine
 62
7
  6
CONTINUOUS
 10
319.5630013327
 20
504.1490000231
 11
318.8338345269
 21
503.7021915266
  0
LINE
  5
2E9
100
AcDbEntity
  8
0
100
AcDbLine
 62
7
  6
CONTINUOUS
 10
321.3130013327
 20
497.4468723411
 11
322.0421681384
 21
497.8936807985
  0
LINE
  5
2EA
100
AcDbEntity
  8
0
100
AcDbLine
 62
7
  6
CONTINUOUS
 10
308.8546681384
 20
591.0447446982
 11
309.438001437
 21
590.7468723541
  0
LINE
  5
2EB
100
AcDbEntity
  8
0
100
AcDbLine
 62
7
  6
CONTINUOUS
 10
309.438001437
 20
591.4915532077
 11
309.1463348399
 21
591.6404893601
  0
LINE
  5
2EC
100
AcDbEntity
  8
0
100
AcDbLine
 62
7
  6
CONTINUOUS
 10
312.3546681384
 20
597.1511277313
 11
311.7713349442
 21
597.4490000362
  0
LINE
  5
2ED
100
AcDbEntity
  8
0
100
AcDbLine
 62
7
  6
CONTINUOUS
 10
320.8130017499
 20
591.1936808506
 11
321.5421681384
 21
590.7468723541
  0
LINE
  5
2EE
100
AcDbEntity
  8
0
100
AcDbLine
 62
7
  6
CONTINUOUS
 10
324.6046681384
 20
594.4702765698
 11
323.8755009155
 21
594.9170850272
  0
LINE
  5
2EF
100
AcDbEntity
  8
0
100
AcDbLine
 62
7
  6
CONTINUOUS
 10
311.6255013327
 20
596.7043192739
 11
312.0630013327
 21
596.406446969
  0
LINE
  5
2F0
100
AcDbEntity
  8
0
100
AcDbLine
 62
7
  6
CONTINUOUS
 10
321.6880017499
 20
591.4915532077
 11
321.2505017499
 21
591.7894255126
  0
LINE
  5
2F1
100
AcDbEntity
  8
0
100
AcDbLine
 62
7
  6
CONTINUOUS
 10
327.9588353614
 20
591.1936808506
 11
328.3963353614
 21
590.8958085196
  0
LINE
  5
2F2
100
AcDbEntity
  8
0
100
AcDbLine
 62
7
  6
CONTINUOUS
 10
323.7296681384
 20
594.1724042649
 11
324.1671681384
 21
593.8745319599
  0
LINE
  5
2F3
100
AcDbEntity
  8
0
100
AcDbLine
 62
7
  6
CONTINUOUS
 10
328.9796681384
 20
591.3426170552
 11
328.5421681384
 21
591.6404893601
  0
LINE
  5
2F4
100
AcDbEntity
  8
0
100
AcDbLine
 62
7
  6
CONTINUOUS
 10
393.0630013327
 20
502.5107021505
 11
392.7713349442
 21
503.2553830171
  0
LINE
  5
2F5
100
AcDbEntity
  8
0
100
AcDbLine
 62
7
  6
CONTINUOUS
 10
394.2296681384
 20
498.9362338657
 11
394.3755013327
 21
498.3404892558
  0
LINE
  5
2F6
100
AcDbEntity
  8
0
100
AcDbLine
 62
7
  6
CONTINUOUS
 10
387.8130017499
 20
502.5107021505
 11
387.8130017499
 21
502.0638936931
  0
LINE
  5
2F7
100
AcDbEntity
  8
0
100
AcDbLine
 62
7
  6
CONTINUOUS
 10
387.9588345269
 20
499.5319788927
 11
387.9588345269
 21
499.0851704354
  0
LINE
  5
2F8
100
AcDbEntity
  8
0
100
AcDbLine
 62
7
  6
CONTINUOUS
 10
388.5421681384
 20
502.0638936931
 11
388.5421681384
 21
502.5107021505
  0
LINE
  5
2F9
100
AcDbEntity
  8
0
100
AcDbLine
 62
7
  6
CONTINUOUS
 10
388.6880017499
 20
499.0851704354
 11
388.6880017499
 21
499.3830427403
  0
LINE
  5
2FA
100
AcDbEntity
  8
RUNDUNGEN
100
AcDbLine
 62
7
  6
CONTINUOUS
 10
391.4796681384
 20
600.8979361886
 11
391.4796681384
 21
603.8979361886
  0
LINE
  5
2FB
100
AcDbEntity
  8
0
100
AcDbLine
 62
7
  6
CONTINUOUS
 10
392.1880017499
 20
499.3830427403
 11
392.1880017499
 21
499.0851704354
  0
LINE
  5
2FC
100
AcDbEntity
  8
0
100
AcDbLine
 62
7
  6
CONTINUOUS
 10
392.3338345269
 20
502.5107021505
 11
392.3338345269
 21
502.0638936931
  0
LINE
  5
2FD
100
AcDbEntity
  8
0
100
AcDbLine
 62
7
  6
CONTINUOUS
 10
392.9171681384
 20
499.0851704354
 11
392.9171681384
 21
499.5319788927
  0
LINE
  5
2FE
100
AcDbEntity
  8
0
100
AcDbLine
 62
7
  6
CONTINUOUS
 10
393.0630013327
 20
502.0638936931
 11
393.0630013327
 21
502.5107021505
  0
LINE
  5
2FF
100
AcDbEntity
  8
BEZUGSACHSEN
100
AcDbLine
 62
7
  6
CONTINUOUS
 10
365.4795452178
 20
575.5979361886
 11
349.479791059
 21
575.5979361886
  0
LINE
  5
300
100
AcDbEntity
  8
0
100
AcDbLine
 62
7
  6
CONTINUOUS
 10
310.1671681384
 20
591.3426170552
 11
309.438001437
 21
591.4915532077
  0
LINE
  5
301
100
AcDbEntity
  8
0
100
AcDbLine
 62
7
  6
CONTINUOUS
 10
321.5421681384
 20
590.7468723541
 11
322.2713353614
 21
590.5979361886
  0
LINE
  5
302
100
AcDbEntity
  8
0
100
AcDbLine
 62
7
  6
CONTINUOUS
 10
309.438001437
 20
590.7468723541
 11
310.0213347356
 21
590.5979361886
  0
LINE
  5
303
100
AcDbEntity
  8
0
100
AcDbLine
 62
7
  6
CONTINUOUS
 10
322.2713353614
 20
591.3426170552
 11
321.6880017499
 21
591.4915532077
  0
LINE
  5
304
100
AcDbEntity
  8
0
100
AcDbLine
 62
7
  6
CONTINUOUS
 10
328.3963353614
 20
590.8958085196
 11
328.8338353614
 21
590.7468723541
  0
LINE
  5
305
100
AcDbEntity
  8
0
100
AcDbLine
 62
7
  6
CONTINUOUS
 10
312.7921681384
 20
593.8745319599
 11
312.0630013327
 21
594.1724042649
  0
LINE
  5
306
100
AcDbEntity
  8
0
100
AcDbLine
 62
7
  6
CONTINUOUS
 10
431.4796681384
 20
513.2979361886
 11
427.4796681384
 21
517.2979361886
  0
LINE
  5
307
100
AcDbEntity
  8
0
100
AcDbLine
 62
7
  6
CONTINUOUS
 10
394.2296681384
 20
504.2979361886
 11
394.2296681384
 21
503.553255322
  0
LINE
  5
308
100
AcDbEntity
  8
0
100
AcDbLine
 62
7
  6
CONTINUOUS
 10
394.2296681384
 20
499.2341065878
 11
394.2296681384
 21
498.9362338657
  0
LINE
  5
309
100
AcDbEntity
  8
0
100
AcDbLine
 62
7
  6
CONTINUOUS
 10
395.1046681384
 20
498.9362338657
 11
395.1046681384
 21
499.2341065878
  0
LINE
  5
30A
100
AcDbEntity
  8
0
100
AcDbLine
 62
7
  6
CONTINUOUS
 10
399.4796681384
 20
503.553255322
 11
399.4796681384
 21
504.2979361886
  0
LINE
  5
30B
100
AcDbEntity
  8
0
100
AcDbLine
 62
7
  6
CONTINUOUS
 10
394.3755013327
 20
499.8298511977
 11
394.2296681384
 21
499.2341065878
  0
LINE
  5
30C
100
AcDbEntity
  8
0
100
AcDbLine
 62
7
  6
CONTINUOUS
 10
388.1046681384
 20
503.2553830171
 11
387.8130017499
 21
502.5107021505
  0
LINE
  5
30D
100
AcDbEntity
  8
RUNDUNGEN
100
AcDbLine
 62
7
  6
CONTINUOUS
 10
406.4796681336
 20
584.8979361886
 11
382.4796681185
 21
584.8979361886
  0
LINE
  5
30E
100
AcDbEntity
  8
BEZUGSACHSEN
100
AcDbLine
 62
7
  6
CONTINUOUS
 10
329.4795533207
 20
586.8979361886
 11
309.4796526014
 21
586.8979361886
  0
LINE
  5
30F
100
AcDbEntity
  8
0
100
AcDbLine
 62
7
  6
CONTINUOUS
 10
317.3130017499
 20
589.7043191696
 11
318.0421681384
 21
589.7043191696
  0
LINE
  5
310
100
AcDbEntity
  8
0
100
AcDbLine
 62
7
  6
CONTINUOUS
 10
310.0213347356
 20
590.5979361886
 11
311.1880015413
 21
590.5979361886
  0
LINE
  5
311
100
AcDbEntity
  8
0
100
AcDbLine
 62
7
  6
CONTINUOUS
 10
315.2713345269
 20
590.5979361886
 11
316.1463345269
 21
590.5979361886
  0
LINE
  5
312
100
AcDbEntity
  8
0
100
AcDbLine
 62
7
  6
CONTINUOUS
 10
322.2713353614
 20
590.5979361886
 11
323.1463353614
 21
590.5979361886
  0
LINE
  5
313
100
AcDbEntity
  8
0
100
AcDbLine
 62
7
  6
CONTINUOUS
 10
323.1463353614
 20
591.3426170552
 11
322.2713353614
 21
591.3426170552
  0
LINE
  5
314
100
AcDbEntity
  8
0
100
AcDbLine
 62
7
  6
CONTINUOUS
 10
318.9171681384
 20
591.3426170552
 11
318.1880017499
 21
591.3426170552
  0
LINE
  5
315
100
AcDbEntity
  8
0
100
AcDbLine
 62
7
  6
CONTINUOUS
 10
311.0421681384
 20
591.3426170552
 11
310.1671681384
 21
591.3426170552
  0
LINE
  5
316
100
AcDbEntity
  8
0
100
AcDbLine
 62
7
  6
CONTINUOUS
 10
308.7088347877
 20
592.2362340743
 11
307.9796681384
 21
592.2362340743
  0
LINE
  5
317
100
AcDbEntity
  8
0
100
AcDbLine
 62
7
  6
CONTINUOUS
 10
320.9588345269
 20
592.3851702267
 11
320.0838345269
 21
592.3851702267
  0
LINE
  5
318
100
AcDbEntity
  8
0
100
AcDbLine
 62
7
  6
CONTINUOUS
 10
320.0838345269
 20
593.7255958075
 11
321.1046681384
 21
593.7255958075
  0
LINE
  5
319
100
AcDbEntity
  8
0
100
AcDbLine
 62
7
  6
CONTINUOUS
 10
310.3130015413
 20
593.8745319599
 11
310.8963347356
 21
593.8745319599
  0
LINE
  5
31A
100
AcDbEntity
  8
0
100
AcDbLine
 62
7
  6
CONTINUOUS
 10
322.2713353614
 20
594.3213404173
 11
323.1463353614
 21
594.3213404173
  0
LINE
  5
31B
100
AcDbEntity
  8
0
100
AcDbLine
 62
7
  6
CONTINUOUS
 10
310.8963347356
 20
594.4702765698
 11
310.3130015413
 21
594.4702765698
  0
LINE
  5
31C
100
AcDbEntity
  8
0
100
AcDbLine
 62
7
  6
CONTINUOUS
 10
311.7713349442
 20
597.4490000362
 11
310.7505015413
 21
597.5979361886
  0
LINE
  5
31D
100
AcDbEntity
  8
0
100
AcDbLine
 62
7
  6
CONTINUOUS
 10
328.8338353614
 20
590.7468723541
 11
329.7088353614
 21
590.5979361886
  0
LINE
  5
31E
100
AcDbEntity
  8
0
100
AcDbLine
 62
7
  6
CONTINUOUS
 10
310.8963347356
 20
593.8745319599
 11
311.7713349442
 21
593.7255958075
  0
LINE
  5
31F
100
AcDbEntity
  8
0
100
AcDbLine
 62
7
  6
CONTINUOUS
 10
329.7088353614
 20
591.1936808506
 11
328.9796681384
 21
591.3426170552
  0
LINE
  5
320
100
AcDbEntity
  8
0
100
AcDbLine
 62
7
  6
CONTINUOUS
 10
310.8963347356
 20
596.8532554263
 11
311.6255013327
 21
596.7043192739
  0
LINE
  5
321
100
AcDbEntity
  8
0
100
AcDbLine
 62
7
  6
CONTINUOUS
 10
323.8755009155
 20
594.9170850272
 11
323.1463353614
 21
595.0660211796
  0
LINE
  5
322
100
AcDbEntity
  8
0
100
AcDbLine
 62
7
  6
CONTINUOUS
 10
323.1463353614
 20
594.3213404173
 11
323.7296681384
 21
594.1724042649
  0
LINE
  5
323
100
AcDbEntity
  8
0
100
AcDbLine
 62
7
  6
CONTINUOUS
 10
399.1880014631
 20
498.3404892558
 11
399.3338348008
 21
498.9362338657
  0
LINE
  5
324
100
AcDbEntity
  8
0
100
AcDbLine
 62
7
  6
CONTINUOUS
 10
392.7713349442
 20
501.3192127222
 11
393.0630013327
 21
502.0638936931
  0
LINE
  5
325
100
AcDbEntity
  8
0
100
AcDbLine
 62
7
  6
CONTINUOUS
 10
392.6255013327
 20
498.3404892558
 11
392.9171681384
 21
499.0851704354
  0
LINE
  5
326
100
AcDbEntity
  8
0
100
AcDbLine
 62
7
  6
CONTINUOUS
 10
388.2505017499
 20
500.1277235026
 11
387.9588345269
 21
499.5319788927
  0
LINE
  5
327
100
AcDbEntity
  8
0
100
AcDbLine
 62
7
  6
CONTINUOUS
 10
395.1046681384
 20
499.2341065878
 11
395.3963349442
 21
499.8298511977
  0
LINE
  5
328
100
AcDbEntity
  8
0
100
AcDbLine
 62
7
  6
CONTINUOUS
 10
388.6880017499
 20
499.3830427403
 11
388.9796681384
 21
499.8298511977
  0
LINE
  5
329
100
AcDbEntity
  8
0
100
AcDbLine
 62
7
  6
CONTINUOUS
 10
392.1880017499
 20
499.0851704354
 11
391.8963345269
 21
498.6383615608
  0
LINE
  5
32A
100
AcDbEntity
  8
0
100
AcDbLine
 62
7
  6
CONTINUOUS
 10
394.6671681384
 20
500.276659655
 11
394.3755013327
 21
499.8298511977
  0
LINE
  5
32B
100
AcDbEntity
  8
0
100
AcDbLine
 62
7
  6
CONTINUOUS
 10
388.5421681384
 20
502.5107021505
 11
388.9796681384
 21
503.1064468647
  0
LINE
  5
32C
100
AcDbEntity
  8
0
100
AcDbLine
 62
7
  6
CONTINUOUS
 10
392.3338345269
 20
502.0638936931
 11
391.8963345269
 21
501.4681488747
  0
LINE
  5
32D
100
AcDbEntity
  8
0
100
AcDbLine
 62
7
  6
CONTINUOUS
 10
388.5421681384
 20
503.7021915266
 11
388.1046681384
 21
503.2553830171
  0
LINE
  5
32E
100
AcDbEntity
  8
0
100
AcDbLine
 62
7
  6
CONTINUOUS
 10
388.6880017499
 20
500.5745319599
 11
388.2505017499
 21
500.1277235026
  0
LINE
  5
32F
100
AcDbEntity
  8
0
100
AcDbLine
 62
7
  6
CONTINUOUS
 10
388.9796681384
 20
499.8298511977
 11
389.5630017499
 21
500.276659655
  0
LINE
  5
330
100
AcDbEntity
  8
0
100
AcDbLine
 62
7
  6
CONTINUOUS
 10
392.1880017499
 20
500.8724042649
 11
392.7713349442
 21
501.3192127222
  0
LINE
  5
331
100
AcDbEntity
  8
0
100
AcDbLine
 62
7
  6
CONTINUOUS
 10
389.2713345269
 20
504.1490000231
 11
388.5421681384
 21
503.7021915266
  0
LINE
  5
332
100
AcDbEntity
  8
0
100
AcDbLine
 62
7
  6
CONTINUOUS
 10
388.9796681384
 20
503.1064468647
 11
389.5630017499
 21
503.4043191696
  0
LINE
  5
333
100
AcDbEntity
  8
0
100
AcDbLine
 62
7
  6
CONTINUOUS
 10
388.9796681384
 20
500.7234681124
 11
388.6880017499
 21
500.5745319599
  0
LINE
  5
334
100
AcDbEntity
  8
0
100
AcDbLine
 62
7
  6
CONTINUOUS
 10
391.8963345269
 20
501.4681488747
 11
391.3130017499
 21
501.1702765698
  0
LINE
  5
335
100
AcDbEntity
  8
0
100
AcDbLine
 62
7
  6
CONTINUOUS
 10
391.8963345269
 20
500.7234681124
 11
392.1880017499
 21
500.8724042649
  0
LINE
  5
336
100
AcDbEntity
  8
0
100
AcDbLine
 62
7
  6
CONTINUOUS
 10
323.7296681384
 20
591.4915532077
 11
323.1463353614
 21
591.3426170552
  0
LINE
  5
337
100
AcDbEntity
  8
0
100
AcDbLine
 62
7
  6
CONTINUOUS
 10
311.1880015413
 20
590.5979361886
 11
311.7713349442
 21
590.7468723541
  0
LINE
  5
338
100
AcDbEntity
  8
0
100
AcDbLine
 62
7
  6
CONTINUOUS
 10
321.6880017499
 20
594.1724042649
 11
322.2713353614
 21
594.3213404173
  0
LINE
  5
339
100
AcDbEntity
  8
0
100
AcDbLine
 62
7
  6
CONTINUOUS
 10
323.1463353614
 20
590.5979361886
 11
323.8755009155
 21
590.7468723541
  0
LINE
  5
33A
100
AcDbEntity
  8
0
100
AcDbLine
 62
7
  6
CONTINUOUS
 10
311.7713349442
 20
591.4915532077
 11
311.0421681384
 21
591.3426170552
  0
LINE
  5
33B
100
AcDbEntity
  8
0
100
AcDbLine
 62
7
  6
CONTINUOUS
 10
322.2713353614
 20
595.0660211796
 11
321.5421681384
 21
594.9170850272
  0
LINE
  5
33C
100
AcDbEntity
  8
0
100
AcDbLine
 62
7
  6
CONTINUOUS
 10
309.5838348399
 20
596.7043192739
 11
310.3130015413
 21
596.8532554263
  0
LINE
  5
33D
100
AcDbEntity
  8
0
100
AcDbLine
 62
7
  6
CONTINUOUS
 10
310.4588347356
 20
597.5979361886
 11
309.438001437
 21
597.4490000362
  0
LINE
  5
33E
100
AcDbEntity
  8
0
100
AcDbLine
 62
7
  6
CONTINUOUS
 10
326.5005009155
 20
594.7681488747
 11
327.6671681384
 21
594.7681488747
  0
LINE
  5
33F
100
AcDbEntity
  8
0
100
AcDbLine
 62
7
  6
CONTINUOUS
 10
328.3963353614
 20
594.7681488747
 11
330.0005009155
 21
594.7681488747
  0
LINE
  5
340
100
AcDbEntity
  8
0
100
AcDbLine
 62
7
  6
CONTINUOUS
 10
323.1463353614
 20
595.0660211796
 11
322.2713353614
 21
595.0660211796
  0
LINE
  5
341
100
AcDbEntity
  8
0
100
AcDbLine
 62
7
  6
CONTINUOUS
 10
330.0005009155
 20
595.3638934845
 11
328.3963353614
 21
595.3638934845
  0
LINE
  5
342
100
AcDbEntity
  8
0
100
AcDbLine
 62
7
  6
CONTINUOUS
 10
327.6671681384
 20
595.3638934845
 11
326.5005009155
 21
595.3638934845
  0
LINE
  5
343
100
AcDbEntity
  8
0
100
AcDbLine
 62
7
  6
CONTINUOUS
 10
308.1255014761
 20
595.9596385116
 11
308.8546681384
 21
595.9596385116
  0
LINE
  5
344
100
AcDbEntity
  8
0
100
AcDbLine
 62
7
  6
CONTINUOUS
 10
328.3963353614
 20
596.5553831214
 11
327.6671681384
 21
596.5553831214
  0
LINE
  5
345
100
AcDbEntity
  8
0
100
AcDbLine
 62
7
  6
CONTINUOUS
 10
310.3130015413
 20
596.8532554263
 11
310.8963347356
 21
596.8532554263
  0
LINE
  5
346
100
AcDbEntity
  8
0
100
AcDbLine
 62
7
  6
CONTINUOUS
 10
320.8130017499
 20
596.8532554263
 11
325.0421681384
 21
596.8532554263
  0
LINE
  5
347
100
AcDbEntity
  8
0
100
AcDbLine
 62
7
  6
CONTINUOUS
 10
325.0421681384
 20
597.5979361886
 11
320.0838345269
 21
597.5979361886
  0
LINE
  5
348
100
AcDbEntity
  8
0
100
AcDbLine
 62
7
  6
CONTINUOUS
 10
316.1463345269
 20
597.5979361886
 11
315.2713345269
 21
597.5979361886
  0
LINE
  5
349
100
AcDbEntity
  8
0
100
AcDbLine
 62
7
  6
CONTINUOUS
 10
310.7505015413
 20
597.5979361886
 11
310.4588347356
 21
597.5979361886
  0
LINE
  5
34A
100
AcDbEntity
  8
RUNDUNGEN
100
AcDbLine
 62
7
  6
CONTINUOUS
 10
382.4796681191
 20
597.8979361886
 11
388.4796680965
 21
597.8979361886
  0
LINE
  5
34B
100
AcDbEntity
  8
0
100
AcDbLine
 62
7
  6
CONTINUOUS
 10
394.4796681384
 20
598.5979361886
 11
395.3546681384
 21
598.5979361886
  0
LINE
  5
34C
100
AcDbEntity
  8
0
100
AcDbLine
 62
7
  6
CONTINUOUS
 10
398.5630013327
 20
598.5979361886
 11
399.4380013327
 21
598.5979361886
  0
LINE
  5
34D
100
AcDbEntity
  8
0
100
AcDbLine
 62
7
  6
CONTINUOUS
 10
400.6046681384
 20
598.5979361886
 11
401.4796681384
 21
598.5979361886
  0
LINE
  5
34E
100
AcDbEntity
  8
0
100
AcDbLine
 62
7
  6
CONTINUOUS
 10
404.6880017499
 20
598.5979361886
 11
405.5630017499
 21
598.5979361886
  0
LINE
  5
34F
100
AcDbEntity
  8
BEZUGSACHSEN
100
AcDbLine
 62
7
  6
CONTINUOUS
 10
309.4796517998
 20
600.8979361886
 11
329.4795498133
 21
600.8979361886
  0
LINE
  5
350
100
AcDbEntity
  8
0
100
AcDbLine
 62
7
  6
CONTINUOUS
 10
405.5630017499
 20
603.3638934845
 11
404.6880017499
 21
603.3638934845
  0
LINE
  5
351
100
AcDbEntity
  8
0
100
AcDbLine
 62
7
  6
CONTINUOUS
 10
401.4796681384
 20
603.3638934845
 11
400.6046681384
 21
603.3638934845
  0
LINE
  5
352
100
AcDbEntity
  8
0
100
AcDbLine
 62
7
  6
CONTINUOUS
 10
399.4380013327
 20
603.3638934845
 11
398.5630013327
 21
603.3638934845
  0
LINE
  5
353
100
AcDbEntity
  8
0
100
AcDbLine
 62
7
  6
CONTINUOUS
 10
395.3546681384
 20
603.3638934845
 11
394.4796681384
 21
603.3638934845
  0
LINE
  5
354
100
AcDbEntity
  8
BEZUGSACHSEN
100
AcDbLine
 62
7
  6
CONTINUOUS
 10
427.4796681384
 20
519.2979361886
 11
427.4796681384
 21
517.2979361886
  0
LINE
  5
355
100
AcDbEntity
  8
0
100
AcDbLine
 62
7
  6
CONTINUOUS
 10
398.6046681384
 20
498.9362338657
 11
398.313001437
 21
498.4894254083
  0
LINE
  5
356
100
AcDbEntity
  8
0
100
AcDbLine
 62
7
  6
CONTINUOUS
 10
392.1880017499
 20
497.8936807985
 11
392.6255013327
 21
498.3404892558
  0
LINE
  5
357
100
AcDbEntity
  8
0
100
AcDbLine
 62
7
  6
CONTINUOUS
 10
398.6046681384
 20
497.744744646
 11
399.1880014631
 21
498.3404892558
  0
LINE
  5
358
100
AcDbEntity
  8
0
100
AcDbLine
 62
7
  6
CONTINUOUS
 10
431.4796681384
 20
522.5979361886
 11
428.4796681384
 21
519.5979361886
  0
LINE
  5
359
100
AcDbEntity
  8
0
100
AcDbLine
 62
7
  6
CONTINUOUS
 10
395.3963349442
 20
499.8298511977
 11
399.4796681384
 21
503.553255322
  0
LINE
  5
35A
100
AcDbEntity
  8
0
100
AcDbLine
 62
7
  6
CONTINUOUS
 10
398.313001437
 20
503.553255322
 11
394.6671681384
 21
500.276659655
  0
LINE
  5
35B
100
AcDbEntity
  8
0
100
AcDbLine
 62
7
  6
CONTINUOUS
 10
391.8963345269
 20
498.6383615608
 11
391.3130017499
 21
498.1915531034
  0
LINE
  5
35C
100
AcDbEntity
  8
0
100
AcDbLine
 62
7
  6
CONTINUOUS
 10
398.313001437
 20
498.4894254083
 11
397.875501437
 21
498.1915531034
  0
LINE
  5
35D
100
AcDbEntity
  8
0
100
AcDbLine
 62
7
  6
CONTINUOUS
 10
391.4588345269
 20
497.4468723411
 11
392.1880017499
 21
497.8936807985
  0
LINE
  5
35E
100
AcDbEntity
  8
0
100
AcDbLine
 62
7
  6
CONTINUOUS
 10
398.0213348399
 20
497.4468723411
 11
398.6046681384
 21
497.744744646
  0
LINE
  5
35F
100
AcDbEntity
  8
RUNDUNGEN
100
AcDbLine
 62
7
  6
CONTINUOUS
 10
406.4796677173
 20
606.8979361886
 11
402.6018094194
 21
606.8979361886
  0
LINE
  5
360
100
AcDbEntity
  8
0
100
AcDbLine
 62
7
  6
CONTINUOUS
 10
394.4796681384
 20
603.3638934845
 11
396.5213347356
 21
600.9809148366
  0
LINE
  5
361
100
AcDbEntity
  8
0
100
AcDbLine
 62
7
  6
CONTINUOUS
 10
399.4380013327
 20
598.5979361886
 11
397.3963347356
 21
600.9809148366
  0
LINE
  5
362
100
AcDbEntity
  8
0
100
AcDbLine
 62
7
  6
CONTINUOUS
 10
400.6046681384
 20
603.3638934845
 11
402.6463345269
 21
600.9809148366
  0
LINE
  5
363
100
AcDbEntity
  8
0
100
AcDbLine
 62
7
  6
CONTINUOUS
 10
405.5630017499
 20
598.5979361886
 11
403.5213345269
 21
600.9809148366
  0
LINE
  5
364
100
AcDbEntity
  8
0
100
AcDbLine
 62
7
  6
CONTINUOUS
 10
396.9588347356
 20
600.5341063792
 11
398.5630013327
 21
598.5979361886
  0
LINE
  5
365
100
AcDbEntity
  8
0
100
AcDbLine
 62
7
  6
CONTINUOUS
 10
396.9588347356
 20
601.4277235026
 11
395.3546681384
 21
603.3638934845
  0
LINE
  5
366
100
AcDbEntity
  8
0
100
AcDbLine
 62
7
  6
CONTINUOUS
 10
403.0838345269
 20
600.5341063792
 11
404.6880017499
 21
598.5979361886
  0
LINE
  5
367
100
AcDbEntity
  8
0
100
AcDbLine
 62
7
  6
CONTINUOUS
 10
403.0838345269
 20
601.4277235026
 11
401.4796681384
 21
603.3638934845
  0
LINE
  5
368
100
AcDbEntity
  8
0
100
AcDbLine
 62
7
  6
CONTINUOUS
 10
431.4796681384
 20
693.6920372307
 11
431.4796681384
 21
522.5979361886
  0
LINE
  5
369
100
AcDbEntity
  8
0
100
AcDbLine
 62
7
  6
CONTINUOUS
 10
431.4796681384
 20
400.7038351466
 11
431.4796681384
 21
513.2979361886
  0
LINE
  5
36A
100
AcDbEntity
  8
0
100
AcDbLine
 62
7
  6
CONTINUOUS
 10
373.2296681384
 20
638.8479361886
 11
341.7296681384
 21
638.8479361886
  0
LINE
  5
36B
100
AcDbEntity
  8
0
100
AcDbLine
 62
7
  6
CONTINUOUS
 10
373.2296681384
 20
678.3479361886
 11
341.7296681384
 21
678.3479361886
  0
LINE
  5
36C
100
AcDbEntity
  8
0
100
AcDbLine
 62
7
  6
CONTINUOUS
 10
409.4796681384
 20
703.0979361886
 11
395.3450877188
 21
703.0979361886
  0
LINE
  5
36D
100
AcDbEntity
  8
BEZUGSACHSEN
100
AcDbLine
 62
7
  6
CONTINUOUS
 10
319.614248558
 20
703.0979361886
 11
305.4796681384
 21
703.0979361886
  0
LINE
  5
36E
100
AcDbEntity
  8
0
100
AcDbLine
 62
7
  6
CONTINUOUS
 10
649.6181625528
 20
601.5326736564
 11
649.6181625528
 21
574.9979361886
  0
LINE
  5
36F
100
AcDbEntity
  8
0
100
AcDbLine
 62
7
  6
CONTINUOUS
 10
649.6181625528
 20
524.1979361886
 11
649.6181625528
 21
522.5979361886
  0
LINE
  5
370
100
AcDbEntity
  8
0
100
AcDbLine
 62
7
  6
CONTINUOUS
 10
649.6181625528
 20
513.2979361886
 11
649.6181625528
 21
492.8631987209
  0
LINE
  5
371
100
AcDbEntity
  8
0
100
AcDbLine
 62
7
  6
CONTINUOUS
 10
649.6181625528
 20
530.5979361886
 11
649.6181625528
 21
533.1511276717
  0
LINE
  5
372
100
AcDbEntity
  8
BEZUGSACHSEN
100
AcDbLine
 62
7
  6
CONTINUOUS
 10
649.6181625528
 20
574.9979361886
 11
649.6181625528
 21
601.5326736564
  0
LINE
  5
373
100
AcDbEntity
  8
0
100
AcDbLine
 62
7
  6
CONTINUOUS
 10
649.6505017207
 20
570.5979361886
 11
649.6505017207
 21
562.8532554263
  0
LINE
  5
374
100
AcDbEntity
  8
0
100
AcDbLine
 62
7
  6
CONTINUOUS
 10
649.708028607
 20
564.3426169509
 11
649.708028607
 21
569.108574664
  0
LINE
  5
375
100
AcDbEntity
  8
0
100
AcDbLine
 62
7
  6
CONTINUOUS
 10
649.7602377641
 20
550.5979361886
 11
649.7602377641
 21
537.4064466113
  0
LINE
  5
376
100
AcDbEntity
  8
0
100
AcDbLine
 62
7
  6
CONTINUOUS
 10
649.8370516219
 20
560.1724042649
 11
649.8370516219
 21
562.8532554263
  0
LINE
  5
377
100
AcDbEntity
  8
0
100
AcDbLine
 62
7
  6
CONTINUOUS
 10
649.9579535751
 20
537.4064466113
 11
649.9579535751
 21
550.5979361886
  0
LINE
  5
378
100
AcDbEntity
  8
0
100
AcDbLine
 62
7
  6
CONTINUOUS
 10
650.3549857939
 20
550.5979361886
 11
650.3549857939
 21
530.5979361886
  0
LINE
  5
379
100
AcDbEntity
  8
0
100
AcDbLine
 62
7
  6
CONTINUOUS
 10
650.4751120951
 20
561.3638934845
 11
650.4751120951
 21
560.7681488747
  0
LINE
  5
37A
100
AcDbEntity
  8
0
100
AcDbLine
 62
7
  6
CONTINUOUS
 10
650.6148121866
 20
569.108574664
 11
650.6148121866
 21
570.5979361886
  0
LINE
  5
37B
100
AcDbEntity
  8
0
100
AcDbLine
 62
7
  6
CONTINUOUS
 10
650.6181625528
 20
574.1979361886
 11
650.6181625528
 21
570.5979361886
  0
LINE
  5
37C
100
AcDbEntity
  8
0
100
AcDbLine
 62
7
  6
CONTINUOUS
 10
650.6181625528
 20
556.5979361886
 11
650.6181625528
 21
550.5979361886
  0
LINE
  5
37D
100
AcDbEntity
  8
0
100
AcDbLine
 62
7
  6
CONTINUOUS
 10
650.6181625528
 20
530.5979361886
 11
650.6181625528
 21
524.9979361886
  0
LINE
  5
37E
100
AcDbEntity
  8
0
100
AcDbLine
 62
7
  6
CONTINUOUS
 10
650.7092611766
 20
569.108574664
 11
650.7092611766
 21
565.5341061706
  0
LINE
  5
37F
100
AcDbEntity
  8
0
100
AcDbLine
 62
7
  6
CONTINUOUS
 10
650.7139285766
 20
560.4702765698
 11
650.7139285766
 21
561.6617657894
  0
LINE
  5
380
100
AcDbEntity
  8
0
100
AcDbLine
 62
7
  6
CONTINUOUS
 10
650.754181474
 20
533.1511276717
 11
650.754181474
 21
548.0447450036
  0
LINE
  5
381
100
AcDbEntity
  8
0
100
AcDbLine
 62
7
  6
CONTINUOUS
 10
651.1586937547
 20
566.1298507804
 11
651.1586937547
 21
564.9383615608
  0
LINE
  5
382
100
AcDbEntity
  8
0
100
AcDbLine
 62
7
  6
CONTINUOUS
 10
651.6286552292
 20
570.5979361886
 11
651.6286552292
 21
569.108574664
  0
LINE
  5
383
100
AcDbEntity
  8
0
100
AcDbLine
 62
7
  6
CONTINUOUS
 10
651.6818509892
 20
568.5128300542
 11
651.6818509892
 21
566.1298507804
  0
LINE
  5
384
100
AcDbEntity
  8
0
100
AcDbLine
 62
7
  6
CONTINUOUS
 10
651.6818509892
 20
564.9383615608
 11
651.6818509892
 21
558.9809148366
  0
LINE
  5
385
100
AcDbEntity
  8
0
100
AcDbLine
 62
7
  6
CONTINUOUS
 10
651.7699911171
 20
548.0447450036
 11
651.7699911171
 21
533.1511276717
  0
LINE
  5
386
100
AcDbEntity
  8
0
100
AcDbLine
 62
7
  6
CONTINUOUS
 10
652.0493856609
 20
559.576659655
 11
652.0493856609
 21
564.9383615608
  0
LINE
  5
387
100
AcDbEntity
  8
0
100
AcDbLine
 62
7
  6
CONTINUOUS
 10
652.0493856609
 20
566.1298507804
 11
652.0493856609
 21
568.5128300542
  0
LINE
  5
388
100
AcDbEntity
  8
0
100
AcDbLine
 62
7
  6
CONTINUOUS
 10
652.7913768478
 20
556.5979361886
 11
652.7913768478
 21
557.7894255126
  0
LINE
  5
389
100
AcDbEntity
  8
0
100
AcDbLine
 62
7
  6
CONTINUOUS
 10
652.9705654506
 20
564.9383615608
 11
652.9705654506
 21
566.1298507804
  0
LINE
  5
38A
100
AcDbEntity
  8
0
100
AcDbLine
 62
7
  6
CONTINUOUS
 10
653.0838458991
 20
568.5128300542
 11
653.0838458991
 21
566.1298507804
  0
LINE
  5
38B
100
AcDbEntity
  8
0
100
AcDbLine
 62
7
  6
CONTINUOUS
 10
653.0838458991
 20
564.9383615608
 11
653.0838458991
 21
559.576659655
  0
LINE
  5
38C
100
AcDbEntity
  8
BEZUGSACHSEN
100
AcDbLine
 62
7
  6
CONTINUOUS
 10
653.6181625528
 20
519.2979361886
 11
653.6181625528
 21
517.2979361886
  0
LINE
  5
38D
100
AcDbEntity
  8
0
100
AcDbLine
 62
7
  6
CONTINUOUS
 10
653.8208858751
 20
543.7894251699
 11
653.8208858751
 21
537.4064466113
  0
LINE
  5
38E
100
AcDbEntity
  8
0
100
AcDbLine
 62
7
  6
CONTINUOUS
 10
653.8368357289
 20
557.7894255126
 11
653.8368357289
 21
556.5979361886
  0
LINE
  5
38F
100
AcDbEntity
  8
0
100
AcDbLine
 62
7
  6
CONTINUOUS
 10
654.0187158861
 20
566.1298507804
 11
654.0187158861
 21
564.9383615608
  0
LINE
  5
390
100
AcDbEntity
  8
0
100
AcDbLine
 62
7
  6
CONTINUOUS
 10
654.752400551
 20
537.4064466113
 11
654.752400551
 21
543.7894251699
  0
LINE
  5
391
100
AcDbEntity
  8
0
100
AcDbLine
 62
7
  6
CONTINUOUS
 10
654.9093904147
 20
499.6277235026
 11
654.9093904147
 21
499.0319788927
  0
LINE
  5
392
100
AcDbEntity
  8
0
100
AcDbLine
 62
7
  6
CONTINUOUS
 10
655.0267575018
 20
503.7979361886
 11
655.0267575018
 21
503.2021915266
  0
LINE
  5
393
100
AcDbEntity
  8
0
100
AcDbLine
 62
7
  6
CONTINUOUS
 10
655.5728853134
 20
502.3085744554
 11
655.5728853134
 21
499.6277235026
  0
LINE
  5
394
100
AcDbEntity
  8
0
100
AcDbLine
 62
7
  6
CONTINUOUS
 10
655.5728853134
 20
499.0319788927
 11
655.5728853134
 21
497.8404892558
  0
LINE
  5
395
100
AcDbEntity
  8
0
100
AcDbLine
 62
7
  6
CONTINUOUS
 10
655.8280956101
 20
543.7894251699
 11
655.8280956101
 21
537.4064466113
  0
LINE
  5
396
100
AcDbEntity
  8
0
100
AcDbLine
 62
7
  6
CONTINUOUS
 10
655.8891817266
 20
497.8404892558
 11
655.8891817266
 21
499.0319788927
  0
LINE
  5
397
100
AcDbEntity
  8
0
100
AcDbLine
 62
7
  6
CONTINUOUS
 10
655.8891817266
 20
499.6277235026
 11
655.8891817266
 21
502.6064468647
  0
LINE
  5
398
100
AcDbEntity
  8
0
100
AcDbLine
 62
7
  6
CONTINUOUS
 10
649.6181625528
 20
522.5979361886
 11
652.6181625528
 21
519.5979361886
  0
LINE
  5
399
100
AcDbEntity
  8
0
100
AcDbLine
 62
7
  6
CONTINUOUS
 10
656.4148055074
 20
499.0319788927
 11
656.4148055074
 21
499.6277235026
  0
LINE
  5
39A
100
AcDbEntity
  8
0
100
AcDbLine
 62
7
  6
CONTINUOUS
 10
656.6573531192
 20
596.0553831214
 11
656.6573531192
 21
594.8638934845
  0
LINE
  5
39B
100
AcDbEntity
  8
0
100
AcDbLine
 62
7
  6
CONTINUOUS
 10
656.9649898221
 20
501.8617659981
 11
656.9649898221
 21
501.2660213882
  0
LINE
  5
39C
100
AcDbEntity
  8
0
100
AcDbLine
 62
7
  6
CONTINUOUS
 10
656.9832254421
 20
497.8404892558
 11
656.9832254421
 21
499.0319788927
  0
LINE
  5
39D
100
AcDbEntity
  8
0
100
AcDbLine
 62
7
  6
CONTINUOUS
 10
656.9832254421
 20
499.6277235026
 11
656.9832254421
 21
501.1695732353
  0
LINE
  5
39E
100
AcDbEntity
  8
0
100
AcDbLine
 62
7
  6
CONTINUOUS
 10
656.9832254421
 20
501.9582141375
 11
656.9832254421
 21
502.6064468647
  0
LINE
  5
39F
100
AcDbEntity
  8
0
100
AcDbLine
 62
7
  6
CONTINUOUS
 10
657.0760001668
 20
595.906446969
 11
657.0760001668
 21
590.0979361886
  0
LINE
  5
3A0
100
AcDbEntity
  8
0
100
AcDbLine
 62
7
  6
CONTINUOUS
 10
657.1064448352
 20
497.5426169509
 11
657.1064448352
 21
496.7979361886
  0
LINE
  5
3A1
100
AcDbEntity
  8
0
100
AcDbLine
 62
7
  6
CONTINUOUS
 10
657.3215987278
 20
501.4149575407
 11
657.3215987278
 21
501.7128298456
  0
LINE
  5
3A2
100
AcDbEntity
  8
0
100
AcDbLine
 62
7
  6
CONTINUOUS
 10
657.5088780309
 20
590.0979361886
 11
657.5088780309
 21
597.0979361886
  0
LINE
  5
3A3
100
AcDbEntity
  8
0
100
AcDbLine
 62
7
  6
CONTINUOUS
 10
657.5175483486
 20
499.0319788927
 11
657.5175483486
 21
499.6277235026
  0
LINE
  5
3A4
100
AcDbEntity
  8
0
100
AcDbLine
 62
7
  6
CONTINUOUS
 10
658.1086742298
 20
594.2681488747
 11
658.1086742298
 21
592.9277235026
  0
LINE
  5
3A5
100
AcDbEntity
  8
BEZUGSACHSEN
100
AcDbLine
 62
7
  6
CONTINUOUS
 10
658.1520423365
 20
568.5979362071
 11
658.1520423365
 21
530.5979361886
  0
LINE
  5
3A6
100
AcDbEntity
  8
0
100
AcDbLine
 62
7
  6
CONTINUOUS
 10
658.4396816331
 20
501.4149575407
 11
658.4396816331
 21
501.7128298456
  0
LINE
  5
3A7
100
AcDbEntity
  8
0
100
AcDbLine
 62
7
  6
CONTINUOUS
 10
658.4969647054
 20
593.076659655
 11
658.4969647054
 21
594.1192127222
  0
LINE
  5
3A8
100
AcDbEntity
  8
0
100
AcDbLine
 62
7
  6
CONTINUOUS
 10
658.630182895
 20
597.0979361886
 11
658.630182895
 21
596.4552508921
  0
LINE
  5
3A9
100
AcDbEntity
  8
0
100
AcDbLine
 62
7
  6
CONTINUOUS
 10
658.630182895
 20
590.7406215428
 11
658.630182895
 21
590.0979361886
  0
LINE
  5
3AA
100
AcDbEntity
  8
0
100
AcDbLine
 62
7
  6
CONTINUOUS
 10
659.3409848304
 20
499.9255958075
 11
659.3409848304
 21
497.5426169509
  0
LINE
  5
3AB
100
AcDbEntity
  8
0
100
AcDbLine
 62
7
  6
CONTINUOUS
 10
659.6355836029
 20
594.1192127222
 11
659.6355836029
 21
593.076659655
  0
LINE
  5
3AC
100
AcDbEntity
  8
0
100
AcDbLine
 62
7
  6
CONTINUOUS
 10
659.7624531095
 20
496.7979361886
 11
659.7624531095
 21
500.6702765698
  0
LINE
  5
3AD
100
AcDbEntity
  8
0
100
AcDbLine
 62
7
  6
CONTINUOUS
 10
660.6906558983
 20
594.1192127222
 11
660.6906558983
 21
593.076659655
  0
LINE
  5
3AE
100
AcDbEntity
  8
0
100
AcDbLine
 62
7
  6
CONTINUOUS
 10
660.9240509593
 20
496.7979361886
 11
660.9240509593
 21
500.6702765698
  0
LINE
  5
3AF
100
AcDbEntity
  8
0
100
AcDbLine
 62
7
  6
CONTINUOUS
 10
661.1477249233
 20
592.9277235026
 11
661.1477249233
 21
594.2681488747
  0
LINE
  5
3B0
100
AcDbEntity
  8
0
100
AcDbLine
 62
7
  6
CONTINUOUS
 10
662.2377460296
 20
503.7979361886
 11
662.2377460296
 21
496.7979361886
  0
LINE
  5
3B1
100
AcDbEntity
  8
0
100
AcDbLine
 62
7
  6
CONTINUOUS
 10
662.3355746699
 20
594.2681488747
 11
662.3355746699
 21
592.9277235026
  0
LINE
  5
3B2
100
AcDbEntity
  8
0
100
AcDbLine
 62
7
  6
CONTINUOUS
 10
662.836121013
 20
497.9894254083
 11
662.836121013
 21
503.7979361886
  0
LINE
  5
3B3
100
AcDbEntity
  8
0
100
AcDbLine
 62
7
  6
CONTINUOUS
 10
663.4531694017
 20
497.8404892558
 11
663.4531694017
 21
499.0319788927
  0
LINE
  5
3B4
100
AcDbEntity
  8
0
100
AcDbLine
 62
7
  6
CONTINUOUS
 10
664.0576338971
 20
499.0319788927
 11
664.0576338971
 21
503.7979361886
  0
LINE
  5
3B5
100
AcDbEntity
  8
0
100
AcDbLine
 62
7
  6
CONTINUOUS
 10
664.3059589181
 20
502.159638303
 11
664.3059589181
 21
501.5638936931
  0
LINE
  5
3B6
100
AcDbEntity
  8
0
100
AcDbLine
 62
7
  6
CONTINUOUS
 10
664.4150376776
 20
498.7341065878
 11
664.4150376776
 21
498.4362338657
  0
LINE
  5
3B7
100
AcDbEntity
  8
0
100
AcDbLine
 62
7
  6
CONTINUOUS
 10
664.8569972013
 20
501.5638936931
 11
664.8569972013
 21
502.159638303
  0
LINE
  5
3B8
100
AcDbEntity
  8
0
100
AcDbLine
 62
7
  6
CONTINUOUS
 10
664.9689138364
 20
498.4362338657
 11
664.9689138364
 21
498.7341065878
  0
LINE
  5
3B9
100
AcDbEntity
  8
0
100
AcDbLine
 62
7
  6
CONTINUOUS
 10
666.121427398
 20
501.5638936931
 11
666.121427398
 21
502.159638303
  0
LINE
  5
3BA
100
AcDbEntity
  8
0
100
AcDbLine
 62
7
  6
CONTINUOUS
 10
666.2358100827
 20
498.4362338657
 11
666.2358100827
 21
498.7341065878
  0
LINE
  5
3BB
100
AcDbEntity
  8
0
100
AcDbLine
 62
7
  6
CONTINUOUS
 10
666.5979419103
 20
499.9255958075
 11
666.5979419103
 21
500.5213404173
  0
LWPOLYLINE
  5
3BC
100
AcDbEntity
  8
BEZUGSACHSEN
100
AcDbPolyline
 62
7
  6
CONTINUOUS
 90
17
 70
0
 10
658.1520359647
 20
530.5979361888
 10
658.1483040128
 20
530.3025305028
 10
658.1282085678
 20
529.8520267305
 10
658.0902286253
 20
529.3994597884
 10
658.0341612414
 20
528.9485355279
 10
657.9601142096
 20
528.5029781993
 10
657.8685316823
 20
528.0665484781
 10
657.7601514853
 20
527.6428706681
 10
657.635990467
 20
527.2354388603
 10
657.4972948035
 20
526.8475049876
 10
657.3455171233
 20
526.4821620923
 10
657.1822478084
 20
526.1421847055
 10
657.0093743309
 20
525.83044096
 10
656.8291778938
 20
525.5498380955
 10
656.6431688043
 20
525.3016816264
 10
656.4540023339
 20
525.0885853321
 10
656.2620571971
 20
524.9105753094
  0
LINE
  5
3BD
100
AcDbEntity
  8
BEZUGSACHSEN
100
AcDbLine
 62
7
  6
CONTINUOUS
 10
669.680830155
 20
587.4890674744
 11
669.4221428886
 21
587.3323359273
  0
LWPOLYLINE
  5
3BE
100
AcDbEntity
  8
BEZUGSACHSEN
100
AcDbPolyline
 62
7
  6
CONTINUOUS
 90
5
 70
0
 10
669.4221428886
 20
587.3323359273
 10
669.1537080697
 20
587.197447132
 10
668.877617329
 20
587.085929302
 10
668.5959338444
 20
586.9991895887
 10
668.3104870265
 20
586.9384499962
  0
LINE
  5
3BF
100
AcDbEntity
  8
BEZUGSACHSEN
100
AcDbLine
 62
7
  6
CONTINUOUS
 10
669.2365375677
 20
507.1596742205
 11
669.519830186
 21
507.0075673398
  0
LWPOLYLINE
  5
3C0
100
AcDbEntity
  8
BEZUGSACHSEN
100
AcDbPolyline
 62
7
  6
CONTINUOUS
 90
15
 70
0
 10
669.519830186
 20
507.0075673398
 10
669.7911664011
 20
506.8313052362
 10
670.0481505485
 20
506.6331103844
 10
670.2883892663
 20
506.4155324809
 10
670.5098174935
 20
506.1814128502
 10
670.7099160648
 20
505.9347307143
 10
670.8887309807
 20
505.6770601801
 10
671.0452958328
 20
505.411403497
 10
671.1804569387
 20
505.1378039575
 10
671.2942836384
 20
504.856924144
 10
671.3867161698
 20
504.5689877556
 10
671.457384364
 20
504.2744677034
 10
671.5057076879
 20
503.9736282469
 10
671.5309245087
 20
503.6656694733
 10
671.5344977747
 20
503.4979361879
  0
LINE
  5
3C1
100
AcDbEntity
  8
0
100
AcDbLine
 62
7
  6
CONTINUOUS
 10
667.9018672514
 20
499.9255958075
 11
667.9018672514
 21
500.5213404173
  0
LINE
  5
3C2
100
AcDbEntity
  8
BEZUGSACHSEN
100
AcDbLine
 62
7
  6
CONTINUOUS
 10
671.5345094311
 20
497.4979360328
 11
671.5345094311
 21
503.4979361886
  0
LINE
  5
3C3
100
AcDbEntity
  8
BEZUGSACHSEN
100
AcDbLine
 62
7
  6
CONTINUOUS
 10
671.5345094311
 20
590.897936101
 11
671.5345094311
 21
596.8979361886
  0
LINE
  5
3C4
100
AcDbEntity
  8
BEZUGSACHSEN
100
AcDbLine
 62
7
  6
CONTINUOUS
 10
679.1181625528
 20
435.7980977971
 11
679.1181625528
 21
458.2982644866
  0
LINE
  5
3C5
100
AcDbEntity
  8
BEZUGSACHSEN
100
AcDbLine
 62
7
  6
CONTINUOUS
 10
679.1181625528
 20
636.0974834703
 11
679.1181625528
 21
658.5977332554
  0
LWPOLYLINE
  5
3C6
100
AcDbEntity
  8
BEZUGSACHSEN
100
AcDbPolyline
 62
7
  6
CONTINUOUS
 90
16
 70
0
 10
671.5344978424
 20
590.8979360996
 10
671.5330971265
 20
590.7930123657
 10
671.5175784851
 20
590.532987651
 10
671.4852645879
 20
590.2765862145
 10
671.4362054422
 20
590.0221768631
 10
671.3701568379
 20
589.7694412116
 10
671.2866738484
 20
589.518139626
 10
671.1850531848
 20
589.2683447395
 10
671.064418567
 20
589.0202578839
 10
670.923305931
 20
588.7737577188
 10
670.7619518509
 20
588.5319943817
 10
670.579976474
 20
588.2966879335
 10
670.3791545195
 20
588.0719854503
 10
670.161222453
 20
587.8609263334
 10
669.9278624538
 20
587.6659045934
 10
669.680830155
 20
587.4890674744
  0
LWPOLYLINE
  5
3C7
100
AcDbEntity
  8
BEZUGSACHSEN
100
AcDbPolyline
 62
7
  6
CONTINUOUS
 90
14
 70
0
 10
671.5344988023
 20
497.49793603
 10
671.5314423012
 20
497.3428583369
 10
671.507185305
 20
497.0345660249
 10
671.4597375687
 20
496.7332569679
 10
671.3898650678
 20
496.438179503
 10
671.2981446286
 20
496.1496433229
 10
671.1849603268
 20
495.8681351114
 10
671.0503887691
 20
495.5939197652
 10
670.894377718
 20
495.3276573786
 10
670.7161166295
 20
495.0694240236
 10
670.5165392185
 20
494.8221547906
 10
670.2955786578
 20
494.5873953829
 10
670.0557395776
 20
494.3691287425
 10
669.799087263
 20
494.1701972083
  0
LINE
  5
3C8
100
AcDbEntity
  8
BEZUGSACHSEN
100
AcDbLine
 62
7
  6
CONTINUOUS
 10
778.8877393236
 20
507.4508835783
 11
779.1936804417
 21
507.489678924
  0
LINE
  5
3C9
100
AcDbEntity
  8
BEZUGSACHSEN
100
AcDbLine
 62
7
  6
CONTINUOUS
 10
668.3485832526
 20
493.5449877252
 11
668.0426452782
 21
493.5061936846
  0
LINE
  5
3CA
100
AcDbEntity
  8
BEZUGSACHSEN
100
AcDbLine
 62
7
  6
CONTINUOUS
 10
668.0426452782
 20
493.5061936846
 11
667.8241151508
 21
493.4979368478
  0
LINE
  5
3CB
100
AcDbEntity
  8
BEZUGSACHSEN
100
AcDbLine
 62
7
  6
CONTINUOUS
 10
791.6839564098
 20
493.4979361886
 11
779.4120559412
 21
493.4979361886
  0
LINE
  5
3CC
100
AcDbEntity
  8
BEZUGSACHSEN
100
AcDbLine
 62
7
  6
CONTINUOUS
 10
667.8242690318
 20
493.4979361886
 11
655.5523663887
 21
493.4979361886
  0
LINE
  5
3CD
100
AcDbEntity
  8
0
100
AcDbLine
 62
7
  6
CONTINUOUS
 10
657.1064448352
 20
496.7979361886
 11
660.9240509593
 21
496.7979361886
  0
LINE
  5
3CE
100
AcDbEntity
  8
0
100
AcDbLine
 62
7
  6
CONTINUOUS
 10
662.2377460296
 20
496.7979361886
 11
664.0576338971
 21
496.7979361886
  0
LINE
  5
3CF
100
AcDbEntity
  8
0
100
AcDbLine
 62
7
  6
CONTINUOUS
 10
666.2388545303
 20
496.7979361886
 11
667.7787389696
 21
496.7979361886
  0
LINE
  5
3D0
100
AcDbEntity
  8
0
100
AcDbLine
 62
7
  6
CONTINUOUS
 10
668.6545540418
 20
496.9468723411
 11
667.3331888871
 21
496.9468723411
  0
LINE
  5
3D1
100
AcDbEntity
  8
0
100
AcDbLine
 62
7
  6
CONTINUOUS
 10
669.1699359977
 20
497.244744646
 11
667.8363610849
 21
497.244744646
  0
LINE
  5
3D2
100
AcDbEntity
  8
0
100
AcDbLine
 62
7
  6
CONTINUOUS
 10
786.5221760992
 20
497.2979361886
 11
787.6799680242
 21
497.2979361886
  0
LINE
  5
3D3
100
AcDbEntity
  8
0
100
AcDbLine
 62
7
  6
CONTINUOUS
 10
788.6061422106
 20
497.2979361886
 11
790.1603249388
 21
497.2979361886
  0
LINE
  5
3D4
100
AcDbEntity
  8
0
100
AcDbLine
 62
7
  6
CONTINUOUS
 10
785.9986593314
 20
497.4468723411
 11
787.16599004
 21
497.4468723411
  0
LINE
  5
3D5
100
AcDbEntity
  8
0
100
AcDbLine
 62
7
  6
CONTINUOUS
 10
666.5979419103
 20
497.5426169509
 11
666.1203969521
 21
497.5426169509
  0
LINE
  5
3D6
100
AcDbEntity
  8
0
100
AcDbLine
 62
7
  6
CONTINUOUS
 10
659.3409848304
 20
497.5426169509
 11
657.1064448352
 21
497.5426169509
  0
LINE
  5
3D7
100
AcDbEntity
  8
0
100
AcDbLine
 62
7
  6
CONTINUOUS
 10
666.8167947299
 20
497.6915531034
 11
665.5372243153
 21
497.6915531034
  0
LINE
  5
3D8
100
AcDbEntity
  8
0
100
AcDbLine
 62
7
  6
CONTINUOUS
 10
669.6965534205
 20
497.8404892558
 11
668.3502701431
 21
497.8404892558
  0
LINE
  5
3D9
100
AcDbEntity
  8
0
100
AcDbLine
 62
7
  6
CONTINUOUS
 10
664.5246779867
 20
497.8404892558
 11
663.4531694017
 21
497.8404892558
  0
LINE
  5
3DA
100
AcDbEntity
  8
0
100
AcDbLine
 62
7
  6
CONTINUOUS
 10
655.5728853134
 20
497.8404892558
 11
656.9832254421
 21
497.8404892558
  0
LINE
  5
3DB
100
AcDbEntity
  8
0
100
AcDbLine
 62
7
  6
CONTINUOUS
 10
785.5495725519
 20
497.8936807985
 11
786.7252108475
 21
497.8936807985
  0
LINE
  5
3DC
100
AcDbEntity
  8
0
100
AcDbLine
 62
7
  6
CONTINUOUS
 10
666.4663788864
 20
497.9894254083
 11
665.1944826254
 21
497.9894254083
  0
LINE
  5
3DD
100
AcDbEntity
  8
0
100
AcDbLine
 62
7
  6
CONTINUOUS
 10
787.2527770312
 20
498.1915531034
 11
788.0960839193
 21
498.1915531034
  0
LINE
  5
3DE
100
AcDbEntity
  8
0
100
AcDbLine
 62
7
  6
CONTINUOUS
 10
785.2744114965
 20
498.3404892558
 11
786.4551980797
 21
498.3404892558
  0
LINE
  5
3DF
100
AcDbEntity
  8
0
100
AcDbLine
 62
7
  6
CONTINUOUS
 10
669.8300018381
 20
498.4362338657
 11
667.8363610849
 21
498.4362338657
  0
LINE
  5
3E0
100
AcDbEntity
  8
0
100
AcDbLine
 62
7
  6
CONTINUOUS
 10
666.2358100827
 20
498.4362338657
 11
664.9689138364
 21
498.4362338657
  0
LINE
  5
3E1
100
AcDbEntity
  8
0
100
AcDbLine
 62
7
  6
CONTINUOUS
 10
787.1947649707
 20
498.4894254083
 11
788.3405263462
 21
498.4894254083
  0
LINE
  5
3E2
100
AcDbEntity
  8
0
100
AcDbLine
 62
7
  6
CONTINUOUS
 10
666.2358100827
 20
498.7341065878
 11
664.9689138364
 21
498.7341065878
  0
LINE
  5
3E3
100
AcDbEntity
  8
0
100
AcDbLine
 62
7
  6
CONTINUOUS
 10
785.0885568496
 20
498.9362338657
 11
786.2728461367
 21
498.9362338657
  0
LINE
  5
3E4
100
AcDbEntity
  8
0
100
AcDbLine
 62
7
  6
CONTINUOUS
 10
664.4697874985
 20
499.0319788927
 11
663.4531694017
 21
499.0319788927
  0
LINE
  5
3E5
100
AcDbEntity
  8
0
100
AcDbLine
 62
7
  6
CONTINUOUS
 10
654.9093904147
 20
499.0319788927
 11
655.5728853134
 21
499.0319788927
  0
LINE
  5
3E6
100
AcDbEntity
  8
0
100
AcDbLine
 62
7
  6
CONTINUOUS
 10
655.8891817266
 20
499.0319788927
 11
657.5175483486
 21
499.0319788927
  0
LINE
  5
3E7
100
AcDbEntity
  8
0
100
AcDbLine
 62
7
  6
CONTINUOUS
 10
666.4663788864
 20
499.3298511977
 11
665.1944826254
 21
499.3298511977
  0
LINE
  5
3E8
100
AcDbEntity
  8
0
100
AcDbLine
 62
7
  6
CONTINUOUS
 10
658.0649607971
 20
499.3298511977
 11
659.3409848304
 21
499.3298511977
  0
LINE
  5
3E9
100
AcDbEntity
  8
0
100
AcDbLine
 62
7
  6
CONTINUOUS
 10
784.9948984602
 20
499.3830427403
 11
786.1809606892
 21
499.3830427403
  0
LINE
  5
3EA
100
AcDbEntity
  8
0
100
AcDbLine
 62
7
  6
CONTINUOUS
 10
787.5204180222
 20
499.3830427403
 11
788.6604430638
 21
499.3830427403
  0
LINE
  5
3EB
100
AcDbEntity
  8
0
100
AcDbLine
 62
7
  6
CONTINUOUS
 10
659.3409848304
 20
499.4787873501
 11
658.9304813936
 21
499.4787873501
  0
LINE
  5
3EC
100
AcDbEntity
  8
0
100
AcDbLine
 62
7
  6
CONTINUOUS
 10
790.1603249388
 20
499.5319788927
 11
790.5789719864
 21
499.5319788927
  0
LINE
  5
3ED
100
AcDbEntity
  8
0
100
AcDbLine
 62
7
  6
CONTINUOUS
 10
666.6993758774
 20
499.6277235026
 11
665.4223871339
 21
499.6277235026
  0
LINE
  5
3EE
100
AcDbEntity
  8
0
100
AcDbLine
 62
7
  6
CONTINUOUS
 10
657.5175483486
 20
499.6277235026
 11
655.8891817266
 21
499.6277235026
  0
LINE
  5
3EF
100
AcDbEntity
  8
0
100
AcDbLine
 62
7
  6
CONTINUOUS
 10
655.5728853134
 20
499.6277235026
 11
654.9093904147
 21
499.6277235026
  0
LINE
  5
3F0
100
AcDbEntity
  8
0
100
AcDbLine
 62
7
  6
CONTINUOUS
 10
666.1203969521
 20
499.9255958075
 11
667.9018672514
 21
499.9255958075
  0
LINE
  5
3F1
100
AcDbEntity
  8
0
100
AcDbLine
 62
7
  6
CONTINUOUS
 10
658.5307344037
 20
500.0745319599
 11
658.0649607971
 21
500.0745319599
  0
LINE
  5
3F2
100
AcDbEntity
  8
0
100
AcDbLine
 62
7
  6
CONTINUOUS
 10
784.9007504357
 20
500.1277235026
 11
786.0886001823
 21
500.1277235026
  0
LINE
  5
3F3
100
AcDbEntity
  8
0
100
AcDbLine
 62
7
  6
CONTINUOUS
 10
658.8496778003
 20
500.2234681124
 11
657.7627337713
 21
500.2234681124
  0
LINE
  5
3F4
100
AcDbEntity
  8
0
100
AcDbLine
 62
7
  6
CONTINUOUS
 10
787.6007415027
 20
500.276659655
 11
788.7393604002
 21
500.276659655
  0
LINE
  5
3F5
100
AcDbEntity
  8
0
100
AcDbLine
 62
7
  6
CONTINUOUS
 10
667.9018672514
 20
500.5213404173
 11
666.1203969521
 21
500.5213404173
  0
LINE
  5
3F6
100
AcDbEntity
  8
0
100
AcDbLine
 62
7
  6
CONTINUOUS
 10
658.6621979017
 20
500.5213404173
 11
657.540349758
 21
500.5213404173
  0
LINE
  5
3F7
100
AcDbEntity
  8
0
100
AcDbLine
 62
7
  6
CONTINUOUS
 10
666.6993758774
 20
500.6702765698
 11
665.4223871339
 21
500.6702765698
  0
LINE
  5
3F8
100
AcDbEntity
  8
0
100
AcDbLine
 62
7
  6
CONTINUOUS
 10
660.9240509593
 20
500.6702765698
 11
659.1754796865
 21
500.6702765698
  0
LINE
  5
3F9
100
AcDbEntity
  8
0
100
AcDbLine
 62
7
  6
CONTINUOUS
 10
666.3507925949
 20
500.9681488747
 11
665.0814077581
 21
500.9681488747
  0
LINE
  5
3FA
100
AcDbEntity
  8
0
100
AcDbLine
 62
7
  6
CONTINUOUS
 10
658.513442273
 20
500.9681488747
 11
657.3941140303
 21
500.9681488747
  0
LINE
  5
3FB
100
AcDbEntity
  8
0
100
AcDbLine
 62
7
  6
CONTINUOUS
 10
787.6007415027
 20
501.3192127222
 11
788.7393604002
 21
501.3192127222
  0
LINE
  5
3FC
100
AcDbEntity
  8
0
100
AcDbLine
 62
7
  6
CONTINUOUS
 10
658.4396816331
 20
501.4149575407
 11
657.3215987278
 21
501.4149575407
  0
LINE
  5
3FD
100
AcDbEntity
  8
0
100
AcDbLine
 62
7
  6
CONTINUOUS
 10
784.9007504357
 20
501.4681488747
 11
786.0886001823
 21
501.4681488747
  0
LINE
  5
3FE
100
AcDbEntity
  8
0
100
AcDbLine
 62
7
  6
CONTINUOUS
 10
666.121427398
 20
501.5638936931
 11
664.8569972013
 21
501.5638936931
  0
LINE
  5
3FF
100
AcDbEntity
  8
0
100
AcDbLine
 62
7
  6
CONTINUOUS
 10
658.4396816331
 20
501.7128298456
 11
657.3215987278
 21
501.7128298456
  0
LINE
  5
400
100
AcDbEntity
  8
0
100
AcDbLine
 62
7
  6
CONTINUOUS
 10
659.2580140732
 20
502.0107021505
 11
660.9240509593
 21
502.0107021505
  0
LINE
  5
401
100
AcDbEntity
  8
0
100
AcDbLine
 62
7
  6
CONTINUOUS
 10
666.121427398
 20
502.159638303
 11
664.8569972013
 21
502.159638303
  0
LINE
  5
402
100
AcDbEntity
  8
0
100
AcDbLine
 62
7
  6
CONTINUOUS
 10
658.513442273
 20
502.159638303
 11
657.3941140303
 21
502.159638303
  0
LINE
  5
403
100
AcDbEntity
  8
0
100
AcDbLine
 62
7
  6
CONTINUOUS
 10
667.9638202759
 20
502.159638303
 11
669.9641785442
 21
502.159638303
  0
LINE
  5
404
100
AcDbEntity
  8
0
100
AcDbLine
 62
7
  6
CONTINUOUS
 10
784.9948984602
 20
502.2128298456
 11
786.1809606892
 21
502.2128298456
  0
LINE
  5
405
100
AcDbEntity
  8
0
100
AcDbLine
 62
7
  6
CONTINUOUS
 10
787.5204180222
 20
502.2128298456
 11
788.6604430638
 21
502.2128298456
  0
LINE
  5
406
100
AcDbEntity
  8
0
100
AcDbLine
 62
7
  6
CONTINUOUS
 10
666.2358100827
 20
502.4575106079
 11
664.9689138364
 21
502.4575106079
  0
LINE
  5
407
100
AcDbEntity
  8
0
100
AcDbLine
 62
7
  6
CONTINUOUS
 10
669.8300018381
 20
502.6064468647
 11
668.4804600883
 21
502.6064468647
  0
LINE
  5
408
100
AcDbEntity
  8
0
100
AcDbLine
 62
7
  6
CONTINUOUS
 10
660.7509943597
 20
502.6064468647
 11
659.5925361473
 21
502.6064468647
  0
LINE
  5
409
100
AcDbEntity
  8
0
100
AcDbLine
 62
7
  6
CONTINUOUS
 10
658.6621979017
 20
502.6064468647
 11
657.540349758
 21
502.6064468647
  0
LINE
  5
40A
100
AcDbEntity
  8
0
100
AcDbLine
 62
7
  6
CONTINUOUS
 10
656.9832254421
 20
502.6064468647
 11
655.8891817266
 21
502.6064468647
  0
LINE
  5
40B
100
AcDbEntity
  8
0
100
AcDbLine
 62
7
  6
CONTINUOUS
 10
785.0885568496
 20
502.659638303
 11
786.2728461367
 21
502.659638303
  0
LINE
  5
40C
100
AcDbEntity
  8
BEZUGSACHSEN
100
AcDbLine
 62
7
  6
CONTINUOUS
 10
779.4122242853
 20
493.4979368015
 11
779.2018627282
 21
493.5055891503
  0
LWPOLYLINE
  5
40D
100
AcDbEntity
  8
BEZUGSACHSEN
100
AcDbPolyline
 62
7
  6
CONTINUOUS
 90
5
 70
0
 10
779.2018627282
 20
493.5055891503
 10
778.8960948285
 20
493.5435128407
 10
778.5920360645
 20
493.6121735882
 10
778.2925026168
 20
493.7102457445
 10
777.9997905094
 20
493.8361957811
  0
LWPOLYLINE
  5
40E
100
AcDbEntity
  8
BEZUGSACHSEN
100
AcDbPolyline
 62
7
  6
CONTINUOUS
 90
5
 70
0
 10
668.0344612916
 20
507.4902834922
 10
668.3402316463
 20
507.4523587612
 10
668.6442943209
 20
507.3836971431
 10
668.9438276867
 20
507.285626017
 10
669.2365375677
 20
507.1596742205
  0
LINE
  5
40F
100
AcDbEntity
  8
BEZUGSACHSEN
100
AcDbLine
 62
7
  6
CONTINUOUS
 10
779.1936804417
 20
507.489678924
 11
779.4122132115
 21
507.4979354375
  0
LINE
  5
410
100
AcDbEntity
  8
0
100
AcDbLine
 62
7
  6
CONTINUOUS
 10
666.4663788864
 20
502.7553830171
 11
665.1944826254
 21
502.7553830171
  0
LINE
  5
411
100
AcDbEntity
  8
0
100
AcDbLine
 62
7
  6
CONTINUOUS
 10
666.6993758774
 20
502.9043191696
 11
665.4223871339
 21
502.9043191696
  0
LINE
  5
412
100
AcDbEntity
  8
0
100
AcDbLine
 62
7
  6
CONTINUOUS
 10
658.8496778003
 20
502.9043191696
 11
657.7627337713
 21
502.9043191696
  0
LINE
  5
413
100
AcDbEntity
  8
0
100
AcDbLine
 62
7
  6
CONTINUOUS
 10
669.5638279093
 20
503.053255322
 11
668.2207700713
 21
503.053255322
  0
LINE
  5
414
100
AcDbEntity
  8
0
100
AcDbLine
 62
7
  6
CONTINUOUS
 10
658.0649607971
 20
503.053255322
 11
658.5307344037
 21
503.053255322
  0
LINE
  5
415
100
AcDbEntity
  8
0
100
AcDbLine
 62
7
  6
CONTINUOUS
 10
660.4601575673
 20
503.053255322
 11
662.094468317
 21
503.053255322
  0
LINE
  5
416
100
AcDbEntity
  8
0
100
AcDbLine
 62
7
  6
CONTINUOUS
 10
666.0025518752
 20
503.053255322
 11
666.7188888865
 21
503.053255322
  0
LINE
  5
417
100
AcDbEntity
  8
0
100
AcDbLine
 62
7
  6
CONTINUOUS
 10
787.1947649707
 20
503.1064468647
 11
788.3405263462
 21
503.1064468647
  0
LINE
  5
418
100
AcDbEntity
  8
0
100
AcDbLine
 62
7
  6
CONTINUOUS
 10
660.4948263295
 20
503.2021915266
 11
659.3409848304
 21
503.2021915266
  0
LINE
  5
419
100
AcDbEntity
  8
0
100
AcDbLine
 62
7
  6
CONTINUOUS
 10
656.8534980052
 20
503.2021915266
 11
655.7615458367
 21
503.2021915266
  0
LINE
  5
41A
100
AcDbEntity
  8
0
100
AcDbLine
 62
7
  6
CONTINUOUS
 10
785.2744114965
 20
503.2553830171
 11
786.4551980797
 21
503.2553830171
  0
LINE
  5
41B
100
AcDbEntity
  8
0
100
AcDbLine
 62
7
  6
CONTINUOUS
 10
669.1699359977
 20
503.3511276791
 11
667.8363610849
 21
503.3511276791
  0
LINE
  5
41C
100
AcDbEntity
  8
0
100
AcDbLine
 62
7
  6
CONTINUOUS
 10
787.2527770312
 20
503.4043191696
 11
788.0960839193
 21
503.4043191696
  0
LINE
  5
41D
100
AcDbEntity
  8
0
100
AcDbLine
 62
7
  6
CONTINUOUS
 10
656.6617606589
 20
503.5000638576
 11
655.5728853134
 21
503.5000638576
  0
LINE
  5
41E
100
AcDbEntity
  8
0
100
AcDbLine
 62
7
  6
CONTINUOUS
 10
668.6545540418
 20
503.6490000231
 11
667.3331888871
 21
503.6490000231
  0
LINE
  5
41F
100
AcDbEntity
  8
0
100
AcDbLine
 62
7
  6
CONTINUOUS
 10
660.076868155
 20
503.6490000231
 11
658.9304813936
 21
503.6490000231
  0
LINE
  5
420
100
AcDbEntity
  8
0
100
AcDbLine
 62
7
  6
CONTINUOUS
 10
656.4734213997
 20
503.6490000231
 11
655.3875516475
 21
503.6490000231
  0
LINE
  5
421
100
AcDbEntity
  8
0
100
AcDbLine
 62
7
  6
CONTINUOUS
 10
785.5495725519
 20
503.7021915266
 11
786.7252108475
 21
503.7021915266
  0
LINE
  5
422
100
AcDbEntity
  8
0
100
AcDbLine
 62
7
  6
CONTINUOUS
 10
668.1500943457
 20
503.7979361886
 11
665.8853157179
 21
503.7979361886
  0
LINE
  5
423
100
AcDbEntity
  8
0
100
AcDbLine
 62
7
  6
CONTINUOUS
 10
664.0576338971
 20
503.7979361886
 11
662.2377460296
 21
503.7979361886
  0
LINE
  5
424
100
AcDbEntity
  8
0
100
AcDbLine
 62
7
  6
CONTINUOUS
 10
659.669954579
 20
503.7979361886
 11
658.0649607971
 21
503.7979361886
  0
LINE
  5
425
100
AcDbEntity
  8
0
100
AcDbLine
 62
7
  6
CONTINUOUS
 10
656.1068238987
 20
503.7979361886
 11
655.0267575018
 21
503.7979361886
  0
LINE
  5
426
100
AcDbEntity
  8
0
100
AcDbLine
 62
7
  6
CONTINUOUS
 10
785.9986593314
 20
504.1490000231
 11
787.16599004
 21
504.1490000231
  0
LINE
  5
427
100
AcDbEntity
  8
0
100
AcDbLine
 62
7
  6
CONTINUOUS
 10
786.5221760992
 20
504.2979361886
 11
787.6799680242
 21
504.2979361886
  0
LINE
  5
428
100
AcDbEntity
  8
0
100
AcDbLine
 62
7
  6
CONTINUOUS
 10
788.6061422106
 20
504.2979361886
 11
790.1603249388
 21
504.2979361886
  0
LINE
  5
429
100
AcDbEntity
  8
0
100
AcDbLine
 62
7
  6
CONTINUOUS
 10
662.6621217428
 20
504.6915532077
 11
661.0028002704
 21
504.6915532077
  0
LINE
  5
42A
100
AcDbEntity
  8
BEZUGSACHSEN
100
AcDbLine
 62
7
  6
CONTINUOUS
 10
655.552364779
 20
507.4979361886
 11
667.8242683961
 21
507.4979361886
  0
LINE
  5
42B
100
AcDbEntity
  8
BEZUGSACHSEN
100
AcDbLine
 62
7
  6
CONTINUOUS
 10
779.4120570102
 20
507.4979361886
 11
791.683958137
 21
507.4979361886
  0
LINE
  5
42C
100
AcDbEntity
  8
0
100
AcDbLine
 62
7
  6
CONTINUOUS
 10
797.6181625528
 20
513.2979361886
 11
649.6181625528
 21
513.2979361886
  0
LINE
  5
42D
100
AcDbEntity
  8
BEZUGSACHSEN
100
AcDbLine
 62
7
  6
CONTINUOUS
 10
667.8240960699
 20
507.4979354901
 11
668.0344612916
 21
507.4902834922
  0
LINE
  5
42E
100
AcDbEntity
  8
0
100
AcDbLine
 62
7
  6
CONTINUOUS
 10
649.6181625528
 20
513.2979361886
 11
653.6181625528
 21
517.2979361886
  0
LWPOLYLINE
  5
42F
100
AcDbEntity
  8
BEZUGSACHSEN
100
AcDbPolyline
 62
7
  6
CONTINUOUS
 90
3
 70
0
 10
656.2620571971
 20
524.9105753094
 10
656.0690105528
 20
524.7697349563
 10
655.8777329128
 20
524.6691217652
  0
LWPOLYLINE
  5
430
100
AcDbEntity
  8
BEZUGSACHSEN
100
AcDbPolyline
 62
7
  6
CONTINUOUS
 90
5
 70
0
 10
777.8141872845
 20
600.4635386773
 10
778.082622044
 20
600.5984284387
 10
778.3587156278
 20
600.7099445172
 10
778.6403983327
 20
600.7966853644
 10
778.9258409307
 20
600.8574231412
  0
LINE
  5
431
100
AcDbEntity
  8
BEZUGSACHSEN
100
AcDbLine
 62
7
  6
CONTINUOUS
 10
793.6181625528
 20
517.2979361886
 11
653.6193614332
 21
517.2979361886
  0
LINE
  5
432
100
AcDbEntity
  8
0
100
AcDbLine
 62
7
  6
CONTINUOUS
 10
653.6193614332
 20
517.2979361886
 11
793.6169636724
 21
517.2979361886
  0
LINE
  5
433
100
AcDbEntity
  8
BEZUGSACHSEN
100
AcDbLine
 62
7
  6
CONTINUOUS
 10
793.6181625528
 20
519.2979361886
 11
653.6181625528
 21
519.2979361886
  0
LINE
  5
434
100
AcDbEntity
  8
0
100
AcDbLine
 62
7
  6
CONTINUOUS
 10
652.6182704985
 20
519.5979361886
 11
794.6180546071
 21
519.5979361886
  0
LINE
  5
435
100
AcDbEntity
  8
0
100
AcDbLine
 62
7
  6
CONTINUOUS
 10
797.5010052653
 20
522.4807789011
 11
797.0632792256
 21
522.4807789011
  0
LINE
  5
436
100
AcDbEntity
  8
RUNDUNGEN
100
AcDbLine
 62
7
  6
CONTINUOUS
 10
797.2181625528
 20
522.5979361886
 11
796.9385132581
 21
522.5979361886
  0
LINE
  5
437
100
AcDbEntity
  8
0
100
AcDbLine
 62
7
  6
CONTINUOUS
 10
649.6181625528
 20
522.5979361886
 11
796.9002620877
 21
522.5979347117
  0
LINE
  5
438
100
AcDbEntity
  8
BEZUGSACHSEN
100
AcDbLine
 62
7
  6
CONTINUOUS
 10
796.9385132581
 20
522.5979361886
 11
797.2181064972
 21
522.5979361886
  0
LINE
  5
439
100
AcDbEntity
  8
RUNDUNGEN
100
AcDbLine
 62
7
  6
CONTINUOUS
 10
655.5523120842
 20
524.5979361886
 11
650.0181625528
 21
524.5979361886
  0
LINE
  5
43A
100
AcDbEntity
  8
BEZUGSACHSEN
100
AcDbLine
 62
7
  6
CONTINUOUS
 10
650.0182607688
 20
524.5979361886
 11
655.5522656206
 21
524.5979361886
  0
LWPOLYLINE
  5
43B
100
AcDbEntity
  8
BEZUGSACHSEN
100
AcDbPolyline
 62
7
  6
CONTINUOUS
 90
17
 70
0
 10
656.2668016576
 20
574.2813528547
 10
656.4589498923
 20
574.1021961903
 10
656.648239369
 20
573.8879474377
 10
656.8343070983
 20
573.6386155564
 10
657.0144737741
 20
573.3568648018
 10
657.1872099488
 20
573.0440509181
 10
657.3502496501
 20
572.7030986691
 10
657.5017169407
 20
572.3368761431
 10
657.6400284756
 20
571.9481927505
 10
657.7637416914
 20
571.5401349842
 10
657.8716249786
 20
571.1159844086
 10
657.9626706828
 20
570.6792210074
 10
658.0361628247
 20
570.2334866976
 10
658.0916650271
 20
569.7825028439
 10
658.1290892892
 20
569.3299778166
 10
658.1486421287
 20
568.8796059776
 10
658.1520381834
 20
568.5979362076
  0
LINE
  5
43C
100
AcDbEntity
  8
BEZUGSACHSEN
100
AcDbLine
 62
7
  6
CONTINUOUS
 10
777.5554980875
 20
600.3068071722
 11
777.8141872845
 21
600.4635386773
  0
LINE
  5
43D
100
AcDbEntity
  8
BEZUGSACHSEN
100
AcDbLine
 62
7
  6
CONTINUOUS
 10
655.6912263707
 20
524.6115647384
 11
655.5518524962
 21
524.5979413229
  0
LINE
  5
43E
100
AcDbEntity
  8
0
100
AcDbLine
 62
7
  6
CONTINUOUS
 10
649.6193356066
 20
530.5979361886
 11
653.5313610265
 21
530.5979361886
  0
LINE
  5
43F
100
AcDbEntity
  8
0
100
AcDbLine
 62
7
  6
CONTINUOUS
 10
654.1721406575
 20
531.02346809
 11
653.1217090457
 21
531.02346809
  0
LINE
  5
440
100
AcDbEntity
  8
0
100
AcDbLine
 62
7
  6
CONTINUOUS
 10
650.3549857939
 20
531.02346809
 11
649.6604042907
 21
531.02346809
  0
LINE
  5
441
100
AcDbEntity
  8
0
100
AcDbLine
 62
7
  6
CONTINUOUS
 10
654.7344035602
 20
531.8745319301
 11
653.6755271081
 21
531.8745319301
  0
LINE
  5
442
100
AcDbEntity
  8
0
100
AcDbLine
 62
7
  6
CONTINUOUS
 10
650.3549857939
 20
531.8745319301
 11
649.7355604452
 21
531.8745319301
  0
LINE
  5
443
100
AcDbEntity
  8
0
100
AcDbLine
 62
7
  6
CONTINUOUS
 10
652.4903919693
 20
533.1511276717
 11
650.754181474
 21
533.1511276717
  0
LINE
  5
444
100
AcDbEntity
  8
0
100
AcDbLine
 62
7
  6
CONTINUOUS
 10
649.6193356066
 20
533.1511276717
 11
649.6181625545
 21
533.1511276717
  0
LINE
  5
445
100
AcDbEntity
  8
0
100
AcDbLine
 62
7
  6
CONTINUOUS
 10
655.3419660868
 20
533.5766595358
 11
654.2738116375
 21
533.5766595358
  0
LINE
  5
446
100
AcDbEntity
  8
0
100
AcDbLine
 62
7
  6
CONTINUOUS
 10
650.3549857939
 20
533.5766595358
 11
649.8484382727
 21
533.5766595358
  0
LINE
  5
447
100
AcDbEntity
  8
0
100
AcDbLine
 62
7
  6
CONTINUOUS
 10
655.6631118001
 20
535.2787872905
 11
654.5899877051
 21
535.2787872905
  0
LINE
  5
448
100
AcDbEntity
  8
0
100
AcDbLine
 62
7
  6
CONTINUOUS
 10
650.3549857939
 20
535.2787872905
 11
649.9190746071
 21
535.2787872905
  0
LINE
  5
449
100
AcDbEntity
  8
BEZUGSACHSEN
100
AcDbLine
 62
7
  6
CONTINUOUS
 10
777.9997905094
 20
493.8361957811
 11
777.7164981034
 21
493.9883042735
  0
LWPOLYLINE
  5
44A
100
AcDbEntity
  8
BEZUGSACHSEN
100
AcDbPolyline
 62
7
  6
CONTINUOUS
 90
15
 70
0
 10
777.7164981034
 20
493.9883042735
 10
777.4451588945
 20
494.1645657436
 10
777.1881766158
 20
494.362761107
 10
776.9479360335
 20
494.5803391205
 10
776.7265101273
 20
494.8144567192
 10
776.5264101427
 20
495.0611405073
 10
776.34759612
 20
495.3188084084
 10
776.191031953
 20
495.584464983
 10
776.0558721089
 20
495.858058422
 10
775.9420479724
 20
496.1389324615
 10
775.8496155698
 20
496.4268586577
 10
775.7789472736
 20
496.7213744041
 10
775.7306203936
 20
497.0222156629
 10
775.7054018113
 20
497.330188461
 10
775.7018263853
 20
497.4979361894
  0
LINE
  5
44B
100
AcDbEntity
  8
BEZUGSACHSEN
100
AcDbLine
 62
7
  6
CONTINUOUS
 10
656.0734571356
 20
574.423328163
 11
656.2668016576
 21
574.2813528547
  0
LINE
  5
44C
100
AcDbEntity
  8
0
100
AcDbLine
 62
7
  6
CONTINUOUS
 10
655.8280956101
 20
537.4064466113
 11
654.752400551
 21
537.4064466113
  0
LINE
  5
44D
100
AcDbEntity
  8
0
100
AcDbLine
 62
7
  6
CONTINUOUS
 10
650.3549857939
 20
537.4064466113
 11
649.9579535751
 21
537.4064466113
  0
LINE
  5
44E
100
AcDbEntity
  8
0
100
AcDbLine
 62
7
  6
CONTINUOUS
 10
655.8280956101
 20
543.7894251699
 11
654.752400551
 21
543.7894251699
  0
LINE
  5
44F
100
AcDbEntity
  8
0
100
AcDbLine
 62
7
  6
CONTINUOUS
 10
655.6631118001
 20
545.9170856828
 11
654.5899877051
 21
545.9170856828
  0
LINE
  5
450
100
AcDbEntity
  8
0
100
AcDbLine
 62
7
  6
CONTINUOUS
 10
655.3419660868
 20
547.6192131395
 11
654.2738116375
 21
547.6192131395
  0
LINE
  5
451
100
AcDbEntity
  8
0
100
AcDbLine
 62
7
  6
CONTINUOUS
 10
650.754181474
 20
548.0447450036
 11
652.4903919693
 21
548.0447450036
  0
LINE
  5
452
100
AcDbEntity
  8
BEZUGSACHSEN
100
AcDbLine
 62
7
  6
CONTINUOUS
 10
655.8818060837
 20
574.525030854
 11
656.0734571356
 21
574.423328163
  0
LINE
  5
453
100
AcDbEntity
  8
BEZUGSACHSEN
100
AcDbLine
 62
7
  6
CONTINUOUS
 10
655.8777329128
 20
524.6691217652
 11
655.6912263707
 21
524.6115647384
  0
LINE
  5
454
100
AcDbEntity
  8
0
100
AcDbLine
 62
7
  6
CONTINUOUS
 10
654.7344035602
 20
549.3213405961
 11
653.6755271081
 21
549.3213405961
  0
LINE
  5
455
100
AcDbEntity
  8
0
100
AcDbLine
 62
7
  6
CONTINUOUS
 10
654.1721406575
 20
550.1724043245
 11
653.1217090457
 21
550.1724043245
  0
LINE
  5
456
100
AcDbEntity
  8
0
100
AcDbLine
 62
7
  6
CONTINUOUS
 10
653.5313610265
 20
550.5979361886
 11
649.7602377641
 21
550.5979361886
  0
LINE
  5
457
100
AcDbEntity
  8
0
100
AcDbLine
 62
7
  6
CONTINUOUS
 10
650.6181625528
 20
554.8107021505
 11
649.6424515825
 21
554.8107021505
  0
LINE
  5
458
100
AcDbEntity
  8
0
100
AcDbLine
 62
7
  6
CONTINUOUS
 10
653.8368357289
 20
556.5979361886
 11
652.7913768478
 21
556.5979361886
  0
LINE
  5
459
100
AcDbEntity
  8
0
100
AcDbLine
 62
7
  6
CONTINUOUS
 10
649.9097262141
 20
556.5979361886
 11
651.092978404
 21
556.5979361886
  0
LINE
  5
45A
100
AcDbEntity
  8
0
100
AcDbLine
 62
7
  6
CONTINUOUS
 10
651.2750160209
 20
556.8958085196
 11
650.2660606733
 21
556.8958085196
  0
LINE
  5
45B
100
AcDbEntity
  8
0
100
AcDbLine
 62
7
  6
CONTINUOUS
 10
653.8368357289
 20
557.7894255126
 11
652.7913768478
 21
557.7894255126
  0
LINE
  5
45C
100
AcDbEntity
  8
0
100
AcDbLine
 62
7
  6
CONTINUOUS
 10
651.4869915499
 20
557.7894255126
 11
650.4751120951
 21
557.7894255126
  0
LINE
  5
45D
100
AcDbEntity
  8
0
100
AcDbLine
 62
7
  6
CONTINUOUS
 10
653.4053935951
 20
558.0872979218
 11
652.3662648608
 21
558.0872979218
  0
LINE
  5
45E
100
AcDbEntity
  8
0
100
AcDbLine
 62
7
  6
CONTINUOUS
 10
650.0865208207
 20
558.0872979218
 11
649.9097262141
 21
558.0872979218
  0
LINE
  5
45F
100
AcDbEntity
  8
0
100
AcDbLine
 62
7
  6
CONTINUOUS
 10
649.6975985992
 20
558.0872979218
 11
649.6183062526
 21
558.0872979218
  0
LINE
  5
460
100
AcDbEntity
  8
0
100
AcDbLine
 62
7
  6
CONTINUOUS
 10
650.2277993478
 20
558.3851702267
 11
649.815147821
 21
558.3851702267
  0
LINE
  5
461
100
AcDbEntity
  8
0
100
AcDbLine
 62
7
  6
CONTINUOUS
 10
653.162283875
 20
558.6830425317
 11
652.1266886537
 21
558.6830425317
  0
LINE
  5
462
100
AcDbEntity
  8
0
100
AcDbLine
 62
7
  6
CONTINUOUS
 10
651.6286552292
 20
558.9809148366
 11
650.6148121866
 21
558.9809148366
  0
LINE
  5
463
100
AcDbEntity
  8
0
100
AcDbLine
 62
7
  6
CONTINUOUS
 10
650.3461266468
 20
558.9809148366
 11
649.7563857891
 21
558.9809148366
  0
LINE
  5
464
100
AcDbEntity
  8
0
100
AcDbLine
 62
7
  6
CONTINUOUS
 10
653.0838458991
 20
559.576659655
 11
652.0493856609
 21
559.576659655
  0
LINE
  5
465
100
AcDbEntity
  8
0
100
AcDbLine
 62
7
  6
CONTINUOUS
 10
650.4455248955
 20
560.1724042649
 11
649.6505017207
 21
560.1724042649
  0
LINE
  5
466
100
AcDbEntity
  8
BEZUGSACHSEN
100
AcDbLine
 62
7
  6
CONTINUOUS
 10
655.6948958842
 20
574.5835952581
 11
655.8818060837
 21
574.525030854
  0
LWPOLYLINE
  5
467
100
AcDbEntity
  8
BEZUGSACHSEN
100
AcDbPolyline
 62
7
  6
CONTINUOUS
 90
16
 70
0
 10
669.67279186
 20
600.3120956831
 10
669.9201012458
 20
600.1359640133
 10
670.1538003696
 20
599.9416113032
 10
670.3721305566
 20
599.7311841399
 10
670.5734077857
 20
599.50706591
 10
670.7558747569
 20
599.2723140989
 10
670.9177366088
 20
599.0310942971
 10
671.059363771
 20
598.7851556097
 10
671.180496235
 20
598.5377176432
 10
671.2826485611
 20
598.2885972145
 10
671.3667213519
 20
598.0379617388
 10
671.4334330255
 20
597.7858333796
 10
671.4832322337
 20
597.5319152431
 10
671.5163538225
 20
597.2758296952
 10
671.5327291557
 20
597.015864745
 10
671.5344987045
 20
596.8979361879
  0
LINE
  5
468
100
AcDbEntity
  8
BEZUGSACHSEN
100
AcDbLine
 62
7
  6
CONTINUOUS
 10
669.799087263
 20
494.1701972083
 11
669.5279997814
 21
493.9931601114
  0
LWPOLYLINE
  5
469
100
AcDbEntity
  8
BEZUGSACHSEN
100
AcDbPolyline
 62
7
  6
CONTINUOUS
 90
5
 70
0
 10
669.5279997814
 20
493.9931601114
 10
669.2448800543
 20
493.8402399119
 10
668.9522554763
 20
493.7134514258
 10
668.6527240236
 20
493.6145188767
 10
668.3485832526
 20
493.5449877252
  0
LINE
  5
46A
100
AcDbEntity
  8
0
100
AcDbLine
 62
7
  6
CONTINUOUS
 10
651.6818509892
 20
560.4702765698
 11
650.7139285766
 21
560.4702765698
  0
LINE
  5
46B
100
AcDbEntity
  8
0
100
AcDbLine
 62
7
  6
CONTINUOUS
 10
651.6818509892
 20
561.6617657894
 11
650.7139285766
 21
561.6617657894
  0
LINE
  5
46C
100
AcDbEntity
  8
0
100
AcDbLine
 62
7
  6
CONTINUOUS
 10
649.6505017207
 20
562.8532554263
 11
650.3738672172
 21
562.8532554263
  0
LINE
  5
46D
100
AcDbEntity
  8
0
100
AcDbLine
 62
7
  6
CONTINUOUS
 10
651.6286552292
 20
563.1511277313
 11
650.6148121866
 21
563.1511277313
  0
LINE
  5
46E
100
AcDbEntity
  8
0
100
AcDbLine
 62
7
  6
CONTINUOUS
 10
650.2277993478
 20
563.7468723411
 11
649.815147821
 21
563.7468723411
  0
LINE
  5
46F
100
AcDbEntity
  8
0
100
AcDbLine
 62
7
  6
CONTINUOUS
 10
649.9097262141
 20
564.044744646
 11
650.0865208207
 21
564.044744646
  0
LINE
  5
470
100
AcDbEntity
  8
0
100
AcDbLine
 62
7
  6
CONTINUOUS
 10
651.4869915499
 20
564.3426169509
 11
650.4751120951
 21
564.3426169509
  0
LINE
  5
471
100
AcDbEntity
  8
0
100
AcDbLine
 62
7
  6
CONTINUOUS
 10
651.1586937547
 20
564.9383615608
 11
651.6818509892
 21
564.9383615608
  0
LINE
  5
472
100
AcDbEntity
  8
0
100
AcDbLine
 62
7
  6
CONTINUOUS
 10
652.0493856609
 20
564.9383615608
 11
654.0187158861
 21
564.9383615608
  0
LINE
  5
473
100
AcDbEntity
  8
0
100
AcDbLine
 62
7
  6
CONTINUOUS
 10
651.1586937547
 20
565.2362338657
 11
650.2660606733
 21
565.2362338657
  0
LINE
  5
474
100
AcDbEntity
  8
0
100
AcDbLine
 62
7
  6
CONTINUOUS
 10
651.092978404
 20
565.5341061706
 11
649.9097262141
 21
565.5341061706
  0
LINE
  5
475
100
AcDbEntity
  8
0
100
AcDbLine
 62
7
  6
CONTINUOUS
 10
654.0187158861
 20
566.1298507804
 11
652.0493856609
 21
566.1298507804
  0
LINE
  5
476
100
AcDbEntity
  8
0
100
AcDbLine
 62
7
  6
CONTINUOUS
 10
651.6818509892
 20
566.1298507804
 11
651.1586937547
 21
566.1298507804
  0
LINE
  5
477
100
AcDbEntity
  8
0
100
AcDbLine
 62
7
  6
CONTINUOUS
 10
653.0838458991
 20
568.5128300542
 11
651.6818509892
 21
568.5128300542
  0
LINE
  5
478
100
AcDbEntity
  8
0
100
AcDbLine
 62
7
  6
CONTINUOUS
 10
649.708028607
 20
569.108574664
 11
651.6286552292
 21
569.108574664
  0
LINE
  5
479
100
AcDbEntity
  8
0
100
AcDbLine
 62
7
  6
CONTINUOUS
 10
651.6286552292
 20
570.5979361886
 11
649.6505017207
 21
570.5979361886
  0
LINE
  5
47A
100
AcDbEntity
  8
BEZUGSACHSEN
100
AcDbLine
 62
7
  6
CONTINUOUS
 10
655.551903617
 20
574.5979283648
 11
655.6948958842
 21
574.5835952581
  0
LINE
  5
47B
100
AcDbEntity
  8
BEZUGSACHSEN
100
AcDbLine
 62
7
  6
CONTINUOUS
 10
669.1453191496
 20
600.6022118171
 11
669.4138930482
 21
600.4680895264
  0
LINE
  5
47C
100
AcDbEntity
  8
BEZUGSACHSEN
100
AcDbLine
 62
7
  6
CONTINUOUS
 10
669.4138930482
 20
600.4680895264
 11
669.67279186
 21
600.3120956831
  0
LINE
  5
47D
100
AcDbEntity
  8
BEZUGSACHSEN
100
AcDbLine
 62
7
  6
CONTINUOUS
 10
655.5522654318
 20
574.5979361886
 11
650.0182596743
 21
574.5979361886
  0
LINE
  5
47E
100
AcDbEntity
  8
RUNDUNGEN
100
AcDbLine
 62
7
  6
CONTINUOUS
 10
655.5523120843
 20
574.5979361886
 11
650.0181625528
 21
574.5979361886
  0
LINE
  5
47F
100
AcDbEntity
  8
BEZUGSACHSEN
100
AcDbLine
 62
7
  6
CONTINUOUS
 10
797.2181030984
 20
575.5979361886
 11
796.9385014266
 21
575.5979361886
  0
LINE
  5
480
100
AcDbEntity
  8
RUNDUNGEN
100
AcDbLine
 62
7
  6
CONTINUOUS
 10
797.2181625528
 20
575.5979361886
 11
796.9385014266
 21
575.5979361886
  0
LINE
  5
481
100
AcDbEntity
  8
0
100
AcDbLine
 62
7
  6
CONTINUOUS
 10
797.6181625528
 20
513.2979361886
 11
793.6181625528
 21
517.2979361886
  0
LINE
  5
482
100
AcDbEntity
  8
BEZUGSACHSEN
100
AcDbLine
 62
7
  6
CONTINUOUS
 10
768.1181625528
 20
658.5977745801
 11
768.1181625528
 21
636.0976078907
  0
LINE
  5
483
100
AcDbEntity
  8
BEZUGSACHSEN
100
AcDbLine
 62
7
  6
CONTINUOUS
 10
768.1181625528
 20
458.2983889069
 11
768.1181625528
 21
435.7981391218
  0
LINE
  5
484
100
AcDbEntity
  8
BEZUGSACHSEN
100
AcDbLine
 62
7
  6
CONTINUOUS
 10
668.3104870265
 20
586.9384499962
 11
668.0235386567
 21
586.9048175793
  0
LINE
  5
485
100
AcDbEntity
  8
BEZUGSACHSEN
100
AcDbLine
 62
7
  6
CONTINUOUS
 10
778.9258409307
 20
600.8574231412
 11
779.2127862997
 21
600.8910546385
  0
LINE
  5
486
100
AcDbEntity
  8
BEZUGSACHSEN
100
AcDbLine
 62
7
  6
CONTINUOUS
 10
668.0235386567
 20
586.9048175793
 11
667.8240941728
 21
586.8979369408
  0
LINE
  5
487
100
AcDbEntity
  8
BEZUGSACHSEN
100
AcDbLine
 62
7
  6
CONTINUOUS
 10
791.6839603266
 20
586.8979361886
 11
779.4120567095
 21
586.8979361886
  0
LINE
  5
488
100
AcDbEntity
  8
BEZUGSACHSEN
100
AcDbLine
 62
7
  6
CONTINUOUS
 10
667.8242680954
 20
586.8979361886
 11
655.5523669685
 21
586.8979361886
  0
LINE
  5
489
100
AcDbEntity
  8
0
100
AcDbLine
 62
7
  6
CONTINUOUS
 10
784.5742033628
 20
589.7043191696
 11
786.2335248351
 21
589.7043191696
  0
LINE
  5
48A
100
AcDbEntity
  8
0
100
AcDbLine
 62
7
  6
CONTINUOUS
 10
660.7141490063
 20
590.0979361886
 11
659.5563570814
 21
590.0979361886
  0
LINE
  5
48B
100
AcDbEntity
  8
0
100
AcDbLine
 62
7
  6
CONTINUOUS
 10
657.0760001668
 20
590.0979361886
 11
658.630182895
 21
590.0979361886
  0
LINE
  5
48C
100
AcDbEntity
  8
0
100
AcDbLine
 62
7
  6
CONTINUOUS
 10
661.2376657742
 20
590.2468723541
 11
660.0703350656
 21
590.2468723541
  0
LINE
  5
48D
100
AcDbEntity
  8
0
100
AcDbLine
 62
7
  6
CONTINUOUS
 10
779.0862307598
 20
590.5979361886
 11
781.3510093877
 21
590.5979361886
  0
LINE
  5
48E
100
AcDbEntity
  8
0
100
AcDbLine
 62
7
  6
CONTINUOUS
 10
783.1786912085
 20
590.5979361886
 11
784.998579076
 21
590.5979361886
  0
LINE
  5
48F
100
AcDbEntity
  8
0
100
AcDbLine
 62
7
  6
CONTINUOUS
 10
787.5663705266
 20
590.5979361886
 11
789.1713643085
 21
590.5979361886
  0
LINE
  5
490
100
AcDbEntity
  8
0
100
AcDbLine
 62
7
  6
CONTINUOUS
 10
791.1295012069
 20
590.5979361886
 11
792.2095676038
 21
590.5979361886
  0
LINE
  5
491
100
AcDbEntity
  8
0
100
AcDbLine
 62
7
  6
CONTINUOUS
 10
661.6867525537
 20
590.6936808506
 11
660.5111142581
 21
590.6936808506
  0
LINE
  5
492
100
AcDbEntity
  8
0
100
AcDbLine
 62
7
  6
CONTINUOUS
 10
778.5817710638
 20
590.7468723541
 11
779.9031362185
 21
590.7468723541
  0
LINE
  5
493
100
AcDbEntity
  8
0
100
AcDbLine
 62
7
  6
CONTINUOUS
 10
787.1594569506
 20
590.7468723541
 11
788.305843712
 21
590.7468723541
  0
LINE
  5
494
100
AcDbEntity
  8
0
100
AcDbLine
 62
7
  6
CONTINUOUS
 10
790.7629037059
 20
590.7468723541
 11
791.8487734581
 21
590.7468723541
  0
LINE
  5
495
100
AcDbEntity
  8
0
100
AcDbLine
 62
7
  6
CONTINUOUS
 10
790.5745644467
 20
590.8958085196
 11
791.6634397922
 21
590.8958085196
  0
LINE
  5
496
100
AcDbEntity
  8
0
100
AcDbLine
 62
7
  6
CONTINUOUS
 10
659.9835480744
 20
590.9915532077
 11
659.1402411863
 21
590.9915532077
  0
LINE
  5
497
100
AcDbEntity
  8
0
100
AcDbLine
 62
7
  6
CONTINUOUS
 10
778.0663891079
 20
591.0447446982
 11
779.3999640207
 21
591.0447446982
  0
LINE
  5
498
100
AcDbEntity
  8
0
100
AcDbLine
 62
7
  6
CONTINUOUS
 10
661.9619136091
 20
591.1404893601
 11
660.7811270259
 21
591.1404893601
  0
LINE
  5
499
100
AcDbEntity
  8
0
100
AcDbLine
 62
7
  6
CONTINUOUS
 10
786.741498776
 20
591.1936808506
 11
787.8953402752
 21
591.1936808506
  0
LINE
  5
49A
100
AcDbEntity
  8
0
100
AcDbLine
 62
7
  6
CONTINUOUS
 10
790.3828271004
 20
591.1936808506
 11
791.4747792689
 21
591.1936808506
  0
LINE
  5
49B
100
AcDbEntity
  8
0
100
AcDbLine
 62
7
  6
CONTINUOUS
 10
660.0415601349
 20
591.2894255126
 11
658.8957987594
 21
591.2894255126
  0
LINE
  5
49C
100
AcDbEntity
  8
0
100
AcDbLine
 62
7
  6
CONTINUOUS
 10
789.1713643085
 20
591.3426170552
 11
788.7055907019
 21
591.3426170552
  0
LINE
  5
49D
100
AcDbEntity
  8
0
100
AcDbLine
 62
7
  6
CONTINUOUS
 10
781.2337732304
 20
591.3426170552
 11
780.5174362191
 21
591.3426170552
  0
LINE
  5
49E
100
AcDbEntity
  8
0
100
AcDbLine
 62
7
  6
CONTINUOUS
 10
777.6724971963
 20
591.3426170552
 11
779.0155550343
 21
591.3426170552
  0
LINE
  5
49F
100
AcDbEntity
  8
0
100
AcDbLine
 62
7
  6
CONTINUOUS
 10
785.1418567885
 20
591.3426170552
 11
786.7761675383
 21
591.3426170552
  0
LINE
  5
4A0
100
AcDbEntity
  8
0
100
AcDbLine
 62
7
  6
CONTINUOUS
 10
780.5369492282
 20
591.4915532077
 11
781.8139379717
 21
591.4915532077
  0
LINE
  5
4A1
100
AcDbEntity
  8
0
100
AcDbLine
 62
7
  6
CONTINUOUS
 10
788.3866473053
 20
591.4915532077
 11
789.4735913343
 21
591.4915532077
  0
LINE
  5
4A2
100
AcDbEntity
  8
0
100
AcDbLine
 62
7
  6
CONTINUOUS
 10
780.7699462192
 20
591.6404893601
 11
782.0418424802
 21
591.6404893601
  0
LINE
  5
4A3
100
AcDbEntity
  8
0
100
AcDbLine
 62
7
  6
CONTINUOUS
 10
662.147768256
 20
591.7362340743
 11
660.9634789689
 21
591.7362340743
  0
LINE
  5
4A4
100
AcDbEntity
  8
0
100
AcDbLine
 62
7
  6
CONTINUOUS
 10
777.4063232675
 20
591.7894255126
 11
778.7558650173
 21
591.7894255126
  0
LINE
  5
4A5
100
AcDbEntity
  8
0
100
AcDbLine
 62
7
  6
CONTINUOUS
 10
786.4853307458
 20
591.7894255126
 11
787.6437889583
 21
591.7894255126
  0
LINE
  5
4A6
100
AcDbEntity
  8
0
100
AcDbLine
 62
7
  6
CONTINUOUS
 10
788.5741272039
 20
591.7894255126
 11
789.6959753476
 21
591.7894255126
  0
LINE
  5
4A7
100
AcDbEntity
  8
0
100
AcDbLine
 62
7
  6
CONTINUOUS
 10
790.2530996635
 20
591.7894255126
 11
791.347143379
 21
591.7894255126
  0
LINE
  5
4A8
100
AcDbEntity
  8
0
100
AcDbLine
 62
7
  6
CONTINUOUS
 10
781.0005150229
 20
591.9383617694
 11
782.2674112692
 21
591.9383617694
  0
LINE
  5
4A9
100
AcDbEntity
  8
0
100
AcDbLine
 62
7
  6
CONTINUOUS
 10
662.2414266453
 20
592.1830425317
 11
661.0553644164
 21
592.1830425317
  0
LINE
  5
4AA
100
AcDbEntity
  8
0
100
AcDbLine
 62
7
  6
CONTINUOUS
 10
659.7159070834
 20
592.1830425317
 11
658.5758820418
 21
592.1830425317
  0
LINE
  5
4AB
100
AcDbEntity
  8
0
100
AcDbLine
 62
7
  6
CONTINUOUS
 10
777.2721465614
 20
592.2362340743
 11
779.2725048297
 21
592.2362340743
  0
LINE
  5
4AC
100
AcDbEntity
  8
0
100
AcDbLine
 62
7
  6
CONTINUOUS
 10
781.1148977076
 20
592.2362340743
 11
782.3793279043
 21
592.2362340743
  0
LINE
  5
4AD
100
AcDbEntity
  8
0
100
AcDbLine
 62
7
  6
CONTINUOUS
 10
788.7228828326
 20
592.2362340743
 11
789.8422110753
 21
592.2362340743
  0
LINE
  5
4AE
100
AcDbEntity
  8
0
100
AcDbLine
 62
7
  6
CONTINUOUS
 10
786.3122741463
 20
592.3851702267
 11
787.9783110324
 21
592.3851702267
  0
LINE
  5
4AF
100
AcDbEntity
  8
0
100
AcDbLine
 62
7
  6
CONTINUOUS
 10
788.7966434725
 20
592.6830425317
 11
789.9147263778
 21
592.6830425317
  0
LINE
  5
4B0
100
AcDbEntity
  8
0
100
AcDbLine
 62
7
  6
CONTINUOUS
 10
781.1148977076
 20
592.8319786841
 11
782.3793279043
 21
592.8319786841
  0
LINE
  5
4B1
100
AcDbEntity
  8
0
100
AcDbLine
 62
7
  6
CONTINUOUS
 10
662.3355746699
 20
592.9277235026
 11
661.1477249233
 21
592.9277235026
  0
LINE
  5
4B2
100
AcDbEntity
  8
0
100
AcDbLine
 62
7
  6
CONTINUOUS
 10
788.7966434725
 20
592.9809148366
 11
789.9147263778
 21
592.9809148366
  0
LINE
  5
4B3
100
AcDbEntity
  8
0
100
AcDbLine
 62
7
  6
CONTINUOUS
 10
659.6355836029
 20
593.076659655
 11
658.4969647054
 21
593.076659655
  0
LINE
  5
4B4
100
AcDbEntity
  8
0
100
AcDbLine
 62
7
  6
CONTINUOUS
 10
780.8855325107
 20
593.4277235026
 11
782.1549173475
 21
593.4277235026
  0
LINE
  5
4B5
100
AcDbEntity
  8
0
100
AcDbLine
 62
7
  6
CONTINUOUS
 10
788.7228828326
 20
593.4277235026
 11
789.8422110753
 21
593.4277235026
  0
LINE
  5
4B6
100
AcDbEntity
  8
0
100
AcDbLine
 62
7
  6
CONTINUOUS
 10
780.5369492282
 20
593.7255958075
 11
781.8139379717
 21
593.7255958075
  0
LINE
  5
4B7
100
AcDbEntity
  8
0
100
AcDbLine
 62
7
  6
CONTINUOUS
 10
786.3122741463
 20
593.7255958075
 11
788.060845419
 21
593.7255958075
  0
LINE
  5
4B8
100
AcDbEntity
  8
0
100
AcDbLine
 62
7
  6
CONTINUOUS
 10
779.3344578542
 20
593.8745319599
 11
781.1159281535
 21
593.8745319599
  0
LINE
  5
4B9
100
AcDbEntity
  8
0
100
AcDbLine
 62
7
  6
CONTINUOUS
 10
788.5741272039
 20
593.8745319599
 11
789.6959753476
 21
593.8745319599
  0
LINE
  5
4BA
100
AcDbEntity
  8
0
100
AcDbLine
 62
7
  6
CONTINUOUS
 10
659.6355836029
 20
594.1192127222
 11
658.4969647054
 21
594.1192127222
  0
LINE
  5
4BB
100
AcDbEntity
  8
0
100
AcDbLine
 62
7
  6
CONTINUOUS
 10
788.3866473053
 20
594.1724042649
 11
789.4735913343
 21
594.1724042649
  0
LINE
  5
4BC
100
AcDbEntity
  8
0
100
AcDbLine
 62
7
  6
CONTINUOUS
 10
662.3355746699
 20
594.2681488747
 11
661.1477249233
 21
594.2681488747
  0
LINE
  5
4BD
100
AcDbEntity
  8
0
100
AcDbLine
 62
7
  6
CONTINUOUS
 10
788.7055907019
 20
594.3213404173
 11
789.1713643085
 21
594.3213404173
  0
LINE
  5
4BE
100
AcDbEntity
  8
0
100
AcDbLine
 62
7
  6
CONTINUOUS
 10
779.3344578542
 20
594.4702765698
 11
781.1159281535
 21
594.4702765698
  0
LINE
  5
4BF
100
AcDbEntity
  8
BEZUGSACHSEN
100
AcDbLine
 62
7
  6
CONTINUOUS
 10
779.4122471845
 20
586.8979368883
 11
779.2209628963
 21
586.9042667125
  0
LWPOLYLINE
  5
4C0
100
AcDbEntity
  8
BEZUGSACHSEN
100
AcDbPolyline
 62
7
  6
CONTINUOUS
 90
5
 70
0
 10
779.2209628963
 20
586.9042667125
 10
778.9341853861
 20
586.9370818726
 10
778.648827052
 20
586.997004761
 10
778.3671551008
 20
587.0829356112
 10
778.091000813
 20
587.193663873
  0
LWPOLYLINE
  5
4C1
100
AcDbEntity
  8
BEZUGSACHSEN
100
AcDbPolyline
 62
7
  6
CONTINUOUS
 90
5
 70
0
 10
668.0153628024
 20
600.8916054752
 10
668.3021380572
 20
600.8587910014
 10
668.587491999
 20
600.7988698654
 10
668.8691623698
 20
600.7129379652
 10
669.1453191496
 20
600.6022118171
  0
LINE
  5
4C2
100
AcDbEntity
  8
BEZUGSACHSEN
100
AcDbLine
 62
7
  6
CONTINUOUS
 10
775.7018156745
 20
596.8979363445
 11
775.7018156745
 21
590.8979361886
  0
LINE
  5
4C3
100
AcDbEntity
  8
BEZUGSACHSEN
100
AcDbLine
 62
7
  6
CONTINUOUS
 10
775.7018156745
 20
503.4979362762
 11
775.7018156745
 21
497.4979361886
  0
LINE
  5
4C4
100
AcDbEntity
  8
0
100
AcDbLine
 62
7
  6
CONTINUOUS
 10
779.3344578542
 20
594.4702765698
 11
779.3344578542
 21
593.8745319599
  0
LINE
  5
4C5
100
AcDbEntity
  8
0
100
AcDbLine
 62
7
  6
CONTINUOUS
 10
780.6383831953
 20
594.4702765698
 11
780.6383831953
 21
593.8745319599
  0
LINE
  5
4C6
100
AcDbEntity
  8
0
100
AcDbLine
 62
7
  6
CONTINUOUS
 10
781.0005150229
 20
595.9596385116
 11
781.0005150229
 21
595.6617657894
  0
LINE
  5
4C7
100
AcDbEntity
  8
0
100
AcDbLine
 62
7
  6
CONTINUOUS
 10
781.1148977076
 20
592.8319786841
 11
781.1148977076
 21
592.2362340743
  0
LINE
  5
4C8
100
AcDbEntity
  8
0
100
AcDbLine
 62
7
  6
CONTINUOUS
 10
782.2674112692
 20
595.9596385116
 11
782.2674112692
 21
595.6617657894
  0
LINE
  5
4C9
100
AcDbEntity
  8
0
100
AcDbLine
 62
7
  6
CONTINUOUS
 10
782.3793279043
 20
592.8319786841
 11
782.3793279043
 21
592.2362340743
  0
LWPOLYLINE
  5
4CA
100
AcDbEntity
  8
BEZUGSACHSEN
100
AcDbPolyline
 62
7
  6
CONTINUOUS
 90
16
 70
0
 10
775.7018263204
 20
596.8979363472
 10
775.7032282361
 20
597.0028700869
 10
775.7187484419
 20
597.2629004385
 10
775.7510628827
 20
597.5193017301
 10
775.8001221354
 20
597.773706489
 10
775.8661706983
 20
598.02644031
 10
775.9496546882
 20
598.2777403387
 10
776.0512744609
 20
598.5275346255
 10
776.1719086017
 20
598.7756173474
 10
776.3130229624
 20
599.0221212618
 10
776.4743767006
 20
599.2638829686
 10
776.6563533357
 20
599.4991894411
 10
776.8571720735
 20
599.7238894196
 10
777.0751062332
 20
599.9349480513
 10
777.308465727
 20
600.1299705743
 10
777.5554980875
 20
600.3068071722
  0
LWPOLYLINE
  5
4CB
100
AcDbEntity
  8
BEZUGSACHSEN
100
AcDbPolyline
 62
7
  6
CONTINUOUS
 90
14
 70
0
 10
775.7018272461
 20
503.4979362777
 10
775.7048816988
 20
503.6529983257
 10
775.7291367079
 20
503.9612763224
 10
775.7765807116
 20
504.2625831648
 10
775.8464529316
 20
504.5576648024
 10
775.9381734798
 20
504.8462117551
 10
776.0513604587
 20
505.1277262869
 10
776.1859335194
 20
505.401948448
 10
776.3419453275
 20
505.6682111274
 10
776.5202074524
 20
505.9264472537
 10
776.7197832937
 20
506.1737146816
 10
776.9407460454
 20
506.4084759463
 10
777.1805830395
 20
506.6267424946
 10
777.4372373249
 20
506.825673592
  0
LINE
  5
4CC
100
AcDbEntity
  8
BEZUGSACHSEN
100
AcDbLine
 62
7
  6
CONTINUOUS
 10
779.2127862997
 20
600.8910546385
 11
779.4122281702
 21
600.8979355283
  0
LINE
  5
4CD
100
AcDbEntity
  8
0
100
AcDbLine
 62
7
  6
CONTINUOUS
 10
780.5369492282
 20
594.7681488747
 11
781.8139379717
 21
594.7681488747
  0
LINE
  5
4CE
100
AcDbEntity
  8
0
100
AcDbLine
 62
7
  6
CONTINUOUS
 10
791.6634397922
 20
594.7681488747
 11
792.3269346909
 21
594.7681488747
  0
LINE
  5
4CF
100
AcDbEntity
  8
0
100
AcDbLine
 62
7
  6
CONTINUOUS
 10
789.718776757
 20
594.7681488747
 11
791.347143379
 21
594.7681488747
  0
LINE
  5
4D0
100
AcDbEntity
  8
0
100
AcDbLine
 62
7
  6
CONTINUOUS
 10
657.0760001668
 20
594.8638934845
 11
656.6573531192
 21
594.8638934845
  0
LINE
  5
4D1
100
AcDbEntity
  8
0
100
AcDbLine
 62
7
  6
CONTINUOUS
 10
787.8953402752
 20
594.9170850272
 11
788.305843712
 21
594.9170850272
  0
LINE
  5
4D2
100
AcDbEntity
  8
0
100
AcDbLine
 62
7
  6
CONTINUOUS
 10
662.2414266453
 20
595.012829637
 11
661.0553644164
 21
595.012829637
  0
LINE
  5
4D3
100
AcDbEntity
  8
0
100
AcDbLine
 62
7
  6
CONTINUOUS
 10
659.7159070834
 20
595.012829637
 11
658.5758820418
 21
595.012829637
  0
LINE
  5
4D4
100
AcDbEntity
  8
0
100
AcDbLine
 62
7
  6
CONTINUOUS
 10
780.7699462192
 20
595.0660211796
 11
782.0418424802
 21
595.0660211796
  0
LINE
  5
4D5
100
AcDbEntity
  8
0
100
AcDbLine
 62
7
  6
CONTINUOUS
 10
787.8953402752
 20
595.0660211796
 11
789.1713643085
 21
595.0660211796
  0
LINE
  5
4D6
100
AcDbEntity
  8
0
100
AcDbLine
 62
7
  6
CONTINUOUS
 10
792.3269346909
 20
595.3638934845
 11
791.6634397922
 21
595.3638934845
  0
LINE
  5
4D7
100
AcDbEntity
  8
0
100
AcDbLine
 62
7
  6
CONTINUOUS
 10
782.7665376071
 20
595.3638934845
 11
783.7831557039
 21
595.3638934845
  0
LINE
  5
4D8
100
AcDbEntity
  8
0
100
AcDbLine
 62
7
  6
CONTINUOUS
 10
789.718776757
 20
595.3638934845
 11
791.347143379
 21
595.3638934845
  0
LINE
  5
4D9
100
AcDbEntity
  8
0
100
AcDbLine
 62
7
  6
CONTINUOUS
 10
662.147768256
 20
595.4596385116
 11
660.9634789689
 21
595.4596385116
  0
LINE
  5
4DA
100
AcDbEntity
  8
0
100
AcDbLine
 62
7
  6
CONTINUOUS
 10
781.0005150229
 20
595.6617657894
 11
782.2674112692
 21
595.6617657894
  0
LINE
  5
4DB
100
AcDbEntity
  8
0
100
AcDbLine
 62
7
  6
CONTINUOUS
 10
660.0415601349
 20
595.906446969
 11
658.8957987594
 21
595.906446969
  0
LINE
  5
4DC
100
AcDbEntity
  8
0
100
AcDbLine
 62
7
  6
CONTINUOUS
 10
777.4063232675
 20
595.9596385116
 11
779.3999640207
 21
595.9596385116
  0
LINE
  5
4DD
100
AcDbEntity
  8
0
100
AcDbLine
 62
7
  6
CONTINUOUS
 10
781.0005150229
 20
595.9596385116
 11
782.2674112692
 21
595.9596385116
  0
LINE
  5
4DE
100
AcDbEntity
  8
0
100
AcDbLine
 62
7
  6
CONTINUOUS
 10
661.9619136091
 20
596.0553831214
 11
660.7811270259
 21
596.0553831214
  0
LINE
  5
4DF
100
AcDbEntity
  8
0
100
AcDbLine
 62
7
  6
CONTINUOUS
 10
659.9835480744
 20
596.2043192739
 11
659.1402411863
 21
596.2043192739
  0
LINE
  5
4E0
100
AcDbEntity
  8
0
100
AcDbLine
 62
7
  6
CONTINUOUS
 10
780.7699462192
 20
596.406446969
 11
782.0418424802
 21
596.406446969
  0
LINE
  5
4E1
100
AcDbEntity
  8
0
100
AcDbLine
 62
7
  6
CONTINUOUS
 10
661.6867525537
 20
596.5021915788
 11
660.5111142581
 21
596.5021915788
  0
LINE
  5
4E2
100
AcDbEntity
  8
0
100
AcDbLine
 62
7
  6
CONTINUOUS
 10
777.539771685
 20
596.5553831214
 11
778.8860549625
 21
596.5553831214
  0
LINE
  5
4E3
100
AcDbEntity
  8
0
100
AcDbLine
 62
7
  6
CONTINUOUS
 10
782.7116471189
 20
596.5553831214
 11
783.7831557039
 21
596.5553831214
  0
LINE
  5
4E4
100
AcDbEntity
  8
0
100
AcDbLine
 62
7
  6
CONTINUOUS
 10
790.2530996635
 20
596.5553831214
 11
791.6634397922
 21
596.5553831214
  0
LINE
  5
4E5
100
AcDbEntity
  8
0
100
AcDbLine
 62
7
  6
CONTINUOUS
 10
780.4195303757
 20
596.7043192739
 11
781.6991007903
 21
596.7043192739
  0
LINE
  5
4E6
100
AcDbEntity
  8
0
100
AcDbLine
 62
7
  6
CONTINUOUS
 10
780.6383831953
 20
596.8532554263
 11
781.1159281535
 21
596.8532554263
  0
LINE
  5
4E7
100
AcDbEntity
  8
0
100
AcDbLine
 62
7
  6
CONTINUOUS
 10
787.8953402752
 20
596.8532554263
 11
790.1298802704
 21
596.8532554263
  0
LINE
  5
4E8
100
AcDbEntity
  8
0
100
AcDbLine
 62
7
  6
CONTINUOUS
 10
661.2376657742
 20
596.9490000362
 11
660.0703350656
 21
596.9490000362
  0
LINE
  5
4E9
100
AcDbEntity
  8
0
100
AcDbLine
 62
7
  6
CONTINUOUS
 10
660.7141490063
 20
597.0979361886
 11
659.5563570814
 21
597.0979361886
  0
LINE
  5
4EA
100
AcDbEntity
  8
0
100
AcDbLine
 62
7
  6
CONTINUOUS
 10
658.630182895
 20
597.0979361886
 11
657.0760001668
 21
597.0979361886
  0
LINE
  5
4EB
100
AcDbEntity
  8
0
100
AcDbLine
 62
7
  6
CONTINUOUS
 10
778.0663891079
 20
597.1511277313
 11
779.3999640207
 21
597.1511277313
  0
LINE
  5
4EC
100
AcDbEntity
  8
0
100
AcDbLine
 62
7
  6
CONTINUOUS
 10
778.5817710638
 20
597.4490000362
 11
779.9031362185
 21
597.4490000362
  0
LINE
  5
4ED
100
AcDbEntity
  8
0
100
AcDbLine
 62
7
  6
CONTINUOUS
 10
779.457586136
 20
597.5979361886
 11
780.9974705753
 21
597.5979361886
  0
LINE
  5
4EE
100
AcDbEntity
  8
0
100
AcDbLine
 62
7
  6
CONTINUOUS
 10
783.1786912085
 20
597.5979361886
 11
784.998579076
 21
597.5979361886
  0
LINE
  5
4EF
100
AcDbEntity
  8
0
100
AcDbLine
 62
7
  6
CONTINUOUS
 10
786.3122741463
 20
597.5979361886
 11
790.1298802704
 21
597.5979361886
  0
LINE
  5
4F0
100
AcDbEntity
  8
BEZUGSACHSEN
100
AcDbLine
 62
7
  6
CONTINUOUS
 10
655.5523686957
 20
600.8979361886
 11
667.8242691644
 21
600.8979361886
  0
LINE
  5
4F1
100
AcDbEntity
  8
BEZUGSACHSEN
100
AcDbLine
 62
7
  6
CONTINUOUS
 10
779.4120560738
 20
600.8979361886
 11
791.6839587169
 21
600.8979361886
  0
LINE
  5
4F2
100
AcDbEntity
  8
BEZUGSACHSEN
100
AcDbLine
 62
7
  6
CONTINUOUS
 10
667.8240822028
 20
600.8979355746
 11
668.0153628024
 21
600.8916054752
  0
LINE
  5
4F3
100
AcDbEntity
  8
BEZUGSACHSEN
100
AcDbLine
 62
7
  6
CONTINUOUS
 10
796.9062518934
 20
522.6690306226
 11
796.8817426129
 21
522.7303299475
  0
LINE
  5
4F4
100
AcDbEntity
  8
0
100
AcDbLine
 62
7
  6
CONTINUOUS
 10
782.821287428
 20
595.6617657894
 11
782.821287428
 21
595.9596385116
  0
LINE
  5
4F5
100
AcDbEntity
  8
0
100
AcDbLine
 62
7
  6
CONTINUOUS
 10
782.9303661875
 20
592.2362340743
 11
782.9303661875
 21
592.8319786841
  0
LINE
  5
4F6
100
AcDbEntity
  8
0
100
AcDbLine
 62
7
  6
CONTINUOUS
 10
783.1786912085
 20
595.3638934845
 11
783.1786912085
 21
590.5979361886
  0
LINE
  5
4F7
100
AcDbEntity
  8
0
100
AcDbLine
 62
7
  6
CONTINUOUS
 10
783.7831557039
 20
596.5553831214
 11
783.7831557039
 21
595.3638934845
  0
LINE
  5
4F8
100
AcDbEntity
  8
0
100
AcDbLine
 62
7
  6
CONTINUOUS
 10
784.4002040926
 20
596.406446969
 11
784.4002040926
 21
590.5979361886
  0
LINE
  5
4F9
100
AcDbEntity
  8
0
100
AcDbLine
 62
7
  6
CONTINUOUS
 10
784.9007504357
 20
500.1277235026
 11
784.9007504357
 21
501.4681488747
  0
LINE
  5
4FA
100
AcDbEntity
  8
0
100
AcDbLine
 62
7
  6
CONTINUOUS
 10
784.998579076
 20
590.5979361886
 11
784.998579076
 21
597.5979361886
  0
LINE
  5
4FB
100
AcDbEntity
  8
0
100
AcDbLine
 62
7
  6
CONTINUOUS
 10
786.0886001823
 20
501.4681488747
 11
786.0886001823
 21
500.1277235026
  0
LINE
  5
4FC
100
AcDbEntity
  8
0
100
AcDbLine
 62
7
  6
CONTINUOUS
 10
786.3122741463
 20
597.5979361886
 11
786.3122741463
 21
593.7255958075
  0
LINE
  5
4FD
100
AcDbEntity
  8
0
100
AcDbLine
 62
7
  6
CONTINUOUS
 10
786.5456692073
 20
500.276659655
 11
786.5456692073
 21
501.3192127222
  0
LINE
  5
4FE
100
AcDbEntity
  8
0
100
AcDbLine
 62
7
  6
CONTINUOUS
 10
787.4738719961
 20
597.5979361886
 11
787.4738719961
 21
593.7255958075
  0
LINE
  5
4FF
100
AcDbEntity
  8
0
100
AcDbLine
 62
7
  6
CONTINUOUS
 10
787.6007415027
 20
500.276659655
 11
787.6007415027
 21
501.3192127222
  0
LINE
  5
500
100
AcDbEntity
  8
0
100
AcDbLine
 62
7
  6
CONTINUOUS
 10
787.8953402752
 20
594.4702765698
 11
787.8953402752
 21
596.8532554263
  0
LINE
  5
501
100
AcDbEntity
  8
0
100
AcDbLine
 62
7
  6
CONTINUOUS
 10
788.6061422106
 20
497.2979361886
 11
788.6061422106
 21
497.9406214851
  0
LINE
  5
502
100
AcDbEntity
  8
0
100
AcDbLine
 62
7
  6
CONTINUOUS
 10
788.6061422106
 20
503.6552508345
 11
788.6061422106
 21
504.2979361886
  0
LINE
  5
503
100
AcDbEntity
  8
0
100
AcDbLine
 62
7
  6
CONTINUOUS
 10
788.7393604002
 20
501.3192127222
 11
788.7393604002
 21
500.276659655
  0
LINE
  5
504
100
AcDbEntity
  8
0
100
AcDbLine
 62
7
  6
CONTINUOUS
 10
788.7966434725
 20
592.9809148366
 11
788.7966434725
 21
592.6830425317
  0
LINE
  5
505
100
AcDbEntity
  8
0
100
AcDbLine
 62
7
  6
CONTINUOUS
 10
789.1276508758
 20
500.1277235026
 11
789.1276508758
 21
501.4681488747
  0
LINE
  5
506
100
AcDbEntity
  8
0
100
AcDbLine
 62
7
  6
CONTINUOUS
 10
789.718776757
 20
595.3638934845
 11
789.718776757
 21
594.7681488747
  0
LINE
  5
507
100
AcDbEntity
  8
0
100
AcDbLine
 62
7
  6
CONTINUOUS
 10
789.7274470747
 20
504.2979361886
 11
789.7274470747
 21
497.2979361886
  0
LINE
  5
508
100
AcDbEntity
  8
0
100
AcDbLine
 62
7
  6
CONTINUOUS
 10
789.9147263778
 20
592.9809148366
 11
789.9147263778
 21
592.6830425317
  0
LINE
  5
509
100
AcDbEntity
  8
0
100
AcDbLine
 62
7
  6
CONTINUOUS
 10
790.1298802704
 20
596.8532554263
 11
790.1298802704
 21
597.5979361886
  0
LINE
  5
50A
100
AcDbEntity
  8
0
100
AcDbLine
 62
7
  6
CONTINUOUS
 10
790.1603249388
 20
498.4894254083
 11
790.1603249388
 21
504.2979361886
  0
LINE
  5
50B
100
AcDbEntity
  8
0
100
AcDbLine
 62
7
  6
CONTINUOUS
 10
790.2530996635
 20
596.5553831214
 11
790.2530996635
 21
595.3638934845
  0
LINE
  5
50C
100
AcDbEntity
  8
0
100
AcDbLine
 62
7
  6
CONTINUOUS
 10
790.2530996635
 20
594.7681488747
 11
790.2530996635
 21
593.226299142
  0
LINE
  5
50D
100
AcDbEntity
  8
0
100
AcDbLine
 62
7
  6
CONTINUOUS
 10
790.2530996635
 20
592.4376582397
 11
790.2530996635
 21
591.7894255126
  0
LINE
  5
50E
100
AcDbEntity
  8
0
100
AcDbLine
 62
7
  6
CONTINUOUS
 10
790.2713352835
 20
592.5341063792
 11
790.2713352835
 21
593.129850989
  0
LINE
  5
50F
100
AcDbEntity
  8
0
100
AcDbLine
 62
7
  6
CONTINUOUS
 10
790.5789719864
 20
498.3404892558
 11
790.5789719864
 21
499.5319788927
  0
LINE
  5
510
100
AcDbEntity
  8
0
100
AcDbLine
 62
7
  6
CONTINUOUS
 10
790.8215195982
 20
595.3638934845
 11
790.8215195982
 21
594.7681488747
  0
LINE
  5
511
100
AcDbEntity
  8
0
100
AcDbLine
 62
7
  6
CONTINUOUS
 10
791.347143379
 20
596.5553831214
 11
791.347143379
 21
595.3638934845
  0
LINE
  5
512
100
AcDbEntity
  8
0
100
AcDbLine
 62
7
  6
CONTINUOUS
 10
791.347143379
 20
594.7681488747
 11
791.347143379
 21
591.7894255126
  0
LINE
  5
513
100
AcDbEntity
  8
0
100
AcDbLine
 62
7
  6
CONTINUOUS
 10
791.6634397922
 20
592.0872979218
 11
791.6634397922
 21
594.7681488747
  0
LINE
  5
514
100
AcDbEntity
  8
0
100
AcDbLine
 62
7
  6
CONTINUOUS
 10
791.6634397922
 20
595.3638934845
 11
791.6634397922
 21
596.5553831214
  0
LINE
  5
515
100
AcDbEntity
  8
0
100
AcDbLine
 62
7
  6
CONTINUOUS
 10
792.2095676038
 20
590.5979361886
 11
792.2095676038
 21
591.1936808506
  0
LINE
  5
516
100
AcDbEntity
  8
0
100
AcDbLine
 62
7
  6
CONTINUOUS
 10
792.3269346909
 20
594.7681488747
 11
792.3269346909
 21
595.3638934845
  0
LINE
  5
517
100
AcDbEntity
  8
BEZUGSACHSEN
100
AcDbLine
 62
7
  6
CONTINUOUS
 10
793.6181625528
 20
519.2979361886
 11
793.6181625528
 21
517.2979361886
  0
LWPOLYLINE
  5
518
100
AcDbEntity
  8
RUNDUNGEN
100
AcDbPolyline
 62
7
  6
CONTINUOUS
 90
3
 70
0
 10
796.7441135047
 20
575.0247217719
 10
796.7737516525
 20
575.1330298481
 10
796.8027682438
 20
575.2319998716
  0
LWPOLYLINE
  5
519
100
AcDbEntity
  8
RUNDUNGEN
100
AcDbPolyline
 62
7
  6
CONTINUOUS
 90
3
 70
0
 10
796.8027682438
 20
575.2319998716
 10
796.8309579392
 20
575.3214493473
 10
796.8581387576
 20
575.4013530114
  0
LINE
  5
51A
100
AcDbEntity
  8
0
100
AcDbLine
 62
7
  6
CONTINUOUS
 10
797.5010052653
 20
522.4807789011
 11
794.6181625528
 21
519.5979361886
  0
LINE
  5
51B
100
AcDbEntity
  8
BEZUGSACHSEN
100
AcDbLine
 62
7
  6
CONTINUOUS
 10
777.4372373249
 20
506.825673592
 11
777.7083222322
 21
507.0027115433
  0
LWPOLYLINE
  5
51C
100
AcDbEntity
  8
BEZUGSACHSEN
100
AcDbPolyline
 62
7
  6
CONTINUOUS
 90
5
 70
0
 10
777.7083222322
 20
507.0027115433
 10
777.9914422657
 20
507.1556303128
 10
778.2840644344
 20
507.2824201611
 10
778.5835950278
 20
507.3813515678
 10
778.8877393236
 20
507.4508835783
  0
LINE
  5
51D
100
AcDbEntity
  8
BEZUGSACHSEN
100
AcDbLine
 62
7
  6
CONTINUOUS
 10
778.091000813
 20
587.193663873
 11
777.8224270147
 21
587.3277851361
  0
LINE
  5
51E
100
AcDbEntity
  8
BEZUGSACHSEN
100
AcDbLine
 62
7
  6
CONTINUOUS
 10
777.8224270147
 20
587.3277851361
 11
777.5635303531
 21
587.4837786807
  0
LWPOLYLINE
  5
51F
100
AcDbEntity
  8
BEZUGSACHSEN
100
AcDbPolyline
 62
7
  6
CONTINUOUS
 90
16
 70
0
 10
777.5635303531
 20
587.4837786807
 10
777.3162214663
 20
587.6599107544
 10
777.0825217126
 20
587.8542625801
 10
776.8641934445
 20
588.0646902969
 10
776.6629128647
 20
588.2888111394
 10
776.4804471297
 20
588.5235628894
 10
776.3185849085
 20
588.7647843769
 10
776.1769594225
 20
589.0107193052
 10
776.0558265013
 20
589.2581612297
 10
775.9536732708
 20
589.5072823354
 10
775.8696014816
 20
589.7579189306
 10
775.8028898604
 20
590.0100493778
 10
775.7530905395
 20
590.2639717697
 10
775.7199696356
 20
590.5200577713
 10
775.7035955603
 20
590.7800166417
 10
775.7018273467
 20
590.8979361894
  0
LWPOLYLINE
  5
520
100
AcDbEntity
  8
RUNDUNGEN
100
AcDbPolyline
 62
7
  6
CONTINUOUS
 90
4
 70
0
 10
796.8822292492
 20
522.7290588149
 10
796.8562619817
 20
522.7998332686
 10
796.8290197517
 20
522.8803605604
 10
796.8007865731
 20
522.9704088164
  0
LWPOLYLINE
  5
521
100
AcDbEntity
  8
BEZUGSACHSEN
100
AcDbPolyline
 62
7
  6
CONTINUOUS
 90
30
 70
0
 10
796.8817426129
 20
522.7303299475
 10
796.8557103767
 20
522.8014008191
 10
796.8284097783
 20
522.8822356114
 10
796.8001278101
 20
522.9725891191
 10
796.7710471562
 20
523.0724218417
 10
796.7413721966
 20
523.1815397029
 10
796.711223892
 20
523.299987912
 10
796.6807445032
 20
523.4277042363
 10
796.6500513949
 20
523.5647100242
 10
796.6192705328
 20
523.7109841011
 10
796.5885183054
 20
523.8665482807
 10
796.5579188841
 20
524.0313878293
 10
796.5275974429
 20
524.2054866594
 10
796.4976853739
 20
524.3888079318
 10
796.4683151679
 20
524.5813243809
 10
796.4396260803
 20
524.7829656073
 10
796.4117612508
 20
524.993647121
 10
796.3848698829
 20
525.2132674804
 10
796.3591053592
 20
525.4416854749
 10
796.3346241396
 20
525.6787276459
 10
796.3115896619
 20
525.9241783672
 10
796.2901651563
 20
526.1777767244
 10
796.2705146128
 20
526.4392370131
 10
796.2528028665
 20
526.7082289531
 10
796.2371918263
 20
526.9843744881
 10
796.2238420145
 20
527.267251547
 10
796.212907817
 20
527.5563877923
 10
796.2045379118
 20
527.8512588337
 10
796.1988723415
 20
528.1512872597
 10
796.1960400002
 20
528.4558823516
  0
LINE
  5
522
100
AcDbEntity
  8
BEZUGSACHSEN
100
AcDbLine
 62
7
  6
CONTINUOUS
 10
796.1960400002
 20
528.4558823516
 11
796.1957213921
 21
569.5979361886
  0
LINE
  5
523
100
AcDbEntity
  8
0
100
AcDbLine
 62
7
  6
CONTINUOUS
 10
796.6181625528
 20
574.4790151169
 11
796.6181625528
 21
523.7165889636
  0
LINE
  5
524
100
AcDbEntity
  8
0
100
AcDbLine
 62
7
  6
CONTINUOUS
 10
797.6181625528
 20
513.2979361886
 11
797.6181625528
 21
492.8631987209
  0
LINE
  5
525
100
AcDbEntity
  8
BEZUGSACHSEN
100
AcDbLine
 62
7
  6
CONTINUOUS
 10
797.6181625528
 20
575.9979361886
 11
797.6181625528
 21
601.5326736564
  0
LWPOLYLINE
  5
526
100
AcDbEntity
  8
BEZUGSACHSEN
100
AcDbPolyline
 62
7
  6
CONTINUOUS
 90
36
 70
0
 10
796.1957215183
 20
569.5979361886
 10
796.1961048733
 20
569.7538013989
 10
796.1990706866
 20
570.0584207879
 10
796.2048687207
 20
570.3584612592
 10
796.2133692672
 20
570.6533243263
 10
796.2244324258
 20
570.9424288436
 10
796.2379085692
 20
571.2252507252
 10
796.2536429784
 20
571.5013162318
 10
796.2714745027
 20
571.7702014322
 10
796.2912409287
 20
572.0315274927
 10
796.3127761203
 20
572.2849643746
 10
796.3359169166
 20
572.5302214923
 10
796.3604978483
 20
572.7670449789
 10
796.386356215
 20
572.9952136673
 10
796.4133355496
 20
573.2145558431
 10
796.4412810292
 20
573.4249384105
 10
796.4700436816
 20
573.6262524203
 10
796.4994805938
 20
573.8184123826
 10
796.529452039
 20
574.0013595734
 10
796.5598246538
 20
574.1750605201
 10
796.590466379
 20
574.3394718697
 10
796.6212531447
 20
574.4945866264
 10
796.6520606972
 20
574.640395331
 10
796.6827707184
 20
574.7769125754
 10
796.7132553788
 20
574.9041108811
 10
796.7433990812
 20
575.0220204453
 10
796.7730599777
 20
575.1305855228
 10
796.8021144388
 20
575.229846727
 10
796.8303534669
 20
575.3196010562
 10
796.857592985
 20
575.3998109387
 10
796.8835448681
 20
575.4702387206
 10
796.9079488955
 20
575.530875132
 10
796.9302819275
 20
575.5812685795
 10
796.9500842666
 20
575.6214240251
 10
796.9662263145
 20
575.6504599118
 10
796.9709216443
 20
575.6581484581
  0
LINE
  5
527
100
AcDbEntity
  8
0
100
AcDbLine
 62
7
  6
CONTINUOUS
 10
414.0548393711
 20
143.4510837868
 11
410.7296681384
 21
143.4510837868
  0
LINE
  5
528
100
AcDbEntity
  8
RUNDUNGEN
100
AcDbLine
 62
7
  6
CONTINUOUS
 10
395.3451166313
 20
143.4510837868
 11
378.2296672118
 21
143.4510837868
  0
LINE
  5
529
100
AcDbEntity
  8
BEZUGSACHSEN
100
AcDbLine
 62
7
  6
CONTINUOUS
 10
300.9044969058
 20
143.4510837868
 11
336.729669065
 21
143.4510837868
  0
LINE
  5
52A
100
AcDbEntity
  8
BEZUGSACHSEN
100
AcDbLine
 62
7
  6
CONTINUOUS
 10
395.3451166313
 20
143.4510837868
 11
414.0548393711
 21
143.4510837868
  0
LINE
  5
52B
100
AcDbEntity
  8
BEZUGSACHSEN
100
AcDbLine
 62
7
  6
CONTINUOUS
 10
341.7296681384
 20
146.5253071017
 11
341.7296681384
 21
229.3768605666
  0
LINE
  5
52C
100
AcDbEntity
  8
0
100
AcDbLine
 62
7
  6
CONTINUOUS
 10
373.2296681384
 20
168.2010837868
 11
341.7296681384
 21
168.2010837868
  0
LINE
  5
52D
100
AcDbEntity
  8
RUNDUNGEN
100
AcDbLine
 62
7
  6
CONTINUOUS
 10
373.2296681384
 20
146.5253071017
 11
373.2296681384
 21
229.3768605666
  0
LINE
  5
52E
100
AcDbEntity
  8
0
100
AcDbLine
 62
7
  6
CONTINUOUS
 10
373.2296681384
 20
207.7010837868
 11
341.7296681384
 21
207.7010837868
  0
LINE
  5
52F
100
AcDbEntity
  8
0
100
AcDbLine
 62
7
  6
CONTINUOUS
 10
394.4796681384
 20
124.7524737034
 11
394.4796681384
 21
123.8652039068
  0
LINE
  5
530
100
AcDbEntity
  8
0
100
AcDbLine
 62
7
  6
CONTINUOUS
 10
395.3546681384
 20
125.1711323677
 11
395.3546681384
 21
124.3784137548
  0
LINE
  5
531
100
AcDbEntity
  8
0
100
AcDbLine
 62
7
  6
CONTINUOUS
 10
396.9588347356
 20
125.9555781621
 11
396.9588347356
 21
125.3619840585
  0
LINE
  5
532
100
AcDbEntity
  8
0
100
AcDbLine
 62
7
  6
CONTINUOUS
 10
398.5630013327
 20
126.7821474013
 11
398.5630013327
 21
126.4030559252
  0
LINE
  5
533
100
AcDbEntity
  8
0
100
AcDbLine
 62
7
  6
CONTINUOUS
 10
399.4380013327
 20
127.2621511514
 11
399.4380013327
 21
126.9961965704
  0
LINE
  5
534
100
AcDbEntity
  8
0
100
AcDbLine
 62
7
  6
CONTINUOUS
 10
400.6046681384
 20
127.9479818393
 11
400.6046681384
 21
127.8159495058
  0
LINE
  5
535
100
AcDbEntity
  8
0
100
AcDbLine
 62
7
  6
CONTINUOUS
 10
401.4796681384
 20
128.5164207358
 11
401.4796681384
 21
128.4531846642
  0
LINE
  5
536
100
AcDbEntity
  8
BEZUGSACHSEN
100
AcDbLine
 62
7
  6
CONTINUOUS
 10
336.7296667868
 20
232.4510837868
 11
300.9044969058
 21
232.4510837868
  0
LINE
  5
537
100
AcDbEntity
  8
RUNDUNGEN
100
AcDbLine
 62
7
  6
CONTINUOUS
 10
378.22966949
 20
232.4510837868
 11
395.3451147982
 21
232.4510837868
  0
LINE
  5
538
100
AcDbEntity
  8
BEZUGSACHSEN
100
AcDbLine
 62
7
  6
CONTINUOUS
 10
395.3451147982
 20
232.4510837868
 11
414.0548393711
 21
232.4510837868
  0
LWPOLYLINE
  5
539
100
AcDbEntity
  8
RUNDUNGEN
100
AcDbPolyline
 62
7
  6
CONTINUOUS
 90
18
 70
0
 10
391.4422301499
 20
122.3550787539
 10
391.4416122344
 20
122.3538107829
 10
391.441820215
 20
122.3542036304
 10
391.4437957846
 20
122.3578650541
 10
391.4472971195
 20
122.3641018893
 10
391.4523478374
 20
122.3728001391
 10
391.4588366898
 20
122.3836550564
 10
391.4667572256
 20
122.3965732475
 10
391.4760401517
 20
122.4113767489
 10
391.4866798359
 20
122.4280041762
 10
391.4986316797
 20
122.446341104
 10
391.5118919711
 20
122.4663426588
 10
391.5264259145
 20
122.4879209415
 10
391.5422463947
 20
122.5110643317
 10
391.5593479705
 20
122.5357363804
 10
391.5777514259
 20
122.5619379959
 10
391.5974708982
 20
122.5896585946
 10
391.6185337623
 20
122.6189037893
  0
LWPOLYLINE
  5
53A
100
AcDbEntity
  8
RUNDUNGEN
100
AcDbPolyline
 62
7
  6
CONTINUOUS
 90
8
 70
0
 10
391.6185337623
 20
122.6189037893
 10
391.6409603944
 20
122.6496663077
 10
391.6647984721
 20
122.6819726061
 10
391.6900985184
 20
122.715852739
 10
391.7169064383
 20
122.75133105
 10
391.7452743783
 20
122.7884357625
 10
391.7752514247
 20
122.8271858172
 10
391.8068881023
 20
122.8675962241
  0
LINE
  5
53B
100
AcDbEntity
  8
RUNDUNGEN
100
AcDbLine
 62
7
  6
CONTINUOUS
 10
391.8068881023
 20
122.8675962241
 11
391.8502847399
 21
122.922256073
  0
LWPOLYLINE
  5
53C
100
AcDbEntity
  8
RUNDUNGEN
100
AcDbPolyline
 62
7
  6
CONTINUOUS
 90
12
 70
0
 10
391.8503528829
 20
122.9223433733
 10
391.8848487692
 20
122.9646987824
 10
392.0011978499
 20
123.0981753774
 10
392.1423574483
 20
123.2446742416
 10
392.3086715723
 20
123.4009351155
 10
392.5002372373
 20
123.5642031821
 10
392.7158155714
 20
123.7315539999
 10
392.953759657
 20
123.9007129413
 10
393.2124951794
 20
124.0701904843
 10
393.4901350701
 20
124.2386057846
 10
393.785802335
 20
124.4050786511
 10
394.0986246758
 20
124.5682233322
  0
LINE
  5
53D
100
AcDbEntity
  8
RUNDUNGEN
100
AcDbLine
 62
7
  6
CONTINUOUS
 10
394.0986246758
 20
124.5682233322
 11
394.2950988026
 21
124.6641630605
  0
LWPOLYLINE
  5
53E
100
AcDbEntity
  8
RUNDUNGEN
100
AcDbPolyline
 62
7
  6
CONTINUOUS
 90
7
 70
0
 10
394.295066803
 20
124.664148048
 10
395.9583356712
 20
125.4599673883
 10
397.6225694593
 20
126.2843681549
 10
399.1078187627
 20
127.0705242816
 10
400.4785607713
 20
127.8660568878
 10
401.7962044562
 20
128.7220567988
 10
402.9088151583
 20
129.5369988369
  0
ARC
  5
53F
100
AcDbEntity
  8
BEZUGSACHSEN
100
AcDbCircle
 62
7
  6
CONTINUOUS
 10
305.4796681384
 20
431.2979361886
 40
40.0
100
AcDbArc
 50
240.9407208781
 51
270.0
  0
ARC
  5
540
100
AcDbEntity
  8
BEZUGSACHSEN
100
AcDbCircle
 62
7
  6
CONTINUOUS
 10
349.4796681384
 20
528.5979361886
 40
6.0
100
AcDbArc
 50
179.9999199122
 51
270.0009369367
  0
ARC
  5
541
100
AcDbEntity
  8
BEZUGSACHSEN
100
AcDbCircle
 62
7
  6
CONTINUOUS
 10
336.7296681384
 20
402.6263141904
 40
5.0
100
AcDbArc
 50
284.1296954189
 51
360.0
  0
ARC
  5
542
100
AcDbEntity
  8
BEZUGSACHSEN
100
AcDbCircle
 62
7
  6
CONTINUOUS
 10
319.614248558
 20
396.2979361886
 40
5.0
100
AcDbArc
 50
270.0
 51
296.4537666967
  0
ARC
  5
543
100
AcDbEntity
  8
BEZUGSACHSEN
100
AcDbCircle
 62
7
  6
CONTINUOUS
 10
288.4796681713
 20
400.7038191087
 40
4.9999999976
100
AcDbArc
 50
179.9999999966
 51
240.9407189377
  0
ARC
  5
544
100
AcDbEntity
  8
BEZUGSACHSEN
100
AcDbCircle
 62
7
  6
CONTINUOUS
 10
329.4796681384
 20
497.4979361886
 40
4.0
100
AcDbArc
 50
269.9982331067
 51
359.9999057624
  0
ARC
  5
545
100
AcDbEntity
  8
BEZUGSACHSEN
100
AcDbCircle
 62
7
  6
CONTINUOUS
 10
309.4796681384
 20
497.4979361886
 40
4.0
100
AcDbArc
 50
248.2030170987
 51
269.9997635725
  0
ARC
  5
546
100
AcDbEntity
  8
BEZUGSACHSEN
100
AcDbCircle
 62
7
  6
CONTINUOUS
 10
309.4796681384
 20
503.4979361886
 40
4.0
100
AcDbArc
 50
90.0002171188
 51
111.7970460074
  0
ARC
  5
547
100
AcDbEntity
  8
BEZUGSACHSEN
100
AcDbCircle
 62
7
  6
CONTINUOUS
 10
329.4796681384
 20
503.4979361886
 40
4.0
100
AcDbArc
 50
0.0000621266
 51
90.0017129858
  0
ARC
  5
548
100
AcDbEntity
  8
BEZUGSACHSEN
100
AcDbCircle
 62
7
  6
CONTINUOUS
 10
305.4796681384
 20
663.0979361886
 40
40.0
100
AcDbArc
 50
90.0
 51
119.0592791219
  0
ARC
  5
549
100
AcDbEntity
  8
BEZUGSACHSEN
100
AcDbCircle
 62
7
  6
CONTINUOUS
 10
349.4796681384
 20
569.5979361886
 40
6.0
100
AcDbArc
 50
89.9988261869
 51
179.9999630877
  0
ARC
  5
54A
100
AcDbEntity
  8
BEZUGSACHSEN
100
AcDbCircle
 62
7
  6
CONTINUOUS
 10
336.7296681384
 20
691.7695581869
 40
5.0
100
AcDbArc
 50
0.0
 51
75.8703045811
  0
ARC
  5
54B
100
AcDbEntity
  8
BEZUGSACHSEN
100
AcDbCircle
 62
7
  6
CONTINUOUS
 10
319.614248558
 20
698.0979361886
 40
5.0
100
AcDbArc
 50
63.5462333033
 51
90.0
  0
ARC
  5
54C
100
AcDbEntity
  8
BEZUGSACHSEN
100
AcDbCircle
 62
7
  6
CONTINUOUS
 10
288.4796681713
 20
693.6920532685
 40
4.9999999976
100
AcDbArc
 50
119.0592810623
 51
180.0000000034
  0
ARC
  5
54D
100
AcDbEntity
  8
BEZUGSACHSEN
100
AcDbCircle
 62
7
  6
CONTINUOUS
 10
329.4796681384
 20
596.8979361886
 40
4.0
100
AcDbArc
 50
0.0000940471
 51
90.0016948872
  0
ARC
  5
54E
100
AcDbEntity
  8
BEZUGSACHSEN
100
AcDbCircle
 62
7
  6
CONTINUOUS
 10
309.4796681384
 20
596.8979361886
 40
4.0
100
AcDbArc
 50
90.0002340334
 51
111.797002349
  0
ARC
  5
54F
100
AcDbEntity
  8
BEZUGSACHSEN
100
AcDbCircle
 62
7
  6
CONTINUOUS
 10
309.4796681384
 20
590.8979361886
 40
4.0
100
AcDbArc
 50
248.202971161
 51
269.9997774494
  0
ARC
  5
550
100
AcDbEntity
  8
BEZUGSACHSEN
100
AcDbCircle
 62
7
  6
CONTINUOUS
 10
329.4796681384
 20
590.8979361886
 40
4.0
100
AcDbArc
 50
269.998355353
 51
359.9999390946
  0
ARC
  5
551
100
AcDbEntity
  8
BEZUGSACHSEN
100
AcDbCircle
 62
7
  6
CONTINUOUS
 10
357.4796681384
 20
320.1979361886
 40
80.0
100
AcDbArc
 50
104.1296954189
 51
116.4537666967
  0
ARC
  5
552
100
AcDbEntity
  8
0
100
AcDbCircle
 62
7
  6
CONTINUOUS
 10
357.4796681384
 20
320.1979361886
 40
80.0
100
AcDbArc
 50
63.5462333033
 51
75.8703045811
  0
ARC
  5
553
100
AcDbEntity
  8
0
100
AcDbCircle
 62
7
  6
CONTINUOUS
 10
409.4796681384
 20
431.2979361886
 40
40.0
100
AcDbArc
 50
270.0
 51
299.0592791219
  0
ARC
  5
554
100
AcDbEntity
  8
BEZUGSACHSEN
100
AcDbCircle
 62
7
  6
CONTINUOUS
 10
357.4796681384
 20
469.7479361886
 40
15.75
100
AcDbArc
 50
359.9992124622
 51
180.0007875378
  0
ARC
  5
555
100
AcDbEntity
  8
RUNDUNGEN
100
AcDbCircle
 62
7
  6
CONTINUOUS
 10
365.4796681384
 20
528.5979361886
 40
6.0
100
AcDbArc
 50
269.9990630633
 51
0.0000800878
  0
ARC
  5
556
100
AcDbEntity
  8
RUNDUNGEN
100
AcDbCircle
 62
7
  6
CONTINUOUS
 10
378.2296681384
 20
402.6263141904
 40
5.0
100
AcDbArc
 50
180.0
 51
255.8703045811
  0
ARC
  5
557
100
AcDbEntity
  8
RUNDUNGEN
100
AcDbCircle
 62
7
  6
CONTINUOUS
 10
395.3450877188
 20
396.2979361886
 40
5.0
100
AcDbArc
 50
243.5462333033
 51
270.0
  0
CIRCLE
  5
558
100
AcDbEntity
  8
BEZUGSACHSEN
100
AcDbCircle
 62
7
  6
CONTINUOUS
 10
405.7296681384
 20
435.7979361886
 40
5.0
  0
ARC
  5
559
100
AcDbEntity
  8
RUNDUNGEN
100
AcDbCircle
 62
7
  6
CONTINUOUS
 10
426.4796681055
 20
400.7038191087
 40
4.9999999976
100
AcDbArc
 50
299.0592810623
 51
360.0
  0
ARC
  5
55A
100
AcDbEntity
  8
RUNDUNGEN
100
AcDbCircle
 62
7
  6
CONTINUOUS
 10
385.4796681384
 20
503.4979361886
 40
4.0
100
AcDbArc
 50
89.9982870142
 51
179.9999378734
  0
ARC
  5
55B
100
AcDbEntity
  8
RUNDUNGEN
100
AcDbCircle
 62
7
  6
CONTINUOUS
 10
405.4796681384
 20
503.4979361886
 40
4.0
100
AcDbArc
 50
68.2029539926
 51
89.9999999993
  0
ARC
  5
55C
100
AcDbEntity
  8
RUNDUNGEN
100
AcDbCircle
 62
7
  6
CONTINUOUS
 10
405.4796681384
 20
497.4979361886
 40
4.0
100
AcDbArc
 50
270.0000000009
 51
291.7969829013
  0
ARC
  5
55D
100
AcDbEntity
  8
RUNDUNGEN
100
AcDbCircle
 62
7
  6
CONTINUOUS
 10
385.4796681384
 20
497.4979361886
 40
4.0
100
AcDbArc
 50
180.0000942376
 51
270.0017668933
  0
ARC
  5
55E
100
AcDbEntity
  8
BEZUGSACHSEN
100
AcDbCircle
 62
7
  6
CONTINUOUS
 10
357.4796681384
 20
774.1979361886
 40
80.0
100
AcDbArc
 50
243.5462333033
 51
255.8703045811
  0
ARC
  5
55F
100
AcDbEntity
  8
0
100
AcDbCircle
 62
7
  6
CONTINUOUS
 10
357.4796681384
 20
774.1979361886
 40
80.0
100
AcDbArc
 50
284.1296954189
 51
296.4537666967
  0
ARC
  5
560
100
AcDbEntity
  8
0
100
AcDbCircle
 62
7
  6
CONTINUOUS
 10
409.4796681384
 20
663.0979361886
 40
40.0
100
AcDbArc
 50
60.9407208781
 51
90.0
  0
ARC
  5
561
100
AcDbEntity
  8
BEZUGSACHSEN
100
AcDbCircle
 62
7
  6
CONTINUOUS
 10
357.4796681384
 20
624.6479361886
 40
15.75
100
AcDbArc
 50
179.9992113148
 51
0.0007886852
  0
ARC
  5
562
100
AcDbEntity
  8
RUNDUNGEN
100
AcDbCircle
 62
7
  6
CONTINUOUS
 10
365.4796681384
 20
569.5979361886
 40
6.0
100
AcDbArc
 50
0.0000369123
 51
90.0011738131
  0
CIRCLE
  5
563
100
AcDbEntity
  8
BEZUGSACHSEN
100
AcDbCircle
 62
7
  6
CONTINUOUS
 10
405.7296681384
 20
658.5979361886
 40
5.0
  0
ARC
  5
564
100
AcDbEntity
  8
RUNDUNGEN
100
AcDbCircle
 62
7
  6
CONTINUOUS
 10
378.2296681384
 20
691.7695581869
 40
5.0
100
AcDbArc
 50
104.1296954189
 51
180.0
  0
ARC
  5
565
100
AcDbEntity
  8
RUNDUNGEN
100
AcDbCircle
 62
7
  6
CONTINUOUS
 10
395.3450877188
 20
698.0979361886
 40
5.0
100
AcDbArc
 50
90.0
 51
116.4537666967
  0
ARC
  5
566
100
AcDbEntity
  8
RUNDUNGEN
100
AcDbCircle
 62
7
  6
CONTINUOUS
 10
426.4796681055
 20
693.6920532685
 40
4.9999999976
100
AcDbArc
 50
0.0
 51
60.9407189377
  0
ARC
  5
567
100
AcDbEntity
  8
RUNDUNGEN
100
AcDbCircle
 62
7
  6
CONTINUOUS
 10
388.4796681384
 20
600.8979361886
 40
3.0
100
AcDbArc
 50
270.0000569264
 51
360.0
  0
ARC
  5
568
100
AcDbEntity
  8
RUNDUNGEN
100
AcDbCircle
 62
7
  6
CONTINUOUS
 10
382.4796681384
 20
587.8979361886
 40
3.0
100
AcDbArc
 50
180.0001020014
 51
270.0
  0
ARC
  5
569
100
AcDbEntity
  8
RUNDUNGEN
100
AcDbCircle
 62
7
  6
CONTINUOUS
 10
382.4796681384
 20
594.8979361886
 40
3.0
100
AcDbArc
 50
89.9999813797
 51
179.9995425961
  0
ARC
  5
56A
100
AcDbEntity
  8
RUNDUNGEN
100
AcDbCircle
 62
7
  6
CONTINUOUS
 10
394.4796681384
 20
603.8979361886
 40
3.0
100
AcDbArc
 50
149.631018441
 51
179.9975405714
  0
ARC
  5
56B
100
AcDbEntity
  8
BEZUGSACHSEN
100
AcDbCircle
 62
7
  6
CONTINUOUS
 10
649.1181625528
 20
458.2980428555
 40
30.0
100
AcDbArc
 50
0.0004232842
 51
80.9589038514
  0
ARC
  5
56C
100
AcDbEntity
  8
BEZUGSACHSEN
100
AcDbCircle
 62
7
  6
CONTINUOUS
 10
654.6181629921
 20
492.8632023974
 40
5.0000005285
100
AcDbArc
 50
180.0000421295
 51
260.9589055007
  0
ARC
  5
56D
100
AcDbEntity
  8
RUNDUNGEN
100
AcDbCircle
 62
7
  6
CONTINUOUS
 10
650.2181625528
 20
524.9979361886
 40
0.4
100
AcDbArc
 50
270.0
 51
360.0
  0
ARC
  5
56E
100
AcDbEntity
  8
RUNDUNGEN
100
AcDbCircle
 62
7
  6
CONTINUOUS
 10
650.0181625528
 20
524.1979361886
 40
0.4
100
AcDbArc
 50
90.0
 51
180.0
  0
ARC
  5
56F
100
AcDbEntity
  8
BEZUGSACHSEN
100
AcDbCircle
 62
7
  6
CONTINUOUS
 10
649.1181625528
 20
636.0978295218
 40
30.0
100
AcDbArc
 50
279.0410961486
 51
359.9993390906
  0
ARC
  5
570
100
AcDbEntity
  8
BEZUGSACHSEN
100
AcDbCircle
 62
7
  6
CONTINUOUS
 10
654.6181627985
 20
601.5326716058
 40
5.0000002948
100
AcDbArc
 50
99.0410952363
 51
179.999976502
  0
ARC
  5
571
100
AcDbEntity
  8
RUNDUNGEN
100
AcDbCircle
 62
7
  6
CONTINUOUS
 10
650.2181625528
 20
574.1979361886
 40
0.4
100
AcDbArc
 50
0.0
 51
90.0
  0
ARC
  5
572
100
AcDbEntity
  8
RUNDUNGEN
100
AcDbCircle
 62
7
  6
CONTINUOUS
 10
650.0181625528
 20
574.9979361886
 40
0.4
100
AcDbArc
 50
180.0
 51
270.0
  0
ARC
  5
573
100
AcDbEntity
  8
RUNDUNGEN
100
AcDbCircle
 62
7
  6
CONTINUOUS
 10
723.6181625528
 20
435.7979361886
 40
44.5
100
AcDbArc
 50
315.0
 51
319.220339486
  0
ARC
  5
574
100
AcDbEntity
  8
RUNDUNGEN
100
AcDbCircle
 62
7
  6
CONTINUOUS
 10
723.6181625528
 20
435.7979361886
 40
44.5
100
AcDbArc
 50
319.6696751676
 51
321.9515227819
  0
ARC
  5
575
100
AcDbEntity
  8
RUNDUNGEN
100
AcDbCircle
 62
7
  6
CONTINUOUS
 10
723.6181625528
 20
435.7979361886
 40
44.5
100
AcDbArc
 50
322.4142818581
 51
327.9686351649
  0
ARC
  5
576
100
AcDbEntity
  8
RUNDUNGEN
100
AcDbCircle
 62
7
  6
CONTINUOUS
 10
723.6181625528
 20
435.7979361886
 40
44.5
100
AcDbArc
 50
328.259799754
 51
332.3201998026
  0
ARC
  5
577
100
AcDbEntity
  8
RUNDUNGEN
100
AcDbCircle
 62
7
  6
CONTINUOUS
 10
723.6181625528
 20
435.7979361886
 40
44.5
100
AcDbArc
 50
333.8343346392
 51
360.0
  0
ARC
  5
578
100
AcDbEntity
  8
BEZUGSACHSEN
100
AcDbCircle
 62
7
  6
CONTINUOUS
 10
723.6181625528
 20
435.7979361886
 40
44.5
100
AcDbArc
 50
179.9997919218
 51
359.9994240357
  0
ARC
  5
579
100
AcDbEntity
  8
BEZUGSACHSEN
100
AcDbCircle
 62
7
  6
CONTINUOUS
 10
798.1181625528
 20
458.2980428555
 40
30.0
100
AcDbArc
 50
99.0410961486
 51
179.9993390906
  0
ARC
  5
57A
100
AcDbEntity
  8
BEZUGSACHSEN
100
AcDbCircle
 62
7
  6
CONTINUOUS
 10
792.6181623071
 20
492.8632007715
 40
5.0000002948
100
AcDbArc
 50
279.0410952363
 51
359.999976502
  0
ARC
  5
57B
100
AcDbEntity
  8
RUNDUNGEN
100
AcDbCircle
 62
7
  6
CONTINUOUS
 10
797.0181625528
 20
522.9979361886
 40
0.4
100
AcDbArc
 50
257.7445769106
 51
270.0
  0
ARC
  5
57C
100
AcDbEntity
  8
RUNDUNGEN
100
AcDbCircle
 62
7
  6
CONTINUOUS
 10
797.2181625528
 20
522.1979361886
 40
0.4
100
AcDbArc
 50
45.0
 51
90.0
  0
ARC
  5
57D
100
AcDbEntity
  8
0
100
AcDbCircle
 62
7
  6
CONTINUOUS
 10
797.1431870127
 20
522.6416920106
 40
0.2011308968
100
AcDbArc
 50
214.3779888336
 51
216.4504867452
  0
ARC
  5
57E
100
AcDbEntity
  8
RUNDUNGEN
100
AcDbCircle
 62
7
  6
CONTINUOUS
 10
723.6181625528
 20
658.5979361886
 40
44.5
100
AcDbArc
 50
0.0196984321
 51
25.5110137903
  0
ARC
  5
57F
100
AcDbEntity
  8
RUNDUNGEN
100
AcDbCircle
 62
7
  6
CONTINUOUS
 10
723.6181625528
 20
658.5979361886
 40
44.5
100
AcDbArc
 50
27.6796815537
 51
45.0
  0
ARC
  5
580
100
AcDbEntity
  8
BEZUGSACHSEN
100
AcDbCircle
 62
7
  6
CONTINUOUS
 10
723.6181625528
 20
658.5979361886
 40
44.5
100
AcDbArc
 50
359.9997919218
 51
179.9994240357
  0
ARC
  5
581
100
AcDbEntity
  8
BEZUGSACHSEN
100
AcDbCircle
 62
7
  6
CONTINUOUS
 10
792.6181621135
 20
601.5326699799
 40
5.0000005285
100
AcDbArc
 50
0.0000421295
 51
80.9589055007
  0
ARC
  5
582
100
AcDbEntity
  8
RUNDUNGEN
100
AcDbCircle
 62
7
  6
CONTINUOUS
 10
797.0181625528
 20
575.1979361886
 40
0.4
100
AcDbArc
 50
90.0
 51
102.2643085902
  0
ARC
  5
583
100
AcDbEntity
  8
RUNDUNGEN
100
AcDbCircle
 62
7
  6
CONTINUOUS
 10
797.2181625528
 20
575.9979361886
 40
0.4
100
AcDbArc
 50
270.0
 51
360.0
  0
ARC
  5
584
100
AcDbEntity
  8
BEZUGSACHSEN
100
AcDbCircle
 62
7
  6
CONTINUOUS
 10
798.1181625528
 20
636.0978295218
 40
30.0
100
AcDbArc
 50
180.0004232842
 51
260.9589038514
  0
ARC
  5
585
100
AcDbEntity
  8
BEZUGSACHSEN
100
AcDbCircle
 62
7
  6
CONTINUOUS
 10
336.7296681384
 20
154.7794617886
 40
5.0
100
AcDbArc
 50
284.1296954189
 51
360.0
  0
ARC
  5
586
100
AcDbEntity
  8
BEZUGSACHSEN
100
AcDbCircle
 62
7
  6
CONTINUOUS
 10
336.7296681384
 20
148.4510837868
 40
5.0
100
AcDbArc
 50
270.0000212359
 51
359.9999998402
  0
ARC
  5
587
100
AcDbEntity
  8
BEZUGSACHSEN
100
AcDbCircle
 62
7
  6
CONTINUOUS
 10
300.9044979702
 20
148.4510806421
 40
4.9999995508
100
AcDbArc
 50
214.9221745845
 51
269.9999878035
  0
ARC
  5
588
100
AcDbEntity
  8
BEZUGSACHSEN
100
AcDbCircle
 62
7
  6
CONTINUOUS
 10
319.6142673079
 20
148.4510837868
 40
4.999998044
100
AcDbArc
 50
269.9997851422
 51
296.4535743355
  0
ARC
  5
589
100
AcDbEntity
  8
BEZUGSACHSEN
100
AcDbCircle
 62
7
  6
CONTINUOUS
 10
333.8796676724
 20
118.2373836806
 40
0.3999999576
100
AcDbArc
 50
180.000017977
 51
251.2976298241
  0
ARC
  5
58A
100
AcDbEntity
  8
BEZUGSACHSEN
100
AcDbCircle
 62
7
  6
CONTINUOUS
 10
343.0796688404
 20
115.7735247304
 40
0.3999999561
100
AcDbArc
 50
265.5279128242
 51
339.7434400655
  0
ARC
  5
58B
100
AcDbEntity
  8
BEZUGSACHSEN
100
AcDbCircle
 62
7
  6
CONTINUOUS
 10
319.614248558
 20
227.4510837868
 40
5.0
100
AcDbArc
 50
63.5462333033
 51
90.0
  0
ARC
  5
58C
100
AcDbEntity
  8
BEZUGSACHSEN
100
AcDbCircle
 62
7
  6
CONTINUOUS
 10
336.7296681384
 20
227.4510837868
 40
5.0
100
AcDbArc
 50
0.0000005744
 51
90.0000154883
  0
ARC
  5
58D
100
AcDbEntity
  8
BEZUGSACHSEN
100
AcDbCircle
 62
7
  6
CONTINUOUS
 10
336.7296681384
 20
221.122705785
 40
5.0
100
AcDbArc
 50
0.0
 51
75.8703045811
  0
ARC
  5
58E
100
AcDbEntity
  8
BEZUGSACHSEN
100
AcDbCircle
 62
7
  6
CONTINUOUS
 10
300.9044969058
 20
227.4510837868
 40
5.0
100
AcDbArc
 50
90.0
 51
145.0777888863
  0
ARC
  5
58F
100
AcDbEntity
  8
BEZUGSACHSEN
100
AcDbCircle
 62
7
  6
CONTINUOUS
 10
333.8796677232
 20
257.6647839058
 40
0.3999999623
100
AcDbArc
 50
108.7023086609
 51
179.999983852
  0
ARC
  5
590
100
AcDbEntity
  8
RUNDUNGEN
100
AcDbCircle
 62
7
  6
CONTINUOUS
 10
357.4796681384
 20
72.3510837868
 40
80.0
100
AcDbArc
 50
63.54624578
 51
75.8703045811
  0
ARC
  5
591
100
AcDbEntity
  8
BEZUGSACHSEN
100
AcDbCircle
 62
7
  6
CONTINUOUS
 10
357.4796681384
 20
72.3510837868
 40
80.0
100
AcDbArc
 50
104.1296954189
 51
116.45375422
  0
ARC
  5
592
100
AcDbEntity
  8
BEZUGSACHSEN
100
AcDbCircle
 62
7
  6
CONTINUOUS
 10
405.7296681384
 20
99.2328602088
 40
44.5000145662
100
AcDbArc
 50
83.5486508506
 51
96.4513491494
  0
ARC
  5
593
100
AcDbEntity
  8
RUNDUNGEN
100
AcDbCircle
 62
7
  6
CONTINUOUS
 10
378.2296681384
 20
154.7794617886
 40
5.0
100
AcDbArc
 50
180.0
 51
255.8703045811
  0
ARC
  5
594
100
AcDbEntity
  8
RUNDUNGEN
100
AcDbCircle
 62
7
  6
CONTINUOUS
 10
378.2296681384
 20
148.4510837868
 40
5.0
100
AcDbArc
 50
180.0000001598
 51
269.9999787641
  0
ARC
  5
595
100
AcDbEntity
  8
RUNDUNGEN
100
AcDbCircle
 62
7
  6
CONTINUOUS
 10
414.0548393711
 20
148.4510837868
 40
5.0
100
AcDbArc
 50
270.0
 51
325.0777888863
  0
ARC
  5
596
100
AcDbEntity
  8
RUNDUNGEN
100
AcDbCircle
 62
7
  6
CONTINUOUS
 10
395.345068969
 20
148.4510837868
 40
4.999998044
100
AcDbArc
 50
243.5464256645
 51
270.0002148578
  0
ARC
  5
597
100
AcDbEntity
  8
RUNDUNGEN
100
AcDbCircle
 62
7
  6
CONTINUOUS
 10
390.9796681384
 20
122.5293748516
 40
0.5
100
AcDbArc
 50
297.1152809222
 51
342.2575546831
  0
ARC
  5
598
100
AcDbEntity
  8
RUNDUNGEN
100
AcDbCircle
 62
7
  6
CONTINUOUS
 10
378.9796691603
 20
117.6659504902
 40
0.499999854
100
AcDbArc
 50
287.0085848828
 51
360.0
  0
ARC
  5
599
100
AcDbEntity
  8
RUNDUNGEN
100
AcDbCircle
 62
7
  6
CONTINUOUS
 10
371.8796674365
 20
115.7735247304
 40
0.3999999561
100
AcDbArc
 50
200.2565599345
 51
274.8099053815
  0
ARC
  5
59A
100
AcDbEntity
  8
0
100
AcDbCircle
 62
7
  6
CONTINUOUS
 10
357.4796681384
 20
187.9510837868
 40
74.0
100
AcDbArc
 50
294.9463114652
 51
295.0
  0
ARC
  5
59B
100
AcDbEntity
  8
0
100
AcDbCircle
 62
7
  6
CONTINUOUS
 10
357.4796681384
 20
187.9510837868
 40
74.0
100
AcDbArc
 50
310.6455339052
 51
311.8103512088
  0
ARC
  5
59C
100
AcDbEntity
  8
0
100
AcDbCircle
 62
7
  6
CONTINUOUS
 10
357.4796681384
 20
187.9510837868
 40
74.0
100
AcDbArc
 50
315.2082203177
 51
325.0
  0
ARC
  5
59D
100
AcDbEntity
  8
0
100
AcDbCircle
 62
7
  6
CONTINUOUS
 10
357.4796681384
 20
187.9510837868
 40
74.0
100
AcDbArc
 50
336.1218330539
 51
23.8781669461
  0
ARC
  5
59E
100
AcDbEntity
  8
0
100
AcDbCircle
 62
7
  6
CONTINUOUS
 10
357.4796681384
 20
187.9510837868
 40
74.0
100
AcDbArc
 50
34.9222223275
 51
44.9984759034
  0
ARC
  5
59F
100
AcDbEntity
  8
0
100
AcDbCircle
 62
7
  6
CONTINUOUS
 10
357.4796681384
 20
187.9510837868
 40
74.0
100
AcDbArc
 50
47.5117579315
 51
49.6686693371
  0
ARC
  5
5A0
100
AcDbEntity
  8
0
100
AcDbCircle
 62
7
  6
CONTINUOUS
 10
357.4796681384
 20
187.9510837868
 40
74.0
100
AcDbArc
 50
67.4845195469
 51
68.5313999508
  0
ARC
  5
5A1
100
AcDbEntity
  8
0
100
AcDbCircle
 62
7
  6
CONTINUOUS
 10
357.4796681384
 20
187.9510837868
 40
74.0
100
AcDbArc
 50
238.5929235582
 51
239.645505252
  0
ARC
  5
5A2
100
AcDbEntity
  8
0
100
AcDbCircle
 62
7
  6
CONTINUOUS
 10
357.4796681384
 20
187.9510837868
 40
74.0
100
AcDbArc
 50
215.0
 51
225.00162479
  0
ARC
  5
5A3
100
AcDbEntity
  8
0
100
AcDbCircle
 62
7
  6
CONTINUOUS
 10
357.4796681384
 20
187.9510837868
 40
74.0
100
AcDbArc
 50
156.1218330539
 51
203.8781669461
  0
ARC
  5
5A4
100
AcDbEntity
  8
0
100
AcDbCircle
 62
7
  6
CONTINUOUS
 10
357.4796681384
 20
187.9510837868
 40
74.0
100
AcDbArc
 50
135.0015539021
 51
145.0777776725
  0
ARC
  5
5A5
100
AcDbEntity
  8
0
100
AcDbCircle
 62
7
  6
CONTINUOUS
 10
357.4796681384
 20
187.9510837868
 40
74.0
100
AcDbArc
 50
111.4685976687
 51
112.5154768465
  0
ARC
  5
5A6
100
AcDbEntity
  8
RUNDUNGEN
100
AcDbCircle
 62
7
  6
CONTINUOUS
 10
357.4796681384
 20
187.9510837868
 40
74.0
100
AcDbArc
 50
304.5416249892
 51
305.6456000246
  0
ARC
  5
5A7
100
AcDbEntity
  8
RUNDUNGEN
100
AcDbCircle
 62
7
  6
CONTINUOUS
 10
357.4796681384
 20
187.9510837868
 40
74.0
100
AcDbArc
 50
270.0
 51
300.0000143891
  0
ARC
  5
5A8
100
AcDbEntity
  8
RUNDUNGEN
100
AcDbCircle
 62
7
  6
CONTINUOUS
 10
357.4796681384
 20
187.9510837868
 40
74.0
100
AcDbArc
 50
307.8725653433
 51
34.9222111137
  0
ARC
  5
5A9
100
AcDbEntity
  8
RUNDUNGEN
100
AcDbCircle
 62
7
  6
CONTINUOUS
 10
357.4796681384
 20
187.9510837868
 40
74.0
100
AcDbArc
 50
112.1802729204
 51
112.3606166892
  0
ARC
  5
5AA
100
AcDbEntity
  8
RUNDUNGEN
100
AcDbCircle
 62
7
  6
CONTINUOUS
 10
357.4796681384
 20
187.9510837868
 40
74.0
100
AcDbArc
 50
44.6056729031
 51
68.5313915015
  0
ARC
  5
5AB
100
AcDbEntity
  8
BEZUGSACHSEN
100
AcDbCircle
 62
7
  6
CONTINUOUS
 10
357.4796681384
 20
187.9510837868
 40
74.0
100
AcDbArc
 50
34.9222111137
 51
270.0
  0
ARC
  5
5AC
100
AcDbEntity
  8
0
100
AcDbCircle
 62
7
  6
CONTINUOUS
 10
357.4796681384
 20
187.9510837868
 40
74.0
100
AcDbArc
 50
309.0642262384
 51
309.6391592542
  0
ARC
  5
5AD
100
AcDbEntity
  8
0
100
AcDbCircle
 62
7
  6
CONTINUOUS
 10
357.4796681384
 20
187.9510837868
 40
74.0
100
AcDbArc
 50
305.645625518
 51
308.044442065
  0
ARC
  5
5AE
100
AcDbEntity
  8
0
100
AcDbCircle
 62
7
  6
CONTINUOUS
 10
357.4796681384
 20
187.9510837868
 40
74.0
100
AcDbArc
 50
300.0
 51
304.5416036506
  0
ARC
  5
5AF
100
AcDbEntity
  8
0
100
AcDbCircle
 62
7
  6
CONTINUOUS
 10
357.4796681384
 20
187.9510837868
 40
74.0
100
AcDbArc
 50
55.4192215705
 51
55.693058658
  0
ARC
  5
5B0
100
AcDbEntity
  8
0
100
AcDbCircle
 62
7
  6
CONTINUOUS
 10
357.4796681384
 20
187.9510837868
 40
74.0
100
AcDbArc
 50
56.7796517443
 51
59.9013814727
  0
ARC
  5
5B1
100
AcDbEntity
  8
0
100
AcDbCircle
 62
7
  6
CONTINUOUS
 10
357.4796681384
 20
187.9510837868
 40
74.0
100
AcDbArc
 50
246.2421794079
 51
246.8575803445
  0
ARC
  5
5B2
100
AcDbEntity
  8
0
100
AcDbCircle
 62
7
  6
CONTINUOUS
 10
357.4796681384
 20
187.9510837868
 40
74.0
100
AcDbArc
 50
61.6443161284
 51
62.0285502561
  0
ARC
  5
5B3
100
AcDbEntity
  8
0
100
AcDbCircle
 62
7
  6
CONTINUOUS
 10
357.4796681384
 20
187.9510837868
 40
74.0
100
AcDbArc
 50
62.6659268351
 51
63.0541763154
  0
ARC
  5
5B4
100
AcDbEntity
  8
0
100
AcDbCircle
 62
7
  6
CONTINUOUS
 10
357.4796681384
 20
187.9510837868
 40
74.0
100
AcDbArc
 50
63.2996584387
 51
64.4316294048
  0
ARC
  5
5B5
100
AcDbEntity
  8
0
100
AcDbCircle
 62
7
  6
CONTINUOUS
 10
357.4796681384
 20
187.9510837868
 40
74.0
100
AcDbArc
 50
244.001692621
 51
245.2513809523
  0
ARC
  5
5B6
100
AcDbEntity
  8
0
100
AcDbCircle
 62
7
  6
CONTINUOUS
 10
357.4796681384
 20
187.9510837868
 40
74.0
100
AcDbArc
 50
242.4909146473
 51
242.9974178456
  0
ARC
  5
5B7
100
AcDbEntity
  8
0
100
AcDbCircle
 62
7
  6
CONTINUOUS
 10
357.4796681384
 20
187.9510837868
 40
74.0
100
AcDbArc
 50
236.0438128629
 51
237.5332393601
  0
ARC
  5
5B8
100
AcDbEntity
  8
0
100
AcDbCircle
 62
7
  6
CONTINUOUS
 10
357.4796681384
 20
187.9510837868
 40
74.0
100
AcDbArc
 50
60.0930863888
 51
61.3873862469
  0
ARC
  5
5B9
100
AcDbEntity
  8
0
100
AcDbCircle
 62
7
  6
CONTINUOUS
 10
357.4796681384
 20
187.9510837868
 40
74.0
100
AcDbArc
 50
232.992868994
 51
235.2230700799
  0
ARC
  5
5BA
100
AcDbEntity
  8
0
100
AcDbCircle
 62
7
  6
CONTINUOUS
 10
357.4796681384
 20
187.9510837868
 40
74.0
100
AcDbArc
 50
228.4469831289
 51
229.2950762012
  0
ARC
  5
5BB
100
AcDbEntity
  8
0
100
AcDbCircle
 62
7
  6
CONTINUOUS
 10
357.4796681384
 20
187.9510837868
 40
74.0
100
AcDbArc
 50
114.988727851
 51
117.8436759227
  0
ARC
  5
5BC
100
AcDbEntity
  8
0
100
AcDbCircle
 62
7
  6
CONTINUOUS
 10
357.4796681384
 20
187.9510837868
 40
74.0
100
AcDbArc
 50
118.4221438409
 51
119.2577163192
  0
ARC
  5
5BD
100
AcDbEntity
  8
0
100
AcDbCircle
 62
7
  6
CONTINUOUS
 10
357.4796681384
 20
187.9510837868
 40
74.0
100
AcDbArc
 50
121.5328062449
 51
122.1470876883
  0
ARC
  5
5BE
100
AcDbEntity
  8
0
100
AcDbCircle
 62
7
  6
CONTINUOUS
 10
357.4796681384
 20
187.9510837868
 40
74.0
100
AcDbArc
 50
122.2805458374
 51
132.4883746594
  0
ARC
  5
5BF
100
AcDbEntity
  8
0
100
AcDbCircle
 62
7
  6
CONTINUOUS
 10
357.4796681384
 20
187.9510837868
 40
74.0
100
AcDbArc
 50
108.7037785612
 51
109.0611182735
  0
ARC
  5
5C0
100
AcDbEntity
  8
0
100
AcDbCircle
 62
7
  6
CONTINUOUS
 10
357.4796681384
 20
187.9510837868
 40
74.0
100
AcDbArc
 50
110.0311489951
 51
110.4038365211
  0
ARC
  5
5C1
100
AcDbEntity
  8
RUNDUNGEN
100
AcDbCircle
 62
7
  6
CONTINUOUS
 10
378.2296681384
 20
227.4510837868
 40
5.0
100
AcDbArc
 50
89.9999845117
 51
179.9999994256
  0
ARC
  5
5C2
100
AcDbEntity
  8
RUNDUNGEN
100
AcDbCircle
 62
7
  6
CONTINUOUS
 10
378.2296681384
 20
221.122705785
 40
5.0
100
AcDbArc
 50
104.1296954189
 51
180.0
  0
ARC
  5
5C3
100
AcDbEntity
  8
RUNDUNGEN
100
AcDbCircle
 62
7
  6
CONTINUOUS
 10
357.4796681384
 20
303.5510837868
 40
80.0
100
AcDbArc
 50
284.1296954189
 51
296.4537545887
  0
ARC
  5
5C4
100
AcDbEntity
  8
0
100
AcDbCircle
 62
7
  6
CONTINUOUS
 10
357.4796681384
 20
303.5510837868
 40
80.0
100
AcDbArc
 50
284.1296954189
 51
296.4537666967
  0
ARC
  5
5C5
100
AcDbEntity
  8
BEZUGSACHSEN
100
AcDbCircle
 62
7
  6
CONTINUOUS
 10
357.4796681384
 20
303.5510837868
 40
80.0
100
AcDbArc
 50
243.5462454113
 51
255.8703045811
  0
ARC
  5
5C6
100
AcDbEntity
  8
RUNDUNGEN
100
AcDbCircle
 62
7
  6
CONTINUOUS
 10
381.0796685537
 20
257.6647839058
 40
0.3999999623
100
AcDbArc
 50
0.000016148
 51
71.2976913391
  0
ARC
  5
5C7
100
AcDbEntity
  8
RUNDUNGEN
100
AcDbCircle
 62
7
  6
CONTINUOUS
 10
414.0548405496
 20
227.4510827105
 40
5.0000000254
100
AcDbArc
 50
34.9222289576
 51
90.0000135049
  0
ARC
  5
5C8
100
AcDbEntity
  8
RUNDUNGEN
100
AcDbCircle
 62
7
  6
CONTINUOUS
 10
395.3450877188
 20
227.4510837868
 40
5.0
100
AcDbArc
 50
90.0
 51
116.4537666967
  0
ARC
  5
5C9
100
AcDbEntity
  8
BEZUGSACHSEN
100
AcDbCircle
 62
7
  6
CONTINUOUS
 10
405.7296681384
 20
276.6693155455
 40
44.5000226951
100
AcDbArc
 50
263.5486520341
 51
276.4513479659
  0
SPLINE
  5
5CA
100
AcDbEntity
  8
RUNDUNGEN
100
AcDbSpline
 62
7
  6
CONTINUOUS
 70
0
 71
3
 72
9
 73
5
 74
0
 42
0.0000001
 43
0.0000001
 44
0.0000000001
 40
0.0
 40
0.0
 40
0.0
 40
0.0
 40
0.5136694125
 40
1.0
 40
1.0
 40
1.0
 40
1.0
 10
394.2774161047
 20
606.7095385278
 30
0.0
 10
395.7008015525
 20
606.794115945
 30
0.0
 10
398.475632189
 20
606.9041257661
 30
0.0
 10
401.2518012923
 20
606.8979068472
 30
0.0
 10
402.6018074134
 20
606.8979361886
 30
0.0
  0
SPLINE
  5
5CB
100
AcDbEntity
  8
0
100
AcDbSpline
 62
7
  6
CONTINUOUS
 70
0
 71
3
 72
10
 73
6
 74
0
 42
0.0000001
 43
0.0000001
 44
0.0000000001
 40
0.0
 40
0.0
 40
0.0
 40
0.0
 40
0.2496855489
 40
0.5001144908
 40
1.0
 40
1.0
 40
1.0
 40
1.0
 10
347.1969179461
 20
522.5979354502
 30
0.0
 10
347.3846418542
 20
522.5979353256
 30
0.0
 10
347.7602485929
 20
522.5718196287
 30
0.0
 10
348.5091659622
 20
522.5094414608
 30
0.0
 10
349.0733115286
 20
522.4807824718
 30
0.0
 10
349.4491461006
 20
522.4807789011
 30
0.0
  0
SPLINE
  5
5CC
100
AcDbEntity
  8
0
100
AcDbSpline
 62
7
  6
CONTINUOUS
 70
0
 71
3
 72
10
 73
6
 74
0
 42
0.0000001
 43
0.0000001
 44
0.0000000001
 40
0.0
 40
0.0
 40
0.0
 40
0.0
 40
0.4998861805
 40
0.7503150706
 40
1.0
 40
1.0
 40
1.0
 40
1.0
 10
365.5101983818
 20
522.4807789011
 30
0.0
 10
365.8860323924
 20
522.4807824929
 30
0.0
 10
366.450176814
 20
522.5094418132
 30
0.0
 10
367.1990920203
 20
522.571820346
 30
0.0
 10
367.5746972206
 20
522.597935321
 30
0.0
 10
367.7624201305
 20
522.5979354502
 30
0.0
  0
SPLINE
  5
5CD
100
AcDbEntity
  8
0
100
AcDbSpline
 62
7
  6
CONTINUOUS
 70
0
 71
3
 72
9
 73
5
 74
0
 42
0.0000001
 43
0.0000001
 44
0.0000000001
 40
0.0
 40
0.0
 40
0.0
 40
0.0
 40
0.5193652082
 40
1.0
 40
1.0
 40
1.0
 40
1.0
 10
796.900254084
 20
522.5979354502
 30
0.0
 10
796.9187864897
 20
522.5979353625
 30
0.0
 10
796.9529349601
 20
522.5743566546
 30
0.0
 10
796.9674911646
 20
522.5422696944
 30
0.0
 10
796.9771875532
 20
522.5281234537
 30
0.0
  0
SPLINE
  5
5CE
100
AcDbEntity
  8
0
100
AcDbSpline
 62
7
  6
CONTINUOUS
 70
0
 71
3
 72
9
 73
5
 74
0
 42
0.0000001
 43
0.0000001
 44
0.0000000001
 40
0.0
 40
0.0
 40
0.0
 40
0.0
 40
0.7293461183
 40
1.0
 40
1.0
 40
1.0
 40
1.0
 10
796.981403235
 20
522.522194534
 30
0.0
 10
796.9928812056
 20
522.5066838392
 30
0.0
 10
797.0145769576
 20
522.4879123869
 30
0.0
 10
797.0407492456
 20
522.4825151754
 30
0.0
 10
797.0478588559
 20
522.4816631942
 30
0.0
  0
SPLINE
  5
5CF
100
AcDbEntity
  8
0
100
AcDbSpline
 62
7
  6
CONTINUOUS
 70
0
 71
3
 72
8
 73
4
 74
0
 42
0.0000001
 43
0.0000001
 44
0.0000000001
 40
0.0
 40
0.0
 40
0.0
 40
0.0
 40
1.0
 40
1.0
 40
1.0
 40
1.0
 10
797.0478588559
 20
522.4816631942
 30
0.0
 10
797.0529708495
 20
522.4810505976
 30
0.0
 10
797.0581306576
 20
522.4807793485
 30
0.0
 10
797.0632792256
 20
522.4807789011
 30
0.0
  0
ELLIPSE
  5
5D0
100
AcDbEntity
  8
0
100
AcDbEllipse
 62
7
  6
CONTINUOUS
 10
723.6181625528
 20
490.4766574915
 30
0.0
 11
74.0
 21
0.0
 31
0.0
 40
0.2042553727
 41
0.5242490691
 42
0.5356692556
  0
ELLIPSE
  5
5D1
100
AcDbEntity
  8
0
100
AcDbEllipse
 62
7
  6
CONTINUOUS
 10
723.6181625528
 20
472.475244207
 30
0.0
 11
74.0
 21
-0.0
 31
0.0
 40
0.6808509827
 41
0.5356692556
 42
0.542558585
  0
ELLIPSE
  5
5D2
100
AcDbEntity
  8
0
100
AcDbEllipse
 62
7
  6
CONTINUOUS
 10
723.6181625528
 20
439.9574764214
 30
0.0
 11
-0.0
 21
113.3617685704
 31
0.0
 40
0.6527773952
 41
-1.0282377418
 42
-1.0190071508
  0
ELLIPSE
  5
5D3
100
AcDbEntity
  8
0
100
AcDbEllipse
 62
7
  6
CONTINUOUS
 10
723.6181625528
 20
261.6813985013
 30
0.0
 11
-0.0
 21
453.4458895762
 31
0.0
 40
0.1631947752
 41
-1.0190071508
 42
-1.016691322
  0
ELLIPSE
  5
5D4
100
AcDbEntity
  8
0
100
AcDbEllipse
 62
7
  6
CONTINUOUS
 10
723.6181625528
 20
739.9145295763
 30
0.0
 11
-0.0
 21
453.4459954338
 31
0.0
 40
0.1631947371
 41
-2.1249013316
 42
-2.1225855028
  0
ELLIPSE
  5
5D5
100
AcDbEntity
  8
0
100
AcDbEllipse
 62
7
  6
CONTINUOUS
 10
723.6181625528
 20
561.638375355
 30
0.0
 11
0.0
 21
113.3617288737
 31
0.0
 40
0.6527776238
 41
-2.1225855028
 42
-2.1133549118
  0
ELLIPSE
  5
5D6
100
AcDbEntity
  8
0
100
AcDbEllipse
 62
7
  6
CONTINUOUS
 10
723.6181625528
 20
529.120628066
 30
0.0
 11
74.0
 21
0.0
 31
0.0
 40
0.6808509827
 41
-0.542558585
 42
-0.5356692556
  0
ELLIPSE
  5
5D7
100
AcDbEntity
  8
0
100
AcDbEllipse
 62
7
  6
CONTINUOUS
 10
723.6181625528
 20
511.1192147815
 30
0.0
 11
74.0
 21
0.0
 31
0.0
 40
0.2042553727
 41
-0.5356692556
 42
-0.5242490691
  0
ELLIPSE
  5
5D8
100
AcDbEntity
  8
0
100
AcDbEllipse
 62
7
  6
CONTINUOUS
 10
723.6181625528
 20
325.7235238972
 30
0.0
 11
0.0
 21
377.872221054
 31
0.0
 40
0.1958333952
 41
-1.0870599529
 42
-1.0848325061
  0
ELLIPSE
  5
5D9
100
AcDbEntity
  8
0
100
AcDbEllipse
 62
7
  6
CONTINUOUS
 10
723.6181625528
 20
396.3192759418
 30
0.0
 11
0.0
 21
226.7232691177
 31
0.0
 40
0.3263890834
 41
-1.0848325061
 42
-1.0826024354
  0
ELLIPSE
  5
5DA
100
AcDbEntity
  8
0
100
AcDbEllipse
 62
7
  6
CONTINUOUS
 10
723.6181625528
 20
431.7660002758
 30
0.0
 11
-0.0
 21
151.148980653
 31
0.0
 40
0.4895831892
 41
-1.0826024354
 42
-1.0781343438
  0
ELLIPSE
  5
5DB
100
AcDbEntity
  8
0
100
AcDbEllipse
 62
7
  6
CONTINUOUS
 10
723.6181625528
 20
467.5107022548
 30
0.0
 11
0.0
 21
75.5744678974
 31
0.0
 40
0.9791666691
 41
-1.0781343438
 42
-1.0714120098
  0
ELLIPSE
  5
5DC
100
AcDbEntity
  8
0
100
AcDbEllipse
 62
7
  6
CONTINUOUS
 10
723.6181625528
 20
481.987302739
 30
0.0
 11
74.0
 21
-0.0
 31
0.0
 40
0.6127658212
 41
0.499384317
 42
0.5106434814
  0
ELLIPSE
  5
5DD
100
AcDbEntity
  8
0
100
AcDbEllipse
 62
7
  6
CONTINUOUS
 10
723.6181625528
 20
497.9929718256
 30
0.0
 11
74.0
 21
0.0
 31
0.0
 40
0.1702127606
 41
0.5106434814
 42
0.5242490691
  0
ELLIPSE
  5
5DE
100
AcDbEntity
  8
0
100
AcDbEllipse
 62
7
  6
CONTINUOUS
 10
723.6181625528
 20
503.6028999997
 30
0.0
 11
74.0
 21
0.0
 31
0.0
 40
0.1702127457
 41
-0.5242490691
 42
-0.5106434814
  0
ELLIPSE
  5
5DF
100
AcDbEntity
  8
0
100
AcDbEllipse
 62
7
  6
CONTINUOUS
 10
723.6181625528
 20
519.6085676851
 30
0.0
 11
74.0
 21
0.0
 31
0.0
 40
0.6127657675
 41
-0.5106434814
 42
-0.499384317
  0
ELLIPSE
  5
5E0
100
AcDbEntity
  8
0
100
AcDbEllipse
 62
7
  6
CONTINUOUS
 10
723.6181625528
 20
534.0851658458
 30
0.0
 11
0.0
 21
75.5744590759
 31
0.0
 40
0.9791667834
 41
-2.0701806438
 42
-2.0634583098
  0
ELLIPSE
  5
5E1
100
AcDbEntity
  8
0
100
AcDbEllipse
 62
7
  6
CONTINUOUS
 10
723.6181625528
 20
569.8298594802
 30
0.0
 11
0.0
 21
151.1489541886
 31
0.0
 40
0.489583275
 41
-2.0634583098
 42
-2.0589902182
  0
ELLIPSE
  5
5E2
100
AcDbEntity
  8
0
100
AcDbEllipse
 62
7
  6
CONTINUOUS
 10
723.6181625528
 20
605.2766955281
 30
0.0
 11
0.0
 21
226.7234808333
 31
0.0
 40
0.3263887786
 41
-2.0589902182
 42
-2.0567601475
  0
ELLIPSE
  5
5E3
100
AcDbEntity
  8
0
100
AcDbEllipse
 62
7
  6
CONTINUOUS
 10
723.6181625528
 20
675.8722992466
 30
0.0
 11
0.0
 21
377.8721151962
 31
0.0
 40
0.1958334501
 41
-2.0567601475
 42
-2.0545327007
  0
ELLIPSE
  5
5E4
100
AcDbEntity
  8
0
100
AcDbEllipse
 62
7
  6
CONTINUOUS
 10
723.6181625528
 20
535.8723996753
 30
0.0
 11
-0.0
 21
88.1702022552
 31
0.0
 40
0.8392858143
 41
-2.0236129215
 42
-2.0105047868
  0
ELLIPSE
  5
5E5
100
AcDbEntity
  8
0
100
AcDbEllipse
 62
7
  6
CONTINUOUS
 10
723.6181625528
 20
434.5958493173
 30
0.0
 11
-0.0
 21
113.3616345589
 31
0.0
 40
0.6527781669
 41
0.9224299032
 42
0.9273656014
  0
ELLIPSE
  5
5E6
100
AcDbEntity
  8
0
100
AcDbEllipse
 62
7
  6
CONTINUOUS
 10
723.6181625528
 20
472.627721707
 30
0.0
 11
74.0
 21
0.0
 31
0.0
 40
0.6808511019
 41
2.4857878456
 42
2.49322623
  0
ELLIPSE
  5
5E7
100
AcDbEntity
  8
0
100
AcDbEllipse
 62
7
  6
CONTINUOUS
 10
723.6181625528
 20
480.3085687149
 30
0.0
 11
74.0
 21
0.0
 31
0.0
 40
0.5106384258
 41
2.4758031954
 42
2.4857878456
  0
ELLIPSE
  5
5E8
100
AcDbEntity
  8
0
100
AcDbEllipse
 62
7
  6
CONTINUOUS
 10
723.6181625528
 20
491.9787890534
 30
0.0
 11
74.0
 21
0.0
 31
0.0
 40
0.2553191104
 41
2.4657396154
 42
2.4758031954
  0
ELLIPSE
  5
5E9
100
AcDbEntity
  8
0
100
AcDbEllipse
 62
7
  6
CONTINUOUS
 10
723.6181625528
 20
601.7766358645
 30
0.0
 11
-0.0
 21
151.1489001335
 31
0.0
 40
0.4895834501
 41
-3.9954310294
 42
-3.9928136871
  0
ELLIPSE
  5
5EA
100
AcDbEntity
  8
0
100
AcDbEllipse
 62
7
  6
CONTINUOUS
 10
723.6181625528
 20
552.1170906259
 30
0.0
 11
0.0
 21
75.5744765312
 31
0.0
 40
0.9791665572
 41
-4.0006478983
 42
-3.9954310294
  0
ELLIPSE
  5
5EB
100
AcDbEntity
  8
0
100
AcDbEllipse
 62
7
  6
CONTINUOUS
 10
723.6181625528
 20
527.4362370054
 30
0.0
 11
74.0
 21
-0.0
 31
0.0
 40
0.5106383587
 41
-2.4350450679
 42
-2.4298515715
  0
ELLIPSE
  5
5EC
100
AcDbEntity
  8
0
100
AcDbEllipse
 62
7
  6
CONTINUOUS
 10
723.6181625528
 20
512.7170834964
 30
0.0
 11
74.0
 21
0.0
 31
0.0
 40
0.2042552851
 41
-2.4479294866
 42
-2.4350450679
  0
ELLIPSE
  5
5ED
100
AcDbEntity
  8
0
100
AcDbEllipse
 62
7
  6
CONTINUOUS
 10
723.6181625528
 20
487.9085760198
 30
0.0
 11
74.0
 21
0.0
 31
0.0
 40
0.2042552851
 41
2.437633195
 42
2.450489774
  0
ELLIPSE
  5
5EE
100
AcDbEntity
  8
0
100
AcDbEllipse
 62
7
  6
CONTINUOUS
 10
723.6181625528
 20
465.0816279364
 30
0.0
 11
74.0
 21
-0.0
 31
0.0
 40
0.6808509827
 41
2.4298515715
 42
2.437633195
  0
ELLIPSE
  5
5EF
100
AcDbEntity
  8
0
100
AcDbEllipse
 62
7
  6
CONTINUOUS
 10
723.6181625528
 20
423.9468899232
 30
0.0
 11
0.0
 21
113.3616751001
 31
0.0
 40
0.6527779334
 41
0.8538383759
 42
0.8590552447
  0
ELLIPSE
  5
5F0
100
AcDbEntity
  8
0
100
AcDbEllipse
 62
7
  6
CONTINUOUS
 10
723.6181625528
 20
503.6155640807
 30
0.0
 11
74.0
 21
0.0
 31
0.0
 40
0.1458966292
 41
-2.4758031954
 42
-2.4581383696
  0
ELLIPSE
  5
5F1
100
AcDbEntity
  8
0
100
AcDbEllipse
 62
7
  6
CONTINUOUS
 10
723.6181625528
 20
520.2873005844
 30
0.0
 11
74.0
 21
0.0
 31
0.0
 40
0.5106383587
 41
-2.4857878456
 42
-2.4758031954
  0
ELLIPSE
  5
5F2
100
AcDbEntity
  8
0
100
AcDbEllipse
 62
7
  6
CONTINUOUS
 10
723.6181625528
 20
543.3298565228
 30
0.0
 11
0.0
 21
75.5744770943
 31
0.0
 40
0.9791665499
 41
-4.0664926976
 42
-4.0565841724
  0
ELLIPSE
  5
5F3
100
AcDbEntity
  8
0
100
AcDbEllipse
 62
7
  6
CONTINUOUS
 10
723.6181625528
 20
679.7975678859
 30
0.0
 11
-0.0
 21
302.2972597174
 31
0.0
 40
0.2447921628
 41
-4.068958255
 42
-4.0664926976
  0
ELLIPSE
  5
5F4
100
AcDbEntity
  8
0
100
AcDbEllipse
 62
7
  6
CONTINUOUS
 10
723.6181625528
 20
317.3727725676
 30
0.0
 11
0.0
 21
302.2972597174
 31
0.0
 40
0.2447921628
 41
0.924900044
 42
0.9273656014
  0
ELLIPSE
  5
5F5
100
AcDbEntity
  8
0
100
AcDbEllipse
 62
7
  6
CONTINUOUS
 10
723.6181625528
 20
431.0957514924
 30
0.0
 11
0.0
 21
113.3617967241
 31
0.0
 40
0.6527772331
 41
0.9199551309
 42
0.924900044
  0
ELLIPSE
  5
5F6
100
AcDbEntity
  8
0
100
AcDbEllipse
 62
7
  6
CONTINUOUS
 10
723.6181625528
 20
465.4362546981
 30
0.0
 11
74.0
 21
0.0
 31
0.0
 40
0.7659569903
 41
2.4808052043
 42
2.4907514577
  0
ELLIPSE
  5
5F7
100
AcDbEntity
  8
0
100
AcDbEllipse
 62
7
  6
CONTINUOUS
 10
723.6181625528
 20
518.7766539081
 30
0.0
 11
74.0
 21
-0.0
 31
0.0
 40
0.4085105117
 41
-2.49322623
 42
-2.4808052043
  0
ELLIPSE
  5
5F8
100
AcDbEntity
  8
0
100
AcDbEllipse
 62
7
  6
CONTINUOUS
 10
723.6181625528
 20
568.978746422
 30
0.0
 11
0.0
 21
113.3616345589
 31
0.0
 40
0.6527781669
 41
-4.068958255
 42
-4.0640225568
  0
ELLIPSE
  5
5F9
100
AcDbEntity
  8
0
100
AcDbEllipse
 62
7
  6
CONTINUOUS
 10
723.6181625528
 20
682.3300652832
 30
0.0
 11
0.0
 21
302.2982304556
 31
0.0
 40
0.2447913767
 41
-4.0714192551
 42
-4.068958255
  0
ELLIPSE
  5
5FA
100
AcDbEntity
  8
0
100
AcDbEllipse
 62
7
  6
CONTINUOUS
 10
723.6181625528
 20
366.5850254355
 30
0.0
 11
0.0
 21
226.7236463772
 31
0.0
 40
0.3263885403
 41
0.9273656014
 42
0.9298266015
  0
ELLIPSE
  5
5FB
100
AcDbEntity
  8
0
100
AcDbEllipse
 62
7
  6
CONTINUOUS
 10
723.6181625528
 20
447.6986068231
 30
0.0
 11
0.0
 21
88.1702795841
 31
0.0
 40
0.8392850782
 41
0.9493555118
 42
0.963824396
  0
ELLIPSE
  5
5FC
100
AcDbEntity
  8
0
100
AcDbEllipse
 62
7
  6
CONTINUOUS
 10
723.6181625528
 20
430.8511270756
 30
0.0
 11
-0.0
 21
138.5531926155
 31
0.0
 40
0.5340909047
 41
1.0087259575
 42
1.0226396485
  0
ELLIPSE
  5
5FD
100
AcDbEntity
  8
0
100
AcDbEllipse
 62
7
  6
CONTINUOUS
 10
723.6181625528
 20
472.808591049
 30
0.0
 11
74.0
 21
-0.0
 31
0.0
 40
0.7659569903
 41
2.627719266
 42
2.6367483563
  0
ELLIPSE
  5
5FE
100
AcDbEntity
  8
0
100
AcDbEllipse
 62
7
  6
CONTINUOUS
 10
723.6181625528
 20
506.3426269061
 30
0.0
 11
74.0
 21
0.0
 31
0.0
 40
0.2042556065
 41
-2.6702192198
 42
-2.6591279431
  0
ELLIPSE
  5
5FF
100
AcDbEntity
  8
0
100
AcDbEllipse
 62
7
  6
CONTINUOUS
 10
723.6181625528
 20
520.070258888
 30
0.0
 11
74.0
 21
0.0
 31
0.0
 40
0.6127654169
 41
-2.6812481692
 42
-2.6702192198
  0
ELLIPSE
  5
600
100
AcDbEntity
  8
0
100
AcDbEllipse
 62
7
  6
CONTINUOUS
 10
723.6181625528
 20
544.6915479178
 30
0.0
 11
-0.0
 21
100.7659454346
 31
0.0
 40
0.7343750875
 41
-4.2586329167
 42
-4.2520444959
  0
ELLIPSE
  5
601
100
AcDbEntity
  8
0
100
AcDbEllipse
 62
7
  6
CONTINUOUS
 10
723.6181625528
 20
583.3403447171
 30
0.0
 11
0.0
 21
188.9358402522
 31
0.0
 40
0.3916673507
 41
-4.2630134521
 42
-4.2586329167
  0
ELLIPSE
  5
602
100
AcDbEntity
  8
0
100
AcDbEllipse
 62
7
  6
CONTINUOUS
 10
723.6181625528
 20
419.7874541654
 30
0.0
 11
0.0
 21
188.9358137878
 31
0.0
 40
0.3916674055
 41
1.1170402631
 42
1.1214207985
  0
ELLIPSE
  5
603
100
AcDbEntity
  8
0
100
AcDbEllipse
 62
7
  6
CONTINUOUS
 10
723.6181625528
 20
458.4362354973
 30
0.0
 11
0.0
 21
100.7659542561
 31
0.0
 40
0.7343750233
 41
1.1104518424
 42
1.1170402631
  0
ELLIPSE
  5
604
100
AcDbEntity
  8
0
100
AcDbEllipse
 62
7
  6
CONTINUOUS
 10
723.6181625528
 20
483.0575266826
 30
0.0
 11
74.0
 21
-0.0
 31
0.0
 40
0.6127654705
 41
2.6702192198
 42
2.6812481692
  0
ELLIPSE
  5
605
100
AcDbEntity
  8
0
100
AcDbEllipse
 62
7
  6
CONTINUOUS
 10
723.6181625528
 20
496.7851598662
 30
0.0
 11
74.0
 21
0.0
 31
0.0
 40
0.2042556244
 41
2.6591279431
 42
2.6702192198
  0
ELLIPSE
  5
606
100
AcDbEntity
  8
0
100
AcDbEllipse
 62
7
  6
CONTINUOUS
 10
723.6181625528
 20
576.606309288
 30
0.0
 11
0.0
 21
151.1486563231
 31
0.0
 40
0.4895842398
 41
-4.2007771485
 42
-4.1962511465
  0
ELLIPSE
  5
607
100
AcDbEntity
  8
0
100
AcDbEllipse
 62
7
  6
CONTINUOUS
 10
723.6181625528
 20
527.2731104014
 30
0.0
 11
74.0
 21
0.0
 31
0.0
 40
0.6808509827
 41
-2.6367483563
 42
-2.6299808217
  0
ELLIPSE
  5
608
100
AcDbEntity
  8
0
100
AcDbEllipse
 62
7
  6
CONTINUOUS
 10
723.6181625528
 20
512.042611524
 30
0.0
 11
74.0
 21
-0.0
 31
0.0
 40
0.2553189968
 41
-2.645732617
 42
-2.6367483563
  0
ELLIPSE
  5
609
100
AcDbEntity
  8
0
100
AcDbEllipse
 62
7
  6
CONTINUOUS
 10
723.6181625528
 20
491.0851757579
 30
0.0
 11
74.0
 21
0.0
 31
0.0
 40
0.2553189968
 41
2.6367483563
 42
2.645732617
  0
ELLIPSE
  5
60A
100
AcDbEntity
  8
0
100
AcDbEllipse
 62
7
  6
CONTINUOUS
 10
723.6181625528
 20
508.874528821
 30
0.0
 11
74.0
 21
-0.0
 31
0.0
 40
0.2042552105
 41
-2.7568921749
 42
-2.7462384047
  0
ELLIPSE
  5
60B
100
AcDbEntity
  8
0
100
AcDbEllipse
 62
7
  6
CONTINUOUS
 10
723.6181625528
 20
591.4153058246
 30
0.0
 11
-0.0
 21
226.7242950413
 31
0.0
 40
0.3263876065
 41
-4.3106197541
 42
-4.3084775605
  0
ELLIPSE
  5
60C
100
AcDbEntity
  8
0
100
AcDbEllipse
 62
7
  6
CONTINUOUS
 10
723.6181625528
 20
522.457508328
 30
0.0
 11
74.0
 21
0.0
 31
0.0
 40
0.6808509827
 41
-2.7462384047
 42
-2.7398234273
  0
ELLIPSE
  5
60D
100
AcDbEntity
  8
0
100
AcDbEllipse
 62
7
  6
CONTINUOUS
 10
723.6181625528
 20
715.6379244883
 30
0.0
 11
0.0
 21
447.3182424197
 31
0.0
 40
0.1631947752
 41
-2.0753850843
 42
-2.0731043831
  0
ELLIPSE
  5
60E
100
AcDbEntity
  8
0
100
AcDbEllipse
 62
7
  6
CONTINUOUS
 10
723.6181625528
 20
490.9929723776
 30
0.0
 11
73.0
 21
-0.0
 31
0.0
 40
0.1702127457
 41
0.5321881645
 42
0.5461561446
  0
ELLIPSE
  5
60F
100
AcDbEntity
  8
0
100
AcDbEllipse
 62
7
  6
CONTINUOUS
 10
723.6181625528
 20
474.2128369039
 30
0.0
 11
73.0
 21
-0.0
 31
0.0
 40
0.6127657675
 41
0.5461561446
 42
0.5578872565
  0
ELLIPSE
  5
610
100
AcDbEntity
  8
0
100
AcDbEllipse
 62
7
  6
CONTINUOUS
 10
723.6181625528
 20
458.425600113
 30
0.0
 11
0.0
 21
74.5531826019
 31
0.0
 40
0.9791667834
 41
-1.0129090703
 42
-1.005829105
  0
ELLIPSE
  5
611
100
AcDbEntity
  8
0
100
AcDbEllipse
 62
7
  6
CONTINUOUS
 10
723.6181625528
 20
418.5106348384
 30
0.0
 11
-0.0
 21
149.1065074029
 31
0.0
 40
0.4895829248
 41
-1.005829105
 42
-1.0010914489
  0
ELLIPSE
  5
612
100
AcDbEntity
  8
0
100
AcDbEllipse
 62
7
  6
CONTINUOUS
 10
723.6181625528
 20
378.2980678208
 30
0.0
 11
0.0
 21
223.6593300641
 31
0.0
 40
0.3263892456
 41
-1.0010914489
 42
-0.998717221
  0
ELLIPSE
  5
613
100
AcDbEntity
  8
0
100
AcDbEllipse
 62
7
  6
CONTINUOUS
 10
723.6181625528
 20
297.5737848978
 30
0.0
 11
0.0
 21
372.7673350042
 31
0.0
 40
0.1958326096
 41
-0.998717221
 42
-0.9963393715
  0
ELLIPSE
  5
614
100
AcDbEntity
  8
0
100
AcDbEllipse
 62
7
  6
CONTINUOUS
 10
723.6181625528
 20
704.0221442233
 30
0.0
 11
-0.0
 21
372.7674394319
 31
0.0
 40
0.1958325548
 41
-2.1452532821
 42
-2.1428754326
  0
ELLIPSE
  5
615
100
AcDbEntity
  8
0
100
AcDbEllipse
 62
7
  6
CONTINUOUS
 10
723.6181625528
 20
623.2976916953
 30
0.0
 11
0.0
 21
223.6591212099
 31
0.0
 40
0.3263895503
 41
-2.1428754326
 42
-2.1405012047
  0
ELLIPSE
  5
616
100
AcDbEntity
  8
0
100
AcDbEllipse
 62
7
  6
CONTINUOUS
 10
723.6181625528
 20
583.0852514118
 30
0.0
 11
-0.0
 21
149.1065335098
 31
0.0
 40
0.4895828391
 41
-2.1405012047
 42
-2.1357635486
  0
ELLIPSE
  5
617
100
AcDbEntity
  8
0
100
AcDbEllipse
 62
7
  6
CONTINUOUS
 10
723.6181625528
 20
543.1702768191
 30
0.0
 11
0.0
 21
74.5531913042
 31
0.0
 40
0.9791666691
 41
-2.1357635486
 42
-2.1286835833
  0
ELLIPSE
  5
618
100
AcDbEntity
  8
0
100
AcDbEllipse
 62
7
  6
CONTINUOUS
 10
723.6181625528
 20
527.3830374943
 30
0.0
 11
73.0
 21
0.0
 31
0.0
 40
0.6127658212
 41
-0.5578872565
 42
-0.5461561446
  0
ELLIPSE
  5
619
100
AcDbEntity
  8
0
100
AcDbEllipse
 62
7
  6
CONTINUOUS
 10
723.6181625528
 20
510.6029005517
 30
0.0
 11
73.0
 21
0.0
 31
0.0
 40
0.1702127606
 41
-0.5461561446
 42
-0.5321881645
  0
ELLIPSE
  5
61A
100
AcDbEntity
  8
0
100
AcDbEllipse
 62
7
  6
CONTINUOUS
 10
723.6181625528
 20
553.4469044281
 30
0.0
 11
-0.0
 21
113.3617685704
 31
0.0
 40
0.6527773952
 41
-2.0769277204
 42
-2.0679371473
  0
ELLIPSE
  5
61B
100
AcDbEntity
  8
0
100
AcDbEllipse
 62
7
  6
CONTINUOUS
 10
723.6181625528
 20
522.9149544114
 30
0.0
 11
74.0
 21
0.0
 31
0.0
 40
0.6808509827
 41
-0.5129037986
 42
-0.5061313936
  0
ELLIPSE
  5
61C
100
AcDbEntity
  8
0
100
AcDbEllipse
 62
7
  6
CONTINUOUS
 10
723.6181625528
 20
505.6085720811
 30
0.0
 11
74.0
 21
0.0
 31
0.0
 40
0.2042552558
 41
-0.5242490691
 42
-0.5129037986
  0
ELLIPSE
  5
61D
100
AcDbEntity
  8
0
100
AcDbEllipse
 62
7
  6
CONTINUOUS
 10
723.6181625528
 20
495.9873001918
 30
0.0
 11
74.0
 21
-0.0
 31
0.0
 40
0.2042552558
 41
0.5129037986
 42
0.5242490691
  0
ELLIPSE
  5
61E
100
AcDbEntity
  8
0
100
AcDbEllipse
 62
7
  6
CONTINUOUS
 10
723.6181625528
 20
478.6809178615
 30
0.0
 11
74.0
 21
-0.0
 31
0.0
 40
0.6808509827
 41
0.5061313936
 42
0.5129037986
  0
ELLIPSE
  5
61F
100
AcDbEntity
  8
0
100
AcDbEllipse
 62
7
  6
CONTINUOUS
 10
723.6181625528
 20
448.1489870898
 30
0.0
 11
-0.0
 21
113.3617288737
 31
0.0
 40
0.6527776238
 41
-1.0736555063
 42
-1.0646649332
  0
ELLIPSE
  5
620
100
AcDbEntity
  8
0
100
AcDbEllipse
 62
7
  6
CONTINUOUS
 10
723.6181625528
 20
285.9578976125
 30
0.0
 11
-0.0
 21
453.4459954338
 31
0.0
 40
0.1631947371
 41
-1.0758962816
 42
-1.0736555063
  0
ELLIPSE
  5
621
100
AcDbEntity
  8
0
100
AcDbEllipse
 62
7
  6
CONTINUOUS
 10
723.6181625528
 20
715.6379244883
 30
0.0
 11
-0.0
 21
453.4458895762
 31
0.0
 40
0.1631947752
 41
-2.0679371473
 42
-2.065696372
  0
ELLIPSE
  5
622
100
AcDbEntity
  8
0
100
AcDbEllipse
 62
7
  6
CONTINUOUS
 10
723.6181625528
 20
510.6029005517
 30
0.0
 11
74.0
 21
0.0
 31
0.0
 40
0.1702127606
 41
-0.5379625524
 42
-0.5242490691
  0
ELLIPSE
  5
623
100
AcDbEntity
  8
0
100
AcDbEllipse
 62
7
  6
CONTINUOUS
 10
723.6181625528
 20
527.3830374943
 30
0.0
 11
74.0
 21
0.0
 31
0.0
 40
0.6127658212
 41
-0.5494766571
 42
-0.5379625524
  0
ELLIPSE
  5
624
100
AcDbEntity
  8
0
100
AcDbEllipse
 62
7
  6
CONTINUOUS
 10
723.6181625528
 20
543.1702768191
 30
0.0
 11
-0.0
 21
75.5744678974
 31
0.0
 40
0.9791666691
 41
-2.1272204836
 42
-2.1202729839
  0
ELLIPSE
  5
625
100
AcDbEntity
  8
0
100
AcDbEllipse
 62
7
  6
CONTINUOUS
 10
723.6181625528
 20
583.0852514118
 30
0.0
 11
0.0
 21
151.1490887633
 31
0.0
 40
0.4895828391
 41
-2.1318688519
 42
-2.1272204836
  0
ELLIPSE
  5
626
100
AcDbEntity
  8
0
100
AcDbEllipse
 62
7
  6
CONTINUOUS
 10
723.6181625528
 20
623.2976916953
 30
0.0
 11
0.0
 21
226.7229447881
 31
0.0
 40
0.3263895503
 41
-2.134198136
 42
-2.1318688519
  0
ELLIPSE
  5
627
100
AcDbEntity
  8
0
100
AcDbEllipse
 62
7
  6
CONTINUOUS
 10
723.6181625528
 20
704.0221442233
 30
0.0
 11
0.0
 21
377.8738427118
 31
0.0
 40
0.1958325548
 41
-2.1365308391
 42
-2.134198136
  0
ELLIPSE
  5
628
100
AcDbEntity
  8
0
100
AcDbEllipse
 62
7
  6
CONTINUOUS
 10
723.6181625528
 20
297.5737848978
 30
0.0
 11
0.0
 21
377.8737368535
 31
0.0
 40
0.1958326096
 41
-1.0073945176
 42
-1.0050618145
  0
ELLIPSE
  5
629
100
AcDbEntity
  8
0
100
AcDbEllipse
 62
7
  6
CONTINUOUS
 10
723.6181625528
 20
378.2980678208
 30
0.0
 11
0.0
 21
226.7231565034
 31
0.0
 40
0.3263892456
 41
-1.0097238017
 42
-1.0073945176
  0
ELLIPSE
  5
62A
100
AcDbEntity
  8
0
100
AcDbEllipse
 62
7
  6
CONTINUOUS
 10
723.6181625528
 20
418.5106348384
 30
0.0
 11
0.0
 21
151.1490622988
 31
0.0
 40
0.4895829248
 41
-1.01437217
 42
-1.0097238017
  0
ELLIPSE
  5
62B
100
AcDbEntity
  8
0
100
AcDbEllipse
 62
7
  6
CONTINUOUS
 10
723.6181625528
 20
458.425600113
 30
0.0
 11
0.0
 21
75.5744590759
 31
0.0
 40
0.9791667834
 41
-1.0213196697
 42
-1.01437217
  0
ELLIPSE
  5
62C
100
AcDbEntity
  8
0
100
AcDbEllipse
 62
7
  6
CONTINUOUS
 10
723.6181625528
 20
474.2128369039
 30
0.0
 11
74.0
 21
-0.0
 31
0.0
 40
0.6127657675
 41
0.5379625524
 42
0.5494766571
  0
ELLIPSE
  5
62D
100
AcDbEntity
  8
0
100
AcDbEllipse
 62
7
  6
CONTINUOUS
 10
723.6181625528
 20
490.9929723776
 30
0.0
 11
74.0
 21
-0.0
 31
0.0
 40
0.1702127457
 41
0.5242490691
 42
0.5379625524
  0
ELLIPSE
  5
62E
100
AcDbEntity
  8
0
100
AcDbEllipse
 62
7
  6
CONTINUOUS
 10
723.6181625528
 20
537.0639043326
 30
0.0
 11
-0.0
 21
88.1702375412
 31
0.0
 40
0.8392854785
 41
-2.0236129215
 42
-2.0105047868
  0
ELLIPSE
  5
62F
100
AcDbEntity
  8
0
100
AcDbEllipse
 62
7
  6
CONTINUOUS
 10
723.6181625528
 20
508.5248862989
 30
0.0
 11
73.0
 21
-0.0
 31
0.0
 40
0.1702127606
 41
-2.7513396948
 42
-2.7383438065
  0
ELLIPSE
  5
630
100
AcDbEntity
  8
0
100
AcDbEllipse
 62
7
  6
CONTINUOUS
 10
723.6181625528
 20
513.4007725746
 30
0.0
 11
73.0
 21
0.0
 31
0.0
 40
0.3404255211
 41
-2.7383438065
 42
-2.731818904
  0
ELLIPSE
  5
631
100
AcDbEntity
  8
0
100
AcDbEllipse
 62
7
  6
CONTINUOUS
 10
723.6181625528
 20
523.3014812916
 30
0.0
 11
73.0
 21
0.0
 31
0.0
 40
0.6808510423
 41
-2.731818904
 42
-2.7252754557
  0
ELLIPSE
  5
632
100
AcDbEntity
  8
0
100
AcDbEllipse
 62
7
  6
CONTINUOUS
 10
723.6181625528
 20
563.4999458126
 30
0.0
 11
0.0
 21
149.10609386
 31
0.0
 40
0.4895842826
 41
-4.2960717825
 42
-4.2916989545
  0
ELLIPSE
  5
633
100
AcDbEntity
  8
0
100
AcDbEllipse
 62
7
  6
CONTINUOUS
 10
723.6181625528
 20
510.9894197223
 30
0.0
 11
73.0
 21
0.0
 31
0.0
 40
0.2042551568
 41
-2.6383075131
 42
-2.6268687787
  0
ELLIPSE
  5
634
100
AcDbEntity
  8
0
100
AcDbEllipse
 62
7
  6
CONTINUOUS
 10
723.6181625528
 20
525.670284322
 30
0.0
 11
73.0
 21
-0.0
 31
0.0
 40
0.6127661718
 41
-2.6268687787
 42
-2.6153555674
  0
ELLIPSE
  5
635
100
AcDbEntity
  8
0
100
AcDbEllipse
 62
7
  6
CONTINUOUS
 10
723.6181625528
 20
553.1312675811
 30
0.0
 11
0.0
 21
99.4042521715
 31
0.0
 40
0.7343750233
 41
-4.1861518942
 42
-4.1859355268
  0
ELLIPSE
  5
636
100
AcDbEntity
  8
0
100
AcDbEllipse
 62
7
  6
CONTINUOUS
 10
723.6181625528
 20
553.1312675811
 30
0.0
 11
-0.0
 21
99.4042521715
 31
0.0
 40
0.7343750233
 41
-4.1844148902
 42
-4.1792069542
  0
ELLIPSE
  5
637
100
AcDbEntity
  8
0
100
AcDbEllipse
 62
7
  6
CONTINUOUS
 10
723.6181625528
 20
578.3935400216
 30
0.0
 11
0.0
 21
149.1061069134
 31
0.0
 40
0.4895842398
 41
-4.1792069542
 42
-4.1745611478
  0
ELLIPSE
  5
638
100
AcDbEntity
  8
0
100
AcDbEllipse
 62
7
  6
CONTINUOUS
 10
723.6181625528
 20
479.9255985046
 30
0.0
 11
73.0
 21
0.0
 31
0.0
 40
0.6808509827
 41
2.6615304246
 42
2.6677199993
  0
ELLIPSE
  5
639
100
AcDbEntity
  8
0
100
AcDbEllipse
 62
7
  6
CONTINUOUS
 10
723.6181625528
 20
451.5746234765
 30
0.0
 11
0.0
 21
111.8295867117
 31
0.0
 40
0.6527789483
 41
1.0969236725
 42
1.1014087594
  0
ELLIPSE
  5
63A
100
AcDbEntity
  8
0
100
AcDbEllipse
 62
7
  6
CONTINUOUS
 10
723.6181625528
 20
515.9149578215
 30
0.0
 11
74.0
 21
-0.0
 31
0.0
 40
0.2553191561
 41
-2.4453637369
 42
-2.4350450679
  0
ELLIPSE
  5
63B
100
AcDbEntity
  8
0
100
AcDbEllipse
 62
7
  6
CONTINUOUS
 10
723.6181625528
 20
528.1809166937
 30
0.0
 11
74.0
 21
-0.0
 31
0.0
 40
0.5106383345
 41
-2.4350450679
 42
-2.4246347027
  0
ELLIPSE
  5
63C
100
AcDbEntity
  8
0
100
AcDbEllipse
 62
7
  6
CONTINUOUS
 10
723.6181625528
 20
536.4575125078
 30
0.0
 11
74.0
 21
0.0
 31
0.0
 40
0.6808511019
 41
-2.4246347027
 42
-2.4167645657
  0
ELLIPSE
  5
63D
100
AcDbEntity
  8
0
100
AcDbEllipse
 62
7
  6
CONTINUOUS
 10
723.6181625528
 20
578.2128219504
 30
0.0
 11
-0.0
 21
113.3616903031
 31
0.0
 40
0.6527778459
 41
-3.9875608925
 42
-3.9822835462
  0
ELLIPSE
  5
63E
100
AcDbEntity
  8
0
100
AcDbEllipse
 62
7
  6
CONTINUOUS
 10
723.6181625528
 20
653.8192255772
 30
0.0
 11
0.0
 21
226.7234233998
 31
0.0
 40
0.3263888613
 41
-3.9822835462
 42
-3.9796355116
  0
ELLIPSE
  5
63F
100
AcDbEntity
  8
0
100
AcDbEllipse
 62
7
  6
CONTINUOUS
 10
723.6181625528
 20
400.9890533667
 30
0.0
 11
-0.0
 21
223.6604010025
 31
0.0
 40
0.3263876827
 41
1.1014087594
 42
1.1036474627
  0
ELLIPSE
  5
640
100
AcDbEntity
  8
0
100
AcDbEllipse
 62
7
  6
CONTINUOUS
 10
723.6181625528
 20
602.1387810478
 30
0.0
 11
0.0
 21
223.6605054302
 31
0.0
 40
0.3263875303
 41
-4.2452401162
 42
-4.2430014129
  0
ELLIPSE
  5
641
100
AcDbEntity
  8
0
100
AcDbEllipse
 62
7
  6
CONTINUOUS
 10
723.6181625528
 20
551.553151892
 30
0.0
 11
0.0
 21
111.8295606049
 31
0.0
 40
0.6527791007
 41
-4.2430014129
 42
-4.2385163261
  0
ELLIPSE
  5
642
100
AcDbEntity
  8
0
100
AcDbEllipse
 62
7
  6
CONTINUOUS
 10
723.6181625528
 20
493.5681518789
 30
0.0
 11
74.0
 21
-0.0
 31
0.0
 40
0.2042552558
 41
2.4632110454
 42
2.4758031954
  0
ELLIPSE
  5
643
100
AcDbEntity
  8
0
100
AcDbEllipse
 62
7
  6
CONTINUOUS
 10
723.6181625528
 20
479.5638742319
 30
0.0
 11
74.0
 21
-0.0
 31
0.0
 40
0.510638724
 41
2.4758031954
 42
2.4808052043
  0
ELLIPSE
  5
644
100
AcDbEntity
  8
0
100
AcDbEllipse
 62
7
  6
CONTINUOUS
 10
723.6181625528
 20
456.3724155558
 30
0.0
 11
-0.0
 21
75.5744495037
 31
0.0
 40
0.9791669074
 41
0.9100088775
 42
0.9149915188
  0
ELLIPSE
  5
645
100
AcDbEntity
  8
0
100
AcDbEllipse
 62
7
  6
CONTINUOUS
 10
723.6181625528
 20
410.287220929
 30
0.0
 11
0.0
 21
151.1490622988
 31
0.0
 40
0.4895829248
 41
0.9149915188
 42
0.9174756787
  0
ELLIPSE
  5
646
100
AcDbEntity
  8
0
100
AcDbEllipse
 62
7
  6
CONTINUOUS
 10
723.6181625528
 20
593.4363432387
 30
0.0
 11
-0.0
 21
151.1491152278
 31
0.0
 40
0.4895827534
 41
-4.0590683322
 42
-4.0540952554
  0
ELLIPSE
  5
647
100
AcDbEntity
  8
0
100
AcDbEllipse
 62
7
  6
CONTINUOUS
 10
723.6181625528
 20
531.7908401411
 30
0.0
 11
74.0
 21
-0.0
 31
0.0
 40
0.6808509827
 41
-2.4832989286
 42
-2.4758031954
  0
ELLIPSE
  5
648
100
AcDbEntity
  8
0
100
AcDbEllipse
 62
7
  6
CONTINUOUS
 10
723.6181625528
 20
508.4504156077
 30
0.0
 11
74.0
 21
0.0
 31
0.0
 40
0.1702127051
 41
-2.4758031954
 42
-2.4606773116
  0
ELLIPSE
  5
649
100
AcDbEntity
  8
0
100
AcDbEllipse
 62
7
  6
CONTINUOUS
 10
723.6181625528
 20
484.0674454268
 30
0.0
 11
74.0
 21
-0.0
 31
0.0
 40
0.3404254102
 41
2.4606773116
 42
2.4758031954
  0
ELLIPSE
  5
64A
100
AcDbEntity
  8
0
100
AcDbEllipse
 62
7
  6
CONTINUOUS
 10
723.6181625528
 20
452.9468336272
 30
0.0
 11
-0.0
 21
75.5745311494
 31
0.0
 40
0.9791658496
 41
0.9050068686
 42
0.9100088775
  0
ELLIPSE
  5
64B
100
AcDbEntity
  8
0
100
AcDbEllipse
 62
7
  6
CONTINUOUS
 10
723.6181625528
 20
406.5639487596
 30
0.0
 11
0.0
 21
151.1488460785
 31
0.0
 40
0.4895836251
 41
0.9100088775
 42
0.9149915188
  0
ELLIPSE
  5
64C
100
AcDbEntity
  8
0
100
AcDbEllipse
 62
7
  6
CONTINUOUS
 10
723.6181625528
 20
567.5638522369
 30
0.0
 11
0.0
 21
113.3616345589
 31
0.0
 40
0.6527781669
 41
-4.0565841724
 42
-4.0516015311
  0
ELLIPSE
  5
64D
100
AcDbEntity
  8
0
100
AcDbEllipse
 62
7
  6
CONTINUOUS
 10
723.6181625528
 20
528.9114076324
 30
0.0
 11
74.0
 21
0.0
 31
0.0
 40
0.6808509827
 41
-2.4808052043
 42
-2.4732948077
  0
ELLIPSE
  5
64E
100
AcDbEntity
  8
0
100
AcDbEllipse
 62
7
  6
CONTINUOUS
 10
723.6181625528
 20
507.0575103553
 30
0.0
 11
74.0
 21
0.0
 31
0.0
 40
0.2042553143
 41
-2.4732948077
 42
-2.4606773116
  0
ELLIPSE
  5
64F
100
AcDbEntity
  8
0
100
AcDbEllipse
 62
7
  6
CONTINUOUS
 10
723.6181625528
 20
523.2021887774
 30
0.0
 11
73.0
 21
-0.0
 31
0.0
 40
0.6808509827
 41
3.6154653079
 42
3.6216211496
  0
ELLIPSE
  5
650
100
AcDbEntity
  8
0
100
AcDbEllipse
 62
7
  6
CONTINUOUS
 10
723.6181625528
 20
296.8192426501
 30
0.0
 11
-0.0
 21
302.2978272945
 31
0.0
 40
0.2447917031
 41
0.8406908926
 42
0.8433326655
  0
ELLIPSE
  5
651
100
AcDbEntity
  8
0
100
AcDbEllipse
 62
7
  6
CONTINUOUS
 10
723.6181625528
 20
447.5851753578
 30
0.0
 11
-0.0
 21
75.5744602021
 31
0.0
 40
0.9791667688
 41
0.8433326655
 42
0.8538383759
  0
ELLIPSE
  5
652
100
AcDbEntity
  8
0
100
AcDbEllipse
 62
7
  6
CONTINUOUS
 10
723.6181625528
 20
472.4149588919
 30
0.0
 11
74.0
 21
0.0
 31
0.0
 40
0.5106382674
 41
2.4246347027
 42
2.4350450679
  0
ELLIPSE
  5
653
100
AcDbEntity
  8
0
100
AcDbEllipse
 62
7
  6
CONTINUOUS
 10
723.6181625528
 20
489.9377543918
 30
0.0
 11
74.0
 21
-0.0
 31
0.0
 40
0.1458966441
 41
2.4350450679
 42
2.4530446468
  0
ELLIPSE
  5
654
100
AcDbEntity
  8
0
100
AcDbEllipse
 62
7
  6
CONTINUOUS
 10
723.6181625528
 20
429.4858793584
 30
0.0
 11
0.0
 21
136.6808521748
 31
0.0
 40
0.5340909047
 41
0.9988106007
 42
1.0024465319
  0
ELLIPSE
  5
655
100
AcDbEntity
  8
0
100
AcDbEllipse
 62
7
  6
CONTINUOUS
 10
723.6181625528
 20
429.4858793584
 30
0.0
 11
-0.0
 21
136.6808521748
 31
0.0
 40
0.5340909047
 41
0.988158697
 42
0.9959682842
  0
ELLIPSE
  5
656
100
AcDbEntity
  8
0
100
AcDbEllipse
 62
7
  6
CONTINUOUS
 10
723.6181625528
 20
446.50713773
 30
0.0
 11
-0.0
 21
86.9787545103
 31
0.0
 40
0.8392854141
 41
0.9412256856
 42
0.9542800039
  0
ELLIPSE
  5
657
100
AcDbEntity
  8
0
100
AcDbEllipse
 62
7
  6
CONTINUOUS
 10
723.6181625528
 20
515.9149578215
 30
0.0
 11
73.0
 21
0.0
 31
0.0
 40
0.2553191561
 41
-2.4338579887
 42
-2.423293486
  0
ELLIPSE
  5
658
100
AcDbEntity
  8
0
100
AcDbEllipse
 62
7
  6
CONTINUOUS
 10
723.6181625528
 20
528.1809166937
 30
0.0
 11
73.0
 21
0.0
 31
0.0
 40
0.5106383345
 41
-2.423293486
 42
-2.4126305121
  0
ELLIPSE
  5
659
100
AcDbEntity
  8
0
100
AcDbEllipse
 62
7
  6
CONTINUOUS
 10
723.6181625528
 20
536.4575125078
 30
0.0
 11
73.0
 21
0.0
 31
0.0
 40
0.6808511019
 41
-2.4126305121
 42
-2.40456623
  0
ELLIPSE
  5
65A
100
AcDbEntity
  8
0
100
AcDbEllipse
 62
7
  6
CONTINUOUS
 10
723.6181625528
 20
578.2128219504
 30
0.0
 11
0.0
 21
111.8297755693
 31
0.0
 40
0.6527778459
 41
-3.9753625568
 42
-3.969953447
  0
ELLIPSE
  5
65B
100
AcDbEntity
  8
0
100
AcDbEllipse
 62
7
  6
CONTINUOUS
 10
723.6181625528
 20
653.8192255772
 30
0.0
 11
-0.0
 21
223.6595933539
 31
0.0
 40
0.3263888613
 41
-3.969953447
 42
-3.9672388093
  0
ELLIPSE
  5
65C
100
AcDbEntity
  8
0
100
AcDbEllipse
 62
7
  6
CONTINUOUS
 10
723.6181625528
 20
446.50713773
 30
0.0
 11
-0.0
 21
88.1702442981
 31
0.0
 40
0.8392854141
 41
0.9493555118
 42
0.963824396
  0
ELLIPSE
  5
65D
100
AcDbEntity
  8
0
100
AcDbEllipse
 62
7
  6
CONTINUOUS
 10
723.6181625528
 20
429.4858793584
 30
0.0
 11
-0.0
 21
138.5531926155
 31
0.0
 40
0.5340909047
 41
0.9970375
 42
1.0110532927
  0
ELLIPSE
  5
65E
100
AcDbEntity
  8
0
100
AcDbEllipse
 62
7
  6
CONTINUOUS
 10
723.6181625528
 20
493.5681518789
 30
0.0
 11
73.0
 21
0.0
 31
0.0
 40
0.2042552558
 41
2.4582563559
 42
2.4649979079
  0
ELLIPSE
  5
65F
100
AcDbEntity
  8
0
100
AcDbEllipse
 62
7
  6
CONTINUOUS
 10
723.6181625528
 20
479.5638742319
 30
0.0
 11
73.0
 21
-0.0
 31
0.0
 40
0.510638724
 41
2.4649979079
 42
2.4701116853
  0
ELLIPSE
  5
660
100
AcDbEntity
  8
0
100
AcDbEllipse
 62
7
  6
CONTINUOUS
 10
723.6181625528
 20
456.3724155558
 30
0.0
 11
0.0
 21
74.553173159
 31
0.0
 40
0.9791669074
 41
0.8993153585
 42
0.9044084458
  0
ELLIPSE
  5
661
100
AcDbEntity
  8
0
100
AcDbEllipse
 62
7
  6
CONTINUOUS
 10
723.6181625528
 20
410.287220929
 30
0.0
 11
-0.0
 21
149.1065074029
 31
0.0
 40
0.4895829248
 41
0.9044084458
 42
0.9069473433
  0
ELLIPSE
  5
662
100
AcDbEntity
  8
0
100
AcDbEllipse
 62
7
  6
CONTINUOUS
 10
723.6181625528
 20
477.4575049791
 30
0.0
 11
74.0
 21
0.0
 31
0.0
 40
0.6127661182
 41
2.6231874729
 42
2.6344953381
  0
ELLIPSE
  5
663
100
AcDbEntity
  8
0
100
AcDbEllipse
 62
7
  6
CONTINUOUS
 10
723.6181625528
 20
492.1383682935
 30
0.0
 11
74.0
 21
0.0
 31
0.0
 40
0.204255139
 41
2.6344953381
 42
2.645732617
  0
ELLIPSE
  5
664
100
AcDbEntity
  8
0
100
AcDbEllipse
 62
7
  6
CONTINUOUS
 10
723.6181625528
 20
593.4363432387
 30
0.0
 11
-0.0
 21
149.1065596166
 31
0.0
 40
0.4895827534
 41
-4.0485399969
 42
-4.0434571226
  0
ELLIPSE
  5
665
100
AcDbEntity
  8
0
100
AcDbEllipse
 62
7
  6
CONTINUOUS
 10
723.6181625528
 20
531.7908401411
 30
0.0
 11
73.0
 21
-0.0
 31
0.0
 40
0.6808509827
 41
-2.4726607958
 42
-2.4649979079
  0
ELLIPSE
  5
666
100
AcDbEntity
  8
0
100
AcDbEllipse
 62
7
  6
CONTINUOUS
 10
723.6181625528
 20
508.4504156077
 30
0.0
 11
73.0
 21
0.0
 31
0.0
 40
0.1702127051
 41
-2.4649979079
 42
-2.4495284226
  0
ELLIPSE
  5
667
100
AcDbEntity
  8
0
100
AcDbEllipse
 62
7
  6
CONTINUOUS
 10
723.6181625528
 20
484.0674454268
 30
0.0
 11
73.0
 21
0.0
 31
0.0
 40
0.3404254102
 41
2.4495284226
 42
2.4649979079
  0
ELLIPSE
  5
668
100
AcDbEntity
  8
0
100
AcDbEllipse
 62
7
  6
CONTINUOUS
 10
723.6181625528
 20
510.9894197223
 30
0.0
 11
74.0
 21
-0.0
 31
0.0
 40
0.2042551568
 41
-2.645732617
 42
-2.6344953381
  0
ELLIPSE
  5
669
100
AcDbEntity
  8
0
100
AcDbEllipse
 62
7
  6
CONTINUOUS
 10
723.6181625528
 20
525.670284322
 30
0.0
 11
74.0
 21
0.0
 31
0.0
 40
0.6127661718
 41
-2.6344953381
 42
-2.6231874729
  0
ELLIPSE
  5
66A
100
AcDbEntity
  8
0
100
AcDbEllipse
 62
7
  6
CONTINUOUS
 10
723.6181625528
 20
553.1312675811
 30
0.0
 11
0.0
 21
100.7659542561
 31
0.0
 40
0.7343750233
 41
-4.1939837997
 42
-4.187164022
  0
ELLIPSE
  5
66B
100
AcDbEntity
  8
0
100
AcDbEllipse
 62
7
  6
CONTINUOUS
 10
723.6181625528
 20
578.3935400216
 30
0.0
 11
-0.0
 21
151.1486563231
 31
0.0
 40
0.4895842398
 41
-4.187164022
 42
-4.1826025007
  0
ELLIPSE
  5
66C
100
AcDbEntity
  8
0
100
AcDbEllipse
 62
7
  6
CONTINUOUS
 10
723.6181625528
 20
494.2872907024
 30
0.0
 11
74.0
 21
0.0
 31
0.0
 40
0.255319362
 41
2.6591279431
 42
2.6680060349
  0
ELLIPSE
  5
66D
100
AcDbEntity
  8
0
100
AcDbEllipse
 62
7
  6
CONTINUOUS
 10
723.6181625528
 20
479.9255985046
 30
0.0
 11
74.0
 21
0.0
 31
0.0
 40
0.6808509827
 41
2.6680060349
 42
2.6746381527
  0
ELLIPSE
  5
66E
100
AcDbEntity
  8
0
100
AcDbEllipse
 62
7
  6
CONTINUOUS
 10
723.6181625528
 20
451.5746234765
 30
0.0
 11
-0.0
 21
113.3614988585
 31
0.0
 40
0.6527789483
 41
1.1038418259
 42
1.1082509362
  0
ELLIPSE
  5
66F
100
AcDbEntity
  8
0
100
AcDbEllipse
 62
7
  6
CONTINUOUS
 10
723.6181625528
 20
400.9890533667
 30
0.0
 11
-0.0
 21
226.7242421121
 31
0.0
 40
0.3263876827
 41
1.1082509362
 42
1.1104518424
  0
ELLIPSE
  5
670
100
AcDbEntity
  8
0
100
AcDbEllipse
 62
7
  6
CONTINUOUS
 10
723.6181625528
 20
602.1387810478
 30
0.0
 11
-0.0
 21
226.7243479704
 31
0.0
 40
0.3263875303
 41
-4.2520444959
 42
-4.2498435898
  0
ELLIPSE
  5
671
100
AcDbEntity
  8
0
100
AcDbEllipse
 62
7
  6
CONTINUOUS
 10
723.6181625528
 20
551.553151892
 30
0.0
 11
-0.0
 21
113.361472394
 31
0.0
 40
0.6527791007
 41
-4.2498435898
 42
-4.2454344794
  0
ELLIPSE
  5
672
100
AcDbEntity
  8
0
100
AcDbEllipse
 62
7
  6
CONTINUOUS
 10
723.6181625528
 20
523.2021887774
 30
0.0
 11
74.0
 21
-0.0
 31
0.0
 40
0.6808509827
 41
-2.6746381527
 42
-2.6680060349
  0
ELLIPSE
  5
673
100
AcDbEntity
  8
0
100
AcDbEllipse
 62
7
  6
CONTINUOUS
 10
723.6181625528
 20
508.8404965796
 30
0.0
 11
74.0
 21
0.0
 31
0.0
 40
0.255319362
 41
-2.6680060349
 42
-2.6591279431
  0
ELLIPSE
  5
674
100
AcDbEntity
  8
0
100
AcDbEllipse
 62
7
  6
CONTINUOUS
 10
723.6181625528
 20
452.9468336272
 30
0.0
 11
-0.0
 21
74.5532537015
 31
0.0
 40
0.9791658496
 41
0.8942015811
 42
0.8993153585
  0
ELLIPSE
  5
675
100
AcDbEntity
  8
0
100
AcDbEllipse
 62
7
  6
CONTINUOUS
 10
723.6181625528
 20
406.5639487596
 30
0.0
 11
0.0
 21
149.1062941044
 31
0.0
 40
0.4895836251
 41
0.8993153585
 42
0.9044084458
  0
ELLIPSE
  5
676
100
AcDbEntity
  8
0
100
AcDbEllipse
 62
7
  6
CONTINUOUS
 10
723.6181625528
 20
508.5248862989
 30
0.0
 11
74.0
 21
0.0
 31
0.0
 40
0.1702127606
 41
-2.7568921749
 42
-2.74410201
  0
ELLIPSE
  5
677
100
AcDbEntity
  8
0
100
AcDbEllipse
 62
7
  6
CONTINUOUS
 10
723.6181625528
 20
513.4007725746
 30
0.0
 11
74.0
 21
-0.0
 31
0.0
 40
0.3404255211
 41
-2.74410201
 42
-2.7376812337
  0
ELLIPSE
  5
678
100
AcDbEntity
  8
0
100
AcDbEllipse
 62
7
  6
CONTINUOUS
 10
723.6181625528
 20
523.3014812916
 30
0.0
 11
74.0
 21
-0.0
 31
0.0
 40
0.6808510423
 41
-2.7376812337
 42
-2.7312427879
  0
ELLIPSE
  5
679
100
AcDbEntity
  8
0
100
AcDbEllipse
 62
7
  6
CONTINUOUS
 10
723.6181625528
 20
563.4999458126
 30
0.0
 11
-0.0
 21
151.1486430909
 31
0.0
 40
0.4895842826
 41
-4.3020391147
 42
-4.297736788
  0
ELLIPSE
  5
67A
100
AcDbEntity
  8
0
100
AcDbEllipse
 62
7
  6
CONTINUOUS
 10
723.6181625528
 20
567.5638522369
 30
0.0
 11
-0.0
 21
111.8297205783
 31
0.0
 40
0.6527781669
 41
-4.0460010994
 42
-4.0409080121
  0
ELLIPSE
  5
67B
100
AcDbEntity
  8
0
100
AcDbEllipse
 62
7
  6
CONTINUOUS
 10
723.6181625528
 20
528.9114076324
 30
0.0
 11
73.0
 21
-0.0
 31
0.0
 40
0.6808509827
 41
-2.4701116853
 42
-2.4624331289
  0
ELLIPSE
  5
67C
100
AcDbEntity
  8
0
100
AcDbEllipse
 62
7
  6
CONTINUOUS
 10
723.6181625528
 20
507.0575103553
 30
0.0
 11
73.0
 21
-0.0
 31
0.0
 40
0.2042553143
 41
-2.4624331289
 42
-2.4582567039
  0
ELLIPSE
  5
67D
100
AcDbEntity
  8
0
100
AcDbEllipse
 62
7
  6
CONTINUOUS
 10
723.6181625528
 20
296.8192426501
 30
0.0
 11
0.0
 21
298.2127215203
 31
0.0
 40
0.2447917031
 41
0.8283607934
 42
0.8310686861
  0
ELLIPSE
  5
67E
100
AcDbEntity
  8
0
100
AcDbEllipse
 62
7
  6
CONTINUOUS
 10
723.6181625528
 20
447.5851753578
 30
0.0
 11
-0.0
 21
74.5531837129
 31
0.0
 40
0.9791667688
 41
0.8310686861
 42
0.8418341853
  0
ELLIPSE
  5
67F
100
AcDbEntity
  8
0
100
AcDbEllipse
 62
7
  6
CONTINUOUS
 10
723.6181625528
 20
472.4149588919
 30
0.0
 11
73.0
 21
-0.0
 31
0.0
 40
0.5106382674
 41
2.4126305121
 42
2.423293486
  0
ELLIPSE
  5
680
100
AcDbEntity
  8
0
100
AcDbEllipse
 62
7
  6
CONTINUOUS
 10
723.6181625528
 20
489.9377543918
 30
0.0
 11
73.0
 21
0.0
 31
0.0
 40
0.1458966441
 41
2.423293486
 42
2.4417190543
  0
ELLIPSE
  5
681
100
AcDbEntity
  8
0
100
AcDbEllipse
 62
7
  6
CONTINUOUS
 10
723.6181625528
 20
285.9578976125
 30
0.0
 11
0.0
 21
447.3183468469
 31
0.0
 40
0.1631947371
 41
-1.0684882705
 42
-1.0662075693
  0
ELLIPSE
  5
682
100
AcDbEntity
  8
0
100
AcDbEllipse
 62
7
  6
CONTINUOUS
 10
723.6181625528
 20
448.1489870898
 30
0.0
 11
0.0
 21
111.8298136186
 31
0.0
 40
0.6527776238
 41
-1.0662075693
 42
-1.057055791
  0
ELLIPSE
  5
683
100
AcDbEntity
  8
0
100
AcDbEllipse
 62
7
  6
CONTINUOUS
 10
723.6181625528
 20
478.6809178615
 30
0.0
 11
73.0
 21
-0.0
 31
0.0
 40
0.6808509827
 41
0.5137405358
 42
0.5164879561
  0
ELLIPSE
  5
684
100
AcDbEntity
  8
0
100
AcDbEllipse
 62
7
  6
CONTINUOUS
 10
723.6181625528
 20
522.9149544114
 30
0.0
 11
73.0
 21
0.0
 31
0.0
 40
0.6808509827
 41
5.7666973511
 42
5.7694447714
  0
ELLIPSE
  5
685
100
AcDbEntity
  8
0
100
AcDbEllipse
 62
7
  6
CONTINUOUS
 10
723.6181625528
 20
553.4469044281
 30
0.0
 11
-0.0
 21
111.8298527789
 31
0.0
 40
0.6527773952
 41
-2.0845368626
 42
-2.0753850843
  0
ELLIPSE
  5
686
100
AcDbEntity
  8
0
100
AcDbEllipse
 62
7
  6
CONTINUOUS
 10
723.6181625528
 20
571.9383640492
 30
0.0
 11
74.0
 21
0.0
 31
0.0
 40
0.6808509827
 41
0.3953542489
 42
0.4017692263
  0
ELLIPSE
  5
687
100
AcDbEntity
  8
0
100
AcDbEllipse
 62
7
  6
CONTINUOUS
 10
723.6181625528
 20
558.523472702
 30
0.0
 11
-0.0
 21
88.1702022552
 31
0.0
 40
0.8392858143
 41
1.117979732
 42
1.1310878668
  0
ELLIPSE
  5
688
100
AcDbEntity
  8
0
100
AcDbEllipse
 62
7
  6
CONTINUOUS
 10
723.6181625528
 20
418.5235731307
 30
0.0
 11
-0.0
 21
377.8721151962
 31
0.0
 40
0.1958334501
 41
1.0848325061
 42
1.0870599529
  0
ELLIPSE
  5
689
100
AcDbEntity
  8
0
100
AcDbEllipse
 62
7
  6
CONTINUOUS
 10
723.6181625528
 20
489.1191768491
 30
0.0
 11
0.0
 21
226.7234808333
 31
0.0
 40
0.3263887786
 41
1.0826024354
 42
1.0848325061
  0
ELLIPSE
  5
68A
100
AcDbEntity
  8
0
100
AcDbEllipse
 62
7
  6
CONTINUOUS
 10
723.6181625528
 20
524.5660128971
 30
0.0
 11
0.0
 21
151.1489541886
 31
0.0
 40
0.489583275
 41
1.0781343438
 42
1.0826024354
  0
ELLIPSE
  5
68B
100
AcDbEntity
  8
0
100
AcDbEllipse
 62
7
  6
CONTINUOUS
 10
723.6181625528
 20
560.3107065315
 30
0.0
 11
0.0
 21
75.5744590759
 31
0.0
 40
0.9791667834
 41
1.0714120098
 42
1.0781343438
  0
ELLIPSE
  5
68C
100
AcDbEntity
  8
0
100
AcDbEllipse
 62
7
  6
CONTINUOUS
 10
723.6181625528
 20
574.7873046922
 30
0.0
 11
74.0
 21
0.0
 31
0.0
 40
0.6127657675
 41
2.6309491722
 42
2.6422083366
  0
ELLIPSE
  5
68D
100
AcDbEntity
  8
0
100
AcDbEllipse
 62
7
  6
CONTINUOUS
 10
723.6181625528
 20
590.7929723776
 30
0.0
 11
74.0
 21
-0.0
 31
0.0
 40
0.1702127457
 41
2.6173435845
 42
2.6309491722
  0
ELLIPSE
  5
68E
100
AcDbEntity
  8
0
100
AcDbEllipse
 62
7
  6
CONTINUOUS
 10
723.6181625528
 20
596.4029005517
 30
0.0
 11
74.0
 21
-0.0
 31
0.0
 40
0.1702127606
 41
-2.6309491722
 42
-2.6173435845
  0
ELLIPSE
  5
68F
100
AcDbEntity
  8
0
100
AcDbEllipse
 62
7
  6
CONTINUOUS
 10
723.6181625528
 20
612.4085696383
 30
0.0
 11
74.0
 21
-0.0
 31
0.0
 40
0.6127658212
 41
-2.6422083366
 42
-2.6309491722
  0
ELLIPSE
  5
690
100
AcDbEntity
  8
0
100
AcDbEllipse
 62
7
  6
CONTINUOUS
 10
723.6181625528
 20
626.8851701224
 30
0.0
 11
-0.0
 21
75.5744678974
 31
0.0
 40
0.9791666691
 41
-4.2197269974
 42
-4.2130046634
  0
ELLIPSE
  5
691
100
AcDbEntity
  8
0
100
AcDbEllipse
 62
7
  6
CONTINUOUS
 10
723.6181625528
 20
662.6298721014
 30
0.0
 11
0.0
 21
151.148980653
 31
0.0
 40
0.4895831892
 41
-4.224195089
 42
-4.2197269974
  0
ELLIPSE
  5
692
100
AcDbEntity
  8
0
100
AcDbEllipse
 62
7
  6
CONTINUOUS
 10
723.6181625528
 20
698.0765964355
 30
0.0
 11
-0.0
 21
226.7232691177
 31
0.0
 40
0.3263890834
 41
-4.2264251597
 42
-4.224195089
  0
ELLIPSE
  5
693
100
AcDbEntity
  8
0
100
AcDbEllipse
 62
7
  6
CONTINUOUS
 10
723.6181625528
 20
768.67234848
 30
0.0
 11
0.0
 21
377.872221054
 31
0.0
 40
0.1958333952
 41
-4.2286526065
 42
-4.2264251597
  0
ELLIPSE
  5
694
100
AcDbEntity
  8
0
100
AcDbEllipse
 62
7
  6
CONTINUOUS
 10
723.6181625528
 20
583.2766575958
 30
0.0
 11
74.0
 21
-0.0
 31
0.0
 40
0.2042553727
 41
2.605923398
 42
2.6173435845
  0
ELLIPSE
  5
695
100
AcDbEntity
  8
0
100
AcDbEllipse
 62
7
  6
CONTINUOUS
 10
723.6181625528
 20
565.2752443113
 30
0.0
 11
74.0
 21
0.0
 31
0.0
 40
0.6808509827
 41
2.5990340686
 42
2.605923398
  0
ELLIPSE
  5
696
100
AcDbEntity
  8
0
100
AcDbEllipse
 62
7
  6
CONTINUOUS
 10
723.6181625528
 20
532.7574970223
 30
0.0
 11
0.0
 21
113.3617288737
 31
0.0
 40
0.6527776238
 41
1.0190071508
 42
1.0282377418
  0
ELLIPSE
  5
697
100
AcDbEntity
  8
0
100
AcDbEllipse
 62
7
  6
CONTINUOUS
 10
723.6181625528
 20
354.4813428009
 30
0.0
 11
0.0
 21
453.4459954338
 31
0.0
 40
0.1631947371
 41
1.016691322
 42
1.0190071508
  0
ELLIPSE
  5
698
100
AcDbEntity
  8
0
100
AcDbEllipse
 62
7
  6
CONTINUOUS
 10
723.6181625528
 20
832.7144738759
 30
0.0
 11
-0.0
 21
453.4458895762
 31
0.0
 40
0.1631947752
 41
-4.1605998044
 42
-4.1582839756
  0
ELLIPSE
  5
699
100
AcDbEntity
  8
0
100
AcDbEllipse
 62
7
  6
CONTINUOUS
 10
723.6181625528
 20
654.4383959558
 30
0.0
 11
0.0
 21
113.3617685704
 31
0.0
 40
0.6527773952
 41
-4.1698303954
 42
-4.1605998044
  0
ELLIPSE
  5
69A
100
AcDbEntity
  8
0
100
AcDbEllipse
 62
7
  6
CONTINUOUS
 10
723.6181625528
 20
621.9206281703
 30
0.0
 11
74.0
 21
0.0
 31
0.0
 40
0.6808509827
 41
-2.605923398
 42
-2.5990340686
  0
ELLIPSE
  5
69B
100
AcDbEntity
  8
0
100
AcDbEllipse
 62
7
  6
CONTINUOUS
 10
723.6181625528
 20
603.9192148858
 30
0.0
 11
74.0
 21
0.0
 31
0.0
 40
0.2042553727
 41
-2.6173435845
 42
-2.605923398
  0
ELLIPSE
  5
69C
100
AcDbEntity
  8
0
100
AcDbEllipse
 62
7
  6
CONTINUOUS
 10
723.6181625528
 20
502.9805665526
 30
0.0
 11
0.0
 21
226.7242950413
 31
0.0
 40
0.3263876065
 41
-1.1690271005
 42
-1.1668849069
  0
ELLIPSE
  5
69D
100
AcDbEntity
  8
0
100
AcDbEllipse
 62
7
  6
CONTINUOUS
 10
723.6181625528
 20
585.5213435562
 30
0.0
 11
74.0
 21
0.0
 31
0.0
 40
0.2042552105
 41
0.3847004787
 42
0.3953542489
  0
ELLIPSE
  5
69E
100
AcDbEntity
  8
0
100
AcDbEllipse
 62
7
  6
CONTINUOUS
 10
723.6181625528
 20
603.3106966193
 30
0.0
 11
74.0
 21
0.0
 31
0.0
 40
0.2553189968
 41
-0.5048442973
 42
-0.4958600366
  0
ELLIPSE
  5
69F
100
AcDbEntity
  8
0
100
AcDbEllipse
 62
7
  6
CONTINUOUS
 10
723.6181625528
 20
582.3532608532
 30
0.0
 11
74.0
 21
-0.0
 31
0.0
 40
0.2553189968
 41
0.4958600366
 42
0.5048442973
  0
ELLIPSE
  5
6A0
100
AcDbEntity
  8
0
100
AcDbEllipse
 62
7
  6
CONTINUOUS
 10
723.6181625528
 20
567.1227619758
 30
0.0
 11
74.0
 21
-0.0
 31
0.0
 40
0.6808509827
 41
0.5048442973
 42
0.5116118319
  0
ELLIPSE
  5
6A1
100
AcDbEntity
  8
0
100
AcDbEllipse
 62
7
  6
CONTINUOUS
 10
723.6181625528
 20
517.7895630892
 30
0.0
 11
-0.0
 21
151.1486563231
 31
0.0
 40
0.4895842398
 41
-1.0591844949
 42
-1.0546584929
  0
ELLIPSE
  5
6A2
100
AcDbEntity
  8
0
100
AcDbEllipse
 62
7
  6
CONTINUOUS
 10
723.6181625528
 20
558.3603487598
 30
0.0
 11
-0.0
 21
138.5531926155
 31
0.0
 40
0.5340909047
 41
-4.7104182498
 42
-4.686766799
  0
ELLIPSE
  5
6A3
100
AcDbEntity
  8
0
100
AcDbEllipse
 62
7
  6
CONTINUOUS
 10
723.6181625528
 20
597.610712511
 30
0.0
 11
74.0
 21
0.0
 31
0.0
 40
0.2042556244
 41
-0.4824647105
 42
-0.4713734338
  0
ELLIPSE
  5
6A4
100
AcDbEntity
  8
0
100
AcDbEllipse
 62
7
  6
CONTINUOUS
 10
723.6181625528
 20
611.3383456946
 30
0.0
 11
74.0
 21
0.0
 31
0.0
 40
0.6127654705
 41
-0.4713734338
 42
-0.4603444844
  0
ELLIPSE
  5
6A5
100
AcDbEntity
  8
0
100
AcDbEllipse
 62
7
  6
CONTINUOUS
 10
723.6181625528
 20
562.1085738605
 30
0.0
 11
74.0
 21
-0.0
 31
0.0
 40
0.6127661182
 41
3.072562627
 42
3.0923046832
  0
ELLIPSE
  5
6A6
100
AcDbEntity
  8
0
100
AcDbEllipse
 62
7
  6
CONTINUOUS
 10
723.6181625528
 20
564.1936817237
 30
0.0
 11
74.0
 21
-0.0
 31
0.0
 40
0.204255139
 41
3.0527935598
 42
3.072562627
  0
ELLIPSE
  5
6A7
100
AcDbEntity
  8
0
100
AcDbEllipse
 62
7
  6
CONTINUOUS
 10
723.6181625528
 20
557.9383607528
 30
0.0
 11
74.0
 21
0.0
 31
0.0
 40
0.2042551568
 41
-3.072562627
 42
-3.0527935598
  0
ELLIPSE
  5
6A8
100
AcDbEntity
  8
0
100
AcDbEllipse
 62
7
  6
CONTINUOUS
 10
723.6181625528
 20
560.0234687986
 30
0.0
 11
74.0
 21
0.0
 31
0.0
 40
0.6127661718
 41
-3.0923046832
 42
-3.072562627
  0
ELLIPSE
  5
6A9
100
AcDbEntity
  8
0
100
AcDbEllipse
 62
7
  6
CONTINUOUS
 10
723.6181625528
 20
562.7539642543
 30
0.0
 11
0.0
 21
100.7659542561
 31
0.0
 40
0.7343750233
 41
-4.6749365327
 42
-4.66310101
  0
ELLIPSE
  5
6AA
100
AcDbEntity
  8
0
100
AcDbEllipse
 62
7
  6
CONTINUOUS
 10
723.6181625528
 20
564.6404786638
 30
0.0
 11
-0.0
 21
151.1486563231
 31
0.0
 40
0.4895842398
 41
-4.6828238788
 42
-4.6749365327
  0
ELLIPSE
  5
6AB
100
AcDbEntity
  8
0
100
AcDbEllipse
 62
7
  6
CONTINUOUS
 10
723.6181625528
 20
555.9649556035
 30
0.0
 11
74.0
 21
-0.0
 31
0.0
 40
0.255319362
 41
3.0131428838
 42
3.0290239771
  0
ELLIPSE
  5
6AC
100
AcDbEntity
  8
0
100
AcDbEllipse
 62
7
  6
CONTINUOUS
 10
723.6181625528
 20
551.9312707198
 30
0.0
 11
74.0
 21
0.0
 31
0.0
 40
0.6808509827
 41
3.00121086
 42
3.0131428838
  0
ELLIPSE
  5
6AD
100
AcDbEntity
  8
0
100
AcDbEllipse
 62
7
  6
CONTINUOUS
 10
723.6181625528
 20
543.1192421245
 30
0.0
 11
-0.0
 21
113.3614988585
 31
0.0
 40
0.6527789483
 41
1.4224487504
 42
1.4304145332
  0
ELLIPSE
  5
6AE
100
AcDbEntity
  8
0
100
AcDbEllipse
 62
7
  6
CONTINUOUS
 10
723.6181625528
 20
526.3637683625
 30
0.0
 11
0.0
 21
226.7242421121
 31
0.0
 40
0.3263876827
 41
1.4184623553
 42
1.4224487504
  0
ELLIPSE
  5
6AF
100
AcDbEntity
  8
0
100
AcDbEllipse
 62
7
  6
CONTINUOUS
 10
723.6181625528
 20
595.7682900602
 30
0.0
 11
0.0
 21
226.7243479704
 31
0.0
 40
0.3263875303
 41
-4.564041404
 42
-4.5600550088
  0
ELLIPSE
  5
6B0
100
AcDbEntity
  8
0
100
AcDbEllipse
 62
7
  6
CONTINUOUS
 10
723.6181625528
 20
579.0127967404
 30
0.0
 11
-0.0
 21
113.361472394
 31
0.0
 40
0.6527791007
 41
-4.5720071868
 42
-4.564041404
  0
ELLIPSE
  5
6B1
100
AcDbEntity
  8
0
100
AcDbEllipse
 62
7
  6
CONTINUOUS
 10
723.6181625528
 20
570.2007718481
 30
0.0
 11
74.0
 21
-0.0
 31
0.0
 40
0.6808509827
 41
-3.0131428838
 42
-3.00121086
  0
ELLIPSE
  5
6B2
100
AcDbEntity
  8
0
100
AcDbEllipse
 62
7
  6
CONTINUOUS
 10
723.6181625528
 20
566.1670869643
 30
0.0
 11
74.0
 21
0.0
 31
0.0
 40
0.255319362
 41
-3.0290239771
 42
-3.0131428838
  0
ELLIPSE
  5
6B3
100
AcDbEntity
  8
0
100
AcDbEllipse
 62
7
  6
CONTINUOUS
 10
723.6181625528
 20
560.2468723245
 30
0.0
 11
74.0
 21
0.0
 31
0.0
 40
0.1702127606
 41
-2.8723024341
 42
-2.8476835008
  0
ELLIPSE
  5
6B4
100
AcDbEntity
  8
0
100
AcDbEllipse
 62
7
  6
CONTINUOUS
 10
723.6181625528
 20
563.5979361293
 30
0.0
 11
74.0
 21
-0.0
 31
0.0
 40
0.3404255211
 41
-2.8845484516
 42
-2.8723024341
  0
ELLIPSE
  5
6B5
100
AcDbEntity
  8
0
100
AcDbEllipse
 62
7
  6
CONTINUOUS
 10
723.6181625528
 20
570.002191408
 30
0.0
 11
74.0
 21
-0.0
 31
0.0
 40
0.6808510423
 41
-2.8967551734
 42
-2.8845484516
  0
ELLIPSE
  5
6B6
100
AcDbEntity
  8
0
100
AcDbEllipse
 62
7
  6
CONTINUOUS
 10
723.6181625528
 20
594.4276533169
 30
0.0
 11
0.0
 21
151.1486430909
 31
0.0
 40
0.4895842826
 41
-4.4756685769
 42
-4.4675515002
  0
ELLIPSE
  5
6B7
100
AcDbEntity
  8
0
100
AcDbEllipse
 62
7
  6
CONTINUOUS
 10
723.6181625528
 20
635.9596368799
 30
0.0
 11
0.0
 21
100.7659542561
 31
0.0
 40
0.7343750233
 41
-2.0311408112
 42
-2.0245523905
  0
ELLIPSE
  5
6B8
100
AcDbEntity
  8
0
100
AcDbEllipse
 62
7
  6
CONTINUOUS
 10
723.6181625528
 20
674.6084182118
 30
0.0
 11
0.0
 21
188.9358137878
 31
0.0
 40
0.3916674055
 41
-2.0245523905
 42
-2.0201718551
  0
ELLIPSE
  5
6B9
100
AcDbEntity
  8
0
100
AcDbEllipse
 62
7
  6
CONTINUOUS
 10
723.6181625528
 20
511.0555276602
 30
0.0
 11
0.0
 21
188.9358402522
 31
0.0
 40
0.3916673507
 41
-1.1214207985
 42
-1.1170402631
  0
ELLIPSE
  5
6BA
100
AcDbEntity
  8
0
100
AcDbEllipse
 62
7
  6
CONTINUOUS
 10
723.6181625528
 20
549.7043244595
 30
0.0
 11
-0.0
 21
100.7659454346
 31
0.0
 40
0.7343750875
 41
-1.1170402631
 42
-1.1104518424
  0
ELLIPSE
  5
6BB
100
AcDbEntity
  8
0
100
AcDbEllipse
 62
7
  6
CONTINUOUS
 10
723.6181625528
 20
574.3256134893
 30
0.0
 11
74.0
 21
0.0
 31
0.0
 40
0.6127654169
 41
0.4603444844
 42
0.4713734338
  0
ELLIPSE
  5
6BC
100
AcDbEntity
  8
0
100
AcDbEllipse
 62
7
  6
CONTINUOUS
 10
723.6181625528
 20
588.0532454711
 30
0.0
 11
74.0
 21
0.0
 31
0.0
 40
0.2042556065
 41
0.4713734338
 42
0.4824647105
  0
ELLIPSE
  5
6BD
100
AcDbEntity
  8
0
100
AcDbEllipse
 62
7
  6
CONTINUOUS
 10
723.6181625528
 20
621.5872813283
 30
0.0
 11
74.0
 21
-0.0
 31
0.0
 40
0.7659569903
 41
-0.5138733876
 42
-0.5048442973
  0
ELLIPSE
  5
6BE
100
AcDbEntity
  8
0
100
AcDbEllipse
 62
7
  6
CONTINUOUS
 10
723.6181625528
 20
663.5447453017
 30
0.0
 11
-0.0
 21
138.5531926155
 31
0.0
 40
0.5340909047
 41
-2.1328666961
 42
-2.1189530051
  0
ELLIPSE
  5
6BF
100
AcDbEntity
  8
0
100
AcDbEllipse
 62
7
  6
CONTINUOUS
 10
723.6181625528
 20
533.0447449187
 30
0.0
 11
74.0
 21
-0.0
 31
0.0
 40
0.2553189968
 41
3.1134357779
 42
3.1359620018
  0
ELLIPSE
  5
6C0
100
AcDbEntity
  8
0
100
AcDbEllipse
 62
7
  6
CONTINUOUS
 10
723.6181625528
 20
532.1582193837
 30
0.0
 11
74.0
 21
0.0
 31
0.0
 40
0.6808512211
 41
3.0965323593
 42
3.1134357779
  0
ELLIPSE
  5
6C1
100
AcDbEntity
  8
0
100
AcDbEllipse
 62
7
  6
CONTINUOUS
 10
723.6181625528
 20
529.3213360789
 30
0.0
 11
0.0
 21
113.3617967241
 31
0.0
 40
0.6527772331
 41
1.5144602343
 42
1.5257360325
  0
ELLIPSE
  5
6C2
100
AcDbEntity
  8
0
100
AcDbEllipse
 62
7
  6
CONTINUOUS
 10
723.6181625528
 20
518.6830796507
 30
0.0
 11
-0.0
 21
302.2972597174
 31
0.0
 40
0.2447921628
 41
1.5088197189
 42
1.5144602343
  0
ELLIPSE
  5
6C3
100
AcDbEntity
  8
0
100
AcDbEllipse
 62
7
  6
CONTINUOUS
 10
723.6181625528
 20
527.9383575267
 30
0.0
 11
74.0
 21
0.0
 31
0.0
 40
0.255319362
 41
2.8385523039
 42
2.8620658056
  0
ELLIPSE
  5
6C4
100
AcDbEntity
  8
0
100
AcDbEllipse
 62
7
  6
CONTINUOUS
 10
723.6181625528
 20
518.5411965853
 30
0.0
 11
74.0
 21
0.0
 31
0.0
 40
0.6808512211
 41
2.8208037844
 42
2.8385523039
  0
ELLIPSE
  5
6C5
100
AcDbEntity
  8
0
100
AcDbEllipse
 62
7
  6
CONTINUOUS
 10
723.6181625528
 20
498.6831185585
 30
0.0
 11
0.0
 21
113.361472394
 31
0.0
 40
0.6527791007
 41
1.2381170538
 42
1.2500074576
  0
ELLIPSE
  5
6C6
100
AcDbEntity
  8
0
100
AcDbEllipse
 62
7
  6
CONTINUOUS
 10
723.6181625528
 20
436.9805526641
 30
0.0
 11
0.0
 21
302.2989894828
 31
0.0
 40
0.244790762
 41
1.2321536345
 42
1.2381170538
  0
ELLIPSE
  5
6C7
100
AcDbEntity
  8
0
100
AcDbEllipse
 62
7
  6
CONTINUOUS
 10
723.6181625528
 20
644.2153191172
 30
0.0
 11
0.0
 21
302.2989894828
 31
0.0
 40
0.244790762
 41
-4.3797097074
 42
-4.3737462881
  0
ELLIPSE
  5
6C8
100
AcDbEntity
  8
0
100
AcDbEllipse
 62
7
  6
CONTINUOUS
 10
723.6181625528
 20
582.5127877933
 30
0.0
 11
0.0
 21
113.3615782517
 31
0.0
 40
0.6527784911
 41
-4.3916001112
 42
-4.3797097074
  0
ELLIPSE
  5
6C9
100
AcDbEntity
  8
0
100
AcDbEllipse
 62
7
  6
CONTINUOUS
 10
723.6181625528
 20
562.654670825
 30
0.0
 11
74.0
 21
0.0
 31
0.0
 40
0.6808509827
 41
-2.8385523039
 42
-2.8208037844
  0
ELLIPSE
  5
6CA
100
AcDbEntity
  8
0
100
AcDbEllipse
 62
7
  6
CONTINUOUS
 10
723.6181625528
 20
553.2575151486
 30
0.0
 11
74.0
 21
-0.0
 31
0.0
 40
0.255319362
 41
-2.8620658056
 42
-2.8385523039
  0
ELLIPSE
  5
6CB
100
AcDbEntity
  8
0
100
AcDbEllipse
 62
7
  6
CONTINUOUS
 10
723.6181625528
 20
646.6972655541
 30
0.0
 11
-0.0
 21
88.1702795841
 31
0.0
 40
0.8392850782
 41
-2.1922371418
 42
-2.1777682576
  0
ELLIPSE
  5
6CC
100
AcDbEntity
  8
0
100
AcDbEllipse
 62
7
  6
CONTINUOUS
 10
723.6181625528
 20
727.8108469417
 30
0.0
 11
-0.0
 21
226.7236463772
 31
0.0
 40
0.3263885403
 41
-2.2142270522
 42
-2.2117660521
  0
ELLIPSE
  5
6CD
100
AcDbEntity
  8
0
100
AcDbEllipse
 62
7
  6
CONTINUOUS
 10
723.6181625528
 20
412.0658070941
 30
0.0
 11
0.0
 21
302.2982304556
 31
0.0
 40
0.2447913767
 41
-0.9298266015
 42
-0.9273656014
  0
ELLIPSE
  5
6CE
100
AcDbEntity
  8
0
100
AcDbEllipse
 62
7
  6
CONTINUOUS
 10
723.6181625528
 20
525.4171259552
 30
0.0
 11
-0.0
 21
113.3616345589
 31
0.0
 40
0.6527781669
 41
-0.9273656014
 42
-0.9224299032
  0
ELLIPSE
  5
6CF
100
AcDbEntity
  8
0
100
AcDbEllipse
 62
7
  6
CONTINUOUS
 10
723.6181625528
 20
575.6192184691
 30
0.0
 11
74.0
 21
-0.0
 31
0.0
 40
0.4085105117
 41
0.6483664236
 42
0.6607874493
  0
ELLIPSE
  5
6D0
100
AcDbEntity
  8
0
100
AcDbEllipse
 62
7
  6
CONTINUOUS
 10
723.6181625528
 20
628.9596176791
 30
0.0
 11
74.0
 21
-0.0
 31
0.0
 40
0.7659569903
 41
-0.6607874493
 42
-0.6508411959
  0
ELLIPSE
  5
6D1
100
AcDbEntity
  8
0
100
AcDbEllipse
 62
7
  6
CONTINUOUS
 10
723.6181625528
 20
663.3001208848
 30
0.0
 11
0.0
 21
113.3617967241
 31
0.0
 40
0.6527772331
 41
-2.2216375227
 42
-2.2166926096
  0
ELLIPSE
  5
6D2
100
AcDbEntity
  8
0
100
AcDbEllipse
 62
7
  6
CONTINUOUS
 10
723.6181625528
 20
777.0230998097
 30
0.0
 11
-0.0
 21
302.2972597174
 31
0.0
 40
0.2447921628
 41
-2.2166926096
 42
-2.2142270522
  0
ELLIPSE
  5
6D3
100
AcDbEntity
  8
0
100
AcDbEllipse
 62
7
  6
CONTINUOUS
 10
723.6181625528
 20
414.5983044914
 30
0.0
 11
0.0
 21
302.2972597174
 31
0.0
 40
0.2447921628
 41
-0.9273656014
 42
-0.924900044
  0
ELLIPSE
  5
6D4
100
AcDbEntity
  8
0
100
AcDbEllipse
 62
7
  6
CONTINUOUS
 10
723.6181625528
 20
551.0660158545
 30
0.0
 11
0.0
 21
75.5744770943
 31
0.0
 40
0.9791665499
 41
-0.924900044
 42
-0.9149915188
  0
ELLIPSE
  5
6D5
100
AcDbEntity
  8
0
100
AcDbEllipse
 62
7
  6
CONTINUOUS
 10
723.6181625528
 20
574.1085717929
 30
0.0
 11
74.0
 21
-0.0
 31
0.0
 40
0.5106383587
 41
0.655804808
 42
0.6657894582
  0
ELLIPSE
  5
6D6
100
AcDbEntity
  8
0
100
AcDbEllipse
 62
7
  6
CONTINUOUS
 10
723.6181625528
 20
590.7803082966
 30
0.0
 11
74.0
 21
-0.0
 31
0.0
 40
0.1458966292
 41
0.6657894582
 42
0.683454284
  0
ELLIPSE
  5
6D7
100
AcDbEntity
  8
0
100
AcDbEllipse
 62
7
  6
CONTINUOUS
 10
723.6181625528
 20
670.4489824541
 30
0.0
 11
-0.0
 21
113.3616751001
 31
0.0
 40
0.6527779334
 41
-2.2877542777
 42
-2.2825374089
  0
ELLIPSE
  5
6D8
100
AcDbEntity
  8
0
100
AcDbEllipse
 62
7
  6
CONTINUOUS
 10
723.6181625528
 20
629.3142444408
 30
0.0
 11
74.0
 21
0.0
 31
0.0
 40
0.6808509827
 41
-0.7117410821
 42
-0.7039594586
  0
ELLIPSE
  5
6D9
100
AcDbEntity
  8
0
100
AcDbEllipse
 62
7
  6
CONTINUOUS
 10
723.6181625528
 20
606.4872963575
 30
0.0
 11
74.0
 21
-0.0
 31
0.0
 40
0.2042552851
 41
-0.7039594586
 42
-0.6911028796
  0
ELLIPSE
  5
6DA
100
AcDbEntity
  8
0
100
AcDbEllipse
 62
7
  6
CONTINUOUS
 10
723.6181625528
 20
581.6787888808
 30
0.0
 11
74.0
 21
-0.0
 31
0.0
 40
0.2042552851
 41
0.693663167
 42
0.7065475857
  0
ELLIPSE
  5
6DB
100
AcDbEntity
  8
0
100
AcDbEllipse
 62
7
  6
CONTINUOUS
 10
723.6181625528
 20
566.9596353719
 30
0.0
 11
74.0
 21
0.0
 31
0.0
 40
0.5106383587
 41
0.7065475857
 42
0.7117410821
  0
ELLIPSE
  5
6DC
100
AcDbEntity
  8
0
100
AcDbEllipse
 62
7
  6
CONTINUOUS
 10
723.6181625528
 20
542.2787817514
 30
0.0
 11
-0.0
 21
75.5744765312
 31
0.0
 40
0.9791665572
 41
-0.8590552447
 42
-0.8538383759
  0
ELLIPSE
  5
6DD
100
AcDbEntity
  8
0
100
AcDbEllipse
 62
7
  6
CONTINUOUS
 10
723.6181625528
 20
492.6192365127
 30
0.0
 11
0.0
 21
151.1489001335
 31
0.0
 40
0.4895834501
 41
-0.8538383759
 42
-0.8512210335
  0
ELLIPSE
  5
6DE
100
AcDbEntity
  8
0
100
AcDbEllipse
 62
7
  6
CONTINUOUS
 10
723.6181625528
 20
602.4170833238
 30
0.0
 11
74.0
 21
0.0
 31
0.0
 40
0.2553191104
 41
-0.6758530382
 42
-0.6657894582
  0
ELLIPSE
  5
6DF
100
AcDbEntity
  8
0
100
AcDbEllipse
 62
7
  6
CONTINUOUS
 10
723.6181625528
 20
614.0873036624
 30
0.0
 11
74.0
 21
-0.0
 31
0.0
 40
0.5106384258
 41
-0.6657894582
 42
-0.655804808
  0
ELLIPSE
  5
6E0
100
AcDbEntity
  8
0
100
AcDbEllipse
 62
7
  6
CONTINUOUS
 10
723.6181625528
 20
621.7681506703
 30
0.0
 11
74.0
 21
-0.0
 31
0.0
 40
0.6808511019
 41
-0.655804808
 42
-0.6483664236
  0
ELLIPSE
  5
6E1
100
AcDbEntity
  8
0
100
AcDbEllipse
 62
7
  6
CONTINUOUS
 10
723.6181625528
 20
659.8000230599
 30
0.0
 11
-0.0
 21
113.3616345589
 31
0.0
 40
0.6527781669
 41
-2.2191627504
 42
-2.2142270522
  0
ELLIPSE
  5
6E2
100
AcDbEntity
  8
0
100
AcDbEllipse
 62
7
  6
CONTINUOUS
 10
723.6181625528
 20
557.3319680447
 30
0.0
 11
-0.0
 21
88.1702375412
 31
0.0
 40
0.8392854785
 41
1.117979732
 42
1.1310878668
  0
ELLIPSE
  5
6E3
100
AcDbEntity
  8
0
100
AcDbEllipse
 62
7
  6
CONTINUOUS
 10
723.6181625528
 20
603.4028999997
 30
0.0
 11
74.0
 21
0.0
 31
0.0
 40
0.1702127457
 41
-2.6173435845
 42
-2.6036301011
  0
ELLIPSE
  5
6E4
100
AcDbEntity
  8
0
100
AcDbEllipse
 62
7
  6
CONTINUOUS
 10
723.6181625528
 20
620.1830354733
 30
0.0
 11
74.0
 21
-0.0
 31
0.0
 40
0.6127657675
 41
-2.6036301011
 42
-2.5921159965
  0
ELLIPSE
  5
6E5
100
AcDbEntity
  8
0
100
AcDbEllipse
 62
7
  6
CONTINUOUS
 10
723.6181625528
 20
635.9702722643
 30
0.0
 11
-0.0
 21
75.5744590759
 31
0.0
 40
0.9791667834
 41
-4.1629123232
 42
-4.1559648236
  0
ELLIPSE
  5
6E6
100
AcDbEntity
  8
0
100
AcDbEllipse
 62
7
  6
CONTINUOUS
 10
723.6181625528
 20
675.8852375388
 30
0.0
 11
-0.0
 21
151.1490622988
 31
0.0
 40
0.4895829248
 41
-4.1559648236
 42
-4.1513164553
  0
ELLIPSE
  5
6E7
100
AcDbEntity
  8
0
100
AcDbEllipse
 62
7
  6
CONTINUOUS
 10
723.6181625528
 20
716.0978045565
 30
0.0
 11
0.0
 21
226.7231565034
 31
0.0
 40
0.3263892456
 41
-4.1513164553
 42
-4.1489871712
  0
ELLIPSE
  5
6E8
100
AcDbEntity
  8
0
100
AcDbEllipse
 62
7
  6
CONTINUOUS
 10
723.6181625528
 20
796.8220874794
 30
0.0
 11
0.0
 21
377.8737368535
 31
0.0
 40
0.1958326096
 41
-4.1489871712
 42
-4.146654468
  0
ELLIPSE
  5
6E9
100
AcDbEntity
  8
0
100
AcDbEllipse
 62
7
  6
CONTINUOUS
 10
723.6181625528
 20
390.373728154
 30
0.0
 11
0.0
 21
377.8738427118
 31
0.0
 40
0.1958325548
 41
1.0050618145
 42
1.0073945176
  0
ELLIPSE
  5
6EA
100
AcDbEntity
  8
0
100
AcDbEllipse
 62
7
  6
CONTINUOUS
 10
723.6181625528
 20
471.098180682
 30
0.0
 11
-0.0
 21
226.7229447881
 31
0.0
 40
0.3263895503
 41
1.0073945176
 42
1.0097238017
  0
ELLIPSE
  5
6EB
100
AcDbEntity
  8
0
100
AcDbEllipse
 62
7
  6
CONTINUOUS
 10
723.6181625528
 20
511.3106209654
 30
0.0
 11
-0.0
 21
151.1490887633
 31
0.0
 40
0.4895828391
 41
1.0097238017
 42
1.01437217
  0
ELLIPSE
  5
6EC
100
AcDbEntity
  8
0
100
AcDbEllipse
 62
7
  6
CONTINUOUS
 10
723.6181625528
 20
551.2255955582
 30
0.0
 11
-0.0
 21
75.5744678974
 31
0.0
 40
0.9791666691
 41
1.01437217
 42
1.0213196697
  0
ELLIPSE
  5
6ED
100
AcDbEntity
  8
0
100
AcDbEllipse
 62
7
  6
CONTINUOUS
 10
723.6181625528
 20
567.012834883
 30
0.0
 11
74.0
 21
0.0
 31
0.0
 40
0.6127658212
 41
2.5921159965
 42
2.6036301011
  0
ELLIPSE
  5
6EE
100
AcDbEntity
  8
0
100
AcDbEllipse
 62
7
  6
CONTINUOUS
 10
723.6181625528
 20
583.7929718256
 30
0.0
 11
74.0
 21
-0.0
 31
0.0
 40
0.1702127606
 41
2.6036301011
 42
2.6173435845
  0
ELLIPSE
  5
6EF
100
AcDbEntity
  8
0
100
AcDbEllipse
 62
7
  6
CONTINUOUS
 10
723.6181625528
 20
378.7579478889
 30
0.0
 11
0.0
 21
453.4458895762
 31
0.0
 40
0.1631947752
 41
1.0736555063
 42
1.0758962816
  0
ELLIPSE
  5
6F0
100
AcDbEntity
  8
0
100
AcDbEllipse
 62
7
  6
CONTINUOUS
 10
723.6181625528
 20
808.4379747648
 30
0.0
 11
0.0
 21
453.4459954338
 31
0.0
 40
0.1631947371
 41
-4.2174889352
 42
-4.2152481599
  0
ELLIPSE
  5
6F1
100
AcDbEntity
  8
0
100
AcDbEllipse
 62
7
  6
CONTINUOUS
 10
723.6181625528
 20
646.2468852875
 30
0.0
 11
0.0
 21
113.3617288737
 31
0.0
 40
0.6527776238
 41
-4.2152481599
 42
-4.2062575867
  0
ELLIPSE
  5
6F2
100
AcDbEntity
  8
0
100
AcDbEllipse
 62
7
  6
CONTINUOUS
 10
723.6181625528
 20
615.7149545157
 30
0.0
 11
74.0
 21
0.0
 31
0.0
 40
0.6808509827
 41
-2.63546126
 42
-2.628688855
  0
ELLIPSE
  5
6F3
100
AcDbEntity
  8
0
100
AcDbEllipse
 62
7
  6
CONTINUOUS
 10
723.6181625528
 20
598.4085721854
 30
0.0
 11
74.0
 21
0.0
 31
0.0
 40
0.2042552558
 41
-2.628688855
 42
-2.6173435845
  0
ELLIPSE
  5
6F4
100
AcDbEntity
  8
0
100
AcDbEllipse
 62
7
  6
CONTINUOUS
 10
723.6181625528
 20
588.7873002961
 30
0.0
 11
74.0
 21
-0.0
 31
0.0
 40
0.2042552558
 41
2.6173435845
 42
2.628688855
  0
ELLIPSE
  5
6F5
100
AcDbEntity
  8
0
100
AcDbEllipse
 62
7
  6
CONTINUOUS
 10
723.6181625528
 20
571.4809179658
 30
0.0
 11
74.0
 21
-0.0
 31
0.0
 40
0.6808509827
 41
2.628688855
 42
2.63546126
  0
ELLIPSE
  5
6F6
100
AcDbEntity
  8
0
100
AcDbEllipse
 62
7
  6
CONTINUOUS
 10
723.6181625528
 20
540.9489679492
 30
0.0
 11
-0.0
 21
113.3617685704
 31
0.0
 40
0.6527773952
 41
1.0646649332
 42
1.0736555063
  0
ELLIPSE
  5
6F7
100
AcDbEntity
  8
0
100
AcDbEllipse
 62
7
  6
CONTINUOUS
 10
723.6181625528
 20
530.8959265647
 30
0.0
 11
0.0
 21
151.1486430909
 31
0.0
 40
0.4895842826
 41
-1.1604464611
 42
-1.1561441344
  0
ELLIPSE
  5
6F8
100
AcDbEntity
  8
0
100
AcDbEllipse
 62
7
  6
CONTINUOUS
 10
723.6181625528
 20
571.0943910857
 30
0.0
 11
74.0
 21
0.0
 31
0.0
 40
0.6808510423
 41
0.4039114199
 42
0.4103498657
  0
ELLIPSE
  5
6F9
100
AcDbEntity
  8
0
100
AcDbEllipse
 62
7
  6
CONTINUOUS
 10
723.6181625528
 20
580.9950998027
 30
0.0
 11
74.0
 21
-0.0
 31
0.0
 40
0.3404255211
 41
0.3974906436
 42
0.4039114199
  0
ELLIPSE
  5
6FA
100
AcDbEntity
  8
0
100
AcDbEllipse
 62
7
  6
CONTINUOUS
 10
723.6181625528
 20
585.8709860784
 30
0.0
 11
74.0
 21
-0.0
 31
0.0
 40
0.1702127606
 41
0.3847004787
 42
0.3974906436
  0
ELLIPSE
  5
6FB
100
AcDbEntity
  8
0
100
AcDbEllipse
 62
7
  6
CONTINUOUS
 10
723.6181625528
 20
585.5553757977
 30
0.0
 11
74.0
 21
-0.0
 31
0.0
 40
0.255319362
 41
0.4735866187
 42
0.4824647105
  0
ELLIPSE
  5
6FC
100
AcDbEntity
  8
0
100
AcDbEllipse
 62
7
  6
CONTINUOUS
 10
723.6181625528
 20
571.1936835999
 30
0.0
 11
74.0
 21
0.0
 31
0.0
 40
0.6808509827
 41
0.4669545009
 42
0.4735866187
  0
ELLIPSE
  5
6FD
100
AcDbEntity
  8
0
100
AcDbEllipse
 62
7
  6
CONTINUOUS
 10
723.6181625528
 20
542.8427204853
 30
0.0
 11
-0.0
 21
113.361472394
 31
0.0
 40
0.6527791007
 41
-1.1082509362
 42
-1.1038418259
  0
ELLIPSE
  5
6FE
100
AcDbEntity
  8
0
100
AcDbEllipse
 62
7
  6
CONTINUOUS
 10
723.6181625528
 20
492.2570913295
 30
0.0
 11
-0.0
 21
226.7243479704
 31
0.0
 40
0.3263875303
 41
-1.1104518424
 42
-1.1082509362
  0
ELLIPSE
  5
6FF
100
AcDbEntity
  8
0
100
AcDbEllipse
 62
7
  6
CONTINUOUS
 10
723.6181625528
 20
693.4068190105
 30
0.0
 11
0.0
 21
226.7242421121
 31
0.0
 40
0.3263876827
 41
-2.0333417174
 42
-2.0311408112
  0
ELLIPSE
  5
700
100
AcDbEntity
  8
0
100
AcDbEllipse
 62
7
  6
CONTINUOUS
 10
723.6181625528
 20
642.8212489007
 30
0.0
 11
-0.0
 21
113.3614988585
 31
0.0
 40
0.6527789483
 41
-2.0377508277
 42
-2.0333417174
  0
ELLIPSE
  5
701
100
AcDbEntity
  8
0
100
AcDbEllipse
 62
7
  6
CONTINUOUS
 10
723.6181625528
 20
614.4702738727
 30
0.0
 11
74.0
 21
0.0
 31
0.0
 40
0.6808509827
 41
-0.4735866187
 42
-0.4669545009
  0
ELLIPSE
  5
702
100
AcDbEntity
  8
0
100
AcDbEllipse
 62
7
  6
CONTINUOUS
 10
723.6181625528
 20
600.1085816749
 30
0.0
 11
74.0
 21
0.0
 31
0.0
 40
0.255319362
 41
-0.4824647105
 42
-0.4735866187
  0
ELLIPSE
  5
703
100
AcDbEntity
  8
0
100
AcDbEllipse
 62
7
  6
CONTINUOUS
 10
723.6181625528
 20
516.0023323557
 30
0.0
 11
0.0
 21
151.1486563231
 31
0.0
 40
0.4895842398
 41
-1.0455713684
 42
-1.0410098471
  0
ELLIPSE
  5
704
100
AcDbEntity
  8
0
100
AcDbEllipse
 62
7
  6
CONTINUOUS
 10
723.6181625528
 20
541.2646047962
 30
0.0
 11
-0.0
 21
100.7659542561
 31
0.0
 40
0.7343750233
 41
-1.0523911461
 42
-1.0455713684
  0
ELLIPSE
  5
705
100
AcDbEntity
  8
0
100
AcDbEllipse
 62
7
  6
CONTINUOUS
 10
723.6181625528
 20
568.7255880552
 30
0.0
 11
74.0
 21
-0.0
 31
0.0
 40
0.6127661718
 41
0.5070973155
 42
0.5184051807
  0
ELLIPSE
  5
706
100
AcDbEntity
  8
0
100
AcDbEllipse
 62
7
  6
CONTINUOUS
 10
723.6181625528
 20
583.4064526549
 30
0.0
 11
74.0
 21
0.0
 31
0.0
 40
0.2042551568
 41
0.4958600366
 42
0.5070973155
  0
ELLIPSE
  5
707
100
AcDbEntity
  8
0
100
AcDbEllipse
 62
7
  6
CONTINUOUS
 10
723.6181625528
 20
559.613896142
 30
0.0
 11
74.0
 21
-0.0
 31
0.0
 40
0.7659569903
 41
3.0686112185
 42
3.0844106042
  0
ELLIPSE
  5
708
100
AcDbEntity
  8
0
100
AcDbEllipse
 62
7
  6
CONTINUOUS
 10
723.6181625528
 20
567.2319809968
 30
0.0
 11
74.0
 21
0.0
 31
0.0
 40
0.2042556065
 41
-3.0290239771
 42
-3.0091676859
  0
ELLIPSE
  5
709
100
AcDbEntity
  8
0
100
AcDbEllipse
 62
7
  6
CONTINUOUS
 10
723.6181625528
 20
571.2234615552
 30
0.0
 11
74.0
 21
-0.0
 31
0.0
 40
0.6127654169
 41
-3.0091676859
 42
-2.9892586821
  0
ELLIPSE
  5
70A
100
AcDbEntity
  8
0
100
AcDbEllipse
 62
7
  6
CONTINUOUS
 10
723.6181625528
 20
579.6333944042
 30
0.0
 11
0.0
 21
100.7659454346
 31
0.0
 40
0.7343750875
 41
-4.5600550088
 42
-4.5480808577
  0
ELLIPSE
  5
70B
100
AcDbEntity
  8
0
100
AcDbEllipse
 62
7
  6
CONTINUOUS
 10
723.6181625528
 20
594.0553274555
 30
0.0
 11
-0.0
 21
188.9358402522
 31
0.0
 40
0.3916673507
 41
-4.5480808577
 42
-4.5400849562
  0
ELLIPSE
  5
70C
100
AcDbEntity
  8
0
100
AcDbEllipse
 62
7
  6
CONTINUOUS
 10
723.6181625528
 20
528.0767194411
 30
0.0
 11
-0.0
 21
188.9358137878
 31
0.0
 40
0.3916674055
 41
1.3984923026
 42
1.4064882041
  0
ELLIPSE
  5
70D
100
AcDbEntity
  8
0
100
AcDbEllipse
 62
7
  6
CONTINUOUS
 10
723.6181625528
 20
542.4986467207
 30
0.0
 11
0.0
 21
100.7659542561
 31
0.0
 40
0.7343750233
 41
1.4064882041
 42
1.4184623553
  0
ELLIPSE
  5
70E
100
AcDbEntity
  8
0
100
AcDbEllipse
 62
7
  6
CONTINUOUS
 10
723.6181625528
 20
550.9085803059
 30
0.0
 11
74.0
 21
0.0
 31
0.0
 40
0.6127654705
 41
2.9892586821
 42
3.0091676859
  0
ELLIPSE
  5
70F
100
AcDbEntity
  8
0
100
AcDbEllipse
 62
7
  6
CONTINUOUS
 10
723.6181625528
 20
554.9000612138
 30
0.0
 11
74.0
 21
-0.0
 31
0.0
 40
0.2042556244
 41
3.0091676859
 42
3.0290239771
  0
ELLIPSE
  5
710
100
AcDbEntity
  8
0
100
AcDbEllipse
 62
7
  6
CONTINUOUS
 10
723.6181625528
 20
568.2149401309
 30
0.0
 11
0.0
 21
151.1486563231
 31
0.0
 40
0.4895842398
 41
-4.6591543968
 42
-4.6512585729
  0
ELLIPSE
  5
711
100
AcDbEntity
  8
0
100
AcDbEllipse
 62
7
  6
CONTINUOUS
 10
723.6181625528
 20
562.0589285999
 30
0.0
 11
74.0
 21
-0.0
 31
0.0
 40
0.6808509827
 41
-3.0804622461
 42
-3.0686112185
  0
ELLIPSE
  5
712
100
AcDbEntity
  8
0
100
AcDbEllipse
 62
7
  6
CONTINUOUS
 10
723.6181625528
 20
559.7628289598
 30
0.0
 11
74.0
 21
-0.0
 31
0.0
 40
0.2553189968
 41
-3.0686112185
 42
-3.0527935598
  0
ELLIPSE
  5
713
100
AcDbEntity
  8
0
100
AcDbEllipse
 62
7
  6
CONTINUOUS
 10
723.6181625528
 20
562.3692136081
 30
0.0
 11
74.0
 21
-0.0
 31
0.0
 40
0.2553189968
 41
3.0527935598
 42
3.0686112185
  0
ELLIPSE
  5
714
100
AcDbEntity
  8
0
100
AcDbEllipse
 62
7
  6
CONTINUOUS
 10
723.6181625528
 20
562.1681466849
 30
0.0
 11
74.0
 21
-0.0
 31
0.0
 40
0.2042552105
 41
-2.8682113267
 42
-2.8476835008
  0
ELLIPSE
  5
715
100
AcDbEntity
  8
0
100
AcDbEllipse
 62
7
  6
CONTINUOUS
 10
723.6181625528
 20
617.2151854466
 30
0.0
 11
-0.0
 21
226.7242950413
 31
0.0
 40
0.3263876065
 41
-4.4553447784
 42
-4.4512672636
  0
ELLIPSE
  5
716
100
AcDbEntity
  8
0
100
AcDbEllipse
 62
7
  6
CONTINUOUS
 10
723.6181625528
 20
571.6901327468
 30
0.0
 11
74.0
 21
-0.0
 31
0.0
 40
0.6808509827
 41
-2.8804709368
 42
-2.8682113267
  0
ELLIPSE
  5
717
100
AcDbEntity
  8
0
100
AcDbEllipse
 62
7
  6
CONTINUOUS
 10
723.6181625528
 20
602.2575040837
 30
0.0
 11
74.0
 21
0.0
 31
0.0
 40
0.204255139
 41
-0.5070973155
 42
-0.4958600366
  0
ELLIPSE
  5
718
100
AcDbEntity
  8
0
100
AcDbEllipse
 62
7
  6
CONTINUOUS
 10
723.6181625528
 20
616.9383673982
 30
0.0
 11
74.0
 21
-0.0
 31
0.0
 40
0.6127661182
 41
-0.5184051807
 42
-0.5070973155
  0
ELLIPSE
  5
719
100
AcDbEntity
  8
0
100
AcDbEllipse
 62
7
  6
CONTINUOUS
 10
723.6181625528
 20
501.2363063346
 30
0.0
 11
0.0
 21
377.8715746468
 31
0.0
 40
0.1958337302
 41
1.4749288251
 42
1.4805839329
  0
ELLIPSE
  5
71A
100
AcDbEntity
  8
0
100
AcDbEllipse
 62
7
  6
CONTINUOUS
 10
723.6181625528
 20
521.6617535654
 30
0.0
 11
-0.0
 21
151.1490887633
 31
0.0
 40
0.4895828391
 41
1.4805839329
 42
1.4918856265
  0
ELLIPSE
  5
71B
100
AcDbEntity
  8
0
100
AcDbEllipse
 62
7
  6
CONTINUOUS
 10
723.6181625528
 20
527.6192155944
 30
0.0
 11
-0.0
 21
75.5744296553
 31
0.0
 40
0.9791671646
 41
1.4918856265
 42
1.5144602343
  0
ELLIPSE
  5
71C
100
AcDbEntity
  8
0
100
AcDbEllipse
 62
7
  6
CONTINUOUS
 10
723.6181625528
 20
529.7468736691
 30
0.0
 11
74.0
 21
-0.0
 31
0.0
 40
0.5106380606
 41
3.0852565611
 42
3.1078024594
  0
ELLIPSE
  5
71D
100
AcDbEntity
  8
0
100
AcDbEllipse
 62
7
  6
CONTINUOUS
 10
723.6181625528
 20
530.5128299057
 30
0.0
 11
74.0
 21
-0.0
 31
0.0
 40
0.2042553906
 41
3.1078024594
 42
3.1359620018
  0
ELLIPSE
  5
71E
100
AcDbEntity
  8
0
100
AcDbEllipse
 62
7
  6
CONTINUOUS
 10
723.6181625528
 20
664.9099930189
 30
0.0
 11
0.0
 21
138.5531926155
 31
0.0
 40
0.5340909047
 41
-2.1445551536
 42
-2.1305393609
  0
ELLIPSE
  5
71F
100
AcDbEntity
  8
0
100
AcDbEllipse
 62
7
  6
CONTINUOUS
 10
723.6181625528
 20
647.8887346473
 30
0.0
 11
0.0
 21
88.1702442981
 31
0.0
 40
0.8392854141
 41
-2.1922371418
 42
-2.1777682576
  0
ELLIPSE
  5
720
100
AcDbEntity
  8
0
100
AcDbEllipse
 62
7
  6
CONTINUOUS
 10
723.6181625528
 20
554.768145146
 30
0.0
 11
74.0
 21
0.0
 31
0.0
 40
0.204255139
 41
-2.8620658056
 42
-2.8326473261
  0
ELLIPSE
  5
721
100
AcDbEntity
  8
0
100
AcDbEllipse
 62
7
  6
CONTINUOUS
 10
723.6181625528
 20
561.6617761011
 30
0.0
 11
74.0
 21
-0.0
 31
0.0
 40
0.510638724
 41
-2.8326473261
 42
-2.8089133806
  0
ELLIPSE
  5
722
100
AcDbEntity
  8
0
100
AcDbEllipse
 62
7
  6
CONTINUOUS
 10
723.6181625528
 20
574.002211606
 30
0.0
 11
0.0
 21
75.5745311494
 31
0.0
 40
0.9791658496
 41
-4.3797097074
 42
-4.3557794669
  0
ELLIPSE
  5
723
100
AcDbEntity
  8
0
100
AcDbEllipse
 62
7
  6
CONTINUOUS
 10
723.6181625528
 20
600.385059108
 30
0.0
 11
-0.0
 21
151.1486298587
 31
0.0
 40
0.4895843255
 41
-4.3557794669
 42
-4.3437348093
  0
ELLIPSE
  5
724
100
AcDbEntity
  8
0
100
AcDbEllipse
 62
7
  6
CONTINUOUS
 10
723.6181625528
 20
682.0878747137
 30
0.0
 11
-0.0
 21
377.8739485701
 31
0.0
 40
0.1958324999
 41
-4.3437348093
 42
-4.3376915587
  0
ELLIPSE
  5
725
100
AcDbEntity
  8
0
100
AcDbEllipse
 62
7
  6
CONTINUOUS
 10
723.6181625528
 20
399.1080745538
 30
0.0
 11
0.0
 21
377.8737368535
 31
0.0
 40
0.1958326096
 41
1.1960989051
 42
1.2021421557
  0
ELLIPSE
  5
726
100
AcDbEntity
  8
0
100
AcDbEllipse
 62
7
  6
CONTINUOUS
 10
723.6181625528
 20
480.8108043285
 30
0.0
 11
0.0
 21
151.1486563231
 31
0.0
 40
0.4895842398
 41
1.2021421557
 42
1.2141868133
  0
ELLIPSE
  5
727
100
AcDbEntity
  8
0
100
AcDbEllipse
 62
7
  6
CONTINUOUS
 10
723.6181625528
 20
507.1936587596
 30
0.0
 11
0.0
 21
75.5745377655
 31
0.0
 40
0.9791657639
 41
1.2141868133
 42
1.2381170538
  0
ELLIPSE
  5
728
100
AcDbEntity
  8
0
100
AcDbEllipse
 62
7
  6
CONTINUOUS
 10
723.6181625528
 20
519.5340948047
 30
0.0
 11
74.0
 21
0.0
 31
0.0
 40
0.510638791
 41
2.8089133806
 42
2.8326473261
  0
ELLIPSE
  5
729
100
AcDbEntity
  8
0
100
AcDbEllipse
 62
7
  6
CONTINUOUS
 10
723.6181625528
 20
526.4277268662
 30
0.0
 11
74.0
 21
-0.0
 31
0.0
 40
0.2042551568
 41
2.8326473261
 42
2.8620658056
  0
ELLIPSE
  5
72A
100
AcDbEntity
  8
0
100
AcDbEllipse
 62
7
  6
CONTINUOUS
 10
723.6181625528
 20
604.4581179855
 30
0.0
 11
74.0
 21
0.0
 31
0.0
 40
0.1458966441
 41
-0.7065475857
 42
-0.6885480067
  0
ELLIPSE
  5
72B
100
AcDbEntity
  8
0
100
AcDbEllipse
 62
7
  6
CONTINUOUS
 10
723.6181625528
 20
621.9809134853
 30
0.0
 11
74.0
 21
0.0
 31
0.0
 40
0.5106382674
 41
-0.7169579509
 42
-0.7065475857
  0
ELLIPSE
  5
72C
100
AcDbEntity
  8
0
100
AcDbEllipse
 62
7
  6
CONTINUOUS
 10
723.6181625528
 20
646.8106970194
 30
0.0
 11
-0.0
 21
75.5744602021
 31
0.0
 40
0.9791667688
 41
-2.2982599881
 42
-2.2877542777
  0
ELLIPSE
  5
72D
100
AcDbEntity
  8
0
100
AcDbEllipse
 62
7
  6
CONTINUOUS
 10
723.6181625528
 20
797.5766297272
 30
0.0
 11
0.0
 21
302.2978272945
 31
0.0
 40
0.2447917031
 41
-2.300901761
 42
-2.2982599881
  0
ELLIPSE
  5
72E
100
AcDbEntity
  8
0
100
AcDbEllipse
 62
7
  6
CONTINUOUS
 10
723.6181625528
 20
587.338362022
 30
0.0
 11
74.0
 21
-0.0
 31
0.0
 40
0.2042553143
 41
0.6682978459
 42
0.680915342
  0
ELLIPSE
  5
72F
100
AcDbEntity
  8
0
100
AcDbEllipse
 62
7
  6
CONTINUOUS
 10
723.6181625528
 20
565.4844647449
 30
0.0
 11
74.0
 21
0.0
 31
0.0
 40
0.6808509827
 41
0.6607874493
 42
0.6682978459
  0
ELLIPSE
  5
730
100
AcDbEntity
  8
0
100
AcDbEllipse
 62
7
  6
CONTINUOUS
 10
723.6181625528
 20
526.8320201404
 30
0.0
 11
-0.0
 21
113.3616345589
 31
0.0
 40
0.6527781669
 41
-0.9149915188
 42
-0.9100088775
  0
ELLIPSE
  5
731
100
AcDbEntity
  8
0
100
AcDbEllipse
 62
7
  6
CONTINUOUS
 10
723.6181625528
 20
687.8319236177
 30
0.0
 11
0.0
 21
151.1488460785
 31
0.0
 40
0.4895836251
 41
-2.2315837761
 42
-2.2266011348
  0
ELLIPSE
  5
732
100
AcDbEntity
  8
0
100
AcDbEllipse
 62
7
  6
CONTINUOUS
 10
723.6181625528
 20
641.4490387501
 30
0.0
 11
-0.0
 21
75.5745311494
 31
0.0
 40
0.9791658496
 41
-2.236585785
 42
-2.2315837761
  0
ELLIPSE
  5
733
100
AcDbEntity
  8
0
100
AcDbEllipse
 62
7
  6
CONTINUOUS
 10
723.6181625528
 20
610.3284269505
 30
0.0
 11
74.0
 21
0.0
 31
0.0
 40
0.3404254102
 41
-0.680915342
 42
-0.6657894582
  0
ELLIPSE
  5
734
100
AcDbEntity
  8
0
100
AcDbEllipse
 62
7
  6
CONTINUOUS
 10
723.6181625528
 20
585.9454567696
 30
0.0
 11
74.0
 21
0.0
 31
0.0
 40
0.1702127051
 41
0.6657894582
 42
0.680915342
  0
ELLIPSE
  5
735
100
AcDbEntity
  8
0
100
AcDbEllipse
 62
7
  6
CONTINUOUS
 10
723.6181625528
 20
562.6050322361
 30
0.0
 11
74.0
 21
-0.0
 31
0.0
 40
0.6808509827
 41
0.658293725
 42
0.6657894582
  0
ELLIPSE
  5
736
100
AcDbEntity
  8
0
100
AcDbEllipse
 62
7
  6
CONTINUOUS
 10
723.6181625528
 20
500.9595291385
 30
0.0
 11
-0.0
 21
151.1491152278
 31
0.0
 40
0.4895827534
 41
-0.9174756787
 42
-0.9125026018
  0
ELLIPSE
  5
737
100
AcDbEntity
  8
0
100
AcDbEllipse
 62
7
  6
CONTINUOUS
 10
723.6181625528
 20
684.1086514482
 30
0.0
 11
-0.0
 21
151.1490622988
 31
0.0
 40
0.4895829248
 41
-2.2266011348
 42
-2.2241169749
  0
ELLIPSE
  5
738
100
AcDbEntity
  8
0
100
AcDbEllipse
 62
7
  6
CONTINUOUS
 10
723.6181625528
 20
638.0234568214
 30
0.0
 11
-0.0
 21
75.5744495037
 31
0.0
 40
0.9791669074
 41
-2.2315837761
 42
-2.2266011348
  0
ELLIPSE
  5
739
100
AcDbEntity
  8
0
100
AcDbEllipse
 62
7
  6
CONTINUOUS
 10
723.6181625528
 20
614.8319981454
 30
0.0
 11
74.0
 21
0.0
 31
0.0
 40
0.510638724
 41
-0.6657894582
 42
-0.6607874493
  0
ELLIPSE
  5
73A
100
AcDbEntity
  8
0
100
AcDbEllipse
 62
7
  6
CONTINUOUS
 10
723.6181625528
 20
600.8277204984
 30
0.0
 11
74.0
 21
-0.0
 31
0.0
 40
0.2042552558
 41
-0.6783816082
 42
-0.6657894582
  0
ELLIPSE
  5
73B
100
AcDbEntity
  8
0
100
AcDbEllipse
 62
7
  6
CONTINUOUS
 10
723.6181625528
 20
440.5766468001
 30
0.0
 11
-0.0
 21
226.7234233998
 31
0.0
 40
0.3263888613
 41
-0.8406908926
 42
-0.838042858
  0
ELLIPSE
  5
73C
100
AcDbEntity
  8
0
100
AcDbEllipse
 62
7
  6
CONTINUOUS
 10
723.6181625528
 20
516.1830504269
 30
0.0
 11
0.0
 21
113.3616903031
 31
0.0
 40
0.6527778459
 41
-0.8459682389
 42
-0.8406908926
  0
ELLIPSE
  5
73D
100
AcDbEntity
  8
0
100
AcDbEllipse
 62
7
  6
CONTINUOUS
 10
723.6181625528
 20
557.9383598695
 30
0.0
 11
74.0
 21
-0.0
 31
0.0
 40
0.6808511019
 41
0.7169579509
 42
0.7248280879
  0
ELLIPSE
  5
73E
100
AcDbEntity
  8
0
100
AcDbEllipse
 62
7
  6
CONTINUOUS
 10
723.6181625528
 20
566.2149556835
 30
0.0
 11
74.0
 21
-0.0
 31
0.0
 40
0.5106383345
 41
0.7065475857
 42
0.7169579509
  0
ELLIPSE
  5
73F
100
AcDbEntity
  8
0
100
AcDbEllipse
 62
7
  6
CONTINUOUS
 10
723.6181625528
 20
578.4809145557
 30
0.0
 11
74.0
 21
-0.0
 31
0.0
 40
0.2553191561
 41
0.6962289167
 42
0.7065475857
  0
ELLIPSE
  5
740
100
AcDbEntity
  8
0
100
AcDbEllipse
 62
7
  6
CONTINUOUS
 10
723.6181625528
 20
585.8709860784
 30
0.0
 11
73.0
 21
-0.0
 31
0.0
 40
0.1702127606
 41
0.3902529588
 42
0.403248847
  0
ELLIPSE
  5
741
100
AcDbEntity
  8
0
100
AcDbEllipse
 62
7
  6
CONTINUOUS
 10
723.6181625528
 20
580.9950998027
 30
0.0
 11
73.0
 21
0.0
 31
0.0
 40
0.3404255211
 41
0.403248847
 42
0.4097737496
  0
ELLIPSE
  5
742
100
AcDbEntity
  8
0
100
AcDbEllipse
 62
7
  6
CONTINUOUS
 10
723.6181625528
 20
571.0943910857
 30
0.0
 11
73.0
 21
0.0
 31
0.0
 40
0.6808510423
 41
0.4097737496
 42
0.4163171979
  0
ELLIPSE
  5
743
100
AcDbEntity
  8
0
100
AcDbEllipse
 62
7
  6
CONTINUOUS
 10
723.6181625528
 20
530.8959265647
 30
0.0
 11
-0.0
 21
149.10609386
 31
0.0
 40
0.4895842826
 41
-1.1544791289
 42
-1.1501063009
  0
ELLIPSE
  5
744
100
AcDbEntity
  8
0
100
AcDbEllipse
 62
7
  6
CONTINUOUS
 10
723.6181625528
 20
583.4064526549
 30
0.0
 11
73.0
 21
-0.0
 31
0.0
 40
0.2042551568
 41
0.5032851405
 42
0.5147238748
  0
ELLIPSE
  5
745
100
AcDbEntity
  8
0
100
AcDbEllipse
 62
7
  6
CONTINUOUS
 10
723.6181625528
 20
568.7255880552
 30
0.0
 11
73.0
 21
-0.0
 31
0.0
 40
0.6127661718
 41
0.5147238748
 42
0.5262370862
  0
ELLIPSE
  5
746
100
AcDbEntity
  8
0
100
AcDbEllipse
 62
7
  6
CONTINUOUS
 10
723.6181625528
 20
541.2646047962
 30
0.0
 11
0.0
 21
99.4042521715
 31
0.0
 40
0.7343750233
 41
-1.0445592406
 42
-1.0443428732
  0
ELLIPSE
  5
747
100
AcDbEntity
  8
0
100
AcDbEllipse
 62
7
  6
CONTINUOUS
 10
723.6181625528
 20
541.2646047962
 30
0.0
 11
0.0
 21
99.4042521715
 31
0.0
 40
0.7343750233
 41
-1.0428222366
 42
-1.0376143006
  0
ELLIPSE
  5
748
100
AcDbEntity
  8
0
100
AcDbEllipse
 62
7
  6
CONTINUOUS
 10
723.6181625528
 20
516.0023323557
 30
0.0
 11
0.0
 21
149.1061069134
 31
0.0
 40
0.4895842398
 41
-1.0376143006
 42
-1.0329684943
  0
ELLIPSE
  5
749
100
AcDbEntity
  8
0
100
AcDbEllipse
 62
7
  6
CONTINUOUS
 10
723.6181625528
 20
614.4702738727
 30
0.0
 11
73.0
 21
-0.0
 31
0.0
 40
0.6808509827
 41
-0.480062229
 42
-0.4738726543
  0
ELLIPSE
  5
74A
100
AcDbEntity
  8
0
100
AcDbEllipse
 62
7
  6
CONTINUOUS
 10
723.6181625528
 20
642.8212489007
 30
0.0
 11
-0.0
 21
111.8295867117
 31
0.0
 40
0.6527789483
 41
-2.0446689811
 42
-2.0401838942
  0
ELLIPSE
  5
74B
100
AcDbEntity
  8
0
100
AcDbEllipse
 62
7
  6
CONTINUOUS
 10
723.6181625528
 20
693.4068190105
 30
0.0
 11
0.0
 21
223.6604010025
 31
0.0
 40
0.3263876827
 41
-2.0401838942
 42
-2.0379451909
  0
ELLIPSE
  5
74C
100
AcDbEntity
  8
0
100
AcDbEllipse
 62
7
  6
CONTINUOUS
 10
723.6181625528
 20
492.2570913295
 30
0.0
 11
0.0
 21
223.6605054302
 31
0.0
 40
0.3263875303
 41
-1.1036474627
 42
-1.1014087594
  0
ELLIPSE
  5
74D
100
AcDbEntity
  8
0
100
AcDbEllipse
 62
7
  6
CONTINUOUS
 10
723.6181625528
 20
542.8427204853
 30
0.0
 11
0.0
 21
111.8295606049
 31
0.0
 40
0.6527791007
 41
-1.1014087594
 42
-1.0969236725
  0
ELLIPSE
  5
74E
100
AcDbEntity
  8
0
100
AcDbEllipse
 62
7
  6
CONTINUOUS
 10
723.6181625528
 20
571.1936835999
 30
0.0
 11
73.0
 21
0.0
 31
0.0
 40
0.6808509827
 41
6.7570579615
 42
6.7632138032
  0
ELLIPSE
  5
74F
100
AcDbEntity
  8
0
100
AcDbEllipse
 62
7
  6
CONTINUOUS
 10
723.6181625528
 20
664.9099930189
 30
0.0
 11
-0.0
 21
136.6808521748
 31
0.0
 40
0.5340909047
 41
-2.1427820529
 42
-2.1391461217
  0
ELLIPSE
  5
750
100
AcDbEntity
  8
0
100
AcDbEllipse
 62
7
  6
CONTINUOUS
 10
723.6181625528
 20
664.9099930189
 30
0.0
 11
0.0
 21
136.6808521748
 31
0.0
 40
0.5340909047
 41
-2.1534339566
 42
-2.1456243693
  0
ELLIPSE
  5
751
100
AcDbEntity
  8
0
100
AcDbEllipse
 62
7
  6
CONTINUOUS
 10
723.6181625528
 20
647.8887346473
 30
0.0
 11
0.0
 21
86.9787545103
 31
0.0
 40
0.8392854141
 41
-2.200366968
 42
-2.1873126497
  0
ELLIPSE
  5
752
100
AcDbEntity
  8
0
100
AcDbEllipse
 62
7
  6
CONTINUOUS
 10
723.6181625528
 20
578.4809145557
 30
0.0
 11
73.0
 21
0.0
 31
0.0
 40
0.2553191561
 41
0.7077346649
 42
0.7182991676
  0
ELLIPSE
  5
753
100
AcDbEntity
  8
0
100
AcDbEllipse
 62
7
  6
CONTINUOUS
 10
723.6181625528
 20
566.2149556835
 30
0.0
 11
73.0
 21
-0.0
 31
0.0
 40
0.5106383345
 41
0.7182991676
 42
0.7289621415
  0
ELLIPSE
  5
754
100
AcDbEntity
  8
0
100
AcDbEllipse
 62
7
  6
CONTINUOUS
 10
723.6181625528
 20
557.9383598695
 30
0.0
 11
73.0
 21
-0.0
 31
0.0
 40
0.6808511019
 41
0.7289621415
 42
0.7370264236
  0
ELLIPSE
  5
755
100
AcDbEntity
  8
0
100
AcDbEllipse
 62
7
  6
CONTINUOUS
 10
723.6181625528
 20
516.1830504269
 30
0.0
 11
0.0
 21
111.8297755693
 31
0.0
 40
0.6527778459
 41
-0.8337699032
 42
-0.8283607934
  0
ELLIPSE
  5
756
100
AcDbEntity
  8
0
100
AcDbEllipse
 62
7
  6
CONTINUOUS
 10
723.6181625528
 20
440.5766468001
 30
0.0
 11
0.0
 21
223.6595933539
 31
0.0
 40
0.3263888613
 41
-0.8283607934
 42
-0.8256461557
  0
ELLIPSE
  5
757
100
AcDbEntity
  8
0
100
AcDbEllipse
 62
7
  6
CONTINUOUS
 10
723.6181625528
 20
600.8277204984
 30
0.0
 11
73.0
 21
0.0
 31
0.0
 40
0.2042552558
 41
-0.6833362977
 42
-0.6765947457
  0
ELLIPSE
  5
758
100
AcDbEntity
  8
0
100
AcDbEllipse
 62
7
  6
CONTINUOUS
 10
723.6181625528
 20
614.8319981454
 30
0.0
 11
73.0
 21
-0.0
 31
0.0
 40
0.510638724
 41
-0.6765947457
 42
-0.6714809683
  0
ELLIPSE
  5
759
100
AcDbEntity
  8
0
100
AcDbEllipse
 62
7
  6
CONTINUOUS
 10
723.6181625528
 20
638.0234568214
 30
0.0
 11
-0.0
 21
74.553173159
 31
0.0
 40
0.9791669074
 41
-2.2422772951
 42
-2.2371842078
  0
ELLIPSE
  5
75A
100
AcDbEntity
  8
0
100
AcDbEllipse
 62
7
  6
CONTINUOUS
 10
723.6181625528
 20
684.1086514482
 30
0.0
 11
0.0
 21
149.1065074029
 31
0.0
 40
0.4895829248
 41
-2.2371842078
 42
-2.2346453103
  0
ELLIPSE
  5
75B
100
AcDbEntity
  8
0
100
AcDbEllipse
 62
7
  6
CONTINUOUS
 10
723.6181625528
 20
500.9595291385
 30
0.0
 11
0.0
 21
149.1065596166
 31
0.0
 40
0.4895827534
 41
-0.9069473433
 42
-0.901864469
  0
ELLIPSE
  5
75C
100
AcDbEntity
  8
0
100
AcDbEllipse
 62
7
  6
CONTINUOUS
 10
723.6181625528
 20
562.6050322362
 30
0.0
 11
73.0
 21
0.0
 31
0.0
 40
0.6808509827
 41
0.6689318578
 42
0.6765947457
  0
ELLIPSE
  5
75D
100
AcDbEntity
  8
0
100
AcDbEllipse
 62
7
  6
CONTINUOUS
 10
723.6181625528
 20
585.9454567696
 30
0.0
 11
73.0
 21
-0.0
 31
0.0
 40
0.1702127051
 41
0.6765947457
 42
0.692064231
  0
ELLIPSE
  5
75E
100
AcDbEntity
  8
0
100
AcDbEllipse
 62
7
  6
CONTINUOUS
 10
723.6181625528
 20
610.3284269505
 30
0.0
 11
73.0
 21
-0.0
 31
0.0
 40
0.3404254102
 41
-0.692064231
 42
-0.6765947457
  0
ELLIPSE
  5
75F
100
AcDbEntity
  8
0
100
AcDbEllipse
 62
7
  6
CONTINUOUS
 10
723.6181625528
 20
641.4490387501
 30
0.0
 11
-0.0
 21
74.5532537015
 31
0.0
 40
0.9791658496
 41
-2.2473910725
 42
-2.2422772951
  0
ELLIPSE
  5
760
100
AcDbEntity
  8
0
100
AcDbEllipse
 62
7
  6
CONTINUOUS
 10
723.6181625528
 20
687.8319236177
 30
0.0
 11
0.0
 21
149.1062941044
 31
0.0
 40
0.4895836251
 41
-2.2422772951
 42
-2.2371842078
  0
ELLIPSE
  5
761
100
AcDbEntity
  8
0
100
AcDbEllipse
 62
7
  6
CONTINUOUS
 10
723.6181625528
 20
526.8320201404
 30
0.0
 11
0.0
 21
111.8297205783
 31
0.0
 40
0.6527781669
 41
-0.9044084458
 42
-0.8993153585
  0
ELLIPSE
  5
762
100
AcDbEntity
  8
0
100
AcDbEllipse
 62
7
  6
CONTINUOUS
 10
723.6181625528
 20
565.4844647449
 30
0.0
 11
73.0
 21
0.0
 31
0.0
 40
0.6808509827
 41
0.6714809683
 42
0.6791595247
  0
ELLIPSE
  5
763
100
AcDbEntity
  8
0
100
AcDbEllipse
 62
7
  6
CONTINUOUS
 10
723.6181625528
 20
587.338362022
 30
0.0
 11
73.0
 21
0.0
 31
0.0
 40
0.2042553143
 41
0.6791595247
 42
0.6833359497
  0
ELLIPSE
  5
764
100
AcDbEntity
  8
0
100
AcDbEllipse
 62
7
  6
CONTINUOUS
 10
723.6181625528
 20
797.5766297272
 30
0.0
 11
-0.0
 21
298.2127215203
 31
0.0
 40
0.2447917031
 41
-2.3132318602
 42
-2.3105239675
  0
ELLIPSE
  5
765
100
AcDbEntity
  8
0
100
AcDbEllipse
 62
7
  6
CONTINUOUS
 10
723.6181625528
 20
646.8106970194
 30
0.0
 11
-0.0
 21
74.5531837129
 31
0.0
 40
0.9791667688
 41
-2.3105239675
 42
-2.2997584683
  0
ELLIPSE
  5
766
100
AcDbEntity
  8
0
100
AcDbEllipse
 62
7
  6
CONTINUOUS
 10
723.6181625528
 20
621.9809134853
 30
0.0
 11
73.0
 21
0.0
 31
0.0
 40
0.5106382674
 41
-0.7289621415
 42
-0.7182991676
  0
ELLIPSE
  5
767
100
AcDbEntity
  8
0
100
AcDbEllipse
 62
7
  6
CONTINUOUS
 10
723.6181625528
 20
604.4581179855
 30
0.0
 11
73.0
 21
0.0
 31
0.0
 40
0.1458966441
 41
-0.7182991676
 42
-0.6998735993
  0
ELLIPSE
  5
768
100
AcDbEntity
  8
0
100
AcDbEllipse
 62
7
  6
CONTINUOUS
 10
723.6181625528
 20
554.768145146
 30
0.0
 11
73.0
 21
-0.0
 31
0.0
 40
0.204255139
 41
-2.8581314901
 42
-2.828272134
  0
ELLIPSE
  5
769
100
AcDbEntity
  8
0
100
AcDbEllipse
 62
7
  6
CONTINUOUS
 10
723.6181625528
 20
561.6617761011
 30
0.0
 11
73.0
 21
0.0
 31
0.0
 40
0.510638724
 41
-2.828272134
 42
-2.8041763185
  0
ELLIPSE
  5
76A
100
AcDbEntity
  8
0
100
AcDbEllipse
 62
7
  6
CONTINUOUS
 10
723.6181625528
 20
574.002211606
 30
0.0
 11
0.0
 21
74.5532537015
 31
0.0
 40
0.9791658496
 41
-4.3749726453
 42
-4.3506713389
  0
ELLIPSE
  5
76B
100
AcDbEntity
  8
0
100
AcDbEllipse
 62
7
  6
CONTINUOUS
 10
723.6181625528
 20
600.385059108
 30
0.0
 11
-0.0
 21
149.1060808066
 31
0.0
 40
0.4895843255
 41
-4.3506713389
 42
-4.3384373684
  0
ELLIPSE
  5
76C
100
AcDbEntity
  8
0
100
AcDbEllipse
 62
7
  6
CONTINUOUS
 10
723.6181625528
 20
682.0878747137
 30
0.0
 11
0.0
 21
372.7675438596
 31
0.0
 40
0.1958324999
 41
-4.3384373684
 42
-4.3322984549
  0
ELLIPSE
  5
76D
100
AcDbEntity
  8
0
100
AcDbEllipse
 62
7
  6
CONTINUOUS
 10
723.6181625528
 20
399.1080745538
 30
0.0
 11
0.0
 21
372.7673350042
 31
0.0
 40
0.1958326096
 41
1.1907058013
 42
1.1968447148
  0
ELLIPSE
  5
76E
100
AcDbEntity
  8
0
100
AcDbEllipse
 62
7
  6
CONTINUOUS
 10
723.6181625528
 20
480.8108043285
 30
0.0
 11
-0.0
 21
149.1061069134
 31
0.0
 40
0.4895842398
 41
1.1968447148
 42
1.2090786853
  0
ELLIPSE
  5
76F
100
AcDbEntity
  8
0
100
AcDbEllipse
 62
7
  6
CONTINUOUS
 10
723.6181625528
 20
507.1936587596
 30
0.0
 11
-0.0
 21
74.5532602282
 31
0.0
 40
0.9791657639
 41
1.2090786853
 42
1.2333799917
  0
ELLIPSE
  5
770
100
AcDbEntity
  8
0
100
AcDbEllipse
 62
7
  6
CONTINUOUS
 10
723.6181625528
 20
519.5340948047
 30
0.0
 11
73.0
 21
0.0
 31
0.0
 40
0.510638791
 41
2.8041763185
 42
2.828272134
  0
ELLIPSE
  5
771
100
AcDbEntity
  8
0
100
AcDbEllipse
 62
7
  6
CONTINUOUS
 10
723.6181625528
 20
526.4277268662
 30
0.0
 11
73.0
 21
0.0
 31
0.0
 40
0.2042551568
 41
2.828272134
 42
2.8581314901
  0
ELLIPSE
  5
772
100
AcDbEntity
  8
0
100
AcDbEllipse
 62
7
  6
CONTINUOUS
 10
723.6181625528
 20
617.2151854466
 30
0.0
 11
-0.0
 21
223.6604532164
 31
0.0
 40
0.3263876065
 41
-4.4517422561
 42
-4.4476048742
  0
ELLIPSE
  5
773
100
AcDbEntity
  8
0
100
AcDbEllipse
 62
7
  6
CONTINUOUS
 10
723.6181625528
 20
571.6901327468
 30
0.0
 11
73.0
 21
-0.0
 31
0.0
 40
0.6808509827
 41
-2.8768085474
 42
-2.8643681248
  0
ELLIPSE
  5
774
100
AcDbEntity
  8
0
100
AcDbEllipse
 62
7
  6
CONTINUOUS
 10
723.6181625528
 20
562.1681466849
 30
0.0
 11
73.0
 21
0.0
 31
0.0
 40
0.2042552105
 41
-2.8643681248
 42
-2.8435346505
  0
ELLIPSE
  5
775
100
AcDbEntity
  8
0
100
AcDbEllipse
 62
7
  6
CONTINUOUS
 10
723.6181625528
 20
567.2319809968
 30
0.0
 11
73.0
 21
-0.0
 31
0.0
 40
0.2042556065
 41
-3.0274752576
 42
-3.0198507768
  0
ELLIPSE
  5
776
100
AcDbEntity
  8
0
100
AcDbEllipse
 62
7
  6
CONTINUOUS
 10
723.6181625528
 20
571.2234615552
 30
0.0
 11
73.0
 21
0.0
 31
0.0
 40
0.6127654169
 41
-3.0006198238
 42
-2.9871552813
  0
ELLIPSE
  5
777
100
AcDbEntity
  8
0
100
AcDbEllipse
 62
7
  6
CONTINUOUS
 10
723.6181625528
 20
579.6333944042
 30
0.0
 11
0.0
 21
99.4042434692
 31
0.0
 40
0.7343750875
 41
-4.5579516081
 42
-4.5458091556
  0
ELLIPSE
  5
778
100
AcDbEntity
  8
0
100
AcDbEllipse
 62
7
  6
CONTINUOUS
 10
723.6181625528
 20
594.0553274555
 30
0.0
 11
0.0
 21
186.3826532218
 31
0.0
 40
0.3916673507
 41
-4.5458091556
 42
-4.5414717577
  0
ELLIPSE
  5
779
100
AcDbEntity
  8
0
100
AcDbEllipse
 62
7
  6
CONTINUOUS
 10
723.6181625528
 20
528.0767194411
 30
0.0
 11
-0.0
 21
186.382627115
 31
0.0
 40
0.3916674055
 41
1.3998791041
 42
1.404216502
  0
ELLIPSE
  5
77A
100
AcDbEntity
  8
0
100
AcDbEllipse
 62
7
  6
CONTINUOUS
 10
723.6181625528
 20
542.4986467207
 30
0.0
 11
-0.0
 21
99.4042521715
 31
0.0
 40
0.7343750233
 41
1.404216502
 42
1.4163589545
  0
ELLIPSE
  5
77B
100
AcDbEntity
  8
0
100
AcDbEllipse
 62
7
  6
CONTINUOUS
 10
723.6181625528
 20
550.9085803059
 30
0.0
 11
73.0
 21
-0.0
 31
0.0
 40
0.6127654705
 41
2.9871552813
 42
3.0073427436
  0
ELLIPSE
  5
77C
100
AcDbEntity
  8
0
100
AcDbEllipse
 62
7
  6
CONTINUOUS
 10
723.6181625528
 20
554.9000612138
 30
0.0
 11
73.0
 21
-0.0
 31
0.0
 40
0.2042556244
 41
3.0073427436
 42
3.0274752576
  0
ELLIPSE
  5
77D
100
AcDbEntity
  8
0
100
AcDbEllipse
 62
7
  6
CONTINUOUS
 10
723.6181625528
 20
808.4379747648
 30
0.0
 11
0.0
 21
447.3183468469
 31
0.0
 40
0.1631947371
 41
-4.2100809241
 42
-4.2078002229
  0
ELLIPSE
  5
77E
100
AcDbEntity
  8
0
100
AcDbEllipse
 62
7
  6
CONTINUOUS
 10
723.6181625528
 20
646.2468852875
 30
0.0
 11
0.0
 21
111.8298136186
 31
0.0
 40
0.6527776238
 41
-4.2078002229
 42
-4.1986484446
  0
ELLIPSE
  5
77F
100
AcDbEntity
  8
0
100
AcDbEllipse
 62
7
  6
CONTINUOUS
 10
723.6181625528
 20
615.7149545157
 30
0.0
 11
73.0
 21
-0.0
 31
0.0
 40
0.6808509827
 41
-2.6278521178
 42
-2.6251046975
  0
ELLIPSE
  5
780
100
AcDbEntity
  8
0
100
AcDbEllipse
 62
7
  6
CONTINUOUS
 10
723.6181625528
 20
571.4809179658
 30
0.0
 11
73.0
 21
-0.0
 31
0.0
 40
0.6808509827
 41
8.9082900047
 42
8.911037425
  0
ELLIPSE
  5
781
100
AcDbEntity
  8
0
100
AcDbEllipse
 62
7
  6
CONTINUOUS
 10
723.6181625528
 20
540.9489679492
 30
0.0
 11
-0.0
 21
111.8298527789
 31
0.0
 40
0.6527773952
 41
1.057055791
 42
1.0662075693
  0
ELLIPSE
  5
782
100
AcDbEntity
  8
0
100
AcDbEllipse
 62
7
  6
CONTINUOUS
 10
723.6181625528
 20
378.7579478889
 30
0.0
 11
0.0
 21
447.3182424197
 31
0.0
 40
0.1631947752
 41
1.0662075693
 42
1.0684882705
  0
ELLIPSE
  5
783
100
AcDbEntity
  8
0
100
AcDbEllipse
 62
7
  6
CONTINUOUS
 10
723.6181625528
 20
603.4028999997
 30
0.0
 11
73.0
 21
0.0
 31
0.0
 40
0.1702127457
 41
-2.6094044891
 42
-2.595436509
  0
ELLIPSE
  5
784
100
AcDbEntity
  8
0
100
AcDbEllipse
 62
7
  6
CONTINUOUS
 10
723.6181625528
 20
620.1830354733
 30
0.0
 11
73.0
 21
-0.0
 31
0.0
 40
0.6127657675
 41
-2.595436509
 42
-2.5837053971
  0
ELLIPSE
  5
785
100
AcDbEntity
  8
0
100
AcDbEllipse
 62
7
  6
CONTINUOUS
 10
723.6181625528
 20
635.9702722643
 30
0.0
 11
0.0
 21
74.5531826019
 31
0.0
 40
0.9791667834
 41
-4.1545017239
 42
-4.1474217585
  0
ELLIPSE
  5
786
100
AcDbEntity
  8
0
100
AcDbEllipse
 62
7
  6
CONTINUOUS
 10
723.6181625528
 20
675.8852375388
 30
0.0
 11
-0.0
 21
149.1065074029
 31
0.0
 40
0.4895829248
 41
-4.1474217585
 42
-4.1426841025
  0
ELLIPSE
  5
787
100
AcDbEntity
  8
0
100
AcDbEllipse
 62
7
  6
CONTINUOUS
 10
723.6181625528
 20
716.0978045565
 30
0.0
 11
0.0
 21
223.6593300641
 31
0.0
 40
0.3263892456
 41
-4.1426841025
 42
-4.1403098746
  0
ELLIPSE
  5
788
100
AcDbEntity
  8
0
100
AcDbEllipse
 62
7
  6
CONTINUOUS
 10
723.6181625528
 20
796.8220874794
 30
0.0
 11
-0.0
 21
372.7673350042
 31
0.0
 40
0.1958326096
 41
-4.1403098746
 42
-4.137932025
  0
ELLIPSE
  5
789
100
AcDbEntity
  8
0
100
AcDbEllipse
 62
7
  6
CONTINUOUS
 10
723.6181625528
 20
390.373728154
 30
0.0
 11
-0.0
 21
372.7674394319
 31
0.0
 40
0.1958325548
 41
0.9963393715
 42
0.998717221
  0
ELLIPSE
  5
78A
100
AcDbEntity
  8
0
100
AcDbEllipse
 62
7
  6
CONTINUOUS
 10
723.6181625528
 20
471.098180682
 30
0.0
 11
0.0
 21
223.6591212099
 31
0.0
 40
0.3263895503
 41
0.998717221
 42
1.0010914489
  0
ELLIPSE
  5
78B
100
AcDbEntity
  8
0
100
AcDbEllipse
 62
7
  6
CONTINUOUS
 10
723.6181625528
 20
511.3106209654
 30
0.0
 11
0.0
 21
149.1065335098
 31
0.0
 40
0.4895828391
 41
1.0010914489
 42
1.005829105
  0
ELLIPSE
  5
78C
100
AcDbEntity
  8
0
100
AcDbEllipse
 62
7
  6
CONTINUOUS
 10
723.6181625528
 20
551.2255955582
 30
0.0
 11
-0.0
 21
74.5531913042
 31
0.0
 40
0.9791666691
 41
1.005829105
 42
1.0129090703
  0
ELLIPSE
  5
78D
100
AcDbEntity
  8
0
100
AcDbEllipse
 62
7
  6
CONTINUOUS
 10
723.6181625528
 20
567.012834883
 30
0.0
 11
73.0
 21
-0.0
 31
0.0
 40
0.6127658212
 41
2.5837053971
 42
2.595436509
  0
ELLIPSE
  5
78E
100
AcDbEntity
  8
0
100
AcDbEllipse
 62
7
  6
CONTINUOUS
 10
723.6181625528
 20
583.7929718256
 30
0.0
 11
73.0
 21
-0.0
 31
0.0
 40
0.1702127606
 41
2.595436509
 42
2.6094044891
  0
ENDSEC
  0
SECTION
  2
OBJECTS
  0
DICTIONARY
  5
C
100
AcDbDictionary
280
0
281
1
  3
ACAD_GROUP
350
D
  3
ACAD_MLINESTYLE
350
17
  3
ACAD_LAYOUT
350
1A
  3
ACAD_PLOTSETTINGS
350
19
  3
ACAD_PLOTSTYLENAME
350
E
  0
DICTIONARY
  5
D
102
{ACAD_REACTORS
330
C
102
}
100
AcDbDictionary
280
0
281
1
  0
ACDBDICTIONARYWDFLT
  5
E
102
{ACAD_REACTORS
330
C
102
}
100
AcDbDictionary
281
1
  3
Normal
350
F
100
AcDbDictionaryWithDefault
340
F
  0
DICTIONARY
  5
17
102
{ACAD_REACTORS
330
C
102
}
100
AcDbDictionary
280
0
281
1
  3
Standard
350
18
  0
DICTIONARY
  5
19
102
{ACAD_REACTORS
330
C
102
}
100
AcDbDictionary
281
1
  0
DICTIONARY
  5
1A
102
{ACAD_REACTORS
330
C
102
}
100
AcDbDictionary
281
1
  3
Model
350
78F
  3
Layout1
350
790
  0
ACDBPLACEHOLDER
  5
F
102
{ACAD_REACTORS
330
E
102
}
  0
MLINESTYLE
  5
18
102
{ACAD_REACTORS
330
17
102
}
100
AcDbMlineStyle
  2
STANDARD
 70
0
  3

 62
256
 51
90.0
 52
90.0
 71
2
 49
0.5
 62
256
  6
BYLAYER
 49
-0.5
 62
256
  6
BYLAYER
  0
LAYOUT
  5
78F
102
{ACAD_REACTORS
330
1A
102
}
100
AcDbPlotSettings
  1

  2
none_device
  4
ISO_A0_(1189.00_x_841.00_MM)
  6

 40
0.0
 41
0.0
 42
0.0
 43
0.0
 44
1189.0
 45
841.0
 46
0.0
 47
0.0
 48
0.0
 49
0.0
140
0.0
141
0.0
142
1.0
143
1.0
 70
1024
 72
1
 73
0
 74
0
  7

 75
0
147
1.0
148
0.0
149
0.0
100
AcDbLayout
  1
Model
 70
0
 71
0
 10
0.0
 20
0.0
 11
1189.0
 21
841.0
 12
0.0
 22
0.0
 32
0.0
 14
0.0
 24
0.0
 34
0.0
 15
0.0
 25
0.0
 35
0.0
146
0.0
 13
0.0
 23
0.0
 33
0.0
 16
1.0
 26
0.0
 36
0.0
 17
0.0
 27
1.0
 37
0.0
 76
0
330
20A
345
0
346
0
  0
LAYOUT
  5
790
102
{ACAD_REACTORS
330
1A
102
}
100
AcDbPlotSettings
  1

  2
none_device
  4
ISO_A0_(1189.00_x_841.00_MM)
  6

 40
0.0
 41
0.0
 42
0.0
 43
0.0
 44
1189.0
 45
841.0
 46
0.0
 47
0.0
 48
0.0
 49
0.0
140
0.0
141
0.0
142
1.0
143
1.0
 70
0
 72
1
 73
0
 74
0
  7

 75
0
147
1.0
148
0.0
149
0.0
100
AcDbLayout
  1
Layout1
 70
0
 71
1
 10
0.0
 20
0.0
 11
1189.0
 21
841.0
 12
0.0
 22
0.0
 32
0.0
 14
0.0
 24
0.0
 34
0.0
 15
0.0
 25
0.0
 35
0.0
146
0.0
 13
0.0
 23
0.0
 33
0.0
 16
1.0
 26
0.0
 36
0.0
 17
0.0
 27
1.0
 37
0.0
 76
0
330
20B
345
0
346
0
  0
ENDSEC
  0
EOF
