999
DXF file: uw-pp-6.dxf
999
Pro/ENGINEER 2010140 by Parametric Technology Corporation
  0
SECTION
  2
HEADER
  9
$ACADVER
  1
AC1021
  9
$DWGCODEPAGE
  3
ANSI_1252
  9
$EXTMAX
 10
420.0
 20
297.0
 30
0.0
  9
$EXTMIN
 10
0.0
 20
-0.0
 30
0.0
  9
$LIMMIN
 10
0.0
 20
-0.0
  9
$LIMMAX
 10
420.0
 20
297.0
  9
$VIEWCTR
 10
210.0
 20
148.5
  9
$VIEWSIZE
 40
297.0
  9
$CLAYER
  8
0
  9
$LTSCALE
 40
23.1
  9
$CELTYPE
  6
BYLAYER
  9
$DIMSCALE
 40
1.0
  9
$DIMASZ
 40
3.5
  9
$DIMEXO
 40
2.625
  9
$DIMDLI
 40
15.96
  9
$DIMEXE
 40
7.56
  9
$DIMCEN
 40
3.78
  9
$DIMLFAC
 40
1.0
  9
$DIMBLK
  1
_FILLED
  9
$DIMTXT
 40
3.5
  9
$DIMTOL
 70
1
  9
$DIMLIM
 70
0
  9
$DIMTFAC
 40
1.0
  9
$DIMTP
 40
0.005
  9
$DIMTM
 40
0.005
  9
$PDMODE
 70
3
  9
$PDSIZE
 40
0.3125
  9
$HANDSEED
  5
4DA
  9
$TILEMODE
 70
1
  9
$MEASUREMENT
 70
1
  9
$INSUNITS
 70
4
  0
ENDSEC
  0
SECTION
  2
CLASSES
  0
CLASS
  1
ACDBDICTIONARYWDFLT
  2
AcDbDictionaryWithDefault
  3
AutoCAD 2000
 90
0
 91
1
280
0
281
0
  0
CLASS
  1
ACDBPLACEHOLDER
  2
AcDbPlaceHolder
  3
AutoCAD 2000
 90
0
 91
1
280
0
281
0
  0
CLASS
  1
LAYOUT
  2
AcDbLayout
  3
AutoCAD 2000
 90
0
 91
0
280
0
281
0
  0
ENDSEC
  0
SECTION
  2
TABLES
  0
TABLE
  2
VPORT
  5
8
100
AcDbSymbolTable
 70
2
  0
VPORT
  5
1F4
100
AcDbSymbolTableRecord
100
AcDbViewportTableRecord
  2
*ACTIVE
 70
0
 10
0.0
 20
0.0
 11
1.0
 21
1.0
 12
210.0
 22
148.5
 13
0.0
 23
0.0
 14
1.0
 24
1.0
 15
0.0
 25
0.0
 16
0.0
 26
0.0
 36
1.0
 17
0.0
 27
0.0
 37
0.0
 40
297.0
 41
1.4141414141
 42
50.0
 43
0.0
 44
0.0
 50
0.0
 51
0.0
 71
0
 72
100
 73
1
 74
1
 75
0
 76
0
 77
0
 78
0
  0
ENDTAB
  0
TABLE
  2
LTYPE
  5
5
100
AcDbSymbolTable
 70
6
  0
LTYPE
  5
14
100
AcDbSymbolTableRecord
100
AcDbLinetypeTableRecord
  2
BYBLOCK
 70
0
  3

 72
65
 73
0
 40
0.0
  0
LTYPE
  5
15
100
AcDbSymbolTableRecord
100
AcDbLinetypeTableRecord
  2
BYLAYER
 70
0
  3

 72
65
 73
0
 40
0.0
  0
LTYPE
  5
16
100
AcDbSymbolTableRecord
100
AcDbLinetypeTableRecord
  2
CONTINUOUS
 70
64
  3
Solid line
 72
65
 73
0
 40
0.0
  0
LTYPE
  5
1F5
100
AcDbSymbolTableRecord
100
AcDbLinetypeTableRecord
  2
CENTER
 70
64
  3
____ _ ____ _ ____ _ ____ _ ____ _ ____ _ ____
 72
65
 73
4
 40
0.6
 49
0.375
 74
0
 49
-0.075
 74
0
 49
0.075
 74
0
 49
-0.075
 74
0
  0
LTYPE
  5
1F6
100
AcDbSymbolTableRecord
100
AcDbLinetypeTableRecord
  2
HIDDEN
 70
64
  3
- - - - - - - - - - - - - - - - - - - -
 72
65
 73
2
 40
0.2
 49
0.1
 74
0
 49
-0.1
 74
0
  0
LTYPE
  5
1F7
100
AcDbSymbolTableRecord
100
AcDbLinetypeTableRecord
  2
PHANTOM
 70
64
  3
_____ _ _ _____ _ _ _____ _ _ _____
 72
65
 73
6
 40
0.8
 49
0.45
 74
0
 49
-0.05
 74
0
 49
0.1
 74
0
 49
-0.05
 74
0
 49
0.1
 74
0
 49
-0.05
 74
0
  0
LTYPE
  5
1F8
100
AcDbSymbolTableRecord
100
AcDbLinetypeTableRecord
  2
DOT
 70
64
  3
. . . . . . . . . . . . . . . . . . . .
 72
65
 73
2
 40
0.2
 49
0.1
 74
0
 49
-0.1
 74
0
  0
LTYPE
  5
1F9
100
AcDbSymbolTableRecord
100
AcDbLinetypeTableRecord
  2
DASHED
 70
64
  3
- - - - - - - - - - - - - - - - - - - -
 72
65
 73
2
 40
0.2
 49
0.1
 74
0
 49
-0.1
 74
0
  0
ENDTAB
  0
TABLE
  2
LAYER
  5
2
100
AcDbSymbolTable
 70
36
  0
LAYER
  5
10
100
AcDbSymbolTableRecord
100
AcDbLayerTableRecord
  2
0
 70
0
 62
7
  6
CONTINUOUS
370
-3
390
F
  0
LAYER
  5
1FA
100
AcDbSymbolTableRecord
100
AcDbLayerTableRecord
  2
DEFAULT_1
 70
0
 62
7
  6
CENTER
370
-3
390
F
  0
LAYER
  5
1FB
100
AcDbSymbolTableRecord
100
AcDbLayerTableRecord
  2
DEFAULT_2
 70
0
 62
8
  6
HIDDEN
370
-3
390
F
  0
LAYER
  5
1FC
100
AcDbSymbolTableRecord
100
AcDbLayerTableRecord
  2
DEFAULT_3
 70
0
 62
7
  6
PHANTOM
370
-3
390
F
  0
LAYER
  5
1FD
100
AcDbSymbolTableRecord
100
AcDbLayerTableRecord
  2
BEZUGSACHSEN
 70
0
 62
7
  6
CONTINUOUS
370
-3
390
F
  0
LAYER
  5
1FE
100
AcDbSymbolTableRecord
100
AcDbLayerTableRecord
  2
BEZUGSEBENEN
 70
0
 62
7
  6
CONTINUOUS
370
-3
390
F
  0
LAYER
  5
1FF
100
AcDbSymbolTableRecord
100
AcDbLayerTableRecord
  2
BG_STARTBEZUEGE
 70
0
 62
7
  6
CONTINUOUS
370
-3
390
F
  0
LAYER
  5
200
100
AcDbSymbolTableRecord
100
AcDbLayerTableRecord
  2
FASEN
 70
0
 62
7
  6
CONTINUOUS
370
-3
390
F
  0
LAYER
  5
201
100
AcDbSymbolTableRecord
100
AcDbLayerTableRecord
  2
HILFEN
 70
0
 62
7
  6
CONTINUOUS
370
-3
390
F
  0
LAYER
  5
202
100
AcDbSymbolTableRecord
100
AcDbLayerTableRecord
  2
KONSTRUKTIONSELEMENTE
 70
0
 62
7
  6
CONTINUOUS
370
-3
390
F
  0
LAYER
  5
203
100
AcDbSymbolTableRecord
100
AcDbLayerTableRecord
  2
PLATZIERUNG
 70
0
 62
7
  6
CONTINUOUS
370
-3
390
F
  0
LAYER
  5
204
100
AcDbSymbolTableRecord
100
AcDbLayerTableRecord
  2
RUNDUNGEN
 70
0
 62
7
  6
CONTINUOUS
370
-3
390
F
  0
LAYER
  5
205
100
AcDbSymbolTableRecord
100
AcDbLayerTableRecord
  2
TEIL_STARTBEZUEGE
 70
0
 62
7
  6
CONTINUOUS
370
-3
390
F
  0
LAYER
  5
206
100
AcDbSymbolTableRecord
100
AcDbLayerTableRecord
  2
ZEICHNUNGSBEMASSUNGEN
 70
0
 62
7
  6
CONTINUOUS
370
-3
390
F
  0
ENDTAB
  0
TABLE
  2
STYLE
  5
3
100
AcDbSymbolTable
 70
1
  0
STYLE
  5
11
100
AcDbSymbolTableRecord
100
AcDbTextStyleTableRecord
  2
STANDARD
 70
0
 40
0.0
 41
0.7
 50
0.0
 71
0
 42
0.2
  3
txt
  4

  0
STYLE
  5
207
100
AcDbSymbolTableRecord
100
AcDbTextStyleTableRecord
  2
TEXTSTYLE_1
 70
0
 40
0.0
 41
0.8
 50
0.0
 71
0
 42
0.2
  3
gdt
  4

  0
ENDTAB
  0
TABLE
  2
VIEW
  5
6
100
AcDbSymbolTable
 70
0
  0
ENDTAB
  0
TABLE
  2
UCS
  5
7
100
AcDbSymbolTable
 70
0
  0
ENDTAB
  0
TABLE
  2
APPID
  5
9
100
AcDbSymbolTable
 70
1
  0
APPID
  5
208
100
AcDbSymbolTableRecord
100
AcDbRegAppTableRecord
  2
ACAD
 70
0
  0
ENDTAB
  0
TABLE
  2
BLOCK_RECORD
  5
1
100
AcDbSymbolTable
 70
0
  0
BLOCK_RECORD
  5
209
100
AcDbSymbolTableRecord
100
AcDbBlockTableRecord
  2
*Model_Space
  0
BLOCK_RECORD
  5
20A
100
AcDbSymbolTableRecord
100
AcDbBlockTableRecord
  2
*Paper_Space
  0
ENDTAB
  0
TABLE
  2
DIMSTYLE
  5
A
100
AcDbSymbolTable
 70
1
100
AcDbDimStyleTable
 71
0
  0
DIMSTYLE
105
20B
100
AcDbSymbolTableRecord
100
AcDbDimStyleTableRecord
  2
STANDARD
 70
0
  3

  4

 40
1.0
 41
3.5
 42
0.0625
 43
0.38
 44
0.18
 45
0.0
 46
0.0
 47
0.005
 48
0.005
140
3.5
141
0.09
142
0.0
143
25.4
144
1.0
145
0.0
146
1.0
147
0.09
 71
1.0
 72
0.0
 73
0
 74
0
 75
0
 76
0
 77
1
 78
8
170
0
171
2
172
0
173
0
174
0
175
0
176
0
177
0
178
5
270
2
271
3
272
3
273
2
274
2
275
0
280
0
281
0
282
0
283
1
284
8
285
0
286
0
287
3
288
0
340
11
  0
ENDTAB
  0
ENDSEC
  0
SECTION
  2
BLOCKS
  0
BLOCK
  5
20
100
AcDbEntity
  8
0
100
AcDbBlockBegin
  2
*Model_Space
 70
0
 10
0.0
 20
0.0
 30
0.0
  3
*Model_Space
  1

  0
ENDBLK
  5
21
100
AcDbEntity
  8
0
100
AcDbBlockEnd
  0
BLOCK
  5
1C
100
AcDbEntity
  8
0
100
AcDbBlockBegin
  2
*Paper_Space
 70
0
 10
0.0
 20
0.0
 30
0.0
  3
*Paper_Space
  1

  0
ENDBLK
  5
1D
100
AcDbEntity
  8
0
100
AcDbBlockEnd
  0
ENDSEC
  0
SECTION
  2
ENTITIES
  0
LINE
  5
20C
100
AcDbEntity
  8
0
100
AcDbLine
 62
7
  6
CONTINUOUS
 10
0.0
 20
-0.0
 11
0.0
 21
297.0
  0
LINE
  5
20D
100
AcDbEntity
  8
0
100
AcDbLine
 62
7
  6
CONTINUOUS
 10
0.0
 20
-0.0
 11
420.0
 21
-0.0
  0
LINE
  5
20E
100
AcDbEntity
  8
0
100
AcDbLine
 62
7
  6
CONTINUOUS
 10
0.0
 20
297.0
 11
420.0
 21
297.0
  0
LINE
  5
20F
100
AcDbEntity
  8
0
100
AcDbLine
 62
7
  6
CONTINUOUS
 10
420.0
 20
-0.0
 11
420.0
 21
297.0
  0
LINE
  5
210
100
AcDbEntity
  8
KONSTRUKTIONSELEMENTE
100
AcDbLine
 62
7
  6
CONTINUOUS
 10
170.6891205091
 20
153.0632343784
 11
160.0455162942
 21
153.0632343784
  0
LINE
  5
211
100
AcDbEntity
  8
KONSTRUKTIONSELEMENTE
100
AcDbLine
 62
7
  6
CONTINUOUS
 10
153.0455162942
 20
153.0632343784
 11
142.4019120949
 21
153.0632343784
  0
LINE
  5
212
100
AcDbEntity
  8
BEZUGSACHSEN
100
AcDbLine
 62
7
  6
CONTINUOUS
 10
142.3783742392
 20
246.535179808
 11
139.0455162942
 21
242.5632343784
  0
LINE
  5
213
100
AcDbEntity
  8
KONSTRUKTIONSELEMENTE
100
AcDbLine
 62
7
  6
CONTINUOUS
 10
139.0455162942
 20
157.0632343784
 11
140.7262242746
 21
157.0632343784
  0
LINE
  5
214
100
AcDbEntity
  8
KONSTRUKTIONSELEMENTE
100
AcDbLine
 62
7
  6
CONTINUOUS
 10
172.3648083137
 20
157.0632343784
 11
174.0455162942
 21
157.0632343784
  0
LINE
  5
215
100
AcDbEntity
  8
KONSTRUKTIONSELEMENTE
100
AcDbLine
 62
9
  6
CONTINUOUS
 10
141.0606995315
 20
158.2514696725
 11
153.0455162942
 21
158.2514696725
  0
LINE
  5
216
100
AcDbEntity
  8
KONSTRUKTIONSELEMENTE
100
AcDbLine
 62
9
  6
CONTINUOUS
 10
160.0455162942
 20
158.2514696725
 11
172.0303330568
 21
158.2514696725
  0
LINE
  5
217
100
AcDbEntity
  8
BEZUGSACHSEN
100
AcDbLine
 62
7
  6
CONTINUOUS
 10
160.0455162942
 20
158.3132343784
 11
153.0455162942
 21
158.3132343784
  0
LINE
  5
218
100
AcDbEntity
  8
BEZUGSACHSEN
100
AcDbLine
 62
7
  6
CONTINUOUS
 10
142.4019038397
 20
153.0632474629
 11
139.0455162942
 21
157.0632343784
  0
LINE
  5
219
100
AcDbEntity
  8
KONSTRUKTIONSELEMENTE
100
AcDbLine
 62
7
  6
CONTINUOUS
 10
141.5371852744
 20
160.0632343784
 11
153.0455162942
 21
160.0632343784
  0
LINE
  5
21A
100
AcDbEntity
  8
KONSTRUKTIONSELEMENTE
100
AcDbLine
 62
7
  6
CONTINUOUS
 10
160.0455162942
 20
160.0632343784
 11
171.553847314
 21
160.0632343784
  0
LINE
  5
21B
100
AcDbEntity
  8
BEZUGSACHSEN
100
AcDbLine
 62
2
  6
CENTER
 10
167.5455162942
 20
162.5632343784
 11
138.05488685
 21
162.5632343784
  0
LINE
  5
21C
100
AcDbEntity
  8
BEZUGSACHSEN
100
AcDbLine
 62
2
  6
CENTER
 10
167.5455162942
 20
162.5632343784
 11
175.909020652
 21
162.5632343784
  0
LINE
  5
21D
100
AcDbEntity
  8
BEZUGSACHSEN
100
AcDbLine
 62
7
  6
CONTINUOUS
 10
139.0455162942
 20
231.5632343784
 11
137.5455162942
 21
229.7756039895
  0
LINE
  5
21E
100
AcDbEntity
  8
BEZUGSACHSEN
100
AcDbLine
 62
7
  6
CONTINUOUS
 10
160.0455162942
 20
165.8132343784
 11
153.0455162942
 21
165.8132343784
  0
LINE
  5
21F
100
AcDbEntity
  8
BEZUGSACHSEN
100
AcDbLine
 62
7
  6
CONTINUOUS
 10
139.0455162942
 20
168.0632343784
 11
137.5455162942
 21
169.8508647673
  0
LINE
  5
220
100
AcDbEntity
  8
KONSTRUKTIONSELEMENTE
100
AcDbLine
 62
7
  6
CONTINUOUS
 10
139.0455162942
 20
168.0632343784
 11
141.5371852744
 21
168.0632343784
  0
LINE
  5
221
100
AcDbEntity
  8
KONSTRUKTIONSELEMENTE
100
AcDbLine
 62
7
  6
CONTINUOUS
 10
171.553847314
 20
168.0632343784
 11
174.0455162942
 21
168.0632343784
  0
LINE
  5
222
100
AcDbEntity
  8
KONSTRUKTIONSELEMENTE
100
AcDbLine
 62
7
  6
CONTINUOUS
 10
137.5455162942
 20
169.8508647673
 11
139.8123157635
 21
169.8508647673
  0
LINE
  5
223
100
AcDbEntity
  8
KONSTRUKTIONSELEMENTE
100
AcDbLine
 62
7
  6
CONTINUOUS
 10
173.2787168249
 20
169.8508647673
 11
175.5455162942
 21
169.8508647673
  0
LINE
  5
224
100
AcDbEntity
  8
KONSTRUKTIONSELEMENTE
100
AcDbLine
 62
9
  6
CONTINUOUS
 10
139.8123157635
 20
178.0632343784
 11
148.7995496018
 21
178.0632343784
  0
LINE
  5
225
100
AcDbEntity
  8
KONSTRUKTIONSELEMENTE
100
AcDbLine
 62
9
  6
CONTINUOUS
 10
164.2914829866
 20
178.0632343784
 11
173.2787168249
 21
178.0632343784
  0
LINE
  5
226
100
AcDbEntity
  8
BEZUGSACHSEN
100
AcDbLine
 62
7
  6
CONTINUOUS
 10
137.5455162942
 20
229.7756039895
 11
137.5455162942
 21
193.5632343784
  0
LINE
  5
227
100
AcDbEntity
  8
BEZUGSACHSEN
100
AcDbLine
 62
7
  6
CONTINUOUS
 10
137.5455162942
 20
169.8508647673
 11
137.5455162942
 21
190.5632343784
  0
LINE
  5
228
100
AcDbEntity
  8
BEZUGSACHSEN
100
AcDbLine
 62
7
  6
CONTINUOUS
 10
139.0455162942
 20
242.5632343784
 11
139.0455162942
 21
241.313088103
  0
LINE
  5
229
100
AcDbEntity
  8
BEZUGSACHSEN
100
AcDbLine
 62
7
  6
CONTINUOUS
 10
139.0455162942
 20
233.8133803417
 11
139.0455162942
 21
231.5632343784
  0
LINE
  5
22A
100
AcDbEntity
  8
BEZUGSACHSEN
100
AcDbLine
 62
7
  6
CONTINUOUS
 10
139.0455162942
 20
157.0632343784
 11
139.0455162942
 21
158.3132696635
  0
LINE
  5
22B
100
AcDbEntity
  8
BEZUGSACHSEN
100
AcDbLine
 62
7
  6
CONTINUOUS
 10
139.0455162942
 20
165.813030708
 11
139.0455162942
 21
168.0632343784
  0
LINE
  5
22C
100
AcDbEntity
  8
BEZUGSACHSEN
100
AcDbLine
 62
7
  6
CONTINUOUS
 10
139.5455162942
 20
190.5632343784
 11
139.5455162942
 21
193.5632343784
  0
LINE
  5
22D
100
AcDbEntity
  8
KONSTRUKTIONSELEMENTE
100
AcDbLine
 62
7
  6
CONTINUOUS
 10
139.8123157635
 20
229.7756039895
 11
139.8123157635
 21
221.5632343784
  0
LINE
  5
22E
100
AcDbEntity
  8
KONSTRUKTIONSELEMENTE
100
AcDbLine
 62
7
  6
CONTINUOUS
 10
139.8123157635
 20
169.8508647673
 11
139.8123157635
 21
178.0632343784
  0
LINE
  5
22F
100
AcDbEntity
  8
KONSTRUKTIONSELEMENTE
100
AcDbLine
 62
7
  6
CONTINUOUS
 10
141.5371852744
 20
239.5632343784
 11
141.5371852744
 21
231.5632343784
  0
LINE
  5
230
100
AcDbEntity
  8
KONSTRUKTIONSELEMENTE
100
AcDbLine
 62
7
  6
CONTINUOUS
 10
141.5371852744
 20
160.0632343784
 11
141.5371852744
 21
168.0632343784
  0
LINE
  5
231
100
AcDbEntity
  8
KONSTRUKTIONSELEMENTE
100
AcDbLine
 62
7
  6
CONTINUOUS
 10
168.2074200839
 20
184.0632343784
 11
144.8836125045
 21
184.0632343784
  0
LINE
  5
232
100
AcDbEntity
  8
BEZUGSACHSEN
100
AcDbLine
 62
2
  6
CENTER
 10
145.5455162942
 20
237.0632343784
 11
145.5455162942
 21
232.5632343784
  0
LINE
  5
233
100
AcDbEntity
  8
BEZUGSACHSEN
100
AcDbLine
 62
2
  6
CENTER
 10
145.5455162942
 20
237.0632343784
 11
145.5455162942
 21
241.5632343784
  0
LINE
  5
234
100
AcDbEntity
  8
KONSTRUKTIONSELEMENTE
100
AcDbLine
 62
7
  6
CONTINUOUS
 10
149.5455162942
 20
204.5632343784
 11
149.5455162942
 21
201.0632343784
  0
LINE
  5
235
100
AcDbEntity
  8
KONSTRUKTIONSELEMENTE
100
AcDbLine
 62
7
  6
CONTINUOUS
 10
149.901129645
 20
204.1908939973
 11
149.901129645
 21
203.0738726452
  0
LINE
  5
236
100
AcDbEntity
  8
KONSTRUKTIONSELEMENTE
100
AcDbLine
 62
7
  6
CONTINUOUS
 10
149.901129645
 20
202.6270641878
 11
149.901129645
 21
201.0632343784
  0
LINE
  5
237
100
AcDbEntity
  8
KONSTRUKTIONSELEMENTE
100
AcDbLine
 62
7
  6
CONTINUOUS
 10
154.7330162942
 20
208.2972768739
 11
154.5871828913
 21
208.1483407214
  0
LINE
  5
238
100
AcDbEntity
  8
KONSTRUKTIONSELEMENTE
100
AcDbLine
 62
7
  6
CONTINUOUS
 10
154.9517662942
 20
207.9249364927
 11
154.6600996971
 21
207.7760003403
  0
LINE
  5
239
100
AcDbEntity
  8
KONSTRUKTIONSELEMENTE
100
AcDbLine
 62
7
  6
CONTINUOUS
 10
154.5871828913
 20
208.1483407214
 11
154.3684328913
 21
208.0738726452
  0
LINE
  5
23A
100
AcDbEntity
  8
BEZUGSACHSEN
100
AcDbLine
 62
7
  6
CONTINUOUS
 10
137.5455162942
 20
190.5632343784
 11
175.5455162942
 21
190.5632343784
  0
LINE
  5
23B
100
AcDbEntity
  8
KONSTRUKTIONSELEMENTE
100
AcDbLine
 62
7
  6
CONTINUOUS
 10
151.3828518836
 20
203.7440855399
 11
151.3828518836
 21
203.5206811026
  0
LINE
  5
23C
100
AcDbEntity
  8
KONSTRUKTIONSELEMENTE
100
AcDbLine
 62
7
  6
CONTINUOUS
 10
151.7384652344
 20
203.7440855399
 11
151.7384652344
 21
203.4462130264
  0
LINE
  5
23D
100
AcDbEntity
  8
KONSTRUKTIONSELEMENTE
100
AcDbLine
 62
7
  6
CONTINUOUS
 10
152.2126164253
 20
204.5632343784
 11
152.2126164253
 21
201.0632343784
  0
LINE
  5
23E
100
AcDbEntity
  8
KONSTRUKTIONSELEMENTE
100
AcDbLine
 62
7
  6
CONTINUOUS
 10
152.5455162942
 20
209.5632343784
 11
152.5455162942
 21
206.0632343784
  0
LINE
  5
23F
100
AcDbEntity
  8
KONSTRUKTIONSELEMENTE
100
AcDbLine
 62
7
  6
CONTINUOUS
 10
152.5455162942
 20
198.4462130264
 11
152.5455162942
 21
199.0419578448
  0
LINE
  5
240
100
AcDbEntity
  8
KONSTRUKTIONSELEMENTE
100
AcDbLine
 62
7
  6
CONTINUOUS
 10
152.5682297762
 20
204.1908939973
 11
152.5682297762
 21
203.0738726452
  0
LINE
  5
241
100
AcDbEntity
  8
KONSTRUKTIONSELEMENTE
100
AcDbLine
 62
7
  6
CONTINUOUS
 10
152.5682297762
 20
202.6270641878
 11
152.5682297762
 21
201.0632343784
  0
LINE
  5
242
100
AcDbEntity
  8
KONSTRUKTIONSELEMENTE
100
AcDbLine
 62
7
  6
CONTINUOUS
 10
152.901129645
 20
196.0632343784
 11
152.901129645
 21
198.9674897686
  0
LINE
  5
243
100
AcDbEntity
  8
KONSTRUKTIONSELEMENTE
100
AcDbLine
 62
7
  6
CONTINUOUS
 10
152.9830162942
 20
209.1908939973
 11
152.9830162942
 21
208.0738726452
  0
LINE
  5
244
100
AcDbEntity
  8
KONSTRUKTIONSELEMENTE
100
AcDbLine
 62
7
  6
CONTINUOUS
 10
152.9830162942
 20
207.6270641878
 11
152.9830162942
 21
206.0632343784
  0
LINE
  5
245
100
AcDbEntity
  8
KONSTRUKTIONSELEMENTE
100
AcDbLine
 62
7
  6
CONTINUOUS
 10
153.0455162942
 20
153.0636140355
 11
153.0455162942
 21
168.8694870934
  0
LINE
  5
246
100
AcDbEntity
  8
KONSTRUKTIONSELEMENTE
100
AcDbLine
 62
7
  6
CONTINUOUS
 10
153.0455162942
 20
230.7569816634
 11
153.0455162942
 21
246.5628547214
  0
LINE
  5
247
100
AcDbEntity
  8
KONSTRUKTIONSELEMENTE
100
AcDbLine
 62
7
  6
CONTINUOUS
 10
153.2567429958
 20
196.0632343784
 11
153.2567429958
 21
199.5632343784
  0
LINE
  5
248
100
AcDbEntity
  8
KONSTRUKTIONSELEMENTE
100
AcDbLine
 62
7
  6
CONTINUOUS
 10
151.3828518836
 20
203.5206811026
 11
151.3235830483
 21
203.2972768739
  0
LINE
  5
249
100
AcDbEntity
  8
KONSTRUKTIONSELEMENTE
100
AcDbLine
 62
7
  6
CONTINUOUS
 10
151.7384652344
 20
203.4462130264
 11
151.6791963991
 21
203.2228087977
  0
LINE
  5
24A
100
AcDbEntity
  8
KONSTRUKTIONSELEMENTE
100
AcDbLine
 62
7
  6
CONTINUOUS
 10
154.0499521843
 20
203.5206811026
 11
153.9906831795
 21
203.2972768739
  0
LINE
  5
24B
100
AcDbEntity
  8
KONSTRUKTIONSELEMENTE
100
AcDbLine
 62
7
  6
CONTINUOUS
 10
154.4055655351
 20
203.4462130264
 11
154.3462965303
 21
203.2228087977
  0
LINE
  5
24C
100
AcDbEntity
  8
KONSTRUKTIONSELEMENTE
100
AcDbLine
 62
7
  6
CONTINUOUS
 10
154.8059328913
 20
208.5206811026
 11
154.7330162942
 21
208.2972768739
  0
LINE
  5
24D
100
AcDbEntity
  8
KONSTRUKTIONSELEMENTE
100
AcDbLine
 62
7
  6
CONTINUOUS
 10
155.2434328913
 20
208.4462130264
 11
155.1705162942
 21
208.2228087977
  0
LINE
  5
24E
100
AcDbEntity
  8
KONSTRUKTIONSELEMENTE
100
AcDbLine
 62
7
  6
CONTINUOUS
 10
151.6791963991
 20
203.2228087977
 11
151.5013897237
 21
202.9249364927
  0
LINE
  5
24F
100
AcDbEntity
  8
KONSTRUKTIONSELEMENTE
100
AcDbLine
 62
7
  6
CONTINUOUS
 10
154.3462965303
 20
203.2228087977
 11
154.1684898549
 21
202.9249364927
  0
LINE
  5
250
100
AcDbEntity
  8
KONSTRUKTIONSELEMENTE
100
AcDbLine
 62
7
  6
CONTINUOUS
 10
155.1705162942
 20
208.2228087977
 11
154.9517662942
 21
207.9249364927
  0
LINE
  5
251
100
AcDbEntity
  8
KONSTRUKTIONSELEMENTE
100
AcDbLine
 62
7
  6
CONTINUOUS
 10
151.3235830483
 20
203.2972768739
 11
151.2050452082
 21
203.1483407214
  0
LINE
  5
252
100
AcDbEntity
  8
KONSTRUKTIONSELEMENTE
100
AcDbLine
 62
7
  6
CONTINUOUS
 10
153.9906831795
 20
203.2972768739
 11
153.8721455089
 21
203.1483407214
  0
LINE
  5
253
100
AcDbEntity
  8
KONSTRUKTIONSELEMENTE
100
AcDbLine
 62
7
  6
CONTINUOUS
 10
158.3059330999
 20
206.5845109642
 11
158.0142662942
 21
206.2866386332
  0
LINE
  5
254
100
AcDbEntity
  8
KONSTRUKTIONSELEMENTE
100
AcDbLine
 62
7
  6
CONTINUOUS
 10
151.5013897237
 20
202.9249364927
 11
151.264314213
 21
202.7015322641
  0
LINE
  5
255
100
AcDbEntity
  8
KONSTRUKTIONSELEMENTE
100
AcDbLine
 62
7
  6
CONTINUOUS
 10
154.1684898549
 20
202.9249364927
 11
153.9314141746
 21
202.7015322641
  0
LINE
  5
256
100
AcDbEntity
  8
KONSTRUKTIONSELEMENTE
100
AcDbLine
 62
7
  6
CONTINUOUS
 10
157.8684330999
 20
206.7334471688
 11
157.6496830999
 21
206.5845109642
  0
LINE
  5
257
100
AcDbEntity
  8
KONSTRUKTIONSELEMENTE
100
AcDbLine
 62
7
  6
CONTINUOUS
 10
161.3684326827
 20
206.7334471688
 11
161.1496826827
 21
206.5845109642
  0
LINE
  5
258
100
AcDbEntity
  8
KONSTRUKTIONSELEMENTE
100
AcDbLine
 62
7
  6
CONTINUOUS
 10
158.0142662942
 20
206.2866386332
 11
157.7225994884
 21
206.1377024612
  0
LINE
  5
259
100
AcDbEntity
  8
KONSTRUKTIONSELEMENTE
100
AcDbLine
 62
7
  6
CONTINUOUS
 10
161.5142662942
 20
206.2866386332
 11
161.2225999057
 21
206.1377024612
  0
LINE
  5
25A
100
AcDbEntity
  8
KONSTRUKTIONSELEMENTE
100
AcDbLine
 62
7
  6
CONTINUOUS
 10
151.2050452082
 20
203.1483407214
 11
151.0272385328
 21
203.0738726452
  0
LINE
  5
25B
100
AcDbEntity
  8
KONSTRUKTIONSELEMENTE
100
AcDbLine
 62
7
  6
CONTINUOUS
 10
153.8721455089
 20
203.1483407214
 11
153.6943388335
 21
203.0738726452
  0
LINE
  5
25C
100
AcDbEntity
  8
KONSTRUKTIONSELEMENTE
100
AcDbLine
 62
7
  6
CONTINUOUS
 10
156.3979941484
 20
196.1377024612
 11
156.1016498024
 21
196.0632343784
  0
LINE
  5
25D
100
AcDbEntity
  8
BEZUGSACHSEN
100
AcDbLine
 62
7
  6
CONTINUOUS
 10
175.5455162942
 20
193.5632343784
 11
137.5455162942
 21
193.5632343784
  0
LINE
  5
25E
100
AcDbEntity
  8
KONSTRUKTIONSELEMENTE
100
AcDbLine
 62
7
  6
CONTINUOUS
 10
154.0272385328
 20
195.6164258689
 11
153.730894102
 21
195.6164258689
  0
LINE
  5
25F
100
AcDbEntity
  8
KONSTRUKTIONSELEMENTE
100
AcDbLine
 62
7
  6
CONTINUOUS
 10
156.1016498024
 20
196.0632343784
 11
155.7460364516
 21
196.0632343784
  0
LINE
  5
260
100
AcDbEntity
  8
KONSTRUKTIONSELEMENTE
100
AcDbLine
 62
7
  6
CONTINUOUS
 10
153.2567429958
 20
196.0632343784
 11
152.901129645
 21
196.0632343784
  0
LINE
  5
261
100
AcDbEntity
  8
KONSTRUKTIONSELEMENTE
100
AcDbLine
 62
7
  6
CONTINUOUS
 10
156.1016498024
 20
196.4355748117
 11
155.7460364516
 21
196.4355748117
  0
LINE
  5
262
100
AcDbEntity
  8
KONSTRUKTIONSELEMENTE
100
AcDbLine
 62
7
  6
CONTINUOUS
 10
154.3828518836
 20
196.4355748117
 11
154.0865075376
 21
196.4355748117
  0
LINE
  5
263
100
AcDbEntity
  8
KONSTRUKTIONSELEMENTE
100
AcDbLine
 62
7
  6
CONTINUOUS
 10
158.7687499336
 20
196.0632343784
 11
158.4131365827
 21
196.1377024612
  0
LINE
  5
264
100
AcDbEntity
  8
KONSTRUKTIONSELEMENTE
100
AcDbLine
 62
7
  6
CONTINUOUS
 10
155.7460364516
 20
196.0632343784
 11
155.4496921056
 21
196.1377024612
  0
LINE
  5
265
100
AcDbEntity
  8
KONSTRUKTIONSELEMENTE
100
AcDbLine
 62
7
  6
CONTINUOUS
 10
155.7460364516
 20
196.4355748117
 11
155.5089607713
 21
196.5100428879
  0
LINE
  5
266
100
AcDbEntity
  8
KONSTRUKTIONSELEMENTE
100
AcDbLine
 62
7
  6
CONTINUOUS
 10
155.4496921056
 20
196.1377024612
 11
155.1533475901
 21
196.3611067094
  0
LINE
  5
267
100
AcDbEntity
  8
KONSTRUKTIONSELEMENTE
100
AcDbLine
 62
7
  6
CONTINUOUS
 10
155.5089607713
 20
196.5100428879
 11
155.3311542655
 21
196.6589790404
  0
LINE
  5
268
100
AcDbEntity
  8
KONSTRUKTIONSELEMENTE
100
AcDbLine
 62
7
  6
CONTINUOUS
 10
155.1533475901
 20
196.3611067094
 11
154.9755409147
 21
196.6589790404
  0
LINE
  5
269
100
AcDbEntity
  8
KONSTRUKTIONSELEMENTE
100
AcDbLine
 62
7
  6
CONTINUOUS
 10
151.3828518836
 20
203.7440855399
 11
151.3235830483
 21
203.9674897686
  0
LINE
  5
26A
100
AcDbEntity
  8
KONSTRUKTIONSELEMENTE
100
AcDbLine
 62
7
  6
CONTINUOUS
 10
151.7384652344
 20
203.7440855399
 11
151.6791963991
 21
203.9674897686
  0
LINE
  5
26B
100
AcDbEntity
  8
KONSTRUKTIONSELEMENTE
100
AcDbLine
 62
7
  6
CONTINUOUS
 10
154.0499521843
 20
203.7440855399
 11
154.0499521843
 21
203.5206811026
  0
LINE
  5
26C
100
AcDbEntity
  8
KONSTRUKTIONSELEMENTE
100
AcDbLine
 62
7
  6
CONTINUOUS
 10
154.4055655351
 20
203.7440855399
 11
154.4055655351
 21
203.4462130264
  0
LINE
  5
26D
100
AcDbEntity
  8
KONSTRUKTIONSELEMENTE
100
AcDbLine
 62
7
  6
CONTINUOUS
 10
154.8059328913
 20
208.7440855399
 11
154.8059328913
 21
208.5206811026
  0
LINE
  5
26E
100
AcDbEntity
  8
KONSTRUKTIONSELEMENTE
100
AcDbLine
 62
7
  6
CONTINUOUS
 10
154.8570030745
 20
199.5632343784
 11
154.8570030745
 21
197.6270641878
  0
LINE
  5
26F
100
AcDbEntity
  8
KONSTRUKTIONSELEMENTE
100
AcDbLine
 62
7
  6
CONTINUOUS
 10
154.8797165565
 20
202.7015322641
 11
154.8797165565
 21
202.3291917786
  0
LINE
  5
270
100
AcDbEntity
  8
KONSTRUKTIONSELEMENTE
100
AcDbLine
 62
7
  6
CONTINUOUS
 10
155.1533475901
 20
199.1908939973
 11
155.1533475901
 21
197.999404569
  0
LINE
  5
271
100
AcDbEntity
  8
KONSTRUKTIONSELEMENTE
100
AcDbLine
 62
7
  6
CONTINUOUS
 10
155.2434328913
 20
208.7440855399
 11
155.2434328913
 21
208.4462130264
  0
LINE
  5
272
100
AcDbEntity
  8
KONSTRUKTIONSELEMENTE
100
AcDbLine
 62
7
  6
CONTINUOUS
 10
155.7094812679
 20
202.7015322641
 11
155.7094812679
 21
202.3291917786
  0
LINE
  5
273
100
AcDbEntity
  8
KONSTRUKTIONSELEMENTE
100
AcDbLine
 62
7
  6
CONTINUOUS
 10
155.8996828913
 20
209.5632343784
 11
155.8996828913
 21
207.2547237024
  0
LINE
  5
274
100
AcDbEntity
  8
KONSTRUKTIONSELEMENTE
100
AcDbLine
 62
7
  6
CONTINUOUS
 10
156.3371830999
 20
209.5632343784
 11
156.3371830999
 21
207.2547237024
  0
LINE
  5
275
100
AcDbEntity
  8
BEZUGSACHSEN
100
AcDbLine
 62
2
  6
CENTER
 10
156.5455162942
 20
152.5884632665
 11
156.5455162942
 21
249.5632343784
  0
LINE
  5
276
100
AcDbEntity
  8
KONSTRUKTIONSELEMENTE
100
AcDbLine
 62
7
  6
CONTINUOUS
 10
156.6943388335
 20
197.2547237024
 11
156.6943388335
 21
197.1057875499
  0
LINE
  5
277
100
AcDbEntity
  8
KONSTRUKTIONSELEMENTE
100
AcDbLine
 62
7
  6
CONTINUOUS
 10
156.8721455089
 20
199.5632343784
 11
156.8721455089
 21
199.1908939973
  0
LINE
  5
278
100
AcDbEntity
  8
KONSTRUKTIONSELEMENTE
100
AcDbLine
 62
7
  6
CONTINUOUS
 10
156.9906831795
 20
197.3291917786
 11
156.9906831795
 21
197.0313194737
  0
LINE
  5
279
100
AcDbEntity
  8
KONSTRUKTIONSELEMENTE
100
AcDbLine
 62
7
  6
CONTINUOUS
 10
158.0871830999
 20
207.2547237024
 11
158.0142662942
 21
206.9568513975
  0
LINE
  5
27A
100
AcDbEntity
  8
KONSTRUKTIONSELEMENTE
100
AcDbLine
 62
7
  6
CONTINUOUS
 10
158.1987747236
 20
204.5632343784
 11
157.3690100123
 21
201.5100428879
  0
LINE
  5
27B
100
AcDbEntity
  8
KONSTRUKTIONSELEMENTE
100
AcDbLine
 62
7
  6
CONTINUOUS
 10
154.0865075376
 20
196.4355748117
 11
153.730894102
 21
195.6164258689
  0
LINE
  5
27C
100
AcDbEntity
  8
KONSTRUKTIONSELEMENTE
100
AcDbLine
 62
7
  6
CONTINUOUS
 10
154.3828518836
 20
196.4355748117
 11
154.0272385328
 21
195.6164258689
  0
LINE
  5
27D
100
AcDbEntity
  8
KONSTRUKTIONSELEMENTE
100
AcDbLine
 62
7
  6
CONTINUOUS
 10
158.4517662942
 20
206.8823833212
 11
158.3059330999
 21
206.5845109642
  0
LINE
  5
27E
100
AcDbEntity
  8
KONSTRUKTIONSELEMENTE
100
AcDbLine
 62
7
  6
CONTINUOUS
 10
158.0142662942
 20
206.9568513975
 11
157.8684330999
 21
206.7334471688
  0
LINE
  5
27F
100
AcDbEntity
  8
KONSTRUKTIONSELEMENTE
100
AcDbLine
 62
7
  6
CONTINUOUS
 10
161.5142662942
 20
206.9568513975
 11
161.3684326827
 21
206.7334471688
  0
LINE
  5
280
100
AcDbEntity
  8
KONSTRUKTIONSELEMENTE
100
AcDbLine
 62
7
  6
CONTINUOUS
 10
152.5455162942
 20
199.0419578448
 11
152.901129645
 21
199.5632343784
  0
LINE
  5
281
100
AcDbEntity
  8
KONSTRUKTIONSELEMENTE
100
AcDbLine
 62
7
  6
CONTINUOUS
 10
152.901129645
 20
198.9674897686
 11
152.5455162942
 21
198.4462130264
  0
LINE
  5
282
100
AcDbEntity
  8
KONSTRUKTIONSELEMENTE
100
AcDbLine
 62
7
  6
CONTINUOUS
 10
161.8059326827
 20
206.5845109642
 11
161.5142662942
 21
206.2866386332
  0
LINE
  5
283
100
AcDbEntity
  8
KONSTRUKTIONSELEMENTE
100
AcDbLine
 62
7
  6
CONTINUOUS
 10
163.1773609568
 20
204.4887663022
 11
162.88101695
 21
204.2653620735
  0
LINE
  5
284
100
AcDbEntity
  8
KONSTRUKTIONSELEMENTE
100
AcDbLine
 62
7
  6
CONTINUOUS
 10
163.4144369762
 20
204.1908939973
 11
163.2366303008
 21
204.116425921
  0
LINE
  5
285
100
AcDbEntity
  8
KONSTRUKTIONSELEMENTE
100
AcDbLine
 62
7
  6
CONTINUOUS
 10
161.5178328907
 20
203.1483407214
 11
161.3400262153
 21
203.0738726452
  0
LINE
  5
286
100
AcDbEntity
  8
KONSTRUKTIONSELEMENTE
100
AcDbLine
 62
7
  6
CONTINUOUS
 10
163.4144369762
 20
202.9249364927
 11
163.2366303008
 21
202.8504684165
  0
LINE
  5
287
100
AcDbEntity
  8
KONSTRUKTIONSELEMENTE
100
AcDbLine
 62
7
  6
CONTINUOUS
 10
155.7460364516
 20
198.2972768739
 11
155.4496921056
 21
198.2228087977
  0
LINE
  5
288
100
AcDbEntity
  8
KONSTRUKTIONSELEMENTE
100
AcDbLine
 62
7
  6
CONTINUOUS
 10
164.0663943339
 20
201.1377024612
 11
163.7700503271
 21
201.0632343784
  0
LINE
  5
289
100
AcDbEntity
  8
KONSTRUKTIONSELEMENTE
100
AcDbLine
 62
7
  6
CONTINUOUS
 10
155.2126164253
 20
196.9568513975
 11
154.8570030745
 21
196.9568513975
  0
LINE
  5
28A
100
AcDbEntity
  8
KONSTRUKTIONSELEMENTE
100
AcDbLine
 62
7
  6
CONTINUOUS
 10
155.2718852606
 20
197.6270641878
 11
154.8570030745
 21
197.6270641878
  0
LINE
  5
28B
100
AcDbEntity
  8
KONSTRUKTIONSELEMENTE
100
AcDbLine
 62
7
  6
CONTINUOUS
 10
156.1016498024
 20
197.9249364927
 11
155.7460364516
 21
197.9249364927
  0
LINE
  5
28C
100
AcDbEntity
  8
KONSTRUKTIONSELEMENTE
100
AcDbLine
 62
7
  6
CONTINUOUS
 10
158.8872879433
 20
198.1483407214
 11
158.2353299073
 21
198.1483407214
  0
LINE
  5
28D
100
AcDbEntity
  8
KONSTRUKTIONSELEMENTE
100
AcDbLine
 62
7
  6
CONTINUOUS
 10
157.9389855614
 20
198.1483407214
 11
157.4648342008
 21
198.1483407214
  0
LINE
  5
28E
100
AcDbEntity
  8
KONSTRUKTIONSELEMENTE
100
AcDbLine
 62
7
  6
CONTINUOUS
 10
156.1016498024
 20
198.2972768739
 11
155.7460364516
 21
198.2972768739
  0
LINE
  5
28F
100
AcDbEntity
  8
KONSTRUKTIONSELEMENTE
100
AcDbLine
 62
7
  6
CONTINUOUS
 10
158.8872879433
 20
198.4462130264
 11
158.2353299073
 21
198.4462130264
  0
LINE
  5
290
100
AcDbEntity
  8
KONSTRUKTIONSELEMENTE
100
AcDbLine
 62
7
  6
CONTINUOUS
 10
157.9389855614
 20
198.4462130264
 11
157.4648342008
 21
198.4462130264
  0
LINE
  5
291
100
AcDbEntity
  8
KONSTRUKTIONSELEMENTE
100
AcDbLine
 62
7
  6
CONTINUOUS
 10
158.2353299073
 20
199.0419578448
 11
157.9389855614
 21
199.0419578448
  0
LINE
  5
292
100
AcDbEntity
  8
KONSTRUKTIONSELEMENTE
100
AcDbLine
 62
7
  6
CONTINUOUS
 10
156.8721455089
 20
199.1908939973
 11
155.1533475901
 21
199.1908939973
  0
LINE
  5
293
100
AcDbEntity
  8
KONSTRUKTIONSELEMENTE
100
AcDbLine
 62
7
  6
CONTINUOUS
 10
156.8721455089
 20
199.5632343784
 11
154.8570030745
 21
199.5632343784
  0
LINE
  5
294
100
AcDbEntity
  8
KONSTRUKTIONSELEMENTE
100
AcDbLine
 62
7
  6
CONTINUOUS
 10
153.2567429958
 20
199.5632343784
 11
152.901129645
 21
199.5632343784
  0
LINE
  5
295
100
AcDbEntity
  8
KONSTRUKTIONSELEMENTE
100
AcDbLine
 62
7
  6
CONTINUOUS
 10
158.7687499336
 20
196.3611067094
 11
158.4724052485
 21
196.4355748117
  0
LINE
  5
296
100
AcDbEntity
  8
KONSTRUKTIONSELEMENTE
100
AcDbLine
 62
7
  6
CONTINUOUS
 10
156.3979941484
 20
198.2228087977
 11
156.1016498024
 21
198.2972768739
  0
LINE
  5
297
100
AcDbEntity
  8
KONSTRUKTIONSELEMENTE
100
AcDbLine
 62
7
  6
CONTINUOUS
 10
156.3387254827
 20
197.8504684165
 11
156.1016498024
 21
197.9249364927
  0
LINE
  5
298
100
AcDbEntity
  8
KONSTRUKTIONSELEMENTE
100
AcDbLine
 62
7
  6
CONTINUOUS
 10
158.4131365827
 20
196.1377024612
 11
158.2353299073
 21
196.2121705439
  0
LINE
  5
299
100
AcDbEntity
  8
KONSTRUKTIONSELEMENTE
100
AcDbLine
 62
7
  6
CONTINUOUS
 10
156.6943388335
 20
197.999404569
 11
156.3979941484
 21
198.2228087977
  0
LINE
  5
29A
100
AcDbEntity
  8
KONSTRUKTIONSELEMENTE
100
AcDbLine
 62
7
  6
CONTINUOUS
 10
158.2353299073
 20
196.2121705439
 11
158.0575232319
 21
196.3611067094
  0
LINE
  5
29B
100
AcDbEntity
  8
KONSTRUKTIONSELEMENTE
100
AcDbLine
 62
7
  6
CONTINUOUS
 10
156.5165321581
 20
197.7015322641
 11
156.3387254827
 21
197.8504684165
  0
LINE
  5
29C
100
AcDbEntity
  8
KONSTRUKTIONSELEMENTE
100
AcDbLine
 62
7
  6
CONTINUOUS
 10
158.4724052485
 20
196.4355748117
 11
158.294598573
 21
196.5845109642
  0
LINE
  5
29D
100
AcDbEntity
  8
KONSTRUKTIONSELEMENTE
100
AcDbLine
 62
7
  6
CONTINUOUS
 10
151.5013897237
 20
204.2653620735
 11
151.264314213
 21
204.4887663022
  0
LINE
  5
29E
100
AcDbEntity
  8
KONSTRUKTIONSELEMENTE
100
AcDbLine
 62
7
  6
CONTINUOUS
 10
151.3235830483
 20
203.9674897686
 11
151.2050452082
 21
204.116425921
  0
LINE
  5
29F
100
AcDbEntity
  8
KONSTRUKTIONSELEMENTE
100
AcDbLine
 62
7
  6
CONTINUOUS
 10
151.6791963991
 20
203.9674897686
 11
151.5013897237
 21
204.2653620735
  0
LINE
  5
2A0
100
AcDbEntity
  8
KONSTRUKTIONSELEMENTE
100
AcDbLine
 62
7
  6
CONTINUOUS
 10
156.8721455089
 20
197.7015322641
 11
156.6943388335
 21
197.999404569
  0
LINE
  5
2A1
100
AcDbEntity
  8
KONSTRUKTIONSELEMENTE
100
AcDbLine
 62
7
  6
CONTINUOUS
 10
154.3462965303
 20
203.9674897686
 11
154.1684898549
 21
204.2653620735
  0
LINE
  5
2A2
100
AcDbEntity
  8
KONSTRUKTIONSELEMENTE
100
AcDbLine
 62
7
  6
CONTINUOUS
 10
156.6350698286
 20
197.4781280354
 11
156.5165321581
 21
197.7015322641
  0
LINE
  5
2A3
100
AcDbEntity
  8
KONSTRUKTIONSELEMENTE
100
AcDbLine
 62
7
  6
CONTINUOUS
 10
154.9755409147
 20
196.6589790404
 11
154.8570030745
 21
196.9568513975
  0
LINE
  5
2A4
100
AcDbEntity
  8
KONSTRUKTIONSELEMENTE
100
AcDbLine
 62
7
  6
CONTINUOUS
 10
155.3311542655
 20
196.6589790404
 11
155.2126164253
 21
196.9568513975
  0
LINE
  5
2A5
100
AcDbEntity
  8
KONSTRUKTIONSELEMENTE
100
AcDbLine
 62
7
  6
CONTINUOUS
 10
158.0575232319
 20
196.3611067094
 11
157.9389855614
 21
196.6589790404
  0
LINE
  5
2A6
100
AcDbEntity
  8
KONSTRUKTIONSELEMENTE
100
AcDbLine
 62
7
  6
CONTINUOUS
 10
156.9906831795
 20
197.3291917786
 11
156.8721455089
 21
197.7015322641
  0
LINE
  5
2A7
100
AcDbEntity
  8
KONSTRUKTIONSELEMENTE
100
AcDbLine
 62
7
  6
CONTINUOUS
 10
154.0499521843
 20
203.7440855399
 11
153.9906831795
 21
203.9674897686
  0
LINE
  5
2A8
100
AcDbEntity
  8
KONSTRUKTIONSELEMENTE
100
AcDbLine
 62
7
  6
CONTINUOUS
 10
154.4055655351
 20
203.7440855399
 11
154.3462965303
 21
203.9674897686
  0
LINE
  5
2A9
100
AcDbEntity
  8
KONSTRUKTIONSELEMENTE
100
AcDbLine
 62
7
  6
CONTINUOUS
 10
156.6943388335
 20
197.2547237024
 11
156.6350698286
 21
197.4781280354
  0
LINE
  5
2AA
100
AcDbEntity
  8
KONSTRUKTIONSELEMENTE
100
AcDbLine
 62
7
  6
CONTINUOUS
 10
157.4648342008
 20
198.4462130264
 11
157.4648342008
 21
198.1483407214
  0
LINE
  5
2AB
100
AcDbEntity
  8
KONSTRUKTIONSELEMENTE
100
AcDbLine
 62
7
  6
CONTINUOUS
 10
157.9389855614
 20
199.0419578448
 11
157.9389855614
 21
198.4462130264
  0
LINE
  5
2AC
100
AcDbEntity
  8
KONSTRUKTIONSELEMENTE
100
AcDbLine
 62
7
  6
CONTINUOUS
 10
157.9389855614
 20
198.1483407214
 11
157.9389855614
 21
196.6589790404
  0
LINE
  5
2AD
100
AcDbEntity
  8
KONSTRUKTIONSELEMENTE
100
AcDbLine
 62
7
  6
CONTINUOUS
 10
158.0871830999
 20
209.5632343784
 11
158.0871830999
 21
207.2547237024
  0
LINE
  5
2AE
100
AcDbEntity
  8
KONSTRUKTIONSELEMENTE
100
AcDbLine
 62
7
  6
CONTINUOUS
 10
158.2353299073
 20
199.0419578448
 11
158.2353299073
 21
198.4462130264
  0
LINE
  5
2AF
100
AcDbEntity
  8
KONSTRUKTIONSELEMENTE
100
AcDbLine
 62
7
  6
CONTINUOUS
 10
158.2353299073
 20
198.1483407214
 11
158.2353299073
 21
196.807915245
  0
LINE
  5
2B0
100
AcDbEntity
  8
KONSTRUKTIONSELEMENTE
100
AcDbLine
 62
7
  6
CONTINUOUS
 10
158.5246830999
 20
209.5632343784
 11
158.5246830999
 21
207.2547237024
  0
LINE
  5
2B1
100
AcDbEntity
  8
KONSTRUKTIONSELEMENTE
100
AcDbLine
 62
7
  6
CONTINUOUS
 10
158.7687499336
 20
196.3611067094
 11
158.7687499336
 21
196.0632343784
  0
LINE
  5
2B2
100
AcDbEntity
  8
KONSTRUKTIONSELEMENTE
100
AcDbLine
 62
7
  6
CONTINUOUS
 10
158.8872879433
 20
198.4462130264
 11
158.8872879433
 21
198.1483407214
  0
LINE
  5
2B3
100
AcDbEntity
  8
KONSTRUKTIONSELEMENTE
100
AcDbLine
 62
7
  6
CONTINUOUS
 10
159.0285387567
 20
204.5632343784
 11
159.0285387567
 21
201.0632343784
  0
LINE
  5
2B4
100
AcDbEntity
  8
KONSTRUKTIONSELEMENTE
100
AcDbLine
 62
7
  6
CONTINUOUS
 10
159.1080162942
 20
209.5632343784
 11
159.1080162942
 21
206.0632343784
  0
LINE
  5
2B5
100
AcDbEntity
  8
KONSTRUKTIONSELEMENTE
100
AcDbLine
 62
7
  6
CONTINUOUS
 10
159.3841521075
 20
204.5632343784
 11
159.3841521075
 21
201.0632343784
  0
LINE
  5
2B6
100
AcDbEntity
  8
KONSTRUKTIONSELEMENTE
100
AcDbLine
 62
7
  6
CONTINUOUS
 10
159.5455162942
 20
209.116425921
 11
159.5455162942
 21
206.5100428879
  0
LINE
  5
2B7
100
AcDbEntity
  8
KONSTRUKTIONSELEMENTE
100
AcDbLine
 62
7
  6
CONTINUOUS
 10
159.858303468
 20
204.5632343784
 11
159.858303468
 21
201.0632343784
  0
LINE
  5
2B8
100
AcDbEntity
  8
KONSTRUKTIONSELEMENTE
100
AcDbLine
 62
7
  6
CONTINUOUS
 10
160.0455162942
 20
168.8694870934
 11
160.0455162942
 21
153.0636140355
  0
LINE
  5
2B9
100
AcDbEntity
  8
KONSTRUKTIONSELEMENTE
100
AcDbLine
 62
7
  6
CONTINUOUS
 10
160.0455162942
 20
230.7569816634
 11
160.0455162942
 21
246.5628547214
  0
LINE
  5
2BA
100
AcDbEntity
  8
KONSTRUKTIONSELEMENTE
100
AcDbLine
 62
7
  6
CONTINUOUS
 10
160.2139168188
 20
204.1908939973
 11
160.2139168188
 21
203.0738726452
  0
LINE
  5
2BB
100
AcDbEntity
  8
KONSTRUKTIONSELEMENTE
100
AcDbLine
 62
7
  6
CONTINUOUS
 10
160.2139168188
 20
202.6270641878
 11
160.2139168188
 21
201.0632343784
  0
LINE
  5
2BC
100
AcDbEntity
  8
KONSTRUKTIONSELEMENTE
100
AcDbLine
 62
7
  6
CONTINUOUS
 10
158.5246830999
 20
207.2547237024
 11
158.4517662942
 21
206.8823833212
  0
LINE
  5
2BD
100
AcDbEntity
  8
KONSTRUKTIONSELEMENTE
100
AcDbLine
 62
7
  6
CONTINUOUS
 10
161.5871826827
 20
207.2547237024
 11
161.5142662942
 21
206.9568513975
  0
LINE
  5
2BE
100
AcDbEntity
  8
KONSTRUKTIONSELEMENTE
100
AcDbLine
 62
7
  6
CONTINUOUS
 10
156.6943388335
 20
197.1057875499
 11
156.6350698286
 21
196.8823833212
  0
LINE
  5
2BF
100
AcDbEntity
  8
KONSTRUKTIONSELEMENTE
100
AcDbLine
 62
7
  6
CONTINUOUS
 10
158.5543880744
 20
204.5632343784
 11
157.6060853534
 21
201.0632343784
  0
LINE
  5
2C0
100
AcDbEntity
  8
KONSTRUKTIONSELEMENTE
100
AcDbLine
 62
7
  6
CONTINUOUS
 10
156.9906831795
 20
197.0313194737
 11
156.8721455089
 21
196.6589790404
  0
LINE
  5
2C1
100
AcDbEntity
  8
KONSTRUKTIONSELEMENTE
100
AcDbLine
 62
7
  6
CONTINUOUS
 10
161.9517662942
 20
206.8823833212
 11
161.8059326827
 21
206.5845109642
  0
LINE
  5
2C2
100
AcDbEntity
  8
KONSTRUKTIONSELEMENTE
100
AcDbLine
 62
7
  6
CONTINUOUS
 10
156.6350698286
 20
196.8823833212
 11
156.5165321581
 21
196.6589790404
  0
LINE
  5
2C3
100
AcDbEntity
  8
KONSTRUKTIONSELEMENTE
100
AcDbLine
 62
7
  6
CONTINUOUS
 10
163.0588236254
 20
203.9674897686
 11
162.940286294
 21
203.7440855399
  0
LINE
  5
2C4
100
AcDbEntity
  8
KONSTRUKTIONSELEMENTE
100
AcDbLine
 62
7
  6
CONTINUOUS
 10
156.8721455089
 20
196.6589790404
 11
156.6943388335
 21
196.3611067094
  0
LINE
  5
2C5
100
AcDbEntity
  8
KONSTRUKTIONSELEMENTE
100
AcDbLine
 62
7
  6
CONTINUOUS
 10
161.9919835729
 20
203.2228087977
 11
161.8141768975
 21
202.9249364927
  0
LINE
  5
2C6
100
AcDbEntity
  8
KONSTRUKTIONSELEMENTE
100
AcDbLine
 62
7
  6
CONTINUOUS
 10
162.88101695
 20
204.2653620735
 11
162.7032102746
 21
203.9674897686
  0
LINE
  5
2C7
100
AcDbEntity
  8
KONSTRUKTIONSELEMENTE
100
AcDbLine
 62
7
  6
CONTINUOUS
 10
161.6363702221
 20
203.2972768739
 11
161.5178328907
 21
203.1483407214
  0
LINE
  5
2C8
100
AcDbEntity
  8
KONSTRUKTIONSELEMENTE
100
AcDbLine
 62
7
  6
CONTINUOUS
 10
163.0588236254
 20
202.7015322641
 11
162.940286294
 21
202.5525961116
  0
LINE
  5
2C9
100
AcDbEntity
  8
KONSTRUKTIONSELEMENTE
100
AcDbLine
 62
7
  6
CONTINUOUS
 10
155.5089607713
 20
197.8504684165
 11
155.2718852606
 21
197.6270641878
  0
LINE
  5
2CA
100
AcDbEntity
  8
KONSTRUKTIONSELEMENTE
100
AcDbLine
 62
7
  6
CONTINUOUS
 10
161.8141768975
 20
202.9249364927
 11
161.5771008781
 21
202.7015322641
  0
LINE
  5
2CB
100
AcDbEntity
  8
KONSTRUKTIONSELEMENTE
100
AcDbLine
 62
7
  6
CONTINUOUS
 10
163.2366303008
 20
204.116425921
 11
163.0588236254
 21
203.9674897686
  0
LINE
  5
2CC
100
AcDbEntity
  8
KONSTRUKTIONSELEMENTE
100
AcDbLine
 62
7
  6
CONTINUOUS
 10
163.1773609568
 20
203.2228087977
 11
162.821747606
 21
202.9249364927
  0
LINE
  5
2CD
100
AcDbEntity
  8
KONSTRUKTIONSELEMENTE
100
AcDbLine
 62
7
  6
CONTINUOUS
 10
163.2366303008
 20
202.8504684165
 11
163.0588236254
 21
202.7015322641
  0
LINE
  5
2CE
100
AcDbEntity
  8
KONSTRUKTIONSELEMENTE
100
AcDbLine
 62
7
  6
CONTINUOUS
 10
156.5165321581
 20
196.6589790404
 11
156.3387254827
 21
196.5100428879
  0
LINE
  5
2CF
100
AcDbEntity
  8
KONSTRUKTIONSELEMENTE
100
AcDbLine
 62
7
  6
CONTINUOUS
 10
164.1849330219
 20
201.6589790404
 11
164.0071263465
 21
201.5100428879
  0
LINE
  5
2D0
100
AcDbEntity
  8
KONSTRUKTIONSELEMENTE
100
AcDbLine
 62
7
  6
CONTINUOUS
 10
155.4496921056
 20
198.2228087977
 11
155.1533475901
 21
197.999404569
  0
LINE
  5
2D1
100
AcDbEntity
  8
KONSTRUKTIONSELEMENTE
100
AcDbLine
 62
7
  6
CONTINUOUS
 10
156.6943388335
 20
196.3611067094
 11
156.3979941484
 21
196.1377024612
  0
LINE
  5
2D2
100
AcDbEntity
  8
KONSTRUKTIONSELEMENTE
100
AcDbLine
 62
7
  6
CONTINUOUS
 10
164.3627396973
 20
201.3611067094
 11
164.0663943339
 21
201.1377024612
  0
LINE
  5
2D3
100
AcDbEntity
  8
KONSTRUKTIONSELEMENTE
100
AcDbLine
 62
7
  6
CONTINUOUS
 10
164.0071263465
 20
201.5100428879
 11
163.829319671
 21
201.4355748117
  0
LINE
  5
2D4
100
AcDbEntity
  8
KONSTRUKTIONSELEMENTE
100
AcDbLine
 62
7
  6
CONTINUOUS
 10
155.7460364516
 20
197.9249364927
 11
155.5089607713
 21
197.8504684165
  0
LINE
  5
2D5
100
AcDbEntity
  8
KONSTRUKTIONSELEMENTE
100
AcDbLine
 62
7
  6
CONTINUOUS
 10
156.3387254827
 20
196.5100428879
 11
156.1016498024
 21
196.4355748117
  0
LINE
  5
2D6
100
AcDbEntity
  8
KONSTRUKTIONSELEMENTE
100
AcDbLine
 62
7
  6
CONTINUOUS
 10
161.5771008781
 20
202.7015322641
 11
161.2807568713
 21
202.6270641878
  0
LINE
  5
2D7
100
AcDbEntity
  8
KONSTRUKTIONSELEMENTE
100
AcDbLine
 62
7
  6
CONTINUOUS
 10
163.4737063202
 20
203.2972768739
 11
163.1773609568
 21
203.2228087977
  0
LINE
  5
2D8
100
AcDbEntity
  8
KONSTRUKTIONSELEMENTE
100
AcDbLine
 62
7
  6
CONTINUOUS
 10
163.4737063202
 20
204.5632343784
 11
163.1773609568
 21
204.4887663022
  0
LINE
  5
2D9
100
AcDbEntity
  8
KONSTRUKTIONSELEMENTE
100
AcDbLine
 62
7
  6
CONTINUOUS
 10
153.9314141746
 20
202.7015322641
 11
153.6350698286
 21
202.6270641878
  0
LINE
  5
2DA
100
AcDbEntity
  8
KONSTRUKTIONSELEMENTE
100
AcDbLine
 62
7
  6
CONTINUOUS
 10
163.7700503271
 20
201.0632343784
 11
163.4737063202
 21
201.0632343784
  0
LINE
  5
2DB
100
AcDbEntity
  8
KONSTRUKTIONSELEMENTE
100
AcDbLine
 62
7
  6
CONTINUOUS
 10
160.2139168188
 20
201.0632343784
 11
159.858303468
 21
201.0632343784
  0
LINE
  5
2DC
100
AcDbEntity
  8
KONSTRUKTIONSELEMENTE
100
AcDbLine
 62
7
  6
CONTINUOUS
 10
159.3841521075
 20
201.0632343784
 11
159.0285387567
 21
201.0632343784
  0
LINE
  5
2DD
100
AcDbEntity
  8
KONSTRUKTIONSELEMENTE
100
AcDbLine
 62
7
  6
CONTINUOUS
 10
152.5682297762
 20
201.0632343784
 11
152.2126164253
 21
201.0632343784
  0
LINE
  5
2DE
100
AcDbEntity
  8
KONSTRUKTIONSELEMENTE
100
AcDbLine
 62
7
  6
CONTINUOUS
 10
149.901129645
 20
201.0632343784
 11
149.5455162942
 21
201.0632343784
  0
LINE
  5
2DF
100
AcDbEntity
  8
KONSTRUKTIONSELEMENTE
100
AcDbLine
 62
7
  6
CONTINUOUS
 10
157.1319346711
 20
201.0632343784
 11
157.6060853534
 21
201.0632343784
  0
LINE
  5
2E0
100
AcDbEntity
  8
KONSTRUKTIONSELEMENTE
100
AcDbLine
 62
7
  6
CONTINUOUS
 10
163.829319671
 20
201.4355748117
 11
163.4144369762
 21
201.4355748117
  0
LINE
  5
2E1
100
AcDbEntity
  8
KONSTRUKTIONSELEMENTE
100
AcDbLine
 62
7
  6
CONTINUOUS
 10
155.7094812679
 20
202.3291917786
 11
154.8797165565
 21
202.3291917786
  0
LINE
  5
2E2
100
AcDbEntity
  8
KONSTRUKTIONSELEMENTE
100
AcDbLine
 62
7
  6
CONTINUOUS
 10
161.2807568713
 20
202.6270641878
 11
160.2139168188
 21
202.6270641878
  0
LINE
  5
2E3
100
AcDbEntity
  8
KONSTRUKTIONSELEMENTE
100
AcDbLine
 62
7
  6
CONTINUOUS
 10
153.6350698286
 20
202.6270641878
 11
152.5682297762
 21
202.6270641878
  0
LINE
  5
2E4
100
AcDbEntity
  8
KONSTRUKTIONSELEMENTE
100
AcDbLine
 62
7
  6
CONTINUOUS
 10
150.9679696975
 20
202.6270641878
 11
149.901129645
 21
202.6270641878
  0
LINE
  5
2E5
100
AcDbEntity
  8
KONSTRUKTIONSELEMENTE
100
AcDbLine
 62
7
  6
CONTINUOUS
 10
155.7094812679
 20
202.7015322641
 11
154.8797165565
 21
202.7015322641
  0
LINE
  5
2E6
100
AcDbEntity
  8
KONSTRUKTIONSELEMENTE
100
AcDbLine
 62
7
  6
CONTINUOUS
 10
163.829319671
 20
202.9249364927
 11
163.4144369762
 21
202.9249364927
  0
LINE
  5
2E7
100
AcDbEntity
  8
KONSTRUKTIONSELEMENTE
100
AcDbLine
 62
7
  6
CONTINUOUS
 10
161.3400262153
 20
203.0738726452
 11
160.2139168188
 21
203.0738726452
  0
LINE
  5
2E8
100
AcDbEntity
  8
KONSTRUKTIONSELEMENTE
100
AcDbLine
 62
7
  6
CONTINUOUS
 10
153.6943388335
 20
203.0738726452
 11
152.5682297762
 21
203.0738726452
  0
LINE
  5
2E9
100
AcDbEntity
  8
KONSTRUKTIONSELEMENTE
100
AcDbLine
 62
7
  6
CONTINUOUS
 10
151.0272385328
 20
203.0738726452
 11
149.901129645
 21
203.0738726452
  0
LINE
  5
2EA
100
AcDbEntity
  8
KONSTRUKTIONSELEMENTE
100
AcDbLine
 62
7
  6
CONTINUOUS
 10
163.7700503271
 20
203.2972768739
 11
163.4737063202
 21
203.2972768739
  0
LINE
  5
2EB
100
AcDbEntity
  8
KONSTRUKTIONSELEMENTE
100
AcDbLine
 62
7
  6
CONTINUOUS
 10
163.4737063202
 20
201.0632343784
 11
163.1773609568
 21
201.1377024612
  0
LINE
  5
2EC
100
AcDbEntity
  8
KONSTRUKTIONSELEMENTE
100
AcDbLine
 62
7
  6
CONTINUOUS
 10
151.264314213
 20
204.4887663022
 11
150.9679696975
 21
204.5632343784
  0
LINE
  5
2ED
100
AcDbEntity
  8
KONSTRUKTIONSELEMENTE
100
AcDbLine
 62
7
  6
CONTINUOUS
 10
151.2050452082
 20
204.116425921
 11
151.0272385328
 21
204.1908939973
  0
LINE
  5
2EE
100
AcDbEntity
  8
KONSTRUKTIONSELEMENTE
100
AcDbLine
 62
7
  6
CONTINUOUS
 10
153.8721455089
 20
204.116425921
 11
153.6943388335
 21
204.1908939973
  0
LINE
  5
2EF
100
AcDbEntity
  8
KONSTRUKTIONSELEMENTE
100
AcDbLine
 62
7
  6
CONTINUOUS
 10
154.1684898549
 20
204.2653620735
 11
153.9314141746
 21
204.4887663022
  0
LINE
  5
2F0
100
AcDbEntity
  8
KONSTRUKTIONSELEMENTE
100
AcDbLine
 62
7
  6
CONTINUOUS
 10
153.9906831795
 20
203.9674897686
 11
153.8721455089
 21
204.116425921
  0
LINE
  5
2F1
100
AcDbEntity
  8
KONSTRUKTIONSELEMENTE
100
AcDbLine
 62
7
  6
CONTINUOUS
 10
156.5559330999
 20
206.7334471688
 11
156.4100994884
 21
206.9568513975
  0
LINE
  5
2F2
100
AcDbEntity
  8
KONSTRUKTIONSELEMENTE
100
AcDbLine
 62
7
  6
CONTINUOUS
 10
156.1184330999
 20
206.5845109642
 11
155.9725996971
 21
206.8823833212
  0
LINE
  5
2F3
100
AcDbEntity
  8
KONSTRUKTIONSELEMENTE
100
AcDbLine
 62
7
  6
CONTINUOUS
 10
155.3163496971
 20
206.0632343784
 11
154.6600996971
 21
207.7760003403
  0
LINE
  5
2F4
100
AcDbEntity
  8
KONSTRUKTIONSELEMENTE
100
AcDbLine
 62
7
  6
CONTINUOUS
 10
154.8059328913
 20
206.0632343784
 11
154.2225995927
 21
207.6270641878
  0
LINE
  5
2F5
100
AcDbEntity
  8
KONSTRUKTIONSELEMENTE
100
AcDbLine
 62
7
  6
CONTINUOUS
 10
154.8059328913
 20
208.7440855399
 11
154.7330162942
 21
208.9674897686
  0
LINE
  5
2F6
100
AcDbEntity
  8
KONSTRUKTIONSELEMENTE
100
AcDbLine
 62
7
  6
CONTINUOUS
 10
155.2434328913
 20
208.7440855399
 11
155.1705162942
 21
208.9674897686
  0
LINE
  5
2F7
100
AcDbEntity
  8
KONSTRUKTIONSELEMENTE
100
AcDbLine
 62
7
  6
CONTINUOUS
 10
156.5392453009
 20
204.5632343784
 11
157.3690100123
 21
201.5100428879
  0
LINE
  5
2F8
100
AcDbEntity
  8
KONSTRUKTIONSELEMENTE
100
AcDbLine
 62
7
  6
CONTINUOUS
 10
157.1319346711
 20
201.0632343784
 11
156.1836319501
 21
204.5632343784
  0
LINE
  5
2F9
100
AcDbEntity
  8
KONSTRUKTIONSELEMENTE
100
AcDbLine
 62
7
  6
CONTINUOUS
 10
158.294598573
 20
196.5845109642
 11
158.2353299073
 21
196.807915245
  0
LINE
  5
2FA
100
AcDbEntity
  8
KONSTRUKTIONSELEMENTE
100
AcDbLine
 62
7
  6
CONTINUOUS
 10
156.4100994884
 20
206.9568513975
 11
156.3371830999
 21
207.2547237024
  0
LINE
  5
2FB
100
AcDbEntity
  8
KONSTRUKTIONSELEMENTE
100
AcDbLine
 62
7
  6
CONTINUOUS
 10
155.9725996971
 20
206.8823833212
 11
155.8996828913
 21
207.2547237024
  0
LINE
  5
2FC
100
AcDbEntity
  8
KONSTRUKTIONSELEMENTE
100
AcDbLine
 62
7
  6
CONTINUOUS
 10
161.5871826827
 20
208.3717449501
 11
161.5871826827
 21
207.2547237024
  0
LINE
  5
2FD
100
AcDbEntity
  8
KONSTRUKTIONSELEMENTE
100
AcDbLine
 62
7
  6
CONTINUOUS
 10
161.6956395661
 20
203.7440855399
 11
161.6956395661
 21
203.5206811026
  0
LINE
  5
2FE
100
AcDbEntity
  8
KONSTRUKTIONSELEMENTE
100
AcDbLine
 62
7
  6
CONTINUOUS
 10
162.0246826827
 20
208.3717449501
 11
162.0246826827
 21
207.2547237024
  0
LINE
  5
2FF
100
AcDbEntity
  8
KONSTRUKTIONSELEMENTE
100
AcDbLine
 62
7
  6
CONTINUOUS
 10
162.0512529169
 20
203.7440855399
 11
162.0512529169
 21
203.4462130264
  0
LINE
  5
300
100
AcDbEntity
  8
KONSTRUKTIONSELEMENTE
100
AcDbLine
 62
7
  6
CONTINUOUS
 10
162.5254035992
 20
203.0738726452
 11
162.5254035992
 21
202.5525961116
  0
LINE
  5
301
100
AcDbEntity
  8
KONSTRUKTIONSELEMENTE
100
AcDbLine
 62
7
  6
CONTINUOUS
 10
162.821747606
 20
203.0738726452
 11
162.821747606
 21
202.9249364927
  0
LINE
  5
302
100
AcDbEntity
  8
KONSTRUKTIONSELEMENTE
100
AcDbLine
 62
7
  6
CONTINUOUS
 10
162.88101695
 20
202.3291917786
 11
162.88101695
 21
202.1057875499
  0
LINE
  5
303
100
AcDbEntity
  8
KONSTRUKTIONSELEMENTE
100
AcDbLine
 62
7
  6
CONTINUOUS
 10
162.5846729432
 20
203.5951491788
 11
162.5254035992
 21
203.0738726452
  0
LINE
  5
304
100
AcDbEntity
  8
KONSTRUKTIONSELEMENTE
100
AcDbLine
 62
7
  6
CONTINUOUS
 10
162.88101695
 20
203.5206811026
 11
162.821747606
 21
203.0738726452
  0
LINE
  5
305
100
AcDbEntity
  8
KONSTRUKTIONSELEMENTE
100
AcDbLine
 62
7
  6
CONTINUOUS
 10
162.0246826827
 20
207.2547237024
 11
161.9517662942
 21
206.8823833212
  0
LINE
  5
306
100
AcDbEntity
  8
KONSTRUKTIONSELEMENTE
100
AcDbLine
 62
7
  6
CONTINUOUS
 10
161.6956395661
 20
203.5206811026
 11
161.6363702221
 21
203.2972768739
  0
LINE
  5
307
100
AcDbEntity
  8
KONSTRUKTIONSELEMENTE
100
AcDbLine
 62
7
  6
CONTINUOUS
 10
162.0512529169
 20
203.4462130264
 11
161.9919835729
 21
203.2228087977
  0
LINE
  5
308
100
AcDbEntity
  8
KONSTRUKTIONSELEMENTE
100
AcDbLine
 62
7
  6
CONTINUOUS
 10
162.940286294
 20
203.7440855399
 11
162.88101695
 21
203.5206811026
  0
LINE
  5
309
100
AcDbEntity
  8
KONSTRUKTIONSELEMENTE
100
AcDbLine
 62
7
  6
CONTINUOUS
 10
162.940286294
 20
202.5525961116
 11
162.88101695
 21
202.3291917786
  0
LINE
  5
30A
100
AcDbEntity
  8
KONSTRUKTIONSELEMENTE
100
AcDbLine
 62
7
  6
CONTINUOUS
 10
164.3627396973
 20
202.1057875499
 11
164.3034703533
 21
201.8823833212
  0
LINE
  5
30B
100
AcDbEntity
  8
KONSTRUKTIONSELEMENTE
100
AcDbLine
 62
7
  6
CONTINUOUS
 10
162.7032102746
 20
203.9674897686
 11
162.5846729432
 21
203.5951491788
  0
LINE
  5
30C
100
AcDbEntity
  8
KONSTRUKTIONSELEMENTE
100
AcDbLine
 62
7
  6
CONTINUOUS
 10
164.6590837041
 20
202.0313194737
 11
164.5405463727
 21
201.6589790404
  0
LINE
  5
30D
100
AcDbEntity
  8
KONSTRUKTIONSELEMENTE
100
AcDbLine
 62
7
  6
CONTINUOUS
 10
164.3034703533
 20
201.8823833212
 11
164.1849330219
 21
201.6589790404
  0
LINE
  5
30E
100
AcDbEntity
  8
KONSTRUKTIONSELEMENTE
100
AcDbLine
 62
7
  6
CONTINUOUS
 10
164.5405463727
 20
201.6589790404
 11
164.3627396973
 21
201.3611067094
  0
LINE
  5
30F
100
AcDbEntity
  8
KONSTRUKTIONSELEMENTE
100
AcDbLine
 62
7
  6
CONTINUOUS
 10
161.1496826827
 20
206.5845109642
 11
160.8580162942
 21
206.5100428879
  0
LINE
  5
310
100
AcDbEntity
  8
KONSTRUKTIONSELEMENTE
100
AcDbLine
 62
7
  6
CONTINUOUS
 10
157.6496830999
 20
206.5845109642
 11
157.3580162942
 21
206.5100428879
  0
LINE
  5
311
100
AcDbEntity
  8
KONSTRUKTIONSELEMENTE
100
AcDbLine
 62
7
  6
CONTINUOUS
 10
151.264314213
 20
202.7015322641
 11
150.9679696975
 21
202.6270641878
  0
LINE
  5
312
100
AcDbEntity
  8
KONSTRUKTIONSELEMENTE
100
AcDbLine
 62
7
  6
CONTINUOUS
 10
161.2225999057
 20
206.1377024612
 11
160.8580162942
 21
206.0632343784
  0
LINE
  5
313
100
AcDbEntity
  8
KONSTRUKTIONSELEMENTE
100
AcDbLine
 62
7
  6
CONTINUOUS
 10
157.7225994884
 20
206.1377024612
 11
157.3580162942
 21
206.0632343784
  0
LINE
  5
314
100
AcDbEntity
  8
KONSTRUKTIONSELEMENTE
100
AcDbLine
 62
7
  6
CONTINUOUS
 10
164.5405463727
 20
203.7440855399
 11
164.2442010093
 21
203.7440855399
  0
LINE
  5
315
100
AcDbEntity
  8
KONSTRUKTIONSELEMENTE
100
AcDbLine
 62
7
  6
CONTINUOUS
 10
163.7700503271
 20
204.1908939973
 11
163.4144369762
 21
204.1908939973
  0
LINE
  5
316
100
AcDbEntity
  8
KONSTRUKTIONSELEMENTE
100
AcDbLine
 62
7
  6
CONTINUOUS
 10
161.3400262153
 20
204.1908939973
 11
160.2139168188
 21
204.1908939973
  0
LINE
  5
317
100
AcDbEntity
  8
KONSTRUKTIONSELEMENTE
100
AcDbLine
 62
7
  6
CONTINUOUS
 10
153.6943388335
 20
204.1908939973
 11
152.5682297762
 21
204.1908939973
  0
LINE
  5
318
100
AcDbEntity
  8
KONSTRUKTIONSELEMENTE
100
AcDbLine
 62
7
  6
CONTINUOUS
 10
151.0272385328
 20
204.1908939973
 11
149.901129645
 21
204.1908939973
  0
LINE
  5
319
100
AcDbEntity
  8
KONSTRUKTIONSELEMENTE
100
AcDbLine
 62
7
  6
CONTINUOUS
 10
163.7107809831
 20
204.5632343784
 11
163.4737063202
 21
204.5632343784
  0
LINE
  5
31A
100
AcDbEntity
  8
KONSTRUKTIONSELEMENTE
100
AcDbLine
 62
7
  6
CONTINUOUS
 10
161.2807568713
 20
204.5632343784
 11
159.858303468
 21
204.5632343784
  0
LINE
  5
31B
100
AcDbEntity
  8
KONSTRUKTIONSELEMENTE
100
AcDbLine
 62
7
  6
CONTINUOUS
 10
159.3841521075
 20
204.5632343784
 11
159.0285387567
 21
204.5632343784
  0
LINE
  5
31C
100
AcDbEntity
  8
KONSTRUKTIONSELEMENTE
100
AcDbLine
 62
7
  6
CONTINUOUS
 10
158.5543880744
 20
204.5632343784
 11
158.1987747236
 21
204.5632343784
  0
LINE
  5
31D
100
AcDbEntity
  8
KONSTRUKTIONSELEMENTE
100
AcDbLine
 62
7
  6
CONTINUOUS
 10
153.6350698286
 20
204.5632343784
 11
152.2126164253
 21
204.5632343784
  0
LINE
  5
31E
100
AcDbEntity
  8
KONSTRUKTIONSELEMENTE
100
AcDbLine
 62
7
  6
CONTINUOUS
 10
150.9679696975
 20
204.5632343784
 11
149.5455162942
 21
204.5632343784
  0
LINE
  5
31F
100
AcDbEntity
  8
KONSTRUKTIONSELEMENTE
100
AcDbLine
 62
7
  6
CONTINUOUS
 10
156.1836319501
 20
204.5632343784
 11
156.5392453009
 21
204.5632343784
  0
LINE
  5
320
100
AcDbEntity
  8
KONSTRUKTIONSELEMENTE
100
AcDbLine
 62
7
  6
CONTINUOUS
 10
160.8580162942
 20
206.0632343784
 11
159.1080162942
 21
206.0632343784
  0
LINE
  5
321
100
AcDbEntity
  8
KONSTRUKTIONSELEMENTE
100
AcDbLine
 62
7
  6
CONTINUOUS
 10
157.3580162942
 20
206.0632343784
 11
157.0663494884
 21
206.0632343784
  0
LINE
  5
322
100
AcDbEntity
  8
KONSTRUKTIONSELEMENTE
100
AcDbLine
 62
7
  6
CONTINUOUS
 10
155.3163496971
 20
206.0632343784
 11
154.8059328913
 21
206.0632343784
  0
LINE
  5
323
100
AcDbEntity
  8
KONSTRUKTIONSELEMENTE
100
AcDbLine
 62
7
  6
CONTINUOUS
 10
152.9830162942
 20
206.0632343784
 11
152.5455162942
 21
206.0632343784
  0
LINE
  5
324
100
AcDbEntity
  8
KONSTRUKTIONSELEMENTE
100
AcDbLine
 62
7
  6
CONTINUOUS
 10
160.8580162942
 20
206.5100428879
 11
159.5455162942
 21
206.5100428879
  0
LINE
  5
325
100
AcDbEntity
  8
KONSTRUKTIONSELEMENTE
100
AcDbLine
 62
7
  6
CONTINUOUS
 10
157.3580162942
 20
206.5100428879
 11
157.0663494884
 21
206.5100428879
  0
LINE
  5
326
100
AcDbEntity
  8
KONSTRUKTIONSELEMENTE
100
AcDbLine
 62
7
  6
CONTINUOUS
 10
157.0663494884
 20
206.0632343784
 11
156.7017662942
 21
206.1377024612
  0
LINE
  5
327
100
AcDbEntity
  8
KONSTRUKTIONSELEMENTE
100
AcDbLine
 62
7
  6
CONTINUOUS
 10
153.9314141746
 20
204.4887663022
 11
153.6350698286
 21
204.5632343784
  0
LINE
  5
328
100
AcDbEntity
  8
KONSTRUKTIONSELEMENTE
100
AcDbLine
 62
7
  6
CONTINUOUS
 10
164.0663943339
 20
203.2228087977
 11
163.7700503271
 21
203.2972768739
  0
LINE
  5
329
100
AcDbEntity
  8
KONSTRUKTIONSELEMENTE
100
AcDbLine
 62
7
  6
CONTINUOUS
 10
161.5771008781
 20
204.4887663022
 11
161.2807568713
 21
204.5632343784
  0
LINE
  5
32A
100
AcDbEntity
  8
KONSTRUKTIONSELEMENTE
100
AcDbLine
 62
7
  6
CONTINUOUS
 10
164.0071263465
 20
204.4887663022
 11
163.7107809831
 21
204.5632343784
  0
LINE
  5
32B
100
AcDbEntity
  8
KONSTRUKTIONSELEMENTE
100
AcDbLine
 62
7
  6
CONTINUOUS
 10
157.0663494884
 20
206.5100428879
 11
156.7746830999
 21
206.5845109642
  0
LINE
  5
32C
100
AcDbEntity
  8
KONSTRUKTIONSELEMENTE
100
AcDbLine
 62
7
  6
CONTINUOUS
 10
163.4144369762
 20
201.4355748117
 11
163.2366303008
 21
201.5100428879
  0
LINE
  5
32D
100
AcDbEntity
  8
KONSTRUKTIONSELEMENTE
100
AcDbLine
 62
7
  6
CONTINUOUS
 10
164.0071263465
 20
202.8504684165
 11
163.829319671
 21
202.9249364927
  0
LINE
  5
32E
100
AcDbEntity
  8
KONSTRUKTIONSELEMENTE
100
AcDbLine
 62
7
  6
CONTINUOUS
 10
161.5178328907
 20
204.116425921
 11
161.3400262153
 21
204.1908939973
  0
LINE
  5
32F
100
AcDbEntity
  8
KONSTRUKTIONSELEMENTE
100
AcDbLine
 62
7
  6
CONTINUOUS
 10
163.9478570025
 20
204.116425921
 11
163.7700503271
 21
204.1908939973
  0
LINE
  5
330
100
AcDbEntity
  8
KONSTRUKTIONSELEMENTE
100
AcDbLine
 62
7
  6
CONTINUOUS
 10
156.7017662942
 20
206.1377024612
 11
156.4100994884
 21
206.2866386332
  0
LINE
  5
331
100
AcDbEntity
  8
KONSTRUKTIONSELEMENTE
100
AcDbLine
 62
7
  6
CONTINUOUS
 10
156.7746830999
 20
206.5845109642
 11
156.5559330999
 21
206.7334471688
  0
LINE
  5
332
100
AcDbEntity
  8
KONSTRUKTIONSELEMENTE
100
AcDbLine
 62
7
  6
CONTINUOUS
 10
163.1773609568
 20
201.1377024612
 11
162.88101695
 21
201.3611067094
  0
LINE
  5
333
100
AcDbEntity
  8
KONSTRUKTIONSELEMENTE
100
AcDbLine
 62
7
  6
CONTINUOUS
 10
154.9517662942
 20
209.2653620735
 11
154.6600996971
 21
209.4887663022
  0
LINE
  5
334
100
AcDbEntity
  8
KONSTRUKTIONSELEMENTE
100
AcDbLine
 62
7
  6
CONTINUOUS
 10
163.2366303008
 20
201.5100428879
 11
163.0588236254
 21
201.6589790404
  0
LINE
  5
335
100
AcDbEntity
  8
KONSTRUKTIONSELEMENTE
100
AcDbLine
 62
7
  6
CONTINUOUS
 10
164.1849330219
 20
202.7015322641
 11
164.0071263465
 21
202.8504684165
  0
LINE
  5
336
100
AcDbEntity
  8
KONSTRUKTIONSELEMENTE
100
AcDbLine
 62
7
  6
CONTINUOUS
 10
161.8141768975
 20
204.2653620735
 11
161.5771008781
 21
204.4887663022
  0
LINE
  5
337
100
AcDbEntity
  8
KONSTRUKTIONSELEMENTE
100
AcDbLine
 62
7
  6
CONTINUOUS
 10
156.4100994884
 20
206.2866386332
 11
156.1184330999
 21
206.5845109642
  0
LINE
  5
338
100
AcDbEntity
  8
KONSTRUKTIONSELEMENTE
100
AcDbLine
 62
7
  6
CONTINUOUS
 10
154.7330162942
 20
208.9674897686
 11
154.5871828913
 21
209.116425921
  0
LINE
  5
339
100
AcDbEntity
  8
KONSTRUKTIONSELEMENTE
100
AcDbLine
 62
7
  6
CONTINUOUS
 10
161.6363702221
 20
203.9674897686
 11
161.5178328907
 21
204.116425921
  0
LINE
  5
33A
100
AcDbEntity
  8
KONSTRUKTIONSELEMENTE
100
AcDbLine
 62
7
  6
CONTINUOUS
 10
155.1705162942
 20
208.9674897686
 11
154.9517662942
 21
209.2653620735
  0
LINE
  5
33B
100
AcDbEntity
  8
KONSTRUKTIONSELEMENTE
100
AcDbLine
 62
7
  6
CONTINUOUS
 10
162.88101695
 20
201.3611067094
 11
162.7032102746
 21
201.6589790404
  0
LINE
  5
33C
100
AcDbEntity
  8
KONSTRUKTIONSELEMENTE
100
AcDbLine
 62
7
  6
CONTINUOUS
 10
161.9919835729
 20
203.9674897686
 11
161.8141768975
 21
204.2653620735
  0
LINE
  5
33D
100
AcDbEntity
  8
KONSTRUKTIONSELEMENTE
100
AcDbLine
 62
7
  6
CONTINUOUS
 10
163.0588236254
 20
201.6589790404
 11
162.940286294
 21
201.8823833212
  0
LINE
  5
33E
100
AcDbEntity
  8
KONSTRUKTIONSELEMENTE
100
AcDbLine
 62
7
  6
CONTINUOUS
 10
162.7032102746
 20
201.6589790404
 11
162.5846729432
 21
202.0313194737
  0
LINE
  5
33F
100
AcDbEntity
  8
KONSTRUKTIONSELEMENTE
100
AcDbLine
 62
7
  6
CONTINUOUS
 10
161.6956395661
 20
203.7440855399
 11
161.6363702221
 21
203.9674897686
  0
LINE
  5
340
100
AcDbEntity
  8
KONSTRUKTIONSELEMENTE
100
AcDbLine
 62
7
  6
CONTINUOUS
 10
162.0512529169
 20
203.7440855399
 11
161.9919835729
 21
203.9674897686
  0
LINE
  5
341
100
AcDbEntity
  8
KONSTRUKTIONSELEMENTE
100
AcDbLine
 62
7
  6
CONTINUOUS
 10
162.940286294
 20
201.8823833212
 11
162.88101695
 21
202.1057875499
  0
LINE
  5
342
100
AcDbEntity
  8
KONSTRUKTIONSELEMENTE
100
AcDbLine
 62
7
  6
CONTINUOUS
 10
161.5871826827
 20
208.3717449501
 11
161.5142662942
 21
208.669617255
  0
LINE
  5
343
100
AcDbEntity
  8
KONSTRUKTIONSELEMENTE
100
AcDbLine
 62
7
  6
CONTINUOUS
 10
162.0246826827
 20
208.3717449501
 11
161.9517662942
 21
208.7440855399
  0
LINE
  5
344
100
AcDbEntity
  8
KONSTRUKTIONSELEMENTE
100
AcDbLine
 62
7
  6
CONTINUOUS
 10
162.5846729432
 20
202.0313194737
 11
162.5254035992
 21
202.5525961116
  0
LINE
  5
345
100
AcDbEntity
  8
KONSTRUKTIONSELEMENTE
100
AcDbLine
 62
7
  6
CONTINUOUS
 10
164.3627396973
 20
202.3291917786
 11
164.3627396973
 21
202.1057875499
  0
LINE
  5
346
100
AcDbEntity
  8
KONSTRUKTIONSELEMENTE
100
AcDbLine
 62
7
  6
CONTINUOUS
 10
164.6590837041
 20
202.4036599591
 11
164.6590837041
 21
202.0313194737
  0
LINE
  5
347
100
AcDbEntity
  8
KONSTRUKTIONSELEMENTE
100
AcDbLine
 62
7
  6
CONTINUOUS
 10
154.2225995927
 20
207.6270641878
 11
152.9830162942
 21
207.6270641878
  0
LINE
  5
348
100
AcDbEntity
  8
KONSTRUKTIONSELEMENTE
100
AcDbLine
 62
7
  6
CONTINUOUS
 10
154.3684328913
 20
208.0738726452
 11
152.9830162942
 21
208.0738726452
  0
LINE
  5
349
100
AcDbEntity
  8
KONSTRUKTIONSELEMENTE
100
AcDbLine
 62
7
  6
CONTINUOUS
 10
160.8580162942
 20
209.116425921
 11
159.5455162942
 21
209.116425921
  0
LINE
  5
34A
100
AcDbEntity
  8
KONSTRUKTIONSELEMENTE
100
AcDbLine
 62
7
  6
CONTINUOUS
 10
154.3684328913
 20
209.1908939973
 11
152.9830162942
 21
209.1908939973
  0
LINE
  5
34B
100
AcDbEntity
  8
KONSTRUKTIONSELEMENTE
100
AcDbLine
 62
7
  6
CONTINUOUS
 10
160.8580162942
 20
209.5632343784
 11
159.1080162942
 21
209.5632343784
  0
LINE
  5
34C
100
AcDbEntity
  8
KONSTRUKTIONSELEMENTE
100
AcDbLine
 62
7
  6
CONTINUOUS
 10
158.5246830999
 20
209.5632343784
 11
158.0871830999
 21
209.5632343784
  0
LINE
  5
34D
100
AcDbEntity
  8
KONSTRUKTIONSELEMENTE
100
AcDbLine
 62
7
  6
CONTINUOUS
 10
156.3371830999
 20
209.5632343784
 11
155.8996828913
 21
209.5632343784
  0
LINE
  5
34E
100
AcDbEntity
  8
KONSTRUKTIONSELEMENTE
100
AcDbLine
 62
7
  6
CONTINUOUS
 10
154.2955162942
 20
209.5632343784
 11
152.5455162942
 21
209.5632343784
  0
LINE
  5
34F
100
AcDbEntity
  8
KONSTRUKTIONSELEMENTE
100
AcDbLine
 62
7
  6
CONTINUOUS
 10
154.6600996971
 20
209.4887663022
 11
154.2955162942
 21
209.5632343784
  0
LINE
  5
350
100
AcDbEntity
  8
KONSTRUKTIONSELEMENTE
100
AcDbLine
 62
7
  6
CONTINUOUS
 10
161.2225999057
 20
209.4887663022
 11
160.8580162942
 21
209.5632343784
  0
LINE
  5
351
100
AcDbEntity
  8
KONSTRUKTIONSELEMENTE
100
AcDbLine
 62
7
  6
CONTINUOUS
 10
161.1496826827
 20
209.0419578448
 11
160.8580162942
 21
209.116425921
  0
LINE
  5
352
100
AcDbEntity
  8
KONSTRUKTIONSELEMENTE
100
AcDbLine
 62
7
  6
CONTINUOUS
 10
154.5871828913
 20
209.116425921
 11
154.3684328913
 21
209.1908939973
  0
LINE
  5
353
100
AcDbEntity
  8
KONSTRUKTIONSELEMENTE
100
AcDbLine
 62
7
  6
CONTINUOUS
 10
161.3684326827
 20
208.8930216923
 11
161.1496826827
 21
209.0419578448
  0
LINE
  5
354
100
AcDbEntity
  8
KONSTRUKTIONSELEMENTE
100
AcDbLine
 62
7
  6
CONTINUOUS
 10
164.3627396973
 20
202.999404569
 11
164.0663943339
 21
203.2228087977
  0
LINE
  5
355
100
AcDbEntity
  8
KONSTRUKTIONSELEMENTE
100
AcDbLine
 62
7
  6
CONTINUOUS
 10
164.3034703533
 20
204.2653620735
 11
164.0071263465
 21
204.4887663022
  0
LINE
  5
356
100
AcDbEntity
  8
KONSTRUKTIONSELEMENTE
100
AcDbLine
 62
7
  6
CONTINUOUS
 10
164.1256636779
 20
203.9674897686
 11
163.9478570025
 21
204.116425921
  0
LINE
  5
357
100
AcDbEntity
  8
KONSTRUKTIONSELEMENTE
100
AcDbLine
 62
7
  6
CONTINUOUS
 10
161.8059326827
 20
209.0419578448
 11
161.5142662942
 21
209.3398301497
  0
LINE
  5
358
100
AcDbEntity
  8
KONSTRUKTIONSELEMENTE
100
AcDbLine
 62
7
  6
CONTINUOUS
 10
164.3034703533
 20
202.5525961116
 11
164.1849330219
 21
202.7015322641
  0
LINE
  5
359
100
AcDbEntity
  8
KONSTRUKTIONSELEMENTE
100
AcDbLine
 62
7
  6
CONTINUOUS
 10
164.5405463727
 20
202.7760003403
 11
164.3627396973
 21
202.999404569
  0
LINE
  5
35A
100
AcDbEntity
  8
KONSTRUKTIONSELEMENTE
100
AcDbLine
 62
7
  6
CONTINUOUS
 10
161.5142662942
 20
208.669617255
 11
161.3684326827
 21
208.8930216923
  0
LINE
  5
35B
100
AcDbEntity
  8
KONSTRUKTIONSELEMENTE
100
AcDbLine
 62
7
  6
CONTINUOUS
 10
164.4812770287
 20
203.9674897686
 11
164.3034703533
 21
204.2653620735
  0
LINE
  5
35C
100
AcDbEntity
  8
KONSTRUKTIONSELEMENTE
100
AcDbLine
 62
7
  6
CONTINUOUS
 10
164.2442010093
 20
203.7440855399
 11
164.1256636779
 21
203.9674897686
  0
LINE
  5
35D
100
AcDbEntity
  8
KONSTRUKTIONSELEMENTE
100
AcDbLine
 62
7
  6
CONTINUOUS
 10
161.9517662942
 20
208.7440855399
 11
161.8059326827
 21
209.0419578448
  0
LINE
  5
35E
100
AcDbEntity
  8
KONSTRUKTIONSELEMENTE
100
AcDbLine
 62
7
  6
CONTINUOUS
 10
164.6590837041
 20
202.4036599591
 11
164.5405463727
 21
202.7760003403
  0
LINE
  5
35F
100
AcDbEntity
  8
KONSTRUKTIONSELEMENTE
100
AcDbLine
 62
7
  6
CONTINUOUS
 10
164.3627396973
 20
202.3291917786
 11
164.3034703533
 21
202.5525961116
  0
LINE
  5
360
100
AcDbEntity
  8
KONSTRUKTIONSELEMENTE
100
AcDbLine
 62
7
  6
CONTINUOUS
 10
164.5405463727
 20
203.7440855399
 11
164.4812770287
 21
203.9674897686
  0
LINE
  5
361
100
AcDbEntity
  8
BEZUGSACHSEN
100
AcDbLine
 62
2
  6
CENTER
 10
167.5455162942
 20
162.5632343784
 11
167.5455162942
 21
158.0632343784
  0
LINE
  5
362
100
AcDbEntity
  8
BEZUGSACHSEN
100
AcDbLine
 62
2
  6
CENTER
 10
167.5455162942
 20
162.5632343784
 11
167.5455162942
 21
167.0632343784
  0
LINE
  5
363
100
AcDbEntity
  8
KONSTRUKTIONSELEMENTE
100
AcDbLine
 62
7
  6
CONTINUOUS
 10
161.5142662942
 20
209.3398301497
 11
161.2225999057
 21
209.4887663022
  0
LINE
  5
364
100
AcDbEntity
  8
KONSTRUKTIONSELEMENTE
100
AcDbLine
 62
7
  6
CONTINUOUS
 10
171.553847314
 20
239.5632343784
 11
171.553847314
 21
231.5632343784
  0
LINE
  5
365
100
AcDbEntity
  8
KONSTRUKTIONSELEMENTE
100
AcDbLine
 62
7
  6
CONTINUOUS
 10
171.553847314
 20
160.0632343784
 11
171.553847314
 21
168.0632343784
  0
LINE
  5
366
100
AcDbEntity
  8
KONSTRUKTIONSELEMENTE
100
AcDbLine
 62
7
  6
CONTINUOUS
 10
173.2787168249
 20
229.7756039895
 11
173.2787168249
 21
221.5632343784
  0
LINE
  5
367
100
AcDbEntity
  8
KONSTRUKTIONSELEMENTE
100
AcDbLine
 62
7
  6
CONTINUOUS
 10
173.2787168249
 20
169.8508647673
 11
173.2787168249
 21
178.0632343784
  0
LINE
  5
368
100
AcDbEntity
  8
BEZUGSACHSEN
100
AcDbLine
 62
7
  6
CONTINUOUS
 10
173.5455162942
 20
190.5632343784
 11
173.5455162942
 21
193.5632343784
  0
LINE
  5
369
100
AcDbEntity
  8
KONSTRUKTIONSELEMENTE
100
AcDbLine
 62
7
  6
CONTINUOUS
 10
144.8836125045
 20
215.5632343784
 11
168.2074200839
 21
215.5632343784
  0
LINE
  5
36A
100
AcDbEntity
  8
BEZUGSACHSEN
100
AcDbLine
 62
7
  6
CONTINUOUS
 10
174.0455162942
 20
242.5632343784
 11
174.0455162942
 21
241.3130868172
  0
LINE
  5
36B
100
AcDbEntity
  8
BEZUGSACHSEN
100
AcDbLine
 62
7
  6
CONTINUOUS
 10
174.0455162942
 20
233.8133803057
 11
174.0455162942
 21
231.5632343784
  0
LINE
  5
36C
100
AcDbEntity
  8
BEZUGSACHSEN
100
AcDbLine
 62
7
  6
CONTINUOUS
 10
174.0455162942
 20
157.0632343784
 11
174.0455162942
 21
158.3134113165
  0
LINE
  5
36D
100
AcDbEntity
  8
BEZUGSACHSEN
100
AcDbLine
 62
7
  6
CONTINUOUS
 10
174.0455162942
 20
165.8130358949
 11
174.0455162942
 21
168.0632343784
  0
LINE
  5
36E
100
AcDbEntity
  8
BEZUGSACHSEN
100
AcDbLine
 62
7
  6
CONTINUOUS
 10
175.5455162942
 20
229.7756039895
 11
175.5455162942
 21
193.5632343784
  0
LINE
  5
36F
100
AcDbEntity
  8
BEZUGSACHSEN
100
AcDbLine
 62
7
  6
CONTINUOUS
 10
175.5455162942
 20
169.8508647673
 11
175.5455162942
 21
190.5632343784
  0
LINE
  5
370
100
AcDbEntity
  8
KONSTRUKTIONSELEMENTE
100
AcDbLine
 62
9
  6
CONTINUOUS
 10
173.2787168249
 20
221.5632343784
 11
164.2914829866
 21
221.5632343784
  0
LINE
  5
371
100
AcDbEntity
  8
KONSTRUKTIONSELEMENTE
100
AcDbLine
 62
9
  6
CONTINUOUS
 10
148.7995496018
 20
221.5632343784
 11
139.8123157635
 21
221.5632343784
  0
LINE
  5
372
100
AcDbEntity
  8
KONSTRUKTIONSELEMENTE
100
AcDbLine
 62
7
  6
CONTINUOUS
 10
175.5455162942
 20
229.7756039895
 11
173.2787168249
 21
229.7756039895
  0
LINE
  5
373
100
AcDbEntity
  8
KONSTRUKTIONSELEMENTE
100
AcDbLine
 62
7
  6
CONTINUOUS
 10
139.8123157635
 20
229.7756039895
 11
137.5455162942
 21
229.7756039895
  0
LINE
  5
374
100
AcDbEntity
  8
BEZUGSACHSEN
100
AcDbLine
 62
7
  6
CONTINUOUS
 10
174.0455162942
 20
168.0632343784
 11
175.5455162942
 21
169.8508647673
  0
LINE
  5
375
100
AcDbEntity
  8
KONSTRUKTIONSELEMENTE
100
AcDbLine
 62
7
  6
CONTINUOUS
 10
174.0455162942
 20
231.5632343784
 11
171.553847314
 21
231.5632343784
  0
LINE
  5
376
100
AcDbEntity
  8
KONSTRUKTIONSELEMENTE
100
AcDbLine
 62
7
  6
CONTINUOUS
 10
141.5371852744
 20
231.5632343784
 11
139.0455162942
 21
231.5632343784
  0
LINE
  5
377
100
AcDbEntity
  8
BEZUGSACHSEN
100
AcDbLine
 62
7
  6
CONTINUOUS
 10
153.0455162942
 20
233.8132343784
 11
160.0455162942
 21
233.8132343784
  0
LINE
  5
378
100
AcDbEntity
  8
BEZUGSACHSEN
100
AcDbLine
 62
7
  6
CONTINUOUS
 10
174.0455162942
 20
231.5632343784
 11
175.5455162942
 21
229.7756039895
  0
LINE
  5
379
100
AcDbEntity
  8
BEZUGSACHSEN
100
AcDbLine
 62
2
  6
CENTER
 10
145.5455162942
 20
237.0632343784
 11
137.1786337528
 21
237.0632343784
  0
LINE
  5
37A
100
AcDbEntity
  8
BEZUGSACHSEN
100
AcDbLine
 62
2
  6
CENTER
 10
145.5455162942
 20
237.0632343784
 11
175.0327675548
 21
237.0632343784
  0
LINE
  5
37B
100
AcDbEntity
  8
KONSTRUKTIONSELEMENTE
100
AcDbLine
 62
7
  6
CONTINUOUS
 10
171.553847314
 20
239.5632343784
 11
160.0455162942
 21
239.5632343784
  0
LINE
  5
37C
100
AcDbEntity
  8
KONSTRUKTIONSELEMENTE
100
AcDbLine
 62
7
  6
CONTINUOUS
 10
153.0455162942
 20
239.5632343784
 11
141.5371852744
 21
239.5632343784
  0
LINE
  5
37D
100
AcDbEntity
  8
BEZUGSACHSEN
100
AcDbLine
 62
7
  6
CONTINUOUS
 10
170.6891288117
 20
153.0632475381
 11
174.0455162942
 21
157.0632343784
  0
LINE
  5
37E
100
AcDbEntity
  8
BEZUGSACHSEN
100
AcDbLine
 62
7
  6
CONTINUOUS
 10
153.0455162942
 20
241.3132343784
 11
160.0455162942
 21
241.3132343784
  0
LINE
  5
37F
100
AcDbEntity
  8
KONSTRUKTIONSELEMENTE
100
AcDbLine
 62
9
  6
CONTINUOUS
 10
172.0303330114
 20
241.3749988994
 11
160.0455162942
 21
241.3749990843
  0
LINE
  5
380
100
AcDbEntity
  8
KONSTRUKTIONSELEMENTE
100
AcDbLine
 62
9
  6
CONTINUOUS
 10
153.0455162942
 20
241.3749990843
 11
141.0606995836
 21
241.3749988706
  0
LINE
  5
381
100
AcDbEntity
  8
KONSTRUKTIONSELEMENTE
100
AcDbLine
 62
7
  6
CONTINUOUS
 10
174.0455162942
 20
242.5632343784
 11
172.3648083137
 21
242.5632343784
  0
LINE
  5
382
100
AcDbEntity
  8
KONSTRUKTIONSELEMENTE
100
AcDbLine
 62
7
  6
CONTINUOUS
 10
140.7262242746
 20
242.5632343784
 11
139.0455162942
 21
242.5632343784
  0
LINE
  5
383
100
AcDbEntity
  8
BEZUGSACHSEN
100
AcDbLine
 62
7
  6
CONTINUOUS
 10
170.7126586833
 20
246.5351794098
 11
174.0455162942
 21
242.5632343784
  0
LINE
  5
384
100
AcDbEntity
  8
KONSTRUKTIONSELEMENTE
100
AcDbLine
 62
7
  6
CONTINUOUS
 10
142.3961799565
 20
246.5632343784
 11
153.0455162942
 21
246.5632343784
  0
LINE
  5
385
100
AcDbEntity
  8
KONSTRUKTIONSELEMENTE
100
AcDbLine
 62
7
  6
CONTINUOUS
 10
160.0455162942
 20
246.5632343784
 11
170.6948527139
 21
246.5632343784
  0
LINE
  5
386
100
AcDbEntity
  8
KONSTRUKTIONSELEMENTE
100
AcDbLine
 62
7
  6
CONTINUOUS
 10
254.6145952042
 20
157.0632343784
 11
269.5812247513
 21
157.0632343784
  0
LINE
  5
387
100
AcDbEntity
  8
BEZUGSACHSEN
100
AcDbLine
 62
2
  6
CENTER
 10
262.0979099778
 20
162.0632343784
 11
255.3479099778
 21
162.0632343784
  0
LINE
  5
388
100
AcDbEntity
  8
BEZUGSACHSEN
100
AcDbLine
 62
2
  6
CENTER
 10
262.0979099778
 20
162.0632343784
 11
268.8479099778
 21
162.0632343784
  0
LINE
  5
389
100
AcDbEntity
  8
KONSTRUKTIONSELEMENTE
100
AcDbLine
 62
7
  6
CONTINUOUS
 10
253.0979099778
 20
168.0632343784
 11
271.0979099778
 21
168.0632343784
  0
LINE
  5
38A
100
AcDbEntity
  8
KONSTRUKTIONSELEMENTE
100
AcDbLine
 62
7
  6
CONTINUOUS
 10
253.0979099778
 20
169.8508647673
 11
271.0979099778
 21
169.8508647673
  0
LINE
  5
38B
100
AcDbEntity
  8
KONSTRUKTIONSELEMENTE
100
AcDbLine
 62
7
  6
CONTINUOUS
 10
253.9449688013
 20
241.3749990843
 11
253.0979099778
 21
239.5632343784
  0
LINE
  5
38C
100
AcDbEntity
  8
KONSTRUKTIONSELEMENTE
100
AcDbLine
 62
7
  6
CONTINUOUS
 10
253.0979099778
 20
160.0632343784
 11
253.9449688013
 21
158.2514696725
  0
LINE
  5
38D
100
AcDbEntity
  8
BEZUGSACHSEN
100
AcDbLine
 62
7
  6
CONTINUOUS
 10
243.0979099778
 20
215.5632343784
 11
243.0979099778
 21
193.5632343784
  0
LINE
  5
38E
100
AcDbEntity
  8
BEZUGSACHSEN
100
AcDbLine
 62
7
  6
CONTINUOUS
 10
243.0979099778
 20
184.0632343784
 11
243.0979099778
 21
190.5632343784
  0
LINE
  5
38F
100
AcDbEntity
  8
BEZUGSACHSEN
100
AcDbLine
 62
7
  6
CONTINUOUS
 10
245.0979099778
 20
190.5632343784
 11
245.0979099778
 21
193.5632343784
  0
LINE
  5
390
100
AcDbEntity
  8
KONSTRUKTIONSELEMENTE
100
AcDbLine
 62
7
  6
CONTINUOUS
 10
281.0979099778
 20
184.0632343784
 11
277.0979099778
 21
184.0632343784
  0
LINE
  5
391
100
AcDbEntity
  8
KONSTRUKTIONSELEMENTE
100
AcDbLine
 62
7
  6
CONTINUOUS
 10
247.0979099778
 20
184.0632343784
 11
243.0979099778
 21
184.0632343784
  0
LINE
  5
392
100
AcDbEntity
  8
KONSTRUKTIONSELEMENTE
100
AcDbLine
 62
7
  6
CONTINUOUS
 10
253.0979099778
 20
160.0632343784
 11
253.0979099778
 21
178.0632343784
  0
LINE
  5
393
100
AcDbEntity
  8
KONSTRUKTIONSELEMENTE
100
AcDbLine
 62
7
  6
CONTINUOUS
 10
253.0979099778
 20
221.5632343784
 11
253.0979099778
 21
239.5632343784
  0
LINE
  5
394
100
AcDbEntity
  8
BEZUGSACHSEN
100
AcDbLine
 62
7
  6
CONTINUOUS
 10
243.0979099778
 20
190.5632343784
 11
281.0979099778
 21
190.5632343784
  0
LINE
  5
395
100
AcDbEntity
  8
BEZUGSACHSEN
100
AcDbLine
 62
7
  6
CONTINUOUS
 10
243.098427862
 20
193.5632343784
 11
281.0973920936
 21
193.5632343784
  0
LINE
  5
396
100
AcDbEntity
  8
KONSTRUKTIONSELEMENTE
100
AcDbLine
 62
7
  6
CONTINUOUS
 10
280.8882772418
 20
195.6164258689
 11
281.9387334767
 21
195.6164258689
  0
LINE
  5
397
100
AcDbEntity
  8
KONSTRUKTIONSELEMENTE
100
AcDbLine
 62
7
  6
CONTINUOUS
 10
280.7451201163
 20
196.0632343784
 11
281.8256561793
 21
196.0632343784
  0
LINE
  5
398
100
AcDbEntity
  8
KONSTRUKTIONSELEMENTE
100
AcDbLine
 62
7
  6
CONTINUOUS
 10
281.9623605635
 20
196.0632343784
 11
282.0819243889
 21
196.0632343784
  0
LINE
  5
399
100
AcDbEntity
  8
KONSTRUKTIONSELEMENTE
100
AcDbLine
 62
7
  6
CONTINUOUS
 10
281.9660967575
 20
196.1377024612
 11
282.0678666464
 21
196.1377024612
  0
LINE
  5
39A
100
AcDbEntity
  8
KONSTRUKTIONSELEMENTE
100
AcDbLine
 62
7
  6
CONTINUOUS
 10
281.9806382274
 20
196.3611067094
 11
282.0493977995
 21
196.3611067094
  0
LINE
  5
39B
100
AcDbEntity
  8
KONSTRUKTIONSELEMENTE
100
AcDbLine
 62
7
  6
CONTINUOUS
 10
282.0929839346
 20
196.4355748117
 11
282.0819243889
 21
196.4355748117
  0
LINE
  5
39C
100
AcDbEntity
  8
KONSTRUKTIONSELEMENTE
100
AcDbLine
 62
7
  6
CONTINUOUS
 10
281.8256561793
 20
196.4355748117
 11
281.9806382274
 21
196.4355748117
  0
LINE
  5
39D
100
AcDbEntity
  8
KONSTRUKTIONSELEMENTE
100
AcDbLine
 62
7
  6
CONTINUOUS
 10
282.0710307316
 20
196.5100428879
 11
282.0968408882
 21
196.5100428879
  0
LINE
  5
39E
100
AcDbEntity
  8
KONSTRUKTIONSELEMENTE
100
AcDbLine
 62
7
  6
CONTINUOUS
 10
282.0610090574
 20
196.6589790404
 11
282.0978889758
 21
196.6589790404
  0
LINE
  5
39F
100
AcDbEntity
  8
KONSTRUKTIONSELEMENTE
100
AcDbLine
 62
7
  6
CONTINUOUS
 10
281.8256561793
 20
196.6589790404
 11
282.0361941895
 21
196.6589790404
  0
LINE
  5
3A0
100
AcDbEntity
  8
BEZUGSACHSEN
100
AcDbLine
 62
2
  6
CENTER
 10
262.0979099778
 20
237.5632343784
 11
262.0979099778
 21
152.5884632665
  0
LINE
  5
3A1
100
AcDbEntity
  8
BEZUGSACHSEN
100
AcDbLine
 62
2
  6
CENTER
 10
262.0979099778
 20
237.5632343784
 11
262.0979099778
 21
248.2753014882
  0
LINE
  5
3A2
100
AcDbEntity
  8
KONSTRUKTIONSELEMENTE
100
AcDbLine
 62
7
  6
CONTINUOUS
 10
282.0534449979
 20
196.8823833212
 11
282.0977094809
 21
196.8823833212
  0
LINE
  5
3A3
100
AcDbEntity
  8
KONSTRUKTIONSELEMENTE
100
AcDbLine
 62
7
  6
CONTINUOUS
 10
281.8256561793
 20
196.9568513975
 11
282.0534449979
 21
196.9568513975
  0
LINE
  5
3A4
100
AcDbEntity
  8
KONSTRUKTIONSELEMENTE
100
AcDbLine
 62
7
  6
CONTINUOUS
 10
281.8256561793
 20
197.1057875499
 11
282.0973562664
 21
197.1057875499
  0
LINE
  5
3A5
100
AcDbEntity
  8
KONSTRUKTIONSELEMENTE
100
AcDbLine
 62
7
  6
CONTINUOUS
 10
281.8256561793
 20
197.2547237024
 11
282.0973562664
 21
197.2547237024
  0
LINE
  5
3A6
100
AcDbEntity
  8
KONSTRUKTIONSELEMENTE
100
AcDbLine
 62
7
  6
CONTINUOUS
 10
281.8256561793
 20
197.4781280354
 11
282.0977094809
 21
197.4781280354
  0
LINE
  5
3A7
100
AcDbEntity
  8
KONSTRUKTIONSELEMENTE
100
AcDbLine
 62
7
  6
CONTINUOUS
 10
281.8256561793
 20
197.6270641878
 11
282.0573153795
 21
197.6270641878
  0
LINE
  5
3A8
100
AcDbEntity
  8
KONSTRUKTIONSELEMENTE
100
AcDbLine
 62
7
  6
CONTINUOUS
 10
282.0573153795
 20
197.7015322641
 11
282.0978889758
 21
197.7015322641
  0
LINE
  5
3A9
100
AcDbEntity
  8
KONSTRUKTIONSELEMENTE
100
AcDbLine
 62
7
  6
CONTINUOUS
 10
282.0710307316
 20
197.8504684165
 11
282.0968408882
 21
197.8504684165
  0
LINE
  5
3AA
100
AcDbEntity
  8
KONSTRUKTIONSELEMENTE
100
AcDbLine
 62
7
  6
CONTINUOUS
 10
282.0929839346
 20
197.9249364927
 11
282.0819243889
 21
197.9249364927
  0
LINE
  5
3AB
100
AcDbEntity
  8
KONSTRUKTIONSELEMENTE
100
AcDbLine
 62
7
  6
CONTINUOUS
 10
282.0493977995
 20
198.2228087977
 11
282.0678666464
 21
198.2228087977
  0
LINE
  5
3AC
100
AcDbEntity
  8
KONSTRUKTIONSELEMENTE
100
AcDbLine
 62
7
  6
CONTINUOUS
 10
282.0493977995
 20
198.2972768739
 11
282.0819243889
 21
198.2972768739
  0
LINE
  5
3AD
100
AcDbEntity
  8
KONSTRUKTIONSELEMENTE
100
AcDbLine
 62
7
  6
CONTINUOUS
 10
280.6720855988
 20
198.4462130264
 11
281.6938279201
 21
198.4462130264
  0
LINE
  5
3AE
100
AcDbEntity
  8
KONSTRUKTIONSELEMENTE
100
AcDbLine
 62
7
  6
CONTINUOUS
 10
282.0493977995
 20
198.4462130264
 11
282.0767701702
 21
198.4462130264
  0
LINE
  5
3AF
100
AcDbEntity
  8
KONSTRUKTIONSELEMENTE
100
AcDbLine
 62
7
  6
CONTINUOUS
 10
280.6720855988
 20
199.0419578448
 11
281.6938279201
 21
199.0419578448
  0
LINE
  5
3B0
100
AcDbEntity
  8
KONSTRUKTIONSELEMENTE
100
AcDbLine
 62
7
  6
CONTINUOUS
 10
282.0979079999
 20
199.1908939973
 11
282.0493977995
 21
199.1908939973
  0
LINE
  5
3B1
100
AcDbEntity
  8
KONSTRUKTIONSELEMENTE
100
AcDbLine
 62
7
  6
CONTINUOUS
 10
280.7451201163
 20
199.5632343784
 11
282.0979060446
 21
199.5632343784
  0
LINE
  5
3B2
100
AcDbEntity
  8
KONSTRUKTIONSELEMENTE
100
AcDbLine
 62
7
  6
CONTINUOUS
 10
279.7614317105
 20
201.0632343784
 11
282.0893109664
 21
201.0632343784
  0
LINE
  5
3B3
100
AcDbEntity
  8
KONSTRUKTIONSELEMENTE
100
AcDbLine
 62
7
  6
CONTINUOUS
 10
281.6984505814
 20
202.3291917786
 11
282.0804284736
 21
202.3291917786
  0
LINE
  5
3B4
100
AcDbEntity
  8
KONSTRUKTIONSELEMENTE
100
AcDbLine
 62
7
  6
CONTINUOUS
 10
281.8850093451
 20
202.6270641878
 11
281.6984505814
 21
202.6270641878
  0
LINE
  5
3B5
100
AcDbEntity
  8
KONSTRUKTIONSELEMENTE
100
AcDbLine
 62
7
  6
CONTINUOUS
 10
281.304444646
 20
202.6270641878
 11
280.9619531832
 21
202.6270641878
  0
LINE
  5
3B6
100
AcDbEntity
  8
KONSTRUKTIONSELEMENTE
100
AcDbLine
 62
7
  6
CONTINUOUS
 10
281.9263357879
 20
202.7015322641
 11
282.0804284736
 21
202.7015322641
  0
LINE
  5
3B7
100
AcDbEntity
  8
KONSTRUKTIONSELEMENTE
100
AcDbLine
 62
7
  6
CONTINUOUS
 10
281.8936364633
 20
203.0738726452
 11
281.6984505814
 21
203.0738726452
  0
LINE
  5
3B8
100
AcDbEntity
  8
KONSTRUKTIONSELEMENTE
100
AcDbLine
 62
7
  6
CONTINUOUS
 10
281.3215571486
 20
203.0738726452
 11
280.9619531832
 21
203.0738726452
  0
LINE
  5
3B9
100
AcDbEntity
  8
KONSTRUKTIONSELEMENTE
100
AcDbLine
 62
7
  6
CONTINUOUS
 10
280.9619531832
 20
203.1483407214
 11
281.3717100333
 21
203.1483407214
  0
LINE
  5
3BA
100
AcDbEntity
  8
KONSTRUKTIONSELEMENTE
100
AcDbLine
 62
7
  6
CONTINUOUS
 10
281.6984505814
 20
203.1483407214
 11
281.9184318843
 21
203.1483407214
  0
LINE
  5
3BB
100
AcDbEntity
  8
KONSTRUKTIONSELEMENTE
100
AcDbLine
 62
7
  6
CONTINUOUS
 10
280.9619531832
 20
203.2972768739
 11
281.4041631921
 21
203.2972768739
  0
LINE
  5
3BC
100
AcDbEntity
  8
KONSTRUKTIONSELEMENTE
100
AcDbLine
 62
7
  6
CONTINUOUS
 10
281.6984505814
 20
203.2972768739
 11
281.9340594972
 21
203.2972768739
  0
LINE
  5
3BD
100
AcDbEntity
  8
KONSTRUKTIONSELEMENTE
100
AcDbLine
 62
7
  6
CONTINUOUS
 10
280.9619531832
 20
203.5206811026
 11
281.4200966083
 21
203.5206811026
  0
LINE
  5
3BE
100
AcDbEntity
  8
KONSTRUKTIONSELEMENTE
100
AcDbLine
 62
7
  6
CONTINUOUS
 10
281.6984505814
 20
203.5206811026
 11
281.9416031767
 21
203.5206811026
  0
LINE
  5
3BF
100
AcDbEntity
  8
KONSTRUKTIONSELEMENTE
100
AcDbLine
 62
7
  6
CONTINUOUS
 10
280.9619531832
 20
203.7440855399
 11
281.4200966083
 21
203.7440855399
  0
LINE
  5
3C0
100
AcDbEntity
  8
KONSTRUKTIONSELEMENTE
100
AcDbLine
 62
7
  6
CONTINUOUS
 10
281.6984505814
 20
203.7440855399
 11
281.9416031767
 21
203.7440855399
  0
LINE
  5
3C1
100
AcDbEntity
  8
KONSTRUKTIONSELEMENTE
100
AcDbLine
 62
7
  6
CONTINUOUS
 10
280.9619531832
 20
203.9674897686
 11
281.4041631921
 21
203.9674897686
  0
LINE
  5
3C2
100
AcDbEntity
  8
KONSTRUKTIONSELEMENTE
100
AcDbLine
 62
7
  6
CONTINUOUS
 10
281.6984505814
 20
203.9674897686
 11
281.9340594972
 21
203.9674897686
  0
LINE
  5
3C3
100
AcDbEntity
  8
KONSTRUKTIONSELEMENTE
100
AcDbLine
 62
7
  6
CONTINUOUS
 10
280.9619531832
 20
204.116425921
 11
281.3717100333
 21
204.116425921
  0
LINE
  5
3C4
100
AcDbEntity
  8
KONSTRUKTIONSELEMENTE
100
AcDbLine
 62
7
  6
CONTINUOUS
 10
281.6984505814
 20
204.116425921
 11
281.9184318843
 21
204.116425921
  0
LINE
  5
3C5
100
AcDbEntity
  8
KONSTRUKTIONSELEMENTE
100
AcDbLine
 62
7
  6
CONTINUOUS
 10
281.8936364633
 20
204.1908939973
 11
281.6984505814
 21
204.1908939973
  0
LINE
  5
3C6
100
AcDbEntity
  8
KONSTRUKTIONSELEMENTE
100
AcDbLine
 62
7
  6
CONTINUOUS
 10
281.3215571486
 20
204.1908939973
 11
280.9619531832
 21
204.1908939973
  0
LINE
  5
3C7
100
AcDbEntity
  8
KONSTRUKTIONSELEMENTE
100
AcDbLine
 62
7
  6
CONTINUOUS
 10
279.7614317105
 20
204.5632343784
 11
282.0946357028
 21
204.5632343784
  0
LINE
  5
3C8
100
AcDbEntity
  8
KONSTRUKTIONSELEMENTE
100
AcDbLine
 62
7
  6
CONTINUOUS
 10
280.6720855988
 20
206.0632343784
 11
282.0911271472
 21
206.0632343784
  0
LINE
  5
3C9
100
AcDbEntity
  8
KONSTRUKTIONSELEMENTE
100
AcDbLine
 62
7
  6
CONTINUOUS
 10
282.0601029805
 20
206.1377024612
 11
282.0972996169
 21
206.1377024612
  0
LINE
  5
3CA
100
AcDbEntity
  8
KONSTRUKTIONSELEMENTE
100
AcDbLine
 62
7
  6
CONTINUOUS
 10
282.0544782468
 20
206.2866386332
 11
282.0974515298
 21
206.2866386332
  0
LINE
  5
3CB
100
AcDbEntity
  8
KONSTRUKTIONSELEMENTE
100
AcDbLine
 62
7
  6
CONTINUOUS
 10
282.0466857479
 20
206.5845109642
 11
282.0933494565
 21
206.5845109642
  0
LINE
  5
3CC
100
AcDbEntity
  8
KONSTRUKTIONSELEMENTE
100
AcDbLine
 62
7
  6
CONTINUOUS
 10
282.03824297
 20
206.8823833212
 11
282.089702458
 21
206.8823833212
  0
LINE
  5
3CD
100
AcDbEntity
  8
KONSTRUKTIONSELEMENTE
100
AcDbLine
 62
7
  6
CONTINUOUS
 10
271.0979099778
 20
239.5632343784
 11
271.0979099778
 21
221.5632343784
  0
LINE
  5
3CE
100
AcDbEntity
  8
KONSTRUKTIONSELEMENTE
100
AcDbLine
 62
7
  6
CONTINUOUS
 10
271.0979099778
 20
160.0632343784
 11
271.0979099778
 21
178.0632343784
  0
LINE
  5
3CF
100
AcDbEntity
  8
KONSTRUKTIONSELEMENTE
100
AcDbLine
 62
7
  6
CONTINUOUS
 10
282.0266290227
 20
207.2547237024
 11
282.0874797384
 21
207.2547237024
  0
LINE
  5
3D0
100
AcDbEntity
  8
KONSTRUKTIONSELEMENTE
100
AcDbLine
 62
7
  6
CONTINUOUS
 10
281.9625533926
 20
207.6270641878
 11
281.7780673387
 21
207.6270641878
  0
LINE
  5
3D1
100
AcDbEntity
  8
KONSTRUKTIONSELEMENTE
100
AcDbLine
 62
7
  6
CONTINUOUS
 10
281.9790645684
 20
208.0738726452
 11
281.7780673387
 21
208.0738726452
  0
LINE
  5
3D2
100
AcDbEntity
  8
KONSTRUKTIONSELEMENTE
100
AcDbLine
 62
7
  6
CONTINUOUS
 10
281.7780673387
 20
208.1483407214
 11
282.0018023178
 21
208.1483407214
  0
LINE
  5
3D3
100
AcDbEntity
  8
KONSTRUKTIONSELEMENTE
100
AcDbLine
 62
7
  6
CONTINUOUS
 10
281.7780673387
 20
208.2972768739
 11
282.0156117466
 21
208.2972768739
  0
LINE
  5
3D4
100
AcDbEntity
  8
KONSTRUKTIONSELEMENTE
100
AcDbLine
 62
7
  6
CONTINUOUS
 10
281.7780673387
 20
208.5206811026
 11
282.0221125863
 21
208.5206811026
  0
LINE
  5
3D5
100
AcDbEntity
  8
KONSTRUKTIONSELEMENTE
100
AcDbLine
 62
7
  6
CONTINUOUS
 10
281.7780673387
 20
208.7440855399
 11
282.0221125863
 21
208.7440855399
  0
LINE
  5
3D6
100
AcDbEntity
  8
KONSTRUKTIONSELEMENTE
100
AcDbLine
 62
7
  6
CONTINUOUS
 10
281.7780673387
 20
208.9674897686
 11
282.0156117466
 21
208.9674897686
  0
LINE
  5
3D7
100
AcDbEntity
  8
KONSTRUKTIONSELEMENTE
100
AcDbLine
 62
7
  6
CONTINUOUS
 10
281.7780673387
 20
209.116425921
 11
282.0018023178
 21
209.116425921
  0
LINE
  5
3D8
100
AcDbEntity
  8
KONSTRUKTIONSELEMENTE
100
AcDbLine
 62
7
  6
CONTINUOUS
 10
281.9790645684
 20
209.1908939973
 11
281.7780673387
 21
209.1908939973
  0
LINE
  5
3D9
100
AcDbEntity
  8
KONSTRUKTIONSELEMENTE
100
AcDbLine
 62
7
  6
CONTINUOUS
 10
280.6720855988
 20
209.5632343784
 11
282.0874797384
 21
209.5632343784
  0
LINE
  5
3DA
100
AcDbEntity
  8
BEZUGSACHSEN
100
AcDbLine
 62
7
  6
CONTINUOUS
 10
279.0979099778
 20
190.5632343784
 11
279.0979099778
 21
193.5632343784
  0
LINE
  5
3DB
100
AcDbEntity
  8
KONSTRUKTIONSELEMENTE
100
AcDbLine
 62
7
  6
CONTINUOUS
 10
279.7614317105
 20
204.5632343784
 11
279.7614317105
 21
201.0632343784
  0
LINE
  5
3DC
100
AcDbEntity
  8
KONSTRUKTIONSELEMENTE
100
AcDbLine
 62
7
  6
CONTINUOUS
 10
243.0979099778
 20
215.5632343784
 11
247.0979099778
 21
215.5632343784
  0
LINE
  5
3DD
100
AcDbEntity
  8
KONSTRUKTIONSELEMENTE
100
AcDbLine
 62
7
  6
CONTINUOUS
 10
277.0979099778
 20
215.5632343784
 11
281.0979099778
 21
215.5632343784
  0
LINE
  5
3DE
100
AcDbEntity
  8
KONSTRUKTIONSELEMENTE
100
AcDbLine
 62
7
  6
CONTINUOUS
 10
282.0979099777
 20
197.6469066861
 11
282.0978889758
 21
197.7015322641
  0
LINE
  5
3DF
100
AcDbEntity
  8
KONSTRUKTIONSELEMENTE
100
AcDbLine
 62
7
  6
CONTINUOUS
 10
280.6720855988
 20
209.5632343784
 11
280.6720855988
 21
206.0632343784
  0
LINE
  5
3E0
100
AcDbEntity
  8
KONSTRUKTIONSELEMENTE
100
AcDbLine
 62
7
  6
CONTINUOUS
 10
280.6720855988
 20
198.4462130264
 11
280.6720855988
 21
199.0419578448
  0
LINE
  5
3E1
100
AcDbEntity
  8
KONSTRUKTIONSELEMENTE
100
AcDbLine
 62
7
  6
CONTINUOUS
 10
280.7451201163
 20
196.0632343784
 11
280.7451201163
 21
198.4462130264
  0
LINE
  5
3E2
100
AcDbEntity
  8
KONSTRUKTIONSELEMENTE
100
AcDbLine
 62
7
  6
CONTINUOUS
 10
280.832903973
 20
204.5632343784
 11
280.832903973
 21
201.0632343784
  0
LINE
  5
3E3
100
AcDbEntity
  8
KONSTRUKTIONSELEMENTE
100
AcDbLine
 62
7
  6
CONTINUOUS
 10
280.9619531832
 20
204.1908939973
 11
280.9619531832
 21
203.0738726452
  0
LINE
  5
3E4
100
AcDbEntity
  8
KONSTRUKTIONSELEMENTE
100
AcDbLine
 62
7
  6
CONTINUOUS
 10
280.9619531832
 20
202.6270641878
 11
280.9619531832
 21
201.0632343784
  0
LINE
  5
3E5
100
AcDbEntity
  8
BEZUGSACHSEN
100
AcDbLine
 62
7
  6
CONTINUOUS
 10
281.0979099778
 20
215.5632343784
 11
281.0979099778
 21
209.5632343784
  0
LINE
  5
3E6
100
AcDbEntity
  8
BEZUGSACHSEN
100
AcDbLine
 62
7
  6
CONTINUOUS
 10
281.0979099778
 20
206.0632343784
 11
281.0979099778
 21
204.5632343784
  0
LINE
  5
3E7
100
AcDbEntity
  8
BEZUGSACHSEN
100
AcDbLine
 62
7
  6
CONTINUOUS
 10
281.0979099778
 20
201.0632343784
 11
281.0979099778
 21
199.5632343784
  0
LINE
  5
3E8
100
AcDbEntity
  8
BEZUGSACHSEN
100
AcDbLine
 62
7
  6
CONTINUOUS
 10
281.0979099778
 20
195.6164258689
 11
281.0979099778
 21
193.5632343784
  0
LINE
  5
3E9
100
AcDbEntity
  8
BEZUGSACHSEN
100
AcDbLine
 62
7
  6
CONTINUOUS
 10
281.0979099778
 20
184.0632343784
 11
281.0979099778
 21
190.5632343784
  0
LINE
  5
3EA
100
AcDbEntity
  8
KONSTRUKTIONSELEMENTE
100
AcDbLine
 62
7
  6
CONTINUOUS
 10
281.4200966083
 20
203.7440855399
 11
281.4200966083
 21
203.5206811026
  0
LINE
  5
3EB
100
AcDbEntity
  8
KONSTRUKTIONSELEMENTE
100
AcDbLine
 62
7
  6
CONTINUOUS
 10
281.5116231751
 20
203.7440855399
 11
281.5116231751
 21
203.4462130264
  0
LINE
  5
3EC
100
AcDbEntity
  8
KONSTRUKTIONSELEMENTE
100
AcDbLine
 62
7
  6
CONTINUOUS
 10
281.6229190361
 20
204.5632343784
 11
281.6229190361
 21
201.0632343784
  0
LINE
  5
3ED
100
AcDbEntity
  8
KONSTRUKTIONSELEMENTE
100
AcDbLine
 62
7
  6
CONTINUOUS
 10
281.6938279201
 20
209.5632343784
 11
281.6938279201
 21
206.0632343784
  0
LINE
  5
3EE
100
AcDbEntity
  8
KONSTRUKTIONSELEMENTE
100
AcDbLine
 62
7
  6
CONTINUOUS
 10
281.6938279201
 20
198.4462130264
 11
281.6938279201
 21
199.0419578448
  0
LINE
  5
3EF
100
AcDbEntity
  8
KONSTRUKTIONSELEMENTE
100
AcDbLine
 62
7
  6
CONTINUOUS
 10
281.6984505814
 20
204.1908939973
 11
281.6984505814
 21
203.0738726452
  0
LINE
  5
3F0
100
AcDbEntity
  8
KONSTRUKTIONSELEMENTE
100
AcDbLine
 62
7
  6
CONTINUOUS
 10
281.6984505814
 20
202.6270641878
 11
281.6984505814
 21
201.0632343784
  0
LINE
  5
3F1
100
AcDbEntity
  8
KONSTRUKTIONSELEMENTE
100
AcDbLine
 62
7
  6
CONTINUOUS
 10
281.7630681503
 20
196.0632343784
 11
281.7630681503
 21
198.9674897686
  0
LINE
  5
3F2
100
AcDbEntity
  8
KONSTRUKTIONSELEMENTE
100
AcDbLine
 62
7
  6
CONTINUOUS
 10
281.7780673387
 20
209.1908939973
 11
281.7780673387
 21
208.0738726452
  0
LINE
  5
3F3
100
AcDbEntity
  8
KONSTRUKTIONSELEMENTE
100
AcDbLine
 62
7
  6
CONTINUOUS
 10
281.7780673387
 20
207.6270641878
 11
281.7780673387
 21
206.0632343784
  0
LINE
  5
3F4
100
AcDbEntity
  8
KONSTRUKTIONSELEMENTE
100
AcDbLine
 62
7
  6
CONTINUOUS
 10
281.8256561793
 20
196.0632343784
 11
281.8256561793
 21
199.5632343784
  0
LINE
  5
3F5
100
AcDbEntity
  8
KONSTRUKTIONSELEMENTE
100
AcDbLine
 62
7
  6
CONTINUOUS
 10
281.9416031767
 20
203.7440855399
 11
281.9416031767
 21
203.5206811026
  0
LINE
  5
3F6
100
AcDbEntity
  8
KONSTRUKTIONSELEMENTE
100
AcDbLine
 62
7
  6
CONTINUOUS
 10
281.9830956885
 20
203.7440855399
 11
281.9830956885
 21
203.4462130264
  0
LINE
  5
3F7
100
AcDbEntity
  8
KONSTRUKTIONSELEMENTE
100
AcDbLine
 62
7
  6
CONTINUOUS
 10
282.0221125863
 20
208.7440855399
 11
282.0221125863
 21
208.5206811026
  0
LINE
  5
3F8
100
AcDbEntity
  8
KONSTRUKTIONSELEMENTE
100
AcDbLine
 62
7
  6
CONTINUOUS
 10
282.0265055908
 20
199.5632343784
 11
282.0265055908
 21
197.6270641878
  0
LINE
  5
3F9
100
AcDbEntity
  8
KONSTRUKTIONSELEMENTE
100
AcDbLine
 62
7
  6
CONTINUOUS
 10
282.0284170269
 20
202.7015322641
 11
282.0284170269
 21
202.3291917786
  0
LINE
  5
3FA
100
AcDbEntity
  8
KONSTRUKTIONSELEMENTE
100
AcDbLine
 62
7
  6
CONTINUOUS
 10
282.0493977995
 20
199.1908939973
 11
282.0493977995
 21
197.999404569
  0
LINE
  5
3FB
100
AcDbEntity
  8
KONSTRUKTIONSELEMENTE
100
AcDbLine
 62
7
  6
CONTINUOUS
 10
282.0554794393
 20
208.7440855399
 11
282.0554794393
 21
208.4462130264
  0
LINE
  5
3FC
100
AcDbEntity
  8
KONSTRUKTIONSELEMENTE
100
AcDbLine
 62
7
  6
CONTINUOUS
 10
282.0767701702
 20
198.4462130264
 11
282.0767701702
 21
198.2972768739
  0
LINE
  5
3FD
100
AcDbEntity
  8
KONSTRUKTIONSELEMENTE
100
AcDbLine
 62
7
  6
CONTINUOUS
 10
282.0804284736
 20
202.7015322641
 11
282.0804284736
 21
202.3291917786
  0
LINE
  5
3FE
100
AcDbEntity
  8
KONSTRUKTIONSELEMENTE
100
AcDbLine
 62
7
  6
CONTINUOUS
 10
282.0874797384
 20
209.5632343784
 11
282.0874797384
 21
207.2547237024
  0
LINE
  5
3FF
100
AcDbEntity
  8
KONSTRUKTIONSELEMENTE
100
AcDbLine
 62
7
  6
CONTINUOUS
 10
282.0973562664
 20
197.2547237024
 11
282.0973562664
 21
197.1057875499
  0
LINE
  5
400
100
AcDbEntity
  8
KONSTRUKTIONSELEMENTE
100
AcDbLine
 62
7
  6
CONTINUOUS
 10
282.0979099778
 20
199.5632343784
 11
282.0979099778
 21
199.1908939973
  0
LINE
  5
401
100
AcDbEntity
  8
KONSTRUKTIONSELEMENTE
100
AcDbLine
 62
7
  6
CONTINUOUS
 10
282.0979099778
 20
198.1115968402
 11
282.0979099778
 21
197.9249364927
  0
LINE
  5
402
100
AcDbEntity
  8
KONSTRUKTIONSELEMENTE
100
AcDbLine
 62
7
  6
CONTINUOUS
 10
282.0979099778
 20
196.7136045442
 11
282.0979099778
 21
196.6589790404
  0
LINE
  5
403
100
AcDbEntity
  8
KONSTRUKTIONSELEMENTE
100
AcDbLine
 62
7
  6
CONTINUOUS
 10
282.0979099778
 20
196.4355748117
 11
282.0979099778
 21
196.2489144283
  0
LINE
  5
404
100
AcDbEntity
  8
KONSTRUKTIONSELEMENTE
100
AcDbLine
 62
7
  6
CONTINUOUS
 10
270.2508511543
 20
158.2514696725
 11
271.0979099778
 21
160.0632343784
  0
LINE
  5
405
100
AcDbEntity
  8
KONSTRUKTIONSELEMENTE
100
AcDbLine
 62
7
  6
CONTINUOUS
 10
271.0979099778
 20
239.5632343784
 11
270.2508512542
 21
241.3749988706
  0
LINE
  5
406
100
AcDbEntity
  8
KONSTRUKTIONSELEMENTE
100
AcDbLine
 62
7
  6
CONTINUOUS
 10
253.0979099778
 20
229.7756039895
 11
271.0979099778
 21
229.7756039895
  0
LINE
  5
407
100
AcDbEntity
  8
KONSTRUKTIONSELEMENTE
100
AcDbLine
 62
7
  6
CONTINUOUS
 10
271.0979099778
 20
231.5632343784
 11
253.0979099778
 21
231.5632343784
  0
LINE
  5
408
100
AcDbEntity
  8
BEZUGSACHSEN
100
AcDbLine
 62
2
  6
CENTER
 10
262.0979099778
 20
237.5632343784
 11
255.3479099778
 21
237.5632343784
  0
LINE
  5
409
100
AcDbEntity
  8
BEZUGSACHSEN
100
AcDbLine
 62
2
  6
CENTER
 10
262.0979099778
 20
237.5632343784
 11
268.8479099778
 21
237.5632343784
  0
LINE
  5
40A
100
AcDbEntity
  8
KONSTRUKTIONSELEMENTE
100
AcDbLine
 62
7
  6
CONTINUOUS
 10
269.5812247513
 20
242.5632343784
 11
254.6145952042
 21
242.5632343784
  0
LINE
  5
40B
100
AcDbEntity
  8
KONSTRUKTIONSELEMENTE
100
AcDbLine
 62
9
  6
CONTINUOUS
 10
168.2074200839
 20
77.1711796336
 11
144.8836125045
 21
77.1711796336
  0
LINE
  5
40C
100
AcDbEntity
  8
KONSTRUKTIONSELEMENTE
100
AcDbLine
 62
7
  6
CONTINUOUS
 10
173.2787168249
 20
83.1711796336
 11
160.0455162942
 21
83.1711796336
  0
LINE
  5
40D
100
AcDbEntity
  8
KONSTRUKTIONSELEMENTE
100
AcDbLine
 62
7
  6
CONTINUOUS
 10
153.0455162942
 20
83.1711796336
 11
139.8123157635
 21
83.1711796336
  0
LINE
  5
40E
100
AcDbEntity
  8
KONSTRUKTIONSELEMENTE
100
AcDbLine
 62
9
  6
CONTINUOUS
 10
172.0303330114
 20
84.0182383707
 11
160.0455162942
 21
84.0182384572
  0
LINE
  5
40F
100
AcDbEntity
  8
KONSTRUKTIONSELEMENTE
100
AcDbLine
 62
9
  6
CONTINUOUS
 10
153.0455162942
 20
84.0182384572
 11
141.0606995836
 21
84.0182383572
  0
LINE
  5
410
100
AcDbEntity
  8
KONSTRUKTIONSELEMENTE
100
AcDbLine
 62
7
  6
CONTINUOUS
 10
149.5455162942
 20
74.507657901
 11
149.5455162942
 21
73.4361856384
  0
LINE
  5
411
100
AcDbEntity
  8
KONSTRUKTIONSELEMENTE
100
AcDbLine
 62
7
  6
CONTINUOUS
 10
150.9679696975
 20
74.0082785999
 11
150.9679696975
 21
72.9646449654
  0
LINE
  5
412
100
AcDbEntity
  8
KONSTRUKTIONSELEMENTE
100
AcDbLine
 62
7
  6
CONTINUOUS
 10
151.264314213
 20
73.9199083196
 11
151.264314213
 21
72.8810550986
  0
LINE
  5
413
100
AcDbEntity
  8
KONSTRUKTIONSELEMENTE
100
AcDbLine
 62
7
  6
CONTINUOUS
 10
151.5013897237
 20
73.8529704651
 11
151.5013897237
 21
72.8177099927
  0
LINE
  5
414
100
AcDbEntity
  8
KONSTRUKTIONSELEMENTE
100
AcDbLine
 62
7
  6
CONTINUOUS
 10
151.6791963991
 20
73.8049353066
 11
151.6791963991
 21
72.7722381502
  0
LINE
  5
415
100
AcDbEntity
  8
KONSTRUKTIONSELEMENTE
100
AcDbLine
 62
7
  6
CONTINUOUS
 10
151.7384652344
 20
73.7893336951
 11
151.7384652344
 21
72.7574664363
  0
LINE
  5
416
100
AcDbEntity
  8
KONSTRUKTIONSELEMENTE
100
AcDbLine
 62
7
  6
CONTINUOUS
 10
152.2126164253
 20
73.6718288686
 11
152.2126164253
 21
72.6461705753
  0
LINE
  5
417
100
AcDbEntity
  8
KONSTRUKTIONSELEMENTE
100
AcDbLine
 62
7
  6
CONTINUOUS
 10
152.5455162942
 20
73.5970040126
 11
152.5455162942
 21
72.5752616914
  0
LINE
  5
418
100
AcDbEntity
  8
KONSTRUKTIONSELEMENTE
100
AcDbLine
 62
7
  6
CONTINUOUS
 10
153.0455162942
 20
83.1711796336
 11
153.0455162942
 21
101.1711796336
  0
LINE
  5
419
100
AcDbEntity
  8
KONSTRUKTIONSELEMENTE
100
AcDbLine
 62
7
  6
CONTINUOUS
 10
154.2955162942
 20
73.3048736889
 11
154.2955162942
 21
72.2981451396
  0
LINE
  5
41A
100
AcDbEntity
  8
KONSTRUKTIONSELEMENTE
100
AcDbLine
 62
7
  6
CONTINUOUS
 10
154.6600996971
 20
73.2649583228
 11
154.6600996971
 21
72.2602478559
  0
LINE
  5
41B
100
AcDbEntity
  8
KONSTRUKTIONSELEMENTE
100
AcDbLine
 62
7
  6
CONTINUOUS
 10
154.9517662942
 20
73.2381407614
 11
154.9517662942
 21
72.2347817409
  0
LINE
  5
41C
100
AcDbEntity
  8
BEZUGSACHSEN
100
AcDbLine
 62
7
  6
CONTINUOUS
 10
153.0455162942
 20
88.4211796336
 11
160.0455162942
 21
88.4211796336
  0
LINE
  5
41D
100
AcDbEntity
  8
KONSTRUKTIONSELEMENTE
100
AcDbLine
 62
7
  6
CONTINUOUS
 10
155.1705162942
 20
73.2209982361
 11
155.1705162942
 21
72.218501242
  0
LINE
  5
41E
100
AcDbEntity
  8
KONSTRUKTIONSELEMENTE
100
AcDbLine
 62
7
  6
CONTINUOUS
 10
155.2434328913
 20
73.2158484887
 11
155.2434328913
 21
72.2136101721
  0
LINE
  5
41F
100
AcDbEntity
  8
KONSTRUKTIONSELEMENTE
100
AcDbLine
 62
7
  6
CONTINUOUS
 10
155.3163496971
 20
73.2109805451
 11
155.3163496971
 21
72.2089866309
  0
LINE
  5
420
100
AcDbEntity
  8
KONSTRUKTIONSELEMENTE
100
AcDbLine
 62
7
  6
CONTINUOUS
 10
155.7094812679
 20
73.1895820867
 11
155.7094812679
 21
72.1886611378
  0
LINE
  5
421
100
AcDbEntity
  8
KONSTRUKTIONSELEMENTE
100
AcDbLine
 62
7
  6
CONTINUOUS
 10
155.8996828913
 20
73.1821591424
 11
155.8996828913
 21
72.181609873
  0
LINE
  5
422
100
AcDbEntity
  8
KONSTRUKTIONSELEMENTE
100
AcDbLine
 62
7
  6
CONTINUOUS
 10
156.3371830999
 20
73.1723218448
 11
156.3371830999
 21
72.1722647311
  0
LINE
  5
423
100
AcDbEntity
  8
KONSTRUKTIONSELEMENTE
100
AcDbLine
 62
7
  6
CONTINUOUS
 10
156.4100994884
 20
73.1716622111
 11
156.4100994884
 21
72.1716380817
  0
LINE
  5
424
100
AcDbEntity
  8
BEZUGSACHSEN
100
AcDbLine
 62
2
  6
CENTER
 10
156.5455162942
 20
92.1711796336
 11
156.5455162942
 21
70.1711796336
  0
LINE
  5
425
100
AcDbEntity
  8
BEZUGSACHSEN
100
AcDbLine
 62
2
  6
CENTER
 10
156.5455162942
 20
92.1711796336
 11
156.5455162942
 21
114.1711796336
  0
LINE
  5
426
100
AcDbEntity
  8
KONSTRUKTIONSELEMENTE
100
AcDbLine
 62
7
  6
CONTINUOUS
 10
156.5559330999
 20
73.1711824891
 11
156.5559330999
 21
72.1711823464
  0
LINE
  5
427
100
AcDbEntity
  8
KONSTRUKTIONSELEMENTE
100
AcDbLine
 62
7
  6
CONTINUOUS
 10
156.7746830999
 20
73.1725617214
 11
156.7746830999
 21
72.1724926123
  0
LINE
  5
428
100
AcDbEntity
  8
KONSTRUKTIONSELEMENTE
100
AcDbLine
 62
7
  6
CONTINUOUS
 10
157.0663494884
 20
73.1783195861
 11
157.0663494884
 21
72.1779624642
  0
LINE
  5
429
100
AcDbEntity
  8
KONSTRUKTIONSELEMENTE
100
AcDbLine
 62
7
  6
CONTINUOUS
 10
157.3580162942
 20
73.188560116
 11
157.3580162942
 21
72.187690355
  0
LINE
  5
42A
100
AcDbEntity
  8
KONSTRUKTIONSELEMENTE
100
AcDbLine
 62
7
  6
CONTINUOUS
 10
157.6496830999
 20
73.2032905664
 11
157.6496830999
 21
72.2016825026
  0
LINE
  5
42B
100
AcDbEntity
  8
KONSTRUKTIONSELEMENTE
100
AcDbLine
 62
7
  6
CONTINUOUS
 10
157.8684330999
 20
73.2172910847
 11
157.8684330999
 21
72.214980318
  0
LINE
  5
42C
100
AcDbEntity
  8
KONSTRUKTIONSELEMENTE
100
AcDbLine
 62
7
  6
CONTINUOUS
 10
158.0142662942
 20
73.2280338168
 11
158.0142662942
 21
72.2251832073
  0
LINE
  5
42D
100
AcDbEntity
  8
KONSTRUKTIONSELEMENTE
100
AcDbLine
 62
7
  6
CONTINUOUS
 10
158.0871830999
 20
73.2338286188
 11
158.0871830999
 21
72.230686574
  0
LINE
  5
42E
100
AcDbEntity
  8
KONSTRUKTIONSELEMENTE
100
AcDbLine
 62
7
  6
CONTINUOUS
 10
158.5246830999
 20
73.2745423996
 11
158.5246830999
 21
72.2693480909
  0
LINE
  5
42F
100
AcDbEntity
  8
KONSTRUKTIONSELEMENTE
100
AcDbLine
 62
7
  6
CONTINUOUS
 10
158.5543880744
 20
73.277677201
 11
158.5543880744
 21
72.2723245366
  0
LINE
  5
430
100
AcDbEntity
  8
BEZUGSACHSEN
100
AcDbLine
 62
2
  6
CENTER
 10
156.5455162942
 20
92.1711796336
 11
134.5455162942
 21
92.1711796336
  0
LINE
  5
431
100
AcDbEntity
  8
BEZUGSACHSEN
100
AcDbLine
 62
2
  6
CENTER
 10
156.5455162942
 20
92.1711796336
 11
178.5455162942
 21
92.1711796336
  0
LINE
  5
432
100
AcDbEntity
  8
KONSTRUKTIONSELEMENTE
100
AcDbLine
 62
7
  6
CONTINUOUS
 10
158.8872879433
 20
73.3160449074
 11
158.8872879433
 21
72.3087501361
  0
LINE
  5
433
100
AcDbEntity
  8
KONSTRUKTIONSELEMENTE
100
AcDbLine
 62
7
  6
CONTINUOUS
 10
159.0285387567
 20
73.3341257384
 11
159.0285387567
 21
72.3259132093
  0
LINE
  5
434
100
AcDbEntity
  8
KONSTRUKTIONSELEMENTE
100
AcDbLine
 62
7
  6
CONTINUOUS
 10
159.1080162942
 20
73.3447728137
 11
159.1080162942
 21
72.336019091
  0
LINE
  5
435
100
AcDbEntity
  8
KONSTRUKTIONSELEMENTE
100
AcDbLine
 62
7
  6
CONTINUOUS
 10
160.0455162942
 20
83.1711796336
 11
160.0455162942
 21
101.1711796336
  0
LINE
  5
436
100
AcDbEntity
  8
KONSTRUKTIONSELEMENTE
100
AcDbLine
 62
7
  6
CONTINUOUS
 10
160.8580162942
 20
73.6670626931
 11
160.8580162942
 21
72.6416547098
  0
LINE
  5
437
100
AcDbEntity
  8
KONSTRUKTIONSELEMENTE
100
AcDbLine
 62
7
  6
CONTINUOUS
 10
161.2225999057
 20
73.7558357897
 11
161.2225999057
 21
72.7257460079
  0
LINE
  5
438
100
AcDbEntity
  8
KONSTRUKTIONSELEMENTE
100
AcDbLine
 62
7
  6
CONTINUOUS
 10
161.5142662942
 20
73.8323813241
 11
161.5142662942
 21
72.7982210718
  0
LINE
  5
439
100
AcDbEntity
  8
KONSTRUKTIONSELEMENTE
100
AcDbLine
 62
7
  6
CONTINUOUS
 10
161.8059326827
 20
73.9139065782
 11
161.8059326827
 21
72.875376478
  0
LINE
  5
43A
100
AcDbEntity
  8
KONSTRUKTIONSELEMENTE
100
AcDbLine
 62
7
  6
CONTINUOUS
 10
161.9517662942
 20
73.9565574597
 11
161.9517662942
 21
72.9157268751
  0
LINE
  5
43B
100
AcDbEntity
  8
KONSTRUKTIONSELEMENTE
100
AcDbLine
 62
7
  6
CONTINUOUS
 10
162.0246826827
 20
73.9783586405
 11
162.0246826827
 21
72.9363483194
  0
LINE
  5
43C
100
AcDbEntity
  8
KONSTRUKTIONSELEMENTE
100
AcDbLine
 62
7
  6
CONTINUOUS
 10
162.0512529169
 20
73.9863820202
 11
162.0512529169
 21
72.9439368713
  0
LINE
  5
43D
100
AcDbEntity
  8
BEZUGSACHSEN
100
AcDbLine
 62
7
  6
CONTINUOUS
 10
153.0455162942
 20
95.9211796336
 11
160.0455162942
 21
95.9211796336
  0
LINE
  5
43E
100
AcDbEntity
  8
KONSTRUKTIONSELEMENTE
100
AcDbLine
 62
7
  6
CONTINUOUS
 10
162.5254035992
 20
74.1367418043
 11
162.5254035992
 21
73.0860821013
  0
LINE
  5
43F
100
AcDbEntity
  8
KONSTRUKTIONSELEMENTE
100
AcDbLine
 62
7
  6
CONTINUOUS
 10
162.5846729432
 20
74.156502646
 11
162.5846729432
 21
73.1047539862
  0
LINE
  5
440
100
AcDbEntity
  8
KONSTRUKTIONSELEMENTE
100
AcDbLine
 62
7
  6
CONTINUOUS
 10
162.7032102746
 20
74.1966753333
 11
162.7032102746
 21
73.1427061046
  0
LINE
  5
441
100
AcDbEntity
  8
KONSTRUKTIONSELEMENTE
100
AcDbLine
 62
7
  6
CONTINUOUS
 10
162.88101695
 20
74.2585742553
 11
162.88101695
 21
73.2011656262
  0
LINE
  5
442
100
AcDbEntity
  8
KONSTRUKTIONSELEMENTE
100
AcDbLine
 62
7
  6
CONTINUOUS
 10
163.1773609568
 20
74.3661624651
 11
163.1773609568
 21
73.3027235131
  0
LINE
  5
443
100
AcDbEntity
  8
KONSTRUKTIONSELEMENTE
100
AcDbLine
 62
7
  6
CONTINUOUS
 10
163.4737063202
 20
74.4793684498
 11
163.4737063202
 21
73.4095117184
  0
LINE
  5
444
100
AcDbEntity
  8
KONSTRUKTIONSELEMENTE
100
AcDbLine
 62
7
  6
CONTINUOUS
 10
163.7107809831
 20
74.5740496989
 11
163.7107809831
 21
73.4987673112
  0
LINE
  5
445
100
AcDbEntity
  8
KONSTRUKTIONSELEMENTE
100
AcDbLine
 62
7
  6
CONTINUOUS
 10
164.0071263465
 20
74.6976460635
 11
164.0071263465
 21
73.6152001276
  0
LINE
  5
446
100
AcDbEntity
  8
KONSTRUKTIONSELEMENTE
100
AcDbLine
 62
7
  6
CONTINUOUS
 10
164.3034703533
 20
74.8271850298
 11
164.3034703533
 21
73.7371310057
  0
LINE
  5
447
100
AcDbEntity
  8
KONSTRUKTIONSELEMENTE
100
AcDbLine
 62
7
  6
CONTINUOUS
 10
164.4812770287
 20
74.9078166483
 11
164.4812770287
 21
73.812974341
  0
LINE
  5
448
100
AcDbEntity
  8
KONSTRUKTIONSELEMENTE
100
AcDbLine
 62
7
  6
CONTINUOUS
 10
164.5405463727
 20
74.9351854922
 11
164.5405463727
 21
73.8387086042
  0
LINE
  5
449
100
AcDbEntity
  8
KONSTRUKTIONSELEMENTE
100
AcDbLine
 62
7
  6
CONTINUOUS
 10
164.6590837041
 20
74.9906667226
 11
164.6590837041
 21
73.8908616964
  0
LINE
  5
44A
100
AcDbEntity
  8
KONSTRUKTIONSELEMENTE
100
AcDbLine
 62
9
  6
CONTINUOUS
 10
172.0303330568
 20
100.3241208101
 11
160.0455162942
 21
100.3241208101
  0
LINE
  5
44B
100
AcDbEntity
  8
KONSTRUKTIONSELEMENTE
100
AcDbLine
 62
9
  6
CONTINUOUS
 10
153.0455162942
 20
100.3241208101
 11
141.0606995315
 21
100.3241208101
  0
LINE
  5
44C
100
AcDbEntity
  8
KONSTRUKTIONSELEMENTE
100
AcDbLine
 62
7
  6
CONTINUOUS
 10
139.8123157635
 20
101.1711796336
 11
153.0455162942
 21
101.1711796336
  0
LINE
  5
44D
100
AcDbEntity
  8
KONSTRUKTIONSELEMENTE
100
AcDbLine
 62
7
  6
CONTINUOUS
 10
160.0455162942
 20
101.1711796336
 11
173.2787168249
 21
101.1711796336
  0
LINE
  5
44E
100
AcDbEntity
  8
KONSTRUKTIONSELEMENTE
100
AcDbLine
 62
9
  6
CONTINUOUS
 10
168.2074200839
 20
107.1711796336
 11
144.8836125045
 21
107.1711796336
  0
ARC
  5
44F
100
AcDbEntity
  8
KONSTRUKTIONSELEMENTE
100
AcDbCircle
 62
7
  6
CONTINUOUS
 10
37.6747788754
 20
100.658477239
 40
187.2422505946
100
AcDbArc
 50
43.5962864693
 51
44.356424748
  0
ARC
  5
450
100
AcDbEntity
  8
KONSTRUKTIONSELEMENTE
100
AcDbCircle
 62
7
  6
CONTINUOUS
 10
275.416253713
 20
100.658477239
 40
187.2422505946
100
AcDbArc
 50
135.643575252
 51
136.4037135307
  0
ARC
  5
451
100
AcDbEntity
  8
KONSTRUKTIONSELEMENTE
100
AcDbCircle
 62
7
  6
CONTINUOUS
 10
37.6747788765
 20
298.9679915168
 40
187.2422505931
100
AcDbArc
 50
315.643575252
 51
316.4037135307
  0
ARC
  5
452
100
AcDbEntity
  8
KONSTRUKTIONSELEMENTE
100
AcDbCircle
 62
7
  6
CONTINUOUS
 10
275.4162537119
 20
298.9679915168
 40
187.2422505931
100
AcDbArc
 50
223.5962864693
 51
224.356424748
  0
ARC
  5
453
100
AcDbEntity
  8
KONSTRUKTIONSELEMENTE
100
AcDbCircle
 62
7
  6
CONTINUOUS
 10
122.3674229353
 20
162.8722296459
 40
19.2559085124
100
AcDbArc
 50
342.4418612235
 51
346.1154766606
  0
ARC
  5
454
100
AcDbEntity
  8
KONSTRUKTIONSELEMENTE
100
AcDbCircle
 62
7
  6
CONTINUOUS
 10
190.7236094961
 20
236.7542391584
 40
19.2559083484
100
AcDbArc
 50
162.4418612174
 51
166.1154772239
  0
ARC
  5
455
100
AcDbEntity
  8
KONSTRUKTIONSELEMENTE
100
AcDbCircle
 62
7
  6
CONTINUOUS
 10
190.3598464381
 20
162.769834274
 40
18.8782064684
100
AcDbArc
 50
193.8477607907
 51
197.5949013252
  0
ARC
  5
456
100
AcDbEntity
  8
KONSTRUKTIONSELEMENTE
100
AcDbCircle
 62
7
  6
CONTINUOUS
 10
122.7311870302
 20
236.8566347351
 40
18.8782055534
100
AcDbArc
 50
13.8477602574
 51
17.5949014025
  0
ARC
  5
457
100
AcDbEntity
  8
KONSTRUKTIONSELEMENTE
100
AcDbCircle
 62
7
  6
CONTINUOUS
 10
156.5455162942
 20
176.0632343784
 40
8.0
100
AcDbArc
 50
295.9444797724
 51
244.0555202276
  0
ARC
  5
458
100
AcDbEntity
  8
KONSTRUKTIONSELEMENTE
100
AcDbCircle
 62
7
  6
CONTINUOUS
 10
156.5455162942
 20
223.5632343784
 40
8.0
100
AcDbArc
 50
115.9444797724
 51
64.0555202276
  0
CIRCLE
  5
459
100
AcDbEntity
  8
BEZUGSACHSEN
100
AcDbCircle
 62
7
  6
CONTINUOUS
 10
167.5455162942
 20
162.5632343784
 40
1.5
  0
CIRCLE
  5
45A
100
AcDbEntity
  8
BEZUGSACHSEN
100
AcDbCircle
 62
7
  6
CONTINUOUS
 10
145.5455162942
 20
237.0632343784
 40
1.5
  0
ARC
  5
45B
100
AcDbEntity
  8
KONSTRUKTIONSELEMENTE
100
AcDbCircle
 62
7
  6
CONTINUOUS
 10
262.0979099778
 20
162.0632343784
 40
9.0
100
AcDbArc
 50
205.0576154183
 51
334.9423845817
  0
ARC
  5
45C
100
AcDbEntity
  8
KONSTRUKTIONSELEMENTE
100
AcDbCircle
 62
7
  6
CONTINUOUS
 10
262.0979099778
 20
237.5632343784
 40
9.0
100
AcDbArc
 50
25.0576139165
 51
154.9423845817
  0
ARC
  5
45D
100
AcDbEntity
  8
KONSTRUKTIONSELEMENTE
100
AcDbCircle
 62
7
  6
CONTINUOUS
 10
277.0979099778
 20
178.0632343784
 40
6.0
100
AcDbArc
 50
90.0
 51
180.0
  0
ARC
  5
45E
100
AcDbEntity
  8
KONSTRUKTIONSELEMENTE
100
AcDbCircle
 62
7
  6
CONTINUOUS
 10
247.0979099778
 20
178.0632343784
 40
6.0
100
AcDbArc
 50
0.0
 51
90.0
  0
ARC
  5
45F
100
AcDbEntity
  8
KONSTRUKTIONSELEMENTE
100
AcDbCircle
 62
7
  6
CONTINUOUS
 10
277.0979099778
 20
221.5632343784
 40
6.0
100
AcDbArc
 50
180.0
 51
270.0
  0
ARC
  5
460
100
AcDbEntity
  8
KONSTRUKTIONSELEMENTE
100
AcDbCircle
 62
7
  6
CONTINUOUS
 10
247.0979099778
 20
221.5632343784
 40
6.0
100
AcDbArc
 50
270.0
 51
360.0
  0
CIRCLE
  5
461
100
AcDbEntity
  8
BEZUGSACHSEN
100
AcDbCircle
 62
7
  6
CONTINUOUS
 10
262.0979099778
 20
162.0632343784
 40
3.75
  0
CIRCLE
  5
462
100
AcDbEntity
  8
BEZUGSACHSEN
100
AcDbCircle
 62
7
  6
CONTINUOUS
 10
262.0979099778
 20
237.5632343784
 40
3.75
  0
ARC
  5
463
100
AcDbEntity
  8
KONSTRUKTIONSELEMENTE
100
AcDbCircle
 62
7
  6
CONTINUOUS
 10
156.5455162942
 20
92.1711796336
 40
20.0
100
AcDbArc
 50
287.3972123886
 51
293.9336443119
  0
ARC
  5
464
100
AcDbEntity
  8
KONSTRUKTIONSELEMENTE
100
AcDbCircle
 62
7
  6
CONTINUOUS
 10
156.5455162942
 20
92.1711796336
 40
20.0
100
AcDbArc
 50
257.4879466338
 51
276.724105996
  0
ARC
  5
465
100
AcDbEntity
  8
KONSTRUKTIONSELEMENTE
100
AcDbCircle
 62
7
  6
CONTINUOUS
 10
156.5455162942
 20
92.1711796336
 40
20.0
100
AcDbArc
 50
277.1317368663
 51
285.9791081498
  0
ARC
  5
466
100
AcDbEntity
  8
KONSTRUKTIONSELEMENTE
100
AcDbCircle
 62
7
  6
CONTINUOUS
 10
156.5455162942
 20
92.1711796336
 40
20.0
100
AcDbArc
 50
249.5126848853
 51
256.0926507479
  0
CIRCLE
  5
467
100
AcDbEntity
  8
KONSTRUKTIONSELEMENTE
100
AcDbCircle
 62
7
  6
CONTINUOUS
 10
156.5455162942
 20
92.1711796336
 40
19.0
  0
ARC
  5
468
100
AcDbEntity
  8
KONSTRUKTIONSELEMENTE
100
AcDbCircle
 62
7
  6
CONTINUOUS
 10
156.5455162942
 20
92.1711796336
 40
17.5
100
AcDbArc
 50
329.0502769211
 51
30.9497230789
  0
ARC
  5
469
100
AcDbEntity
  8
KONSTRUKTIONSELEMENTE
100
AcDbCircle
 62
7
  6
CONTINUOUS
 10
156.5455162942
 20
92.1711796336
 40
17.5
100
AcDbArc
 50
149.0502769211
 51
210.9497230789
  0
SPLINE
  5
46A
100
AcDbEntity
  8
BEZUGSACHSEN
100
AcDbSpline
 62
7
  6
CONTINUOUS
 70
0
 71
3
 72
26
 73
22
 74
0
 42
0.0000001
 43
0.0000001
 44
0.0000000001
 40
0.0
 40
0.0
 40
0.0
 40
0.0
 40
0.0003093921
 40
0.0012357886
 40
0.0027766118
 40
0.0049292856
 40
0.0110598887
 40
0.0196070227
 40
0.0305501393
 40
0.0438666316
 40
0.0595132385
 40
0.0774349817
 40
0.1198842151
 40
0.1707675627
 40
0.2295380676
 40
0.295591672
 40
0.3683053835
 40
0.4469613154
 40
0.6191329211
 40
0.8059106353
 40
1.0
 40
1.0
 40
1.0
 40
1.0
 10
174.0455162926
 20
165.8132343762
 30
0.0
 10
174.0457484662
 20
165.8129213642
 30
0.0
 10
174.0446524209
 20
165.811235176
 30
0.0
 10
174.0446519014
 20
165.8079756023
 30
0.0
 10
174.0430103206
 20
165.802196717
 30
0.0
 10
174.0406703957
 20
165.7901510953
 30
0.0
 10
174.03607278
 20
165.7693744574
 30
0.0
 10
174.0295070488
 20
165.7378148213
 30
0.0
 10
174.0210267811
 20
165.6973551609
 30
0.0
 10
174.0108569477
 20
165.648132909
 30
0.0
 10
173.9990444326
 20
165.590266946
 30
0.0
 10
173.9802211046
 20
165.4963819558
 30
0.0
 10
173.9535222857
 20
165.3588073446
 30
0.0
 10
173.918728327
 20
165.1703967999
 30
0.0
 10
173.8809215243
 20
164.9523181815
 30
0.0
 10
173.8415584278
 20
164.7066195442
 30
0.0
 10
173.8021117043
 20
164.4355915996
 30
0.0
 10
173.749732942
 20
164.031415383
 30
0.0
 10
173.6934724843
 20
163.4829351102
 30
0.0
 10
173.6493699451
 20
162.7875299857
 30
0.0
 10
173.6390092082
 20
162.3077149026
 30
0.0
 10
173.6390092082
 20
162.0632343784
 30
0.0
  0
SPLINE
  5
46B
100
AcDbEntity
  8
BEZUGSACHSEN
100
AcDbSpline
 62
7
  6
CONTINUOUS
 70
0
 71
3
 72
23
 73
19
 74
0
 42
0.0000001
 43
0.0000001
 44
0.0000000001
 40
0.0
 40
0.0
 40
0.0
 40
0.0
 40
0.1940897963
 40
0.3808684843
 40
0.5530405935
 40
0.6316966185
 40
0.7044104732
 40
0.7704640468
 40
0.8292342845
 40
0.8801175042
 40
0.9225663971
 40
0.95613441
 40
0.9694509283
 40
0.9803939177
 40
0.9889407562
 40
0.9950710204
 40
0.9987642603
 40
1.0
 40
1.0
 40
1.0
 40
1.0
 10
139.4520233802
 20
162.0632343784
 30
0.0
 10
139.4520233802
 20
162.3077154339
 30
0.0
 10
139.4416622753
 20
162.7875322548
 30
0.0
 10
139.3975597424
 20
163.4829397542
 30
0.0
 10
139.3412990375
 20
164.0314219546
 30
0.0
 10
139.2889198585
 20
164.4355990634
 30
0.0
 10
139.2494727123
 20
164.7066271263
 30
0.0
 10
139.2101102511
 20
164.9523258631
 30
0.0
 10
139.1723020444
 20
165.1704030504
 30
0.0
 10
139.137512449
 20
165.3588153005
 30
0.0
 10
139.1070457968
 20
165.5157294594
 30
0.0
 10
139.0847799453
 20
165.6260426825
 30
0.0
 10
139.0699603104
 20
165.6973449766
 30
0.0
 10
139.0616484968
 20
165.7378570555
 30
0.0
 10
139.0546467014
 20
165.7692783102
 30
0.0
 10
139.0506212375
 20
165.7922687142
 30
0.0
 10
139.0463101992
 20
165.8052606016
 30
0.0
 10
139.0464408933
 20
165.8119821624
 30
0.0
 10
139.0455162959
 20
165.8132343761
 30
0.0
  0
SPLINE
  5
46C
100
AcDbEntity
  8
BEZUGSACHSEN
100
AcDbSpline
 62
7
  6
CONTINUOUS
 70
0
 71
3
 72
23
 73
19
 74
0
 42
0.0000001
 43
0.0000001
 44
0.0000000001
 40
0.0
 40
0.0
 40
0.0
 40
0.0
 40
0.1940896867
 40
0.3808681331
 40
0.5530400796
 40
0.6316960357
 40
0.7044098343
 40
0.7704634714
 40
0.8292338864
 40
0.8801172277
 40
0.9225662203
 40
0.9561342916
 40
0.9694508037
 40
0.9803938075
 40
0.9889406848
 40
0.9950709931
 40
0.9987642632
 40
1.0
 40
1.0
 40
1.0
 40
1.0
 10
173.6390092082
 20
162.0632343784
 30
0.0
 10
173.6390092082
 20
161.8187534607
 30
0.0
 10
173.6493702008
 20
161.3389370792
 30
0.0
 10
173.6934727624
 20
160.6435302279
 30
0.0
 10
173.7497333869
 20
160.0950486205
 30
0.0
 10
173.8021124104
 20
159.6908718567
 30
0.0
 10
173.8415594852
 20
159.4198438613
 30
0.0
 10
173.8809220172
 20
159.1741448985
 30
0.0
 10
173.9187303235
 20
158.9560672693
 30
0.0
 10
173.9535198696
 20
158.7676544881
 30
0.0
 10
173.9839866795
 20
158.6107400311
 30
0.0
 10
174.0062525124
 20
158.500426538
 30
0.0
 10
174.0210722764
 20
158.4291242942
 30
0.0
 10
174.0293836347
 20
158.388611829
 30
0.0
 10
174.0363866122
 20
158.357191295
 30
0.0
 10
174.0404095387
 20
158.334198852
 30
0.0
 10
174.044725196
 20
158.3212102405
 30
0.0
 10
174.0445897648
 20
158.3144851612
 30
0.0
 10
174.045516293
 20
158.31323438
 30
0.0
  0
SPLINE
  5
46D
100
AcDbEntity
  8
BEZUGSACHSEN
100
AcDbSpline
 62
7
  6
CONTINUOUS
 70
0
 71
3
 72
23
 73
19
 74
0
 42
0.0000001
 43
0.0000001
 44
0.0000000001
 40
0.0
 40
0.0
 40
0.0
 40
0.0
 40
0.0012356791
 40
0.0049289677
 40
0.0110593255
 40
0.0196062387
 40
0.0305492198
 40
0.0438656541
 40
0.0774336755
 40
0.1198826205
 40
0.1707658039
 40
0.2295360899
 40
0.2955896737
 40
0.3683035364
 40
0.4469596188
 40
0.6191316596
 40
0.8059101203
 40
1.0
 40
1.0
 40
1.0
 40
1.0
 10
139.0455162942
 20
158.3132343784
 30
0.0
 10
139.0451724038
 20
158.3147524105
 30
0.0
 10
139.0481232201
 20
158.3208280356
 30
0.0
 10
139.0494676398
 20
158.3344418548
 30
0.0
 10
139.0551768744
 20
158.3570796072
 30
0.0
 10
139.0614386387
 20
158.3886561845
 30
0.0
 10
139.0700355122
 20
158.4291084895
 30
0.0
 10
139.0847201494
 20
158.5004389719
 30
0.0
 10
139.1070733249
 20
158.6107338612
 30
0.0
 10
139.1375027947
 20
158.7676558485
 30
0.0
 10
139.1723053492
 20
158.9560654606
 30
0.0
 10
139.2101092511
 20
159.1741435802
 30
0.0
 10
139.2494731905
 20
159.4198420969
 30
0.0
 10
139.2889198484
 20
159.6908703555
 30
0.0
 10
139.3412990972
 20
160.0950474384
 30
0.0
 10
139.3975597874
 20
160.6435293468
 30
0.0
 10
139.4416623775
 20
161.338936574
 30
0.0
 10
139.4520233802
 20
161.8187532175
 30
0.0
 10
139.4520233802
 20
162.0632343784
 30
0.0
  0
SPLINE
  5
46E
100
AcDbEntity
  8
KONSTRUKTIONSELEMENTE
100
AcDbSpline
 62
7
  6
CONTINUOUS
 70
0
 71
3
 72
15
 73
11
 74
0
 42
0.0000001
 43
0.0000001
 44
0.0000000001
 40
0.0
 40
0.0
 40
0.0
 40
0.0
 40
0.1184576697
 40
0.2306521707
 40
0.3392813626
 40
0.4498060823
 40
0.569064335
 40
0.7015944368
 40
0.8469547881
 40
1.0
 40
1.0
 40
1.0
 40
1.0
 10
168.2074200839
 20
184.0632343784
 30
0.0
 10
168.5622951666
 20
184.0632343784
 30
0.0
 10
169.2545571574
 20
184.0267528314
 30
0.0
 10
170.2539892749
 20
183.8117850914
 30
0.0
 10
171.1642371605
 20
183.3900128332
 30
0.0
 10
171.9442010844
 20
182.7213842757
 30
0.0
 10
172.5517345208
 20
181.8078283765
 30
0.0
 10
172.975822092
 20
180.6881572647
 30
0.0
 10
173.2246173626
 20
179.4168037167
 30
0.0
 10
173.2787168249
 20
178.5217267023
 30
0.0
 10
173.2787168249
 20
178.0632343784
 30
0.0
  0
SPLINE
  5
46F
100
AcDbEntity
  8
KONSTRUKTIONSELEMENTE
100
AcDbSpline
 62
7
  6
CONTINUOUS
 70
0
 71
3
 72
15
 73
11
 74
0
 42
0.0000001
 43
0.0000001
 44
0.0000000001
 40
0.0
 40
0.0
 40
0.0
 40
0.0
 40
0.1530453018
 40
0.2984057152
 40
0.430935866
 40
0.5501942034
 40
0.6607187613
 40
0.7693477641
 40
0.8815422191
 40
1.0
 40
1.0
 40
1.0
 40
1.0
 10
139.8123157635
 20
178.0632343784
 30
0.0
 10
139.8123157635
 20
178.521726975
 30
0.0
 10
139.8664152891
 20
179.4168044501
 30
0.0
 10
140.115210806
 20
180.6881585927
 30
0.0
 10
140.5392989519
 20
181.8078301199
 30
0.0
 10
141.1468326311
 20
182.7213858152
 30
0.0
 10
141.9267963587
 20
183.3900133401
 30
0.0
 10
142.8370431562
 20
183.8117849896
 30
0.0
 10
143.8364748926
 20
184.0267527665
 30
0.0
 10
144.528737086
 20
184.0632343784
 30
0.0
 10
144.8836125045
 20
184.0632343784
 30
0.0
  0
SPLINE
  5
470
100
AcDbEntity
  8
KONSTRUKTIONSELEMENTE
100
AcDbSpline
 62
7
  6
CONTINUOUS
 70
0
 71
3
 72
28
 73
24
 74
0
 42
0.0000001
 43
0.0000001
 44
0.0000000001
 40
0.0
 40
0.0
 40
0.0
 40
0.0
 40
0.0002622721
 40
0.0010488227
 40
0.0023592551
 40
0.0041931794
 40
0.0065502123
 40
0.0094299772
 40
0.016756226
 40
0.0261690497
 40
0.037665367
 40
0.051237658
 40
0.0668753628
 40
0.1043075526
 40
0.1498848231
 40
0.2034716245
 40
0.2649092253
 40
0.3340039008
 40
0.4104440598
 40
0.4939131832
 40
0.5839975695
 40
0.7820629573
 40
1.0
 40
1.0
 40
1.0
 40
1.0
 10
170.6891177695
 20
153.0632343784
 30
0.0
 10
170.6894631261
 20
153.0630733525
 30
0.0
 10
170.6890942944
 20
153.0658710503
 30
0.0
 10
170.6904018706
 20
153.0679752181
 30
0.0
 10
170.6911597472
 20
153.0742919518
 30
0.0
 10
170.692908095
 20
153.0818088799
 30
0.0
 10
170.6949059165
 20
153.0919958181
 30
0.0
 10
170.6986329302
 20
153.1098116635
 30
0.0
 10
170.7044787978
 20
153.1377440277
 30
0.0
 10
170.7130935374
 20
153.1778373491
 30
0.0
 10
170.7237924908
 20
153.226784748
 30
0.0
 10
170.736743551
 20
153.2844895974
 30
0.0
 10
170.7586199015
 20
153.3788110874
 30
0.0
 10
170.792817
 20
153.518002423
 30
0.0
 10
170.8437327093
 20
153.7098327321
 30
0.0
 10
170.9085372028
 20
153.9340119254
 30
0.0
 10
170.9892187705
 20
154.1890909039
 30
0.0
 10
171.0875858197
 20
154.4732950095
 30
0.0
 10
171.205278572
 20
154.7845515557
 30
0.0
 10
171.3438983316
 20
155.1203323837
 30
0.0
 10
171.5647562396
 20
155.6130960734
 30
0.0
 10
171.8967246609
 20
156.2696916833
 30
0.0
 10
172.1994874275
 20
156.7931813419
 30
0.0
 10
172.3648083137
 20
157.0632343784
 30
0.0
  0
SPLINE
  5
471
100
AcDbEntity
  8
KONSTRUKTIONSELEMENTE
100
AcDbSpline
 62
7
  6
CONTINUOUS
 70
0
 71
3
 72
28
 73
24
 74
0
 42
0.0000001
 43
0.0000001
 44
0.0000000001
 40
0.0
 40
0.0
 40
0.0
 40
0.0
 40
0.2179370365
 40
0.4160024165
 40
0.5060868056
 40
0.5895559314
 40
0.6659960927
 40
0.73509077
 40
0.7965283713
 40
0.8501151735
 40
0.8956924442
 40
0.9331246347
 40
0.94876234
 40
0.9623346314
 40
0.973830949
 40
0.983243773
 40
0.9905700222
 40
0.9934497872
 40
0.9958068202
 40
0.9976407447
 40
0.9989511772
 40
0.9997377279
 40
1.0
 40
1.0
 40
1.0
 40
1.0
 10
140.7262242746
 20
157.0632343784
 30
0.0
 10
140.8915451561
 20
156.7931813496
 30
0.0
 10
141.1943079333
 20
156.2696917198
 30
0.0
 10
141.5262763171
 20
155.6130961091
 30
0.0
 10
141.7471342382
 20
155.1203324296
 30
0.0
 10
141.8857540023
 20
154.7845515914
 30
0.0
 10
142.0034467583
 20
154.4732950367
 30
0.0
 10
142.1018138118
 20
154.1890909253
 30
0.0
 10
142.1824953805
 20
153.9340119426
 30
0.0
 10
142.2472998736
 20
153.7098327468
 30
0.0
 10
142.2982155869
 20
153.5180024364
 30
0.0
 10
142.3324126839
 20
153.3788110979
 30
0.0
 10
142.3542890334
 20
153.284489606
 30
0.0
 10
142.3672400947
 20
153.2267847534
 30
0.0
 10
142.3779390497
 20
153.1778373584
 30
0.0
 10
142.386553797
 20
153.1377440233
 30
0.0
 10
142.3923996512
 20
153.1098116871
 30
0.0
 10
142.3961266853
 20
153.091995796
 30
0.0
 10
142.3981244629
 20
153.0818089506
 30
0.0
 10
142.3998729228
 20
153.0742917804
 30
0.0
 10
142.4006305443
 20
153.0679755925
 30
0.0
 10
142.4019385668
 20
153.0658704657
 30
0.0
 10
142.4015692724
 20
153.0630737603
 30
0.0
 10
142.4019148189
 20
153.0632343784
 30
0.0
  0
LINE
  5
472
100
AcDbEntity
  8
BEZUGSACHSEN
100
AcDbLine
 62
7
  6
CONTINUOUS
 10
139.0455462736
 20
233.8132757916
 11
139.0682404951
 21
233.920663477
  0
SPLINE
  5
473
100
AcDbEntity
  8
BEZUGSACHSEN
100
AcDbSpline
 62
7
  6
CONTINUOUS
 70
0
 71
3
 72
9
 73
5
 74
0
 42
0.0000001
 43
0.0000001
 44
0.0000000001
 40
0.0
 40
0.0
 40
0.0
 40
0.0
 40
0.3667220312
 40
1.0
 40
1.0
 40
1.0
 40
1.0
 10
139.0682404951
 20
233.920663477
 30
0.0
 10
139.1597150208
 20
234.359513711
 30
0.0
 10
139.3678134425
 20
235.564920525
 30
0.0
 10
139.4520233802
 20
236.7891129779
 30
0.0
 10
139.4520233802
 20
237.5632343784
 30
0.0
  0
SPLINE
  5
474
100
AcDbEntity
  8
BEZUGSACHSEN
100
AcDbSpline
 62
7
  6
CONTINUOUS
 70
0
 71
3
 72
9
 73
5
 74
0
 42
0.0000001
 43
0.0000001
 44
0.0000000001
 40
0.0
 40
0.0
 40
0.0
 40
0.0
 40
0.6332785865
 40
1.0
 40
1.0
 40
1.0
 40
1.0
 10
173.6390092082
 20
237.5632343784
 30
0.0
 10
173.6390092082
 20
236.7891117516
 30
0.0
 10
173.7232193342
 20
235.5649185467
 30
0.0
 10
173.931318074
 20
234.3595110364
 30
0.0
 10
174.0227925513
 20
233.9206612848
 30
0.0
  0
LINE
  5
475
100
AcDbEntity
  8
BEZUGSACHSEN
100
AcDbLine
 62
7
  6
CONTINUOUS
 10
174.0227925513
 20
233.9206612848
 11
174.0454863159
 21
233.8132757895
  0
SPLINE
  5
476
100
AcDbEntity
  8
BEZUGSACHSEN
100
AcDbSpline
 62
7
  6
CONTINUOUS
 70
0
 71
3
 72
9
 73
5
 74
0
 42
0.0000001
 43
0.0000001
 44
0.0000000001
 40
0.0
 40
0.0
 40
0.0
 40
0.0
 40
0.6332812684
 40
1.0
 40
1.0
 40
1.0
 40
1.0
 10
139.4520233802
 20
237.5632343784
 30
0.0
 10
139.4520233802
 20
238.3373623387
 30
0.0
 10
139.3678124363
 20
239.5615588237
 30
0.0
 10
139.1597123079
 20
240.7669693703
 30
0.0
 10
139.0682380386
 20
241.2058170321
 30
0.0
  0
LINE
  5
477
100
AcDbEntity
  8
BEZUGSACHSEN
100
AcDbLine
 62
7
  6
CONTINUOUS
 10
139.0682380386
 20
241.2058170321
 11
139.0455462708
 21
241.3131929696
  0
LINE
  5
478
100
AcDbEntity
  8
BEZUGSACHSEN
100
AcDbLine
 62
7
  6
CONTINUOUS
 10
139.0512562195
 20
233.8401126267
 11
139.0455462736
 21
233.8132757916
  0
LINE
  5
479
100
AcDbEntity
  8
BEZUGSACHSEN
100
AcDbLine
 62
7
  6
CONTINUOUS
 10
139.0455462708
 20
241.3131929696
 11
139.0512557279
 21
241.2863584403
  0
LINE
  5
47A
100
AcDbEntity
  8
BEZUGSACHSEN
100
AcDbLine
 62
7
  6
CONTINUOUS
 10
174.0454863159
 20
233.8132757895
 11
174.0397764707
 21
233.8401121483
  0
SPLINE
  5
47B
100
AcDbEntity
  8
BEZUGSACHSEN
100
AcDbSpline
 62
7
  6
CONTINUOUS
 70
0
 71
3
 72
16
 73
12
 74
0
 42
0.0000001
 43
0.0000001
 44
0.0000000001
 40
0.0
 40
0.0
 40
0.0
 40
0.0
 40
0.0774107287
 40
0.1198752694
 40
0.1707535704
 40
0.2295255228
 40
0.2955826389
 40
0.4469504355
 40
0.6191343423
 40
0.8058802701
 40
1.0
 40
1.0
 40
1.0
 40
1.0
 10
174.0454863123
 20
241.3131929629
 30
0.0
 10
174.0654151211
 20
241.4086417377
 30
0.0
 10
173.9846314997
 20
241.0230691041
 30
0.0
 10
173.9559174682
 20
240.8702315727
 30
0.0
 10
173.9179238018
 20
240.6665701985
 30
0.0
 10
173.8811911333
 20
240.4535348816
 30
0.0
 10
173.8256956778
 20
240.1079591538
 30
0.0
 10
173.7591799289
 20
239.6228651747
 30
0.0
 10
173.6934429979
 20
238.982858338
 30
0.0
 10
173.649350439
 20
238.2875857487
 30
0.0
 10
173.6390092082
 20
237.80774885
 30
0.0
 10
173.6390092082
 20
237.5632343784
 30
0.0
  0
SPLINE
  5
47C
100
AcDbEntity
  8
KONSTRUKTIONSELEMENTE
100
AcDbSpline
 62
7
  6
CONTINUOUS
 70
0
 71
3
 72
20
 73
16
 74
0
 42
0.0000001
 43
0.0000001
 44
0.0000000001
 40
0.0
 40
0.0
 40
0.0
 40
0.0
 40
0.001047472
 40
0.0041899162
 40
0.0094272071
 40
0.016756285
 40
0.0376663021
 40
0.0668751916
 40
0.104317092
 40
0.1498902224
 40
0.2649193412
 40
0.410455595
 40
0.5839949493
 40
0.7820423737
 40
1.0
 40
1.0
 40
1.0
 40
1.0
 10
142.4019611321
 20
246.5632177472
 30
0.0
 10
142.4025130449
 20
246.5646359295
 30
0.0
 10
142.3991916099
 20
246.5515915821
 30
0.0
 10
142.3984453125
 20
246.5450168789
 30
0.0
 10
142.3926985496
 20
246.5187914924
 30
0.0
 10
142.3834758754
 20
246.4735316961
 30
0.0
 10
142.3652839686
 20
246.3902129569
 30
0.0
 10
142.3371108532
 20
246.2670554443
 30
0.0
 10
142.2982327375
 20
246.1083603185
 30
0.0
 10
142.2243821011
 20
245.8304241868
 30
0.0
 10
142.0949717797
 20
245.4045906759
 30
0.0
 10
141.8792247878
 20
244.8116453017
 30
0.0
 10
141.5809395325
 20
244.1215869255
 30
0.0
 10
141.1943806381
 20
243.3567461703
 30
0.0
 10
140.8915534277
 20
242.8333009189
 30
0.0
 10
140.7262242746
 20
242.5632343784
 30
0.0
  0
SPLINE
  5
47D
100
AcDbEntity
  8
KONSTRUKTIONSELEMENTE
100
AcDbSpline
 62
7
  6
CONTINUOUS
 70
0
 71
3
 72
15
 73
11
 74
0
 42
0.0000001
 43
0.0000001
 44
0.0000000001
 40
0.0
 40
0.0
 40
0.0
 40
0.0
 40
0.1530452789
 40
0.2984056248
 40
0.4309356016
 40
0.5501937664
 40
0.6607184124
 40
0.7693475759
 40
0.8815421669
 40
1.0
 40
1.0
 40
1.0
 40
1.0
 10
173.2787168249
 20
221.5632343784
 30
0.0
 10
173.2787168249
 20
221.1047418534
 30
0.0
 10
173.2246173327
 20
220.2096646498
 30
0.0
 10
172.9758220054
 20
218.9383113094
 30
0.0
 10
172.5517347057
 20
217.8186407991
 30
0.0
 10
171.9442018394
 20
216.9050855986
 30
0.0
 10
171.164238779
 20
216.2364569714
 30
0.0
 10
170.253991156
 20
215.8146841798
 30
0.0
 10
169.2545584082
 20
215.5997160542
 30
0.0
 10
168.5622956565
 20
215.5632343784
 30
0.0
 10
168.2074200839
 20
215.5632343784
 30
0.0
  0
SPLINE
  5
47E
100
AcDbEntity
  8
KONSTRUKTIONSELEMENTE
100
AcDbSpline
 62
7
  6
CONTINUOUS
 70
0
 71
3
 72
20
 73
16
 74
0
 42
0.0000001
 43
0.0000001
 44
0.0000000001
 40
0.0
 40
0.0
 40
0.0
 40
0.0
 40
0.2179576247
 40
0.4160050475
 40
0.5895444057
 40
0.7350806616
 40
0.8501097815
 40
0.8956829116
 40
0.9331248113
 40
0.9623337001
 40
0.9832437168
 40
0.9905727945
 40
0.995810085
 40
0.9989525287
 40
1.0
 40
1.0
 40
1.0
 40
1.0
 10
172.3648083137
 20
242.5632343784
 30
0.0
 10
172.1994791619
 20
242.8333009169
 30
0.0
 10
171.8966519487
 20
243.3567461608
 30
0.0
 10
171.5100930526
 20
244.121586918
 30
0.0
 10
171.2118078328
 20
244.8116453143
 30
0.0
 10
170.9960607122
 20
245.4045906498
 30
0.0
 10
170.8666506848
 20
245.8304242786
 30
0.0
 10
170.7927995939
 20
246.108360235
 30
0.0
 10
170.7539224443
 20
246.2670557308
 30
0.0
 10
170.7257468259
 20
246.3902122758
 30
0.0
 10
170.7075601215
 20
246.4735330191
 30
0.0
 10
170.6983304481
 20
246.5187901141
 30
0.0
 10
170.6925952012
 20
246.5450199404
 30
0.0
 10
170.6918285617
 20
246.5515867967
 30
0.0
 10
170.6885281931
 20
246.5646392643
 30
0.0
 10
170.6890714544
 20
246.5632177464
 30
0.0
  0
SPLINE
  5
47F
100
AcDbEntity
  8
KONSTRUKTIONSELEMENTE
100
AcDbSpline
 62
7
  6
CONTINUOUS
 70
0
 71
3
 72
15
 73
11
 74
0
 42
0.0000001
 43
0.0000001
 44
0.0000000001
 40
0.0
 40
0.0
 40
0.0
 40
0.0
 40
0.1184576728
 40
0.2306522061
 40
0.3392814423
 40
0.4498061759
 40
0.5690643354
 40
0.7015943303
 40
0.8469547012
 40
1.0
 40
1.0
 40
1.0
 40
1.0
 10
144.8836125045
 20
215.5632343784
 30
0.0
 10
144.5287374126
 20
215.5632343784
 30
0.0
 10
143.8364753165
 20
215.5997159334
 30
0.0
 10
142.8370429657
 20
215.8146837461
 30
0.0
 10
141.9267948801
 20
216.2364562609
 30
0.0
 10
141.1468312167
 20
216.9050849504
 30
0.0
 10
140.5392981097
 20
217.8186403603
 30
0.0
 10
140.1152106703
 20
218.9383109372
 30
0.0
 10
139.8664152708
 20
220.2096644583
 30
0.0
 10
139.8123157635
 20
221.1047417946
 30
0.0
 10
139.8123157635
 20
221.5632343784
 30
0.0
  0
SPLINE
  5
480
100
AcDbEntity
  8
KONSTRUKTIONSELEMENTE
100
AcDbSpline
 62
7
  6
CONTINUOUS
 70
0
 71
3
 72
19
 73
15
 74
0
 42
0.0000001
 43
0.0000001
 44
0.0000000001
 40
0.0
 40
0.0
 40
0.0
 40
0.0
 40
0.1568706013
 40
0.311750877
 40
0.4623756518
 40
0.6058456729
 40
0.7381239174
 40
0.7983369281
 40
0.8533871175
 40
0.9021698642
 40
0.9434784863
 40
0.9762141257
 40
0.9891958139
 40
1.0
 40
1.0
 40
1.0
 40
1.0
 10
156.5455162942
 20
107.1711796336
 30
0.0
 10
156.1563704163
 20
106.8341694176
 30
0.0
 10
155.3830205391
 20
106.1644189392
 30
0.0
 10
154.233361928
 20
105.1741493405
 30
0.0
 10
153.1113883801
 20
104.2191341777
 30
0.0
 10
152.0363889405
 20
103.3234748982
 30
0.0
 10
151.1768408586
 20
102.6328320867
 30
0.0
 10
150.5305499037
 20
102.1405784783
 30
0.0
 10
150.0943515624
 20
101.8250066071
 30
0.0
 10
149.6984509211
 20
101.5597417631
 30
0.0
 10
149.3512110542
 20
101.3549546722
 30
0.0
 10
149.0915213503
 20
101.2329761432
 30
0.0
 10
148.9130255723
 20
101.1812737759
 30
0.0
 10
148.8350049662
 20
101.1711796336
 30
0.0
 10
148.7995496018
 20
101.1711796336
 30
0.0
  0
SPLINE
  5
481
100
AcDbEntity
  8
KONSTRUKTIONSELEMENTE
100
AcDbSpline
 62
7
  6
CONTINUOUS
 70
0
 71
3
 72
19
 73
15
 74
0
 42
0.0000001
 43
0.0000001
 44
0.0000000001
 40
0.0
 40
0.0
 40
0.0
 40
0.0
 40
0.0108042721
 40
0.0237861483
 40
0.0565222169
 40
0.097831258
 40
0.1466145577
 40
0.2016652723
 40
0.2618786471
 40
0.3941571358
 40
0.5376267633
 40
0.6882509699
 40
0.8431302296
 40
1.0
 40
1.0
 40
1.0
 40
1.0
 10
164.2914829866
 20
101.1711796336
 30
0.0
 10
164.2560273402
 20
101.1711796336
 30
0.0
 10
164.1780058861
 20
101.1812744721
 30
0.0
 10
163.9995080439
 20
101.2329777809
 30
0.0
 10
163.7398150838
 20
101.3549574696
 30
0.0
 10
163.3925719058
 20
101.5597480356
 30
0.0
 10
162.9966674944
 20
101.8250160357
 30
0.0
 10
162.5604657333
 20
102.1405912555
 30
0.0
 10
161.9141721089
 20
102.6328474744
 30
0.0
 10
161.0546238793
 20
103.3234912075
 30
0.0
 10
159.9796263098
 20
104.2191490247
 30
0.0
 10
158.8576579615
 20
105.174160259
 30
0.0
 10
157.7080053719
 20
106.164424678
 30
0.0
 10
156.9346601066
 20
106.8341712064
 30
0.0
 10
156.5455162942
 20
107.1711796336
 30
0.0
  0
SPLINE
  5
482
100
AcDbEntity
  8
KONSTRUKTIONSELEMENTE
100
AcDbSpline
 62
7
  6
CONTINUOUS
 70
0
 71
3
 72
19
 73
15
 74
0
 42
0.0000001
 43
0.0000001
 44
0.0000000001
 40
0.0
 40
0.0
 40
0.0
 40
0.0
 40
0.1568695233
 40
0.3117484887
 40
0.4623724469
 40
0.6058420174
 40
0.7381205032
 40
0.798333741
 40
0.8533844815
 40
0.9021679972
 40
0.9434773117
 40
0.9762137127
 40
0.9891956901
 40
1.0
 40
1.0
 40
1.0
 40
1.0
 10
156.5455162942
 20
77.1711796336
 30
0.0
 10
156.9346594911
 20
77.5081875279
 30
0.0
 10
157.7080034042
 20
78.1779328943
 30
0.0
 10
158.8576540191
 20
79.1681956203
 30
0.0
 10
159.979620801
 20
80.1232056453
 30
0.0
 10
161.0546175394
 20
81.0188628651
 30
0.0
 10
161.9141651462
 20
81.7095063314
 30
0.0
 10
162.5604583705
 20
82.2017624474
 30
0.0
 10
162.9966602626
 20
82.5173380699
 30
0.0
 10
163.3925658172
 20
82.7826073756
 30
0.0
 10
163.7398109562
 20
82.9873999472
 30
0.0
 10
163.9995060886
 20
83.1093805234
 30
0.0
 10
164.178005331
 20
83.16108445
 30
0.0
 10
164.2560272163
 20
83.1711796336
 30
0.0
 10
164.2914829866
 20
83.1711796336
 30
0.0
  0
SPLINE
  5
483
100
AcDbEntity
  8
KONSTRUKTIONSELEMENTE
100
AcDbSpline
 62
7
  6
CONTINUOUS
 70
0
 71
3
 72
19
 73
15
 74
0
 42
0.0000001
 43
0.0000001
 44
0.0000000001
 40
0.0
 40
0.0
 40
0.0
 40
0.0
 40
0.0108043348
 40
0.0237863574
 40
0.0565228059
 40
0.0978321553
 40
0.1466157378
 40
0.2016666132
 40
0.2618800637
 40
0.3941587765
 40
0.537628184
 40
0.6882519026
 40
0.8431305916
 40
1.0
 40
1.0
 40
1.0
 40
1.0
 10
148.7995496018
 20
83.1711796336
 30
0.0
 10
148.8350054535
 20
83.1711796336
 30
0.0
 10
148.9130275553
 20
83.1610842687
 30
0.0
 10
149.0915271321
 20
83.1093801703
 30
0.0
 10
149.3512227026
 20
82.9873995247
 30
0.0
 10
149.6984681207
 20
82.7826064532
 30
0.0
 10
150.094374313
 20
82.5173367172
 30
0.0
 10
150.5305772331
 20
82.2017601935
 30
0.0
 10
151.1768718942
 20
81.7095028582
 30
0.0
 10
152.0364200972
 20
81.0188586875
 30
0.0
 10
153.1114163856
 20
80.1232018349
 30
0.0
 10
154.233381403
 20
79.16819318
 30
0.0
 10
155.3830304467
 20
78.1779318092
 30
0.0
 10
156.1563733831
 20
77.5081872803
 30
0.0
 10
156.5455162942
 20
77.1711796336
 30
0.0
  0
SPLINE
  5
484
100
AcDbEntity
  8
KONSTRUKTIONSELEMENTE
100
AcDbSpline
 62
7
  6
CONTINUOUS
 70
0
 71
3
 72
23
 73
19
 74
0
 42
0.0000001
 43
0.0000001
 44
0.0000000001
 40
0.0
 40
0.0
 40
0.0
 40
0.0
 40
0.0498960123
 40
0.1030873028
 40
0.160360488
 40
0.2219907733
 40
0.2876360307
 40
0.3565364999
 40
0.4276938503
 40
0.5000000211
 40
0.5723061968
 40
0.6434635465
 40
0.7123639964
 40
0.7780092482
 40
0.839639542
 40
0.8969127393
 40
0.950104013
 40
1.0
 40
1.0
 40
1.0
 40
1.0
 10
140.7262242746
 20
99.6544944072
 30
0.0
 10
140.9021936882
 20
99.4624354715
 30
0.0
 10
141.229466137
 20
99.0310211666
 30
0.0
 10
141.6165131835
 20
98.2849284697
 30
0.0
 10
141.9110919081
 20
97.4334518837
 30
0.0
 10
142.1213554597
 20
96.4917146811
 30
0.0
 10
142.2614792177
 20
95.4763979703
 30
0.0
 10
142.347290024
 20
94.4055671928
 30
0.0
 10
142.3926197481
 20
93.2976472639
 30
0.0
 10
142.4066692343
 20
92.1711792708
 30
0.0
 10
142.3926197146
 20
91.0447112812
 30
0.0
 10
142.3472899712
 20
89.9367914332
 30
0.0
 10
142.2614791681
 20
88.8659607874
 30
0.0
 10
142.12135538
 20
87.8506441734
 30
0.0
 10
141.9110918133
 20
86.9089068756
 30
0.0
 10
141.616512794
 20
86.0574303978
 30
0.0
 10
141.2294661855
 20
85.3113376342
 30
0.0
 10
140.9021935991
 20
84.8799236985
 30
0.0
 10
140.7262242746
 20
84.6878648601
 30
0.0
  0
SPLINE
  5
485
100
AcDbEntity
  8
KONSTRUKTIONSELEMENTE
100
AcDbSpline
 62
7
  6
CONTINUOUS
 70
0
 71
3
 72
23
 73
19
 74
0
 42
0.0000001
 43
0.0000001
 44
0.0000000001
 40
0.0
 40
0.0
 40
0.0
 40
0.0
 40
0.0498959859
 40
0.1030872587
 40
0.1603604565
 40
0.2219907506
 40
0.2876360027
 40
0.3565364519
 40
0.4276938018
 40
0.4999999786
 40
0.5723061504
 40
0.6434635008
 40
0.71236397
 40
0.7780092275
 40
0.8396395129
 40
0.8969126982
 40
0.9501039883
 40
1.0
 40
1.0
 40
1.0
 40
1.0
 10
172.3648083137
 20
84.6878648601
 30
0.0
 10
172.1888389932
 20
84.8799236942
 30
0.0
 10
171.8615664004
 20
85.3113376129
 30
0.0
 10
171.4745198123
 20
86.0574303789
 30
0.0
 10
171.1799407799
 20
86.9089068503
 30
0.0
 10
170.9696772124
 20
87.8506441539
 30
0.0
 10
170.8295534219
 20
88.8659607675
 30
0.0
 10
170.7437426185
 20
89.9367914126
 30
0.0
 10
170.698412876
 20
91.0447112641
 30
0.0
 10
170.6843633501
 20
92.1711792652
 30
0.0
 10
170.6984128423
 20
93.2976472694
 30
0.0
 10
170.7437425648
 20
94.4055672032
 30
0.0
 10
170.8295533714
 20
95.4763979816
 30
0.0
 10
170.9696771312
 20
96.4917146929
 30
0.0
 10
171.1799406832
 20
97.4334518981
 30
0.0
 10
171.4745194143
 20
98.2849284799
 30
0.0
 10
171.86156645
 20
99.0310211776
 30
0.0
 10
172.1888389021
 20
99.4624354737
 30
0.0
 10
172.3648083137
 20
99.6544944072
 30
0.0
  0
ELLIPSE
  5
486
100
AcDbEntity
  8
KONSTRUKTIONSELEMENTE
100
AcDbEllipse
 62
7
  6
CONTINUOUS
 10
156.5455162942
 20
140.8132343784
 30
0.0
 11
0.0
 21
37.4305555556
 31
0.0
 40
0.4675324675
 41
1.0306217565
 42
1.0861647953
  0
ELLIPSE
  5
487
100
AcDbEntity
  8
KONSTRUKTIONSELEMENTE
100
AcDbEllipse
 62
7
  6
CONTINUOUS
 10
156.5455162942
 20
140.8132343784
 30
0.0
 11
0.0
 21
37.4305555556
 31
0.0
 40
0.4675324675
 41
-1.0861647953
 42
-1.0306217565
  0
ELLIPSE
  5
488
100
AcDbEntity
  8
KONSTRUKTIONSELEMENTE
100
AcDbEllipse
 62
7
  6
CONTINUOUS
 10
156.5455162942
 20
258.8132343784
 30
0.0
 11
0.0
 21
37.4305555556
 31
0.0
 40
0.4675324675
 41
-2.1109708971
 42
-2.0554278639
  0
ELLIPSE
  5
489
100
AcDbEntity
  8
KONSTRUKTIONSELEMENTE
100
AcDbEllipse
 62
7
  6
CONTINUOUS
 10
156.5455162942
 20
258.8132343784
 30
0.0
 11
-0.0
 21
37.4305555556
 31
0.0
 40
0.4675324675
 41
-4.2277574425
 42
-4.1722144101
  0
ELLIPSE
  5
48A
100
AcDbEntity
  8
KONSTRUKTIONSELEMENTE
100
AcDbEllipse
 62
7
  6
CONTINUOUS
 10
262.0979099778
 20
196.2489144239
 30
0.0
 11
20.0
 21
-0.0
 31
0.0
 40
0.7538662222
 41
-0.0073761742
 42
0.0000000003
  0
ELLIPSE
  5
48B
100
AcDbEntity
  8
KONSTRUKTIONSELEMENTE
100
AcDbEllipse
 62
7
  6
CONTINUOUS
 10
262.0979099778
 20
198.1115968446
 30
0.0
 11
20.0
 21
0.0
 31
0.0
 40
0.7538661562
 41
-0.0000000003
 42
0.0073761742
  0
ELLIPSE
  5
48C
100
AcDbEntity
  8
KONSTRUKTIONSELEMENTE
100
AcDbEllipse
 62
7
  6
CONTINUOUS
 10
262.0979099778
 20
198.1857381042
 30
0.0
 11
20.0
 21
0.0
 31
0.0
 40
0.2512890063
 41
0.0073761742
 42
0.0221951469
  0
ELLIPSE
  5
48D
100
AcDbEntity
  8
KONSTRUKTIONSELEMENTE
100
AcDbEllipse
 62
7
  6
CONTINUOUS
 10
262.0979099778
 20
196.1747731578
 30
0.0
 11
20.0
 21
0.0
 31
0.0
 40
0.2512890283
 41
-0.0221951469
 42
-0.0073761742
  0
ELLIPSE
  5
48E
100
AcDbEntity
  8
KONSTRUKTIONSELEMENTE
100
AcDbEllipse
 62
7
  6
CONTINUOUS
 10
262.0979099778
 20
202.8551967265
 30
0.0
 11
-0.0
 21
52.1985816956
 31
0.0
 40
0.3831521729
 41
4.7738860655
 42
4.8068000023
  0
ELLIPSE
  5
48F
100
AcDbEntity
  8
KONSTRUKTIONSELEMENTE
100
AcDbEllipse
 62
7
  6
CONTINUOUS
 10
262.0979099778
 20
208.738766377
 30
0.0
 11
20.0
 21
0.0
 31
0.0
 40
0.5106383587
 41
-0.0944110219
 42
-0.0797720791
  0
ELLIPSE
  5
490
100
AcDbEntity
  8
KONSTRUKTIONSELEMENTE
100
AcDbEllipse
 62
7
  6
CONTINUOUS
 10
262.0979099778
 20
210.095149
 30
0.0
 11
-0.0
 21
27.2340393066
 31
0.0
 40
0.7343750875
 41
-1.6505684059
 42
-1.6396006008
  0
ELLIPSE
  5
491
100
AcDbEntity
  8
KONSTRUKTIONSELEMENTE
100
AcDbEllipse
 62
7
  6
CONTINUOUS
 10
262.0979099778
 20
193.6074228502
 30
0.0
 11
-0.0
 21
50.2577669279
 31
0.0
 40
0.3979484411
 41
4.773144452
 42
4.7790834073
  0
ELLIPSE
  5
492
100
AcDbEntity
  8
KONSTRUKTIONSELEMENTE
100
AcDbEllipse
 62
7
  6
CONTINUOUS
 10
262.0979099778
 20
212.4355782705
 30
0.0
 11
0.0
 21
61.2766468779
 31
0.0
 40
0.3263886165
 41
-1.6396006008
 42
-1.6359465761
  0
ELLIPSE
  5
493
100
AcDbEntity
  8
KONSTRUKTIONSELEMENTE
100
AcDbEllipse
 62
7
  6
CONTINUOUS
 10
262.0979099778
 20
195.6417923666
 30
0.0
 11
20.0
 21
0.0
 31
0.0
 40
0.8376305004
 41
0.0518510068
 42
0.0607554716
  0
ELLIPSE
  5
494
100
AcDbEntity
  8
KONSTRUKTIONSELEMENTE
100
AcDbEllipse
 62
7
  6
CONTINUOUS
 10
262.0979099778
 20
196.1844494082
 30
0.0
 11
20.0
 21
0.0
 31
0.0
 40
0.3141109883
 41
6.3231699528
 42
6.335036314
  0
ELLIPSE
  5
495
100
AcDbEntity
  8
KONSTRUKTIONSELEMENTE
100
AcDbEllipse
 62
7
  6
CONTINUOUS
 10
262.0979099778
 20
204.7547202957
 30
0.0
 11
-0.0
 21
61.2766468779
 31
0.0
 40
0.3263886165
 41
-1.5056460775
 42
-1.5019920527
  0
ELLIPSE
  5
496
100
AcDbEntity
  8
KONSTRUKTIONSELEMENTE
100
AcDbEllipse
 62
7
  6
CONTINUOUS
 10
262.0979099778
 20
207.0951495662
 30
0.0
 11
-0.0
 21
27.2340393066
 31
0.0
 40
0.7343750875
 41
4.7811932544
 42
4.7921610595
  0
ELLIPSE
  5
497
100
AcDbEntity
  8
KONSTRUKTIONSELEMENTE
100
AcDbEllipse
 62
7
  6
CONTINUOUS
 10
262.0979099778
 20
208.0446172471
 30
0.0
 11
20.0
 21
-0.0
 31
0.0
 40
0.7659575381
 41
0.0797720791
 42
0.0944110219
  0
ELLIPSE
  5
498
100
AcDbEntity
  8
KONSTRUKTIONSELEMENTE
100
AcDbEllipse
 62
7
  6
CONTINUOUS
 10
262.0979099778
 20
209.1036600528
 30
0.0
 11
20.0
 21
0.0
 31
0.0
 40
0.2042552558
 41
0.0944110219
 42
0.1127386665
  0
ELLIPSE
  5
499
100
AcDbEntity
  8
KONSTRUKTIONSELEMENTE
100
AcDbEllipse
 62
7
  6
CONTINUOUS
 10
262.0979099778
 20
196.7136045451
 30
0.0
 11
-0.0
 21
37.6933813166
 31
0.0
 40
0.5305971314
 41
-1.5707963245
 42
-1.5663186351
  0
ELLIPSE
  5
49A
100
AcDbEntity
  8
KONSTRUKTIONSELEMENTE
100
AcDbEllipse
 62
7
  6
CONTINUOUS
 10
262.0979099778
 20
196.5448268136
 30
0.0
 11
-0.0
 21
75.3865293512
 31
0.0
 40
0.2652993867
 41
-1.5663186351
 42
-1.5633551312
  0
ELLIPSE
  5
49B
100
AcDbEntity
  8
KONSTRUKTIONSELEMENTE
100
AcDbEllipse
 62
7
  6
CONTINUOUS
 10
262.0979099778
 20
197.8156847006
 30
0.0
 11
-0.0
 21
75.3865645494
 31
0.0
 40
0.2652992628
 41
-1.5782375224
 42
-1.5752740185
  0
ELLIPSE
  5
49C
100
AcDbEntity
  8
KONSTRUKTIONSELEMENTE
100
AcDbEllipse
 62
7
  6
CONTINUOUS
 10
262.0979099778
 20
197.6469067721
 30
0.0
 11
0.0
 21
37.693372517
 31
0.0
 40
0.5305972553
 41
4.7079112887
 42
4.7123889781
  0
ELLIPSE
  5
49D
100
AcDbEntity
  8
KONSTRUKTIONSELEMENTE
100
AcDbEllipse
 62
7
  6
CONTINUOUS
 10
262.0979099778
 20
198.1760618962
 30
0.0
 11
20.0
 21
0.0
 31
0.0
 40
0.3141109883
 41
-0.0518510068
 42
-0.0399846457
  0
ELLIPSE
  5
49E
100
AcDbEntity
  8
KONSTRUKTIONSELEMENTE
100
AcDbEllipse
 62
7
  6
CONTINUOUS
 10
262.0979099778
 20
198.8272495543
 30
0.0
 11
20.0
 21
-0.0
 31
0.0
 40
0.9423336389
 41
-0.0637246721
 42
-0.0518510068
  0
ELLIPSE
  5
49F
100
AcDbEntity
  8
KONSTRUKTIONSELEMENTE
100
AcDbEllipse
 62
7
  6
CONTINUOUS
 10
262.0979099778
 20
201.4172332943
 30
0.0
 11
-0.0
 21
46.0696394517
 31
0.0
 40
0.4341253858
 41
-1.6970453241
 42
-1.6791413938
  0
ELLIPSE
  5
4A0
100
AcDbEntity
  8
KONSTRUKTIONSELEMENTE
100
AcDbEllipse
 62
7
  6
CONTINUOUS
 10
262.0979099778
 20
204.3096232838
 30
0.0
 11
-0.0
 21
29.317051287
 31
0.0
 40
0.6821968487
 41
-1.7721542476
 42
-1.7540394295
  0
ELLIPSE
  5
4A1
100
AcDbEntity
  8
KONSTRUKTIONSELEMENTE
100
AcDbEllipse
 62
7
  6
CONTINUOUS
 10
262.0979099778
 20
206.1696173659
 30
0.0
 11
20.0
 21
-0.0
 31
0.0
 40
0.2042553906
 41
6.2571407031
 42
6.2753727277
  0
ELLIPSE
  5
4A2
100
AcDbEntity
  8
KONSTRUKTIONSELEMENTE
100
AcDbEllipse
 62
7
  6
CONTINUOUS
 10
262.0979099778
 20
185.6246889094
 30
0.0
 11
0.0
 21
75.386745034
 31
0.0
 40
0.2652986276
 41
-1.3280672921
 42
-1.325013196
  0
ELLIPSE
  5
4A3
100
AcDbEntity
  8
KONSTRUKTIONSELEMENTE
100
AcDbEllipse
 62
7
  6
CONTINUOUS
 10
262.0979099778
 20
195.8151416059
 30
0.0
 11
0.0
 21
33.505188062
 31
0.0
 40
0.5969224815
 41
4.9581721112
 42
4.9673485945
  0
ELLIPSE
  5
4A4
100
AcDbEntity
  8
KONSTRUKTIONSELEMENTE
100
AcDbEllipse
 62
7
  6
CONTINUOUS
 10
262.0979099778
 20
199.5121119272
 30
0.0
 11
20.0
 21
-0.0
 31
0.0
 40
0.9423336389
 41
0.2549596142
 42
0.2672293081
  0
ELLIPSE
  5
4A5
100
AcDbEntity
  8
KONSTRUKTIONSELEMENTE
100
AcDbEllipse
 62
7
  6
CONTINUOUS
 10
262.0979099778
 20
203.1616590384
 30
0.0
 11
20.0
 21
-0.0
 31
0.0
 40
0.2512888625
 41
0.2672293081
 42
0.2826248602
  0
ELLIPSE
  5
4A6
100
AcDbEntity
  8
KONSTRUKTIONSELEMENTE
100
AcDbEllipse
 62
7
  6
CONTINUOUS
 10
262.0979099778
 20
204.0286395279
 30
0.0
 11
20.0
 21
-0.0
 31
0.0
 40
0.2512888625
 41
-0.2826248602
 42
-0.2672293081
  0
ELLIPSE
  5
4A7
100
AcDbEntity
  8
KONSTRUKTIONSELEMENTE
100
AcDbEllipse
 62
7
  6
CONTINUOUS
 10
262.0979099778
 20
207.6781866391
 30
0.0
 11
20.0
 21
0.0
 31
0.0
 40
0.9423336389
 41
-0.2672293081
 42
-0.2549596142
  0
ELLIPSE
  5
4A8
100
AcDbEntity
  8
KONSTRUKTIONSELEMENTE
100
AcDbEllipse
 62
7
  6
CONTINUOUS
 10
262.0979099778
 20
211.3751569604
 30
0.0
 11
0.0
 21
33.505188062
 31
0.0
 40
0.5969224815
 41
-1.8257559409
 42
-1.8165794576
  0
ELLIPSE
  5
4A9
100
AcDbEntity
  8
KONSTRUKTIONSELEMENTE
100
AcDbEllipse
 62
7
  6
CONTINUOUS
 10
262.0979099778
 20
221.5656096568
 30
0.0
 11
0.0
 21
75.386745034
 31
0.0
 40
0.2652986276
 41
-1.8165794576
 42
-1.8135253615
  0
ELLIPSE
  5
4AA
100
AcDbEntity
  8
KONSTRUKTIONSELEMENTE
100
AcDbEllipse
 62
7
  6
CONTINUOUS
 10
262.0979099778
 20
211.5123860617
 30
0.0
 11
0.0
 21
75.3865293512
 31
0.0
 40
0.2652993867
 41
-1.6809801269
 42
-1.6779990835
  0
ELLIPSE
  5
4AB
100
AcDbEntity
  8
KONSTRUKTIONSELEMENTE
100
AcDbEllipse
 62
7
  6
CONTINUOUS
 10
262.0979099778
 20
206.9070723866
 30
0.0
 11
0.0
 21
33.505188062
 31
0.0
 40
0.5969224815
 41
-1.6899292509
 42
-1.6809801269
  0
ELLIPSE
  5
4AC
100
AcDbEntity
  8
KONSTRUKTIONSELEMENTE
100
AcDbEllipse
 62
7
  6
CONTINUOUS
 10
262.0979099778
 20
205.164886865
 30
0.0
 11
20.0
 21
0.0
 31
0.0
 40
0.9423329649
 41
-0.1310801536
 42
-0.1191329241
  0
ELLIPSE
  5
4AD
100
AcDbEntity
  8
KONSTRUKTIONSELEMENTE
100
AcDbEllipse
 62
7
  6
CONTINUOUS
 10
262.0979099778
 20
203.3584273881
 30
0.0
 11
20.0
 21
-0.0
 31
0.0
 40
0.2512890063
 41
-0.1460408953
 42
-0.1310801536
  0
ELLIPSE
  5
4AE
100
AcDbEntity
  8
KONSTRUKTIONSELEMENTE
100
AcDbEllipse
 62
7
  6
CONTINUOUS
 10
262.0979099778
 20
195.6779125045
 30
0.0
 11
-0.0
 21
75.3865293512
 31
0.0
 40
0.2652993867
 41
-1.4635935701
 42
-1.4606125267
  0
ELLIPSE
  5
4AF
100
AcDbEntity
  8
KONSTRUKTIONSELEMENTE
100
AcDbEllipse
 62
7
  6
CONTINUOUS
 10
262.0979099778
 20
200.2832261796
 30
0.0
 11
0.0
 21
33.505188062
 31
0.0
 40
0.5969224815
 41
4.8225727805
 42
4.8315219045
  0
ELLIPSE
  5
4B0
100
AcDbEntity
  8
KONSTRUKTIONSELEMENTE
100
AcDbEllipse
 62
7
  6
CONTINUOUS
 10
262.0979099778
 20
202.0254117013
 30
0.0
 11
20.0
 21
-0.0
 31
0.0
 40
0.9423329649
 41
0.1191329241
 42
0.1310801536
  0
ELLIPSE
  5
4B1
100
AcDbEntity
  8
KONSTRUKTIONSELEMENTE
100
AcDbEllipse
 62
7
  6
CONTINUOUS
 10
262.0979099778
 20
203.8318711781
 30
0.0
 11
20.0
 21
-0.0
 31
0.0
 40
0.2512890063
 41
0.1310801536
 42
0.1460408953
  0
ELLIPSE
  5
4B2
100
AcDbEntity
  8
KONSTRUKTIONSELEMENTE
100
AcDbEllipse
 62
7
  6
CONTINUOUS
 10
262.0979099778
 20
206.1483404913
 30
0.0
 11
0.0
 21
20.4255507474
 31
0.0
 40
0.9791657639
 41
4.7191598724
 42
4.7337447633
  0
ELLIPSE
  5
4B3
100
AcDbEntity
  8
KONSTRUKTIONSELEMENTE
100
AcDbEllipse
 62
7
  6
CONTINUOUS
 10
262.0979099778
 20
196.5749981541
 30
0.0
 11
20.0
 21
0.0
 31
0.0
 40
0.3141109883
 41
-0.0221951469
 42
-0.0103397248
  0
ELLIPSE
  5
4B4
100
AcDbEntity
  8
KONSTRUKTIONSELEMENTE
100
AcDbEllipse
 62
7
  6
CONTINUOUS
 10
262.0979099778
 20
196.6832570137
 30
0.0
 11
20.0
 21
0.0
 31
0.0
 40
0.8376297016
 41
-0.0103397248
 42
-0.0014492073
  0
ELLIPSE
  5
4B5
100
AcDbEntity
  8
KONSTRUKTIONSELEMENTE
100
AcDbEllipse
 62
7
  6
CONTINUOUS
 10
262.0979099778
 20
199.0489140393
 30
0.0
 11
20.0
 21
-0.0
 31
0.0
 40
0.7538665876
 41
-0.0696647708
 42
-0.0548186611
  0
ELLIPSE
  5
4B6
100
AcDbEntity
  8
KONSTRUKTIONSELEMENTE
100
AcDbEllipse
 62
7
  6
CONTINUOUS
 10
262.0979099778
 20
198.4981773691
 30
0.0
 11
20.0
 21
-0.0
 31
0.0
 40
0.2512890063
 41
-0.0548186611
 42
-0.0399846457
  0
ELLIPSE
  5
4B7
100
AcDbEntity
  8
KONSTRUKTIONSELEMENTE
100
AcDbEllipse
 62
7
  6
CONTINUOUS
 10
262.0979099778
 20
197.6772542908
 30
0.0
 11
20.0
 21
-0.0
 31
0.0
 40
0.8376297016
 41
6.2846345145
 42
6.293525032
  0
ELLIPSE
  5
4B8
100
AcDbEntity
  8
KONSTRUKTIONSELEMENTE
100
AcDbEllipse
 62
7
  6
CONTINUOUS
 10
262.0979099778
 20
208.4497593102
 30
0.0
 11
20.0
 21
0.0
 31
0.0
 40
0.3404254913
 41
0.0980738146
 42
0.1090702976
  0
ELLIPSE
  5
4B9
100
AcDbEntity
  8
KONSTRUKTIONSELEMENTE
100
AcDbEllipse
 62
7
  6
CONTINUOUS
 10
262.0979099778
 20
197.7855131503
 30
0.0
 11
20.0
 21
0.0
 31
0.0
 40
0.3141109883
 41
6.293525032
 42
6.305380454
  0
ELLIPSE
  5
4BA
100
AcDbEntity
  8
KONSTRUKTIONSELEMENTE
100
AcDbEllipse
 62
7
  6
CONTINUOUS
 10
262.0979099778
 20
207.1164270421
 30
0.0
 11
-0.0
 21
20.4255197403
 31
0.0
 40
0.9791672503
 41
-1.4800468172
 42
-1.4727225122
  0
ELLIPSE
  5
4BB
100
AcDbEntity
  8
KONSTRUKTIONSELEMENTE
100
AcDbEllipse
 62
7
  6
CONTINUOUS
 10
262.0979099778
 20
203.4142936453
 30
0.0
 11
-0.0
 21
61.2766468779
 31
0.0
 40
0.3263886165
 41
-1.4837071099
 42
-1.4800468172
  0
ELLIPSE
  5
4BC
100
AcDbEntity
  8
KONSTRUKTIONSELEMENTE
100
AcDbEllipse
 62
7
  6
CONTINUOUS
 10
262.0979099778
 20
213.8504729972
 30
0.0
 11
0.0
 21
61.2766468779
 31
0.0
 40
0.3263886165
 41
-1.6615458364
 42
-1.6578855437
  0
ELLIPSE
  5
4BD
100
AcDbEntity
  8
KONSTRUKTIONSELEMENTE
100
AcDbEllipse
 62
7
  6
CONTINUOUS
 10
262.0979099778
 20
210.1483396004
 30
0.0
 11
0.0
 21
20.4255197403
 31
0.0
 40
0.9791672503
 41
-1.6688701414
 42
-1.6615458364
  0
ELLIPSE
  5
4BE
100
AcDbEntity
  8
KONSTRUKTIONSELEMENTE
100
AcDbEllipse
 62
7
  6
CONTINUOUS
 10
262.0979099778
 20
208.8150073323
 30
0.0
 11
20.0
 21
-0.0
 31
0.0
 40
0.3404254913
 41
-0.1090702976
 42
-0.0980738146
  0
ELLIPSE
  5
4BF
100
AcDbEntity
  8
KONSTRUKTIONSELEMENTE
100
AcDbEllipse
 62
7
  6
CONTINUOUS
 10
262.0979099778
 20
195.8623338656
 30
0.0
 11
20.0
 21
0.0
 31
0.0
 40
0.2512890283
 41
0.0399846457
 42
0.0548186611
  0
ELLIPSE
  5
4C0
100
AcDbEntity
  8
KONSTRUKTIONSELEMENTE
100
AcDbEllipse
 62
7
  6
CONTINUOUS
 10
262.0979099778
 20
195.3115971472
 30
0.0
 11
20.0
 21
0.0
 31
0.0
 40
0.7538666536
 41
6.3380039683
 42
6.352850078
  0
ELLIPSE
  5
4C1
100
AcDbEntity
  8
KONSTRUKTIONSELEMENTE
100
AcDbEllipse
 62
7
  6
CONTINUOUS
 10
262.0979099778
 20
201.399670018
 30
0.0
 11
0.0
 21
53.6170252333
 31
0.0
 40
0.3730158455
 41
-1.4837071099
 42
-1.4543877619
  0
ELLIPSE
  5
4C2
100
AcDbEntity
  8
KONSTRUKTIONSELEMENTE
100
AcDbEllipse
 62
7
  6
CONTINUOUS
 10
262.0979099778
 20
202.0998558024
 30
0.0
 11
0.0
 21
43.7661470444
 31
0.0
 40
0.4341254893
 41
-1.7194815699
 42
-1.7091664999
  0
ELLIPSE
  5
4C3
100
AcDbEntity
  8
KONSTRUKTIONSELEMENTE
100
AcDbEllipse
 62
7
  6
CONTINUOUS
 10
262.0979099778
 20
202.0998558024
 30
0.0
 11
-0.0
 21
46.0696284678
 31
0.0
 40
0.4341254893
 41
-1.7119961617
 42
-1.6940586607
  0
ELLIPSE
  5
4C4
100
AcDbEntity
  8
KONSTRUKTIONSELEMENTE
100
AcDbEllipse
 62
7
  6
CONTINUOUS
 10
262.0979099778
 20
203.2275899938
 30
0.0
 11
0.0
 21
73.8160910505
 31
0.0
 40
0.2709436346
 41
4.6830638586
 42
4.7304841851
  0
ELLIPSE
  5
4C5
100
AcDbEntity
  8
KONSTRUKTIONSELEMENTE
100
AcDbEllipse
 62
7
  6
CONTINUOUS
 10
262.0979099778
 20
204.2679881079
 30
0.0
 11
20.0
 21
-0.0
 31
0.0
 40
0.4188148508
 41
-0.1430462147
 42
-0.134069823
  0
ELLIPSE
  5
4C6
100
AcDbEntity
  8
KONSTRUKTIONSELEMENTE
100
AcDbEllipse
 62
7
  6
CONTINUOUS
 10
262.0979099778
 20
206.5072860843
 30
0.0
 11
-0.0
 21
25.1289150113
 31
0.0
 40
0.7958958829
 41
-1.7048661498
 42
-1.6988879719
  0
ELLIPSE
  5
4C7
100
AcDbEntity
  8
KONSTRUKTIONSELEMENTE
100
AcDbEllipse
 62
7
  6
CONTINUOUS
 10
262.0979099778
 20
212.9272769534
 30
0.0
 11
0.0
 21
75.3865293512
 31
0.0
 40
0.2652993867
 41
-1.6988879719
 42
-1.6959006133
  0
ELLIPSE
  5
4C8
100
AcDbEntity
  8
KONSTRUKTIONSELEMENTE
100
AcDbEllipse
 62
7
  6
CONTINUOUS
 10
262.0979099778
 20
194.0288627929
 30
0.0
 11
0.0
 21
33.5051909952
 31
0.0
 40
0.5969224292
 41
4.7820537512
 42
4.7909685927
  0
ELLIPSE
  5
4C9
100
AcDbEntity
  8
KONSTRUKTIONSELEMENTE
100
AcDbEllipse
 62
7
  6
CONTINUOUS
 10
262.0979099778
 20
194.337489689
 30
0.0
 11
-0.0
 21
75.3865293512
 31
0.0
 40
0.2652993867
 41
-1.4456920403
 42
-1.4427046817
  0
ELLIPSE
  5
4CA
100
AcDbEntity
  8
KONSTRUKTIONSELEMENTE
100
AcDbEllipse
 62
7
  6
CONTINUOUS
 10
262.0979099778
 20
200.7574805582
 30
0.0
 11
-0.0
 21
25.1289150113
 31
0.0
 40
0.7958958829
 41
4.8404806255
 42
4.8464588034
  0
ELLIPSE
  5
4CB
100
AcDbEntity
  8
KONSTRUKTIONSELEMENTE
100
AcDbEllipse
 62
7
  6
CONTINUOUS
 10
262.0979099778
 20
192.7138062051
 30
0.0
 11
0.0
 21
50.2577669279
 31
0.0
 40
0.3979484411
 41
-1.4922167145
 42
-1.4862700494
  0
ELLIPSE
  5
4CC
100
AcDbEntity
  8
KONSTRUKTIONSELEMENTE
100
AcDbEllipse
 62
7
  6
CONTINUOUS
 10
262.0979099778
 20
202.9967785345
 30
0.0
 11
20.0
 21
0.0
 31
0.0
 40
0.4188148508
 41
0.134069823
 42
0.1430462147
  0
ELLIPSE
  5
4CD
100
AcDbEntity
  8
KONSTRUKTIONSELEMENTE
100
AcDbEllipse
 62
7
  6
CONTINUOUS
 10
262.0979099778
 20
204.9053657557
 30
0.0
 11
-0.0
 21
27.8511875766
 31
0.0
 40
0.6821971217
 41
-1.7829096373
 42
-1.7638022062
  0
ELLIPSE
  5
4CE
100
AcDbEntity
  8
KONSTRUKTIONSELEMENTE
100
AcDbEllipse
 62
7
  6
CONTINUOUS
 10
262.0979099778
 20
204.9053657557
 30
0.0
 11
-0.0
 21
29.3170395543
 31
0.0
 40
0.6821971217
 41
-1.7721542476
 42
-1.7540394295
  0
ELLIPSE
  5
4CF
100
AcDbEntity
  8
KONSTRUKTIONSELEMENTE
100
AcDbEllipse
 62
7
  6
CONTINUOUS
 10
262.0979099778
 20
206.2174896581
 30
0.0
 11
20.0
 21
-0.0
 31
0.0
 40
0.5106380606
 41
6.2753727277
 42
6.2899561992
  0
ELLIPSE
  5
4D0
100
AcDbEntity
  8
KONSTRUKTIONSELEMENTE
100
AcDbEllipse
 62
7
  6
CONTINUOUS
 10
262.0979099778
 20
201.8797573201
 30
0.0
 11
20.0
 21
-0.0
 31
0.0
 40
0.4188148508
 41
6.5534884185
 42
6.5627256757
  0
ELLIPSE
  5
4D1
100
AcDbEntity
  8
KONSTRUKTIONSELEMENTE
100
AcDbEllipse
 62
7
  6
CONTINUOUS
 10
262.0979099778
 20
197.4064233177
 30
0.0
 11
0.0
 21
25.1288790641
 31
0.0
 40
0.7958970215
 41
4.9765470786
 42
4.9826920917
  0
ELLIPSE
  5
4D2
100
AcDbEntity
  8
KONSTRUKTIONSELEMENTE
100
AcDbEllipse
 62
7
  6
CONTINUOUS
 10
262.0979099778
 20
184.2842622589
 30
0.0
 11
0.0
 21
75.386745034
 31
0.0
 40
0.2652986276
 41
-1.3097068894
 42
-1.3066382286
  0
ELLIPSE
  5
4D3
100
AcDbEntity
  8
KONSTRUKTIONSELEMENTE
100
AcDbEllipse
 62
7
  6
CONTINUOUS
 10
262.0979099778
 20
222.9805043835
 30
0.0
 11
0.0
 21
75.386745034
 31
0.0
 40
0.2652986276
 41
-1.834954425
 42
-1.8318857642
  0
ELLIPSE
  5
4D4
100
AcDbEntity
  8
KONSTRUKTIONSELEMENTE
100
AcDbEllipse
 62
7
  6
CONTINUOUS
 10
262.0979099778
 20
209.8583433247
 30
0.0
 11
0.0
 21
25.1288790641
 31
0.0
 40
0.7958970215
 41
-1.8410994381
 42
-1.834954425
  0
ELLIPSE
  5
4D5
100
AcDbEntity
  8
KONSTRUKTIONSELEMENTE
100
AcDbEllipse
 62
7
  6
CONTINUOUS
 10
262.0979099778
 20
205.3850093224
 30
0.0
 11
20.0
 21
0.0
 31
0.0
 40
0.4188148508
 41
-0.2795403685
 42
-0.2703031113
  0
ELLIPSE
  5
4D6
100
AcDbEntity
  8
KONSTRUKTIONSELEMENTE
100
AcDbEllipse
 62
7
  6
CONTINUOUS
 10
262.0979099778
 20
203.9568576902
 30
0.0
 11
-0.0
 21
102.1274526072
 31
0.0
 40
0.1958337302
 41
-1.5421465778
 42
-1.538499042
  0
ELLIPSE
  5
4D7
100
AcDbEntity
  8
KONSTRUKTIONSELEMENTE
100
AcDbEllipse
 62
7
  6
CONTINUOUS
 10
262.0979099778
 20
205.7121711899
 30
0.0
 11
0.0
 21
40.8510466332
 31
0.0
 40
0.4895835394
 41
-1.5494405438
 42
-1.5421465778
  0
ENDSEC
  0
SECTION
  2
OBJECTS
  0
DICTIONARY
  5
C
100
AcDbDictionary
280
0
281
1
  3
ACAD_GROUP
350
D
  3
ACAD_MLINESTYLE
350
17
  3
ACAD_LAYOUT
350
1A
  3
ACAD_PLOTSETTINGS
350
19
  3
ACAD_PLOTSTYLENAME
350
E
  0
DICTIONARY
  5
D
102
{ACAD_REACTORS
330
C
102
}
100
AcDbDictionary
280
0
281
1
  0
ACDBDICTIONARYWDFLT
  5
E
102
{ACAD_REACTORS
330
C
102
}
100
AcDbDictionary
281
1
  3
Normal
350
F
100
AcDbDictionaryWithDefault
340
F
  0
DICTIONARY
  5
17
102
{ACAD_REACTORS
330
C
102
}
100
AcDbDictionary
280
0
281
1
  3
Standard
350
18
  0
DICTIONARY
  5
19
102
{ACAD_REACTORS
330
C
102
}
100
AcDbDictionary
281
1
  0
DICTIONARY
  5
1A
102
{ACAD_REACTORS
330
C
102
}
100
AcDbDictionary
281
1
  3
Model
350
4D8
  3
Layout1
350
4D9
  0
ACDBPLACEHOLDER
  5
F
102
{ACAD_REACTORS
330
E
102
}
  0
MLINESTYLE
  5
18
102
{ACAD_REACTORS
330
17
102
}
100
AcDbMlineStyle
  2
STANDARD
 70
0
  3

 62
256
 51
90.0
 52
90.0
 71
2
 49
0.5
 62
256
  6
BYLAYER
 49
-0.5
 62
256
  6
BYLAYER
  0
LAYOUT
  5
4D8
102
{ACAD_REACTORS
330
1A
102
}
100
AcDbPlotSettings
  1

  2
none_device
  4
ISO_A3_(420.00_x_297.00_MM)
  6

 40
0.0
 41
0.0
 42
0.0
 43
0.0
 44
420.0
 45
297.0
 46
0.0
 47
0.0
 48
0.0
 49
0.0
140
0.0
141
0.0
142
1.0
143
1.0
 70
1024
 72
1
 73
0
 74
0
  7

 75
0
147
1.0
148
0.0
149
0.0
100
AcDbLayout
  1
Model
 70
0
 71
0
 10
0.0
 20
0.0
 11
420.0
 21
297.0
 12
0.0
 22
0.0
 32
0.0
 14
0.0
 24
0.0
 34
0.0
 15
0.0
 25
0.0
 35
0.0
146
0.0
 13
0.0
 23
0.0
 33
0.0
 16
1.0
 26
0.0
 36
0.0
 17
0.0
 27
1.0
 37
0.0
 76
0
330
209
345
0
346
0
  0
LAYOUT
  5
4D9
102
{ACAD_REACTORS
330
1A
102
}
100
AcDbPlotSettings
  1

  2
none_device
  4
ISO_A3_(420.00_x_297.00_MM)
  6

 40
0.0
 41
0.0
 42
0.0
 43
0.0
 44
420.0
 45
297.0
 46
0.0
 47
0.0
 48
0.0
 49
0.0
140
0.0
141
0.0
142
1.0
143
1.0
 70
0
 72
1
 73
0
 74
0
  7

 75
0
147
1.0
148
0.0
149
0.0
100
AcDbLayout
  1
Layout1
 70
0
 71
1
 10
0.0
 20
0.0
 11
420.0
 21
297.0
 12
0.0
 22
0.0
 32
0.0
 14
0.0
 24
0.0
 34
0.0
 15
0.0
 25
0.0
 35
0.0
146
0.0
 13
0.0
 23
0.0
 33
0.0
 16
1.0
 26
0.0
 36
0.0
 17
0.0
 27
1.0
 37
0.0
 76
0
330
20A
345
0
346
0
  0
ENDSEC
  0
EOF
