999
DXF file: D:\CAD-ICE-neu\2-uwpp-16.dxf
999
Pro/ENGINEER 2005030 by Parametric Technology Corporation
0
SECTION
2
HEADER
9
$ACADVER
1
AC1014
9
$HANDSEED
5
       4F5
9
$EXTMAX
10
420.0000000000
20
297.0000000000
9
$EXTMIN
10
0.0000000000
20
0.0000000000
9
$LIMMIN
10
0.0000000000
20
0.0000000000
9
$LIMMAX
10
420.0000000000
20
297.0000000000
9
$VIEWCTR
10
210.0000000000
20
148.5000000000
9
$VIEWSIZE
40
297.0000000000
9
$CLAYER
8
0
9
$LTSCALE
40
23.1000000000
9
$CELTYPE
6
BYLAYER
9
$DIMSCALE
40
1
9
$DIMASZ
40
3.5000000000
9
$DIMEXO
40
2.6250000000
9
$DIMDLI
40
15.9600000000
9
$DIMEXE
40
7.5600000000
9
$DIMCEN
40
3.7800000000
9
$DIMLFAC
40
1.0000000000
9
$DIMTXT
40
3.5000000000
9
$DIMTOL
70
1
9
$DIMLIM
70
0
9
$DIMTFAC
40
1.0000000000
9
$DIMTP
40
0.0050000000
9
$DIMTM
40
0.0050000000
9
$MEASUREMENT
70
1
0
ENDSEC
0
SECTION
2
CLASSES
0
ENDSEC
0
SECTION
2
TABLES
0
TABLE
2
VPORT
5
8
100
AcDbSymbolTable
70
2
0
VPORT
5
1F4
100
AcDbSymbolTableRecord
100
AcDbViewportTableRecord
2
*ACTIVE
70
0
10
0.0
20
0.0
11
1.0
21
1.0
12
210.0000000000
22
148.5000000000
13
0.0
23
0.0
14
1.0
24
1.0
15
0.0
25
0.0
16
0.0
26
0.0
36
1.0
17
0.0
27
0.0
37
0.0
40
297.0000000000
41
1.4141414141
42
50.0
43
0.0
44
0.0
50
0.0
51
0.0
71
0
72
100
73
1
74
1
75
0
76
0
77
0
78
0
0
ENDTAB
0
TABLE
2
LTYPE
5
5
100
AcDbSymbolTable
70
6
0
LTYPE
5
14
100
AcDbSymbolTableRecord
100
AcDbLinetypeTableRecord
2
BYBLOCK
70
0
3

72
65
73
0
40
0.0
0
LTYPE
5
15
100
AcDbSymbolTableRecord
100
AcDbLinetypeTableRecord
2
BYLAYER
70
0
3

72
65
73
0
40
0.0
0
LTYPE
5
16
100
AcDbSymbolTableRecord
100
AcDbLinetypeTableRecord
2
CONTINUOUS
70
64
3
Solid line
72
65
73
0
40
0
0
LTYPE
5
1F5
100
AcDbSymbolTableRecord
100
AcDbLinetypeTableRecord
2
CENTER
70
64
3
____ _ ____ _ ____ _ ____ _ ____ _ ____ _ ____
72
65
73
4
40
0.6
49
0.375
74
0
49
-0.075
74
0
49
0.075
74
0
49
-0.075
74
0
0
LTYPE
5
1F6
100
AcDbSymbolTableRecord
100
AcDbLinetypeTableRecord
2
HIDDEN
70
64
3
- - - - - - - - - - - - - - - - - - - -
72
65
73
2
40
0.2
49
0.1
74
0
49
-0.1
74
0
0
LTYPE
5
1F7
100
AcDbSymbolTableRecord
100
AcDbLinetypeTableRecord
2
PHANTOM
70
64
3
_____ _ _ _____ _ _ _____ _ _ _____
72
65
73
6
40
0.8
49
0.45
74
0
49
-0.05
74
0
49
0.1
74
0
49
-0.05
74
0
49
0.1
74
0
49
-0.05
74
0
0
LTYPE
5
1F8
100
AcDbSymbolTableRecord
100
AcDbLinetypeTableRecord
2
DOT
70
64
3
. . . . . . . . . . . . . . . . . . . .
72
65
73
2
40
0.2
49
0.1
74
0
49
-0.1
74
0
0
LTYPE
5
1F9
100
AcDbSymbolTableRecord
100
AcDbLinetypeTableRecord
2
DASHED
70
64
3
- - - - - - - - - - - - - - - - - - - -
72
65
73
2
40
0.2
49
0.1
74
0
49
-0.1
74
0
0
ENDTAB
0
TABLE
2
LAYER
5
2
100
AcDbSymbolTable
70
36
0
LAYER
5
10
100
AcDbSymbolTableRecord
100
AcDbLayerTableRecord
2
0
70
0
62
7
6
CONTINUOUS
0
LAYER
5
1FA
100
AcDbSymbolTableRecord
100
AcDbLayerTableRecord
2
DEFAULT_1
70
0
62
7
6
CENTER
0
LAYER
5
1FB
100
AcDbSymbolTableRecord
100
AcDbLayerTableRecord
2
DEFAULT_2
70
0
62
8
6
HIDDEN
0
LAYER
5
1FC
100
AcDbSymbolTableRecord
100
AcDbLayerTableRecord
2
DEFAULT_3
70
0
62
7
6
PHANTOM
0
LAYER
5
1FD
100
AcDbSymbolTableRecord
100
AcDbLayerTableRecord
2
AUSFORMSCHRAEGEN
70
0
62
7
6
CONTINUOUS
0
LAYER
5
1FE
100
AcDbSymbolTableRecord
100
AcDbLayerTableRecord
2
BEZUGSACHSEN
70
0
62
7
6
CONTINUOUS
0
LAYER
5
1FF
100
AcDbSymbolTableRecord
100
AcDbLayerTableRecord
2
BEZUGSEBENEN
70
0
62
7
6
CONTINUOUS
0
LAYER
5
200
100
AcDbSymbolTableRecord
100
AcDbLayerTableRecord
2
BG_STARTBEZUEGE
70
0
62
7
6
CONTINUOUS
0
LAYER
5
201
100
AcDbSymbolTableRecord
100
AcDbLayerTableRecord
2
BOHRUNGEN
70
0
62
7
6
CONTINUOUS
0
LAYER
5
202
100
AcDbSymbolTableRecord
100
AcDbLayerTableRecord
2
FASEN
70
0
62
7
6
CONTINUOUS
0
LAYER
5
203
100
AcDbSymbolTableRecord
100
AcDbLayerTableRecord
2
GEWINDE
70
0
62
7
6
CONTINUOUS
0
LAYER
5
204
100
AcDbSymbolTableRecord
100
AcDbLayerTableRecord
2
HILFEN
70
0
62
7
6
CONTINUOUS
0
LAYER
5
205
100
AcDbSymbolTableRecord
100
AcDbLayerTableRecord
2
KONSTRUKTIONSELEMENTE
70
0
62
7
6
CONTINUOUS
0
LAYER
5
206
100
AcDbSymbolTableRecord
100
AcDbLayerTableRecord
2
PLATZIERUNG
70
0
62
7
6
CONTINUOUS
0
LAYER
5
207
100
AcDbSymbolTableRecord
100
AcDbLayerTableRecord
2
PLAZIERUNG
70
0
62
7
6
CONTINUOUS
0
LAYER
5
208
100
AcDbSymbolTableRecord
100
AcDbLayerTableRecord
2
RUNDUNGEN
70
0
62
7
6
CONTINUOUS
0
LAYER
5
209
100
AcDbSymbolTableRecord
100
AcDbLayerTableRecord
2
TEIL_STARTBEZUEGE
70
0
62
7
6
CONTINUOUS
0
ENDTAB
0
TABLE
2
STYLE
5
3
100
AcDbSymbolTable
70
1
0
STYLE
5
11
100
AcDbSymbolTableRecord
100
AcDbTextStyleTableRecord
2
STANDARD
70
0
40
0.0
41
0.7000000000
50
0.0
71
0
42
0.2
3
txt
4

0
ENDTAB
0
TABLE
2
VIEW
5
6
100
AcDbSymbolTable
70
0
0
ENDTAB
0
TABLE
2
UCS
5
7
100
AcDbSymbolTable
70
0
0
ENDTAB
0
TABLE
2
APPID
5
9
100
AcDbSymbolTable
70
1
0
APPID
5
20A
100
AcDbSymbolTableRecord
100
AcDbRegAppTableRecord
2
ACAD
70
0
0
ENDTAB
0
TABLE
2
DIMSTYLE
5
A
100
AcDbSymbolTable
70
1
0
DIMSTYLE
105
20B
100
AcDbSymbolTableRecord
100
AcDbDimStyleTableRecord
2
STANDARD
70
0
3

4

5

6

7

40
1.0
41
3.5000000000
42
0.0625
43
0.38
44
0.18
45
0.0
46
0.0
47
0.0050000000
48
0.0050000000
140
3.5000000000
141
0.09
142
0.0
143
25.4
144
1.0000000000
145
0.0
146
1.0000000000
147
0.09
71
1
72
0
73
0
74
0
75
0
76
0
77
1
78
8
170
0
171
2
172
0
173
0
174
0
175
0
176
0
177
0
178
5
270
2
271
3
272
3
273
2
274
2
340
11
275
0
280
0
281
0
282
0
283
1
284
8
285
0
286
0
287
3
288
0
0
ENDTAB
0
TABLE
2
BLOCK_RECORD
5
1
100
AcDbSymbolTable
70
0
0
BLOCK_RECORD
5
1B
100
AcDbSymbolTableRecord
100
AcDbBlockTableRecord
2
*MODEL_SPACE
0
BLOCK_RECORD
5
1C
100
AcDbSymbolTableRecord
100
AcDbBlockTableRecord
2
*PAPER_SPACE
0
ENDTAB
0
ENDSEC
0
SECTION
2
BLOCKS
0
BLOCK
5
1E
100
AcDbEntity
8
0
100
AcDbBlockBegin
2
*MODEL_SPACE
70
0
10
0.0
20
0.0
30
0.0
3
*MODEL_SPACE
1

0
ENDBLK
5
1F
100
AcDbEntity
8
0
100
AcDbBlockEnd
0
BLOCK
5
20
100
AcDbEntity
8
0
100
AcDbBlockBegin
2
*PAPER_SPACE
70
0
10
0.0
20
0.0
30
0.0
3
*PAPER_SPACE
1

0
ENDBLK
5
21
100
AcDbEntity
8
0
100
AcDbBlockEnd
0
ENDSEC
0
SECTION
2
ENTITIES
0
LINE
5
20C
100
AcDbEntity
8
0
100
AcDbLine
62
7
6
CONTINUOUS
10
0.0000000000
20
0.0000000000
11
0.0000000000
21
297.0000000000
0
LINE
5
20D
100
AcDbEntity
8
0
100
AcDbLine
62
7
6
CONTINUOUS
10
0.0000000000
20
0.0000000000
11
420.0000000000
21
0.0000000000
0
LINE
5
20E
100
AcDbEntity
8
0
100
AcDbLine
62
7
6
CONTINUOUS
10
0.0000000000
20
297.0000000000
11
420.0000000000
21
297.0000000000
0
LINE
5
20F
100
AcDbEntity
8
0
100
AcDbLine
62
7
6
CONTINUOUS
10
420.0000000000
20
0.0000000000
11
420.0000000000
21
297.0000000000
0
LINE
5
210
100
AcDbEntity
8
0
100
AcDbLine
62
7
6
CONTINUOUS
10
141.9711981203
20
35.3016480964
11
135.8404308968
21
35.3016480964
0
LINE
5
211
100
AcDbEntity
8
0
100
AcDbLine
62
7
6
CONTINUOUS
10
79.8493601802
20
35.3016480964
11
73.7185929567
21
35.3016480964
0
LINE
5
212
100
AcDbEntity
8
0
100
AcDbLine
62
7
6
CONTINUOUS
10
67.8448955385
20
237.7016480986
11
73.7185929567
21
244.7016480986
0
LINE
5
213
100
AcDbEntity
8
0
100
AcDbLine
62
9
6
CONTINUOUS
10
69.2287145789
20
235.7973069482
11
73.7185929567
21
240.1804492059
0
LINE
5
214
100
AcDbEntity
8
0
100
AcDbLine
62
7
6
CONTINUOUS
10
78.1102978101
20
224.7111395013
11
77.3826383223
21
224.4629129843
0
LINE
5
215
100
AcDbEntity
8
0
100
AcDbLine
62
9
6
CONTINUOUS
10
69.2287145789
20
44.2059892468
11
73.7185929567
21
39.8228469891
0
LINE
5
216
100
AcDbEntity
8
0
100
AcDbLine
62
7
6
CONTINUOUS
10
73.7185929567
20
35.3016480964
11
67.8448955385
21
42.3016480964
0
LINE
5
217
100
AcDbEntity
8
0
100
AcDbLine
62
7
6
CONTINUOUS
10
77.3826383223
20
224.4629129843
11
76.9460426297
21
224.0905760496
0
LINE
5
218
100
AcDbEntity
8
0
100
AcDbLine
62
7
6
CONTINUOUS
10
77.5281702199
20
223.7182391149
11
77.8192340150
21
223.9664656318
0
LINE
5
219
100
AcDbEntity
8
0
100
AcDbLine
62
7
6
CONTINUOUS
10
75.0541275539
20
224.3388025666
11
74.4719999637
21
223.9664656318
0
LINE
5
21A
100
AcDbEntity
8
0
100
AcDbLine
62
7
6
CONTINUOUS
10
79.5656170913
20
220.6154332195
11
80.1477447324
21
220.9877701542
0
LINE
5
21B
100
AcDbEntity
8
0
100
AcDbLine
62
7
6
CONTINUOUS
10
75.0541275539
20
223.5941286971
11
75.4907232466
21
223.8423523734
0
LINE
5
21C
100
AcDbEntity
8
0
100
AcDbLine
62
7
6
CONTINUOUS
10
79.5656170913
20
221.3601070889
11
79.1290212967
21
221.1118805720
0
LINE
5
21D
100
AcDbEntity
8
0
100
AcDbLine
62
7
6
CONTINUOUS
10
78.8379575016
20
220.3672067025
11
79.5656170913
21
220.6154332195
0
LINE
5
21E
100
AcDbEntity
8
0
100
AcDbLine
62
7
6
CONTINUOUS
10
116.8754761825
20
50.8016480964
11
98.8143151875
21
50.8016480964
0
LINE
5
21F
100
AcDbEntity
8
0
100
AcDbLine
62
7
6
CONTINUOUS
10
79.8493601802
20
51.7722870418
11
71.8344803784
21
51.7722870418
0
LINE
5
220
100
AcDbEntity
8
0
100
AcDbLine
62
7
6
CONTINUOUS
10
135.8404308968
20
51.7722870418
11
143.8553106986
21
51.7722870418
0
LINE
5
221
100
AcDbEntity
8
0
100
AcDbLine
62
7
6
CONTINUOUS
10
77.8940759069
20
60.8219572126
11
78.8752800325
21
60.6489444517
0
LINE
5
222
100
AcDbEntity
8
0
100
AcDbLine
62
7
6
CONTINUOUS
10
74.4719999637
20
223.9664656318
11
74.0354042711
21
223.3459021802
0
LINE
5
223
100
AcDbEntity
8
0
100
AcDbLine
62
7
6
CONTINUOUS
10
74.7630637588
20
223.2217917624
11
75.0541275539
21
223.5941286971
0
LINE
5
224
100
AcDbEntity
8
0
100
AcDbLine
62
7
6
CONTINUOUS
10
77.2371064248
20
223.3459021802
11
77.5281702199
21
223.7182391149
0
LINE
5
225
100
AcDbEntity
8
0
100
AcDbLine
62
7
6
CONTINUOUS
10
74.7630637588
20
209.6935488545
11
75.0541275539
21
209.9417725308
0
LINE
5
226
100
AcDbEntity
8
0
100
AcDbLine
62
7
6
CONTINUOUS
10
75.0541275539
20
210.6864464002
11
74.4719999637
21
210.3141094655
0
LINE
5
227
100
AcDbEntity
8
DEFAULT_1
100
AcDbLine
62
2
6
CENTER
10
80.8448955385
20
60.3016480964
11
66.4404637377
21
60.3016480964
0
LINE
5
228
100
AcDbEntity
8
DEFAULT_1
100
AcDbLine
62
2
6
CENTER
10
80.8448955385
20
60.3016480964
11
150.3054017735
21
60.3016480964
0
LINE
5
229
100
AcDbEntity
8
0
100
AcDbLine
62
7
6
CONTINUOUS
10
67.0410479612
20
203.3093432532
11
64.8448955385
21
199.5054956759
0
LINE
5
22A
100
AcDbEntity
8
0
100
AcDbLine
62
7
6
CONTINUOUS
10
76.9460426297
20
224.0905760496
11
76.5094469371
21
223.4700154387
0
LINE
5
22B
100
AcDbEntity
8
0
100
AcDbLine
62
7
6
CONTINUOUS
10
80.1477447324
20
220.9877701542
11
80.5843404633
21
221.6083307651
0
LINE
5
22C
100
AcDbEntity
8
0
100
AcDbLine
62
7
6
CONTINUOUS
10
79.8566808864
20
221.7324440236
11
79.5656170913
21
221.3601070889
0
LINE
5
22D
100
AcDbEntity
8
0
100
AcDbLine
62
7
6
CONTINUOUS
10
74.4719999637
20
210.3141094655
11
74.0354042711
21
209.8176621130
0
LINE
5
22E
100
AcDbEntity
8
0
100
AcDbLine
62
7
6
CONTINUOUS
10
74.4719999637
20
204.7290568652
11
74.0354042711
21
204.2326066721
0
LINE
5
22F
100
AcDbEntity
8
0
100
AcDbLine
62
7
6
CONTINUOUS
10
74.7630637588
20
204.1084948339
11
75.0541275539
21
204.3567199305
0
LINE
5
230
100
AcDbEntity
8
0
100
AcDbLine
62
7
6
CONTINUOUS
10
75.0541275539
20
205.1013937999
11
74.4719999637
21
204.7290568652
0
LINE
5
231
100
AcDbEntity
8
0
100
AcDbLine
62
7
6
CONTINUOUS
10
77.8940759069
20
59.7813389801
11
78.8752800325
21
59.9543517410
0
LINE
5
232
100
AcDbEntity
8
0
100
AcDbLine
62
9
6
CONTINUOUS
10
133.0639359643
20
69.5081889143
11
121.3025627485
21
69.5081889143
0
LINE
5
233
100
AcDbEntity
8
0
100
AcDbLine
62
9
6
CONTINUOUS
10
85.6813126148
20
69.5081889143
11
94.3872283285
21
69.5081889143
0
LINE
5
234
100
AcDbEntity
8
0
100
AcDbLine
62
7
6
CONTINUOUS
10
117.3198317569
20
69.8016480964
11
98.3699317427
21
69.8016480964
0
LINE
5
235
100
AcDbEntity
8
0
100
AcDbLine
62
7
6
CONTINUOUS
10
67.0410479612
20
76.6939529418
11
64.8448955385
21
80.4978005191
0
LINE
5
236
100
AcDbEntity
8
0
100
AcDbLine
62
7
6
CONTINUOUS
10
74.6175318613
20
222.8494548277
11
74.7630637588
21
223.2217917624
0
LINE
5
237
100
AcDbEntity
8
0
100
AcDbLine
62
7
6
CONTINUOUS
10
118.9342593545
20
211.3283675652
11
117.1803902460
21
210.6900114148
0
LINE
5
238
100
AcDbEntity
8
0
100
AcDbLine
62
9
6
CONTINUOUS
10
147.8448955385
20
73.6939529418
11
145.2380707293
21
73.6939529418
0
LINE
5
239
100
AcDbEntity
8
0
100
AcDbLine
62
9
6
CONTINUOUS
10
67.8448955385
20
73.6939529418
11
70.4517203477
21
73.6939529418
0
LINE
5
23A
100
AcDbEntity
8
0
100
AcDbLine
62
9
6
CONTINUOUS
10
117.6018844950
20
67.7938146241
11
118.9342593545
21
67.3088698344
0
LINE
5
23B
100
AcDbEntity
8
0
100
AcDbLine
62
9
6
CONTINUOUS
10
117.5229812063
20
70.5546506635
11
120.0913128615
21
69.6198543894
0
LINE
5
23C
100
AcDbEntity
8
0
100
AcDbLine
62
7
6
CONTINUOUS
10
74.0354042711
20
223.3459021802
11
73.8898723736
21
222.7253415693
0
LINE
5
23D
100
AcDbEntity
8
0
100
AcDbLine
62
7
6
CONTINUOUS
10
77.0915745272
20
222.9735652455
11
77.2371064248
21
223.3459021802
0
LINE
5
23E
100
AcDbEntity
8
0
100
AcDbLine
62
7
6
CONTINUOUS
10
74.6175318613
20
209.3212119198
11
74.7630637588
21
209.6935488545
0
LINE
5
23F
100
AcDbEntity
8
0
100
AcDbLine
62
7
6
CONTINUOUS
10
80.0022127839
20
222.1047809583
11
79.8566808864
21
221.7324440236
0
LINE
5
240
100
AcDbEntity
8
0
100
AcDbLine
62
7
6
CONTINUOUS
10
74.6175318613
20
203.7361578992
11
74.7630637588
21
204.1084948339
0
LINE
5
241
100
AcDbEntity
8
0
100
AcDbLine
62
7
6
CONTINUOUS
10
93.6730733408
20
204.0932188778
11
98.6937665931
21
210.0766480986
0
LINE
5
242
100
AcDbEntity
8
0
100
AcDbLine
62
7
6
CONTINUOUS
10
79.7111489888
20
185.8639850333
11
80.2932766300
21
186.3604342500
0
LINE
5
243
100
AcDbEntity
8
0
100
AcDbLine
62
7
6
CONTINUOUS
10
79.4200850918
20
186.6086589028
11
78.9834893992
21
186.3604342500
0
LINE
5
244
100
AcDbEntity
8
0
100
AcDbLine
62
7
6
CONTINUOUS
10
79.1290212967
20
185.6157604139
11
79.7111489888
21
185.8639850333
0
LINE
5
245
100
AcDbEntity
8
0
100
AcDbLine
62
7
6
CONTINUOUS
10
93.6730733408
20
75.9100773172
11
98.1668098706
21
70.5546506635
0
LINE
5
246
100
AcDbEntity
8
0
100
AcDbLine
62
7
6
CONTINUOUS
10
76.5094469371
20
223.4700154387
11
76.3639150395
21
222.8494548277
0
LINE
5
247
100
AcDbEntity
8
0
100
AcDbLine
62
7
6
CONTINUOUS
10
74.0354042711
20
209.8176621130
11
73.8898723736
21
209.1971000817
0
LINE
5
248
100
AcDbEntity
8
0
100
AcDbLine
62
7
6
CONTINUOUS
10
74.0354042711
20
204.2326066721
11
73.8898723736
21
203.6120460611
0
LINE
5
249
100
AcDbEntity
8
0
100
AcDbLine
62
7
6
CONTINUOUS
10
80.5843404633
20
221.6083307651
11
80.7298723736
21
222.2288913761
0
LINE
5
24A
100
AcDbEntity
8
0
100
AcDbLine
62
7
6
CONTINUOUS
10
80.2932766300
20
186.3604342500
11
80.5843404633
21
186.8568835555
0
LINE
5
24B
100
AcDbEntity
8
0
100
AcDbLine
62
7
6
CONTINUOUS
10
79.7111489888
20
186.9809958375
11
79.4200850918
21
186.6086589028
0
LINE
5
24C
100
AcDbEntity
8
0
100
AcDbLine
62
7
6
CONTINUOUS
10
64.8448955385
20
199.5054956759
11
64.8448955385
21
123.2016480986
0
LINE
5
24D
100
AcDbEntity
8
0
100
AcDbLine
62
7
6
CONTINUOUS
10
64.8448955385
20
80.4978005191
11
64.8448955385
21
116.8016480964
0
LINE
5
24E
100
AcDbEntity
8
0
100
AcDbLine
62
7
6
CONTINUOUS
10
67.8448955385
20
237.7016480986
11
67.8448955385
21
228.4516480986
0
LINE
5
24F
100
AcDbEntity
8
0
100
AcDbLine
62
7
6
CONTINUOUS
10
67.8448955385
20
210.9516480986
11
67.8448955385
21
206.3093432532
0
LINE
5
250
100
AcDbEntity
8
0
100
AcDbLine
62
7
6
CONTINUOUS
10
67.8448955385
20
42.3016480964
11
67.8448955385
21
49.6766480964
0
LINE
5
251
100
AcDbEntity
8
0
100
AcDbLine
62
7
6
CONTINUOUS
10
67.8448955385
20
70.9266480964
11
67.8448955385
21
73.6939529418
0
LINE
5
252
100
AcDbEntity
8
0
100
AcDbLine
62
7
6
CONTINUOUS
10
69.3448955385
20
122.8016480964
11
69.3448955385
21
117.3016480964
0
LINE
5
253
100
AcDbEntity
8
0
100
AcDbLine
62
7
6
CONTINUOUS
10
70.4517203477
20
230.6021371142
11
70.4517203477
21
206.3093432532
0
LINE
5
254
100
AcDbEntity
8
0
100
AcDbLine
62
7
6
CONTINUOUS
10
70.4517203477
20
49.4011590808
11
70.4517203477
21
73.6939529418
0
LINE
5
255
100
AcDbEntity
8
0
100
AcDbLine
62
7
6
CONTINUOUS
10
80.5843404633
20
186.8568835555
11
80.7298723736
21
187.4774451429
0
LINE
5
256
100
AcDbEntity
8
0
100
AcDbLine
62
7
6
CONTINUOUS
10
79.8566808864
20
187.4774451429
11
79.7111489888
21
186.9809958375
0
LINE
5
257
100
AcDbEntity
8
0
100
AcDbLine
62
9
6
CONTINUOUS
10
124.4605990629
20
206.1438795217
11
122.0167177362
21
204.0932188778
0
LINE
5
258
100
AcDbEntity
8
0
100
AcDbLine
62
9
6
CONTINUOUS
10
87.3363374889
20
96.3583914766
11
71.8344803784
21
96.3583914766
0
LINE
5
259
100
AcDbEntity
8
0
100
AcDbLine
62
9
6
CONTINUOUS
10
128.3534535881
20
96.3583914766
11
143.8553106986
21
96.3583914766
0
LINE
5
25A
100
AcDbEntity
8
0
100
AcDbLine
62
9
6
CONTINUOUS
10
124.4605990629
20
73.8594166733
11
122.0167177362
21
75.9100773172
0
LINE
5
25B
100
AcDbEntity
8
0
100
AcDbLine
62
7
6
CONTINUOUS
10
71.8344803784
20
228.2310091532
11
71.8344803784
21
183.6449047184
0
LINE
5
25C
100
AcDbEntity
8
0
100
AcDbLine
62
7
6
CONTINUOUS
10
71.8344803784
20
51.7722870418
11
71.8344803784
21
96.3583914766
0
LINE
5
25D
100
AcDbEntity
8
0
100
AcDbLine
62
7
6
CONTINUOUS
10
73.7185929567
20
244.7016480986
11
73.7185929567
21
240.1804492059
0
LINE
5
25E
100
AcDbEntity
8
0
100
AcDbLine
62
7
6
CONTINUOUS
10
73.7185929567
20
39.8228469891
11
73.7185929567
21
35.3016480964
0
LINE
5
25F
100
AcDbEntity
8
0
100
AcDbLine
62
7
6
CONTINUOUS
10
73.8898723736
20
222.7253415693
11
73.8898723736
21
222.2288913761
0
LINE
5
260
100
AcDbEntity
8
0
100
AcDbLine
62
7
6
CONTINUOUS
10
73.8898723736
20
219.2501958984
11
73.8898723736
21
218.5055220290
0
LINE
5
261
100
AcDbEntity
8
0
100
AcDbLine
62
7
6
CONTINUOUS
10
73.8898723736
20
209.1971000817
11
73.8898723736
21
206.2184046041
0
LINE
5
262
100
AcDbEntity
8
0
100
AcDbLine
62
7
6
CONTINUOUS
10
73.8898723736
20
203.6120460611
11
73.8898723736
21
200.6333505835
0
LINE
5
263
100
AcDbEntity
8
0
100
AcDbLine
62
7
6
CONTINUOUS
10
73.8898723736
20
196.9099805262
11
73.8898723736
21
196.1653066568
0
LINE
5
264
100
AcDbEntity
8
0
100
AcDbLine
62
7
6
CONTINUOUS
10
73.8898723736
20
194.4277345316
11
73.8898723736
21
193.4348362758
0
LINE
5
265
100
AcDbEntity
8
0
100
AcDbLine
62
7
6
CONTINUOUS
10
73.8898723736
20
191.6972634403
11
73.8898723736
21
190.9525899260
0
LINE
5
266
100
AcDbEntity
8
0
100
AcDbLine
62
7
6
CONTINUOUS
10
73.8898723736
20
189.9596913151
11
73.8898723736
21
189.2150174457
0
LINE
5
267
100
AcDbEntity
8
0
100
AcDbLine
62
7
6
CONTINUOUS
10
73.8898723736
20
186.2363219680
11
73.8898723736
21
185.4916480986
0
LINE
5
268
100
AcDbEntity
8
0
100
AcDbLine
62
7
6
CONTINUOUS
10
74.6175318613
20
201.3780244529
11
74.6175318613
21
203.7361578992
0
LINE
5
269
100
AcDbEntity
8
0
100
AcDbLine
62
7
6
CONTINUOUS
10
74.6175318613
20
206.9630784735
11
74.6175318613
21
209.3212119198
0
LINE
5
26A
100
AcDbEntity
8
0
100
AcDbLine
62
7
6
CONTINUOUS
10
74.6175318613
20
222.1047809583
11
74.6175318613
21
222.8494548277
0
LINE
5
26B
100
AcDbEntity
8
0
100
AcDbLine
62
7
6
CONTINUOUS
10
75.4907232466
20
223.8423523734
11
75.4907232466
21
224.4629129843
0
LINE
5
26C
100
AcDbEntity
8
0
100
AcDbLine
62
7
6
CONTINUOUS
10
75.9948955385
20
123.2016480986
11
75.9948955385
21
122.8016480964
0
LINE
5
26D
100
AcDbEntity
8
0
100
AcDbLine
62
7
6
CONTINUOUS
10
76.3639150395
20
222.8494548277
11
76.3639150395
21
222.2288913761
0
LINE
5
26E
100
AcDbEntity
8
0
100
AcDbLine
62
7
6
CONTINUOUS
10
76.8005107322
20
209.3212119198
11
76.8005107322
21
206.9630784735
0
LINE
5
26F
100
AcDbEntity
8
0
100
AcDbLine
62
7
6
CONTINUOUS
10
76.8005107322
20
203.7361578992
11
76.8005107322
21
201.3780244529
0
LINE
5
270
100
AcDbEntity
8
0
100
AcDbLine
62
7
6
CONTINUOUS
10
77.0915745272
20
222.1047809583
11
77.0915745272
21
222.9735652455
0
LINE
5
271
100
AcDbEntity
8
0
100
AcDbLine
62
7
6
CONTINUOUS
10
77.5281702199
20
199.6404516175
11
77.5281702199
21
197.9028787821
0
LINE
5
272
100
AcDbEntity
8
0
100
AcDbLine
62
7
6
CONTINUOUS
10
77.6737021174
20
201.3780244529
11
77.6737021174
21
203.6120460611
0
LINE
5
273
100
AcDbEntity
8
0
100
AcDbLine
62
7
6
CONTINUOUS
10
77.6737021174
20
206.9630784735
11
77.6737021174
21
209.1971000817
0
LINE
5
274
100
AcDbEntity
8
0
100
AcDbLine
62
7
6
CONTINUOUS
10
78.2558299115
20
197.9028787821
11
78.2558299115
21
199.6404516175
0
LINE
5
275
100
AcDbEntity
8
0
100
AcDbLine
62
9
6
CONTINUOUS
10
148.6487431158
20
203.3093432532
11
146.6872477150
21
202.1768733556
0
LINE
5
276
100
AcDbEntity
8
0
100
AcDbLine
62
9
6
CONTINUOUS
10
148.6487431158
20
76.6939529418
11
146.6872477150
21
77.8264228394
0
LINE
5
277
100
AcDbEntity
8
0
100
AcDbLine
62
7
6
CONTINUOUS
10
79.8493601802
20
35.3016480964
11
79.8493601802
21
51.7722870418
0
LINE
5
278
100
AcDbEntity
8
0
100
AcDbLine
62
7
6
CONTINUOUS
10
79.8493601802
20
228.2310091532
11
79.8493601802
21
244.7016480986
0
LINE
5
279
100
AcDbEntity
8
0
100
AcDbLine
62
7
6
CONTINUOUS
10
79.8566808864
20
187.9738942708
11
79.8566808864
21
187.4774451429
0
LINE
5
27A
100
AcDbEntity
8
0
100
AcDbLine
62
7
6
CONTINUOUS
10
80.0022127839
20
222.9735652455
11
80.0022127839
21
222.1047809583
0
LINE
5
27B
100
AcDbEntity
8
0
100
AcDbLine
62
7
6
CONTINUOUS
10
80.7298723736
20
187.4774451429
11
80.7298723736
21
187.9738942708
0
LINE
5
27C
100
AcDbEntity
8
0
100
AcDbLine
62
7
6
CONTINUOUS
10
80.7298723736
20
191.9454885369
11
80.7298723736
21
192.9383867928
0
LINE
5
27D
100
AcDbEntity
8
0
100
AcDbLine
62
7
6
CONTINUOUS
10
80.7298723736
20
194.9241840146
11
80.7298723736
21
195.9170822704
0
LINE
5
27E
100
AcDbEntity
8
0
100
AcDbLine
62
7
6
CONTINUOUS
10
80.7298723736
20
200.6333505835
11
80.7298723736
21
201.3780244529
0
LINE
5
27F
100
AcDbEntity
8
0
100
AcDbLine
62
7
6
CONTINUOUS
10
80.7298723736
20
206.2184046041
11
80.7298723736
21
206.9630784735
0
LINE
5
280
100
AcDbEntity
8
0
100
AcDbLine
62
7
6
CONTINUOUS
10
80.7298723736
20
218.5055220290
11
80.7298723736
21
219.2501958984
0
LINE
5
281
100
AcDbEntity
8
0
100
AcDbLine
62
7
6
CONTINUOUS
10
80.7298723736
20
222.2288913761
11
80.7298723736
21
222.8494548277
0
LINE
5
282
100
AcDbEntity
8
DEFAULT_1
100
AcDbLine
62
2
6
CENTER
10
80.8448955385
20
60.3016480964
11
80.8448955385
21
56.3016480964
0
LINE
5
283
100
AcDbEntity
8
DEFAULT_1
100
AcDbLine
62
2
6
CENTER
10
80.8448955385
20
60.3016480964
11
80.8448955385
21
64.3016480964
0
LINE
5
284
100
AcDbEntity
8
0
100
AcDbLine
62
7
6
CONTINUOUS
10
82.6258551127
20
219.7016480986
11
82.6258551127
21
210.4951072807
0
LINE
5
285
100
AcDbEntity
8
0
100
AcDbLine
62
9
6
CONTINUOUS
10
85.9310086411
20
112.1614048402
11
129.7587809855
21
112.1614049672
0
LINE
5
286
100
AcDbEntity
8
0
100
AcDbLine
62
7
6
CONTINUOUS
10
64.8448955385
20
116.8016480964
11
150.8448955385
21
116.8016480964
0
LINE
5
287
100
AcDbEntity
8
0
100
AcDbLine
62
7
6
CONTINUOUS
10
65.3448955385
20
117.3016480964
11
150.3448955385
21
117.3016480964
0
LINE
5
288
100
AcDbEntity
8
0
100
AcDbLine
62
7
6
CONTINUOUS
10
86.8448955385
20
60.3016480964
11
86.8448955385
21
66.3016480964
0
LINE
5
289
100
AcDbEntity
8
0
100
AcDbLine
62
7
6
CONTINUOUS
10
69.2287145789
20
44.2059892468
11
70.4517203477
21
49.4011590808
0
LINE
5
28A
100
AcDbEntity
8
0
100
AcDbLine
62
7
6
CONTINUOUS
10
69.3451602123
20
122.8016480964
11
146.3446308112
21
122.8016480964
0
LINE
5
28B
100
AcDbEntity
8
0
100
AcDbLine
62
7
6
CONTINUOUS
10
64.8453406881
20
123.2016480986
11
150.8444503889
21
123.2016480986
0
LINE
5
28C
100
AcDbEntity
8
0
100
AcDbLine
62
7
6
CONTINUOUS
10
69.2287145789
20
235.7973069482
11
70.4517203477
21
230.6021371142
0
LINE
5
28D
100
AcDbEntity
8
0
100
AcDbLine
62
7
6
CONTINUOUS
10
80.7298723736
20
187.9738942708
11
80.5843404633
21
188.5944557695
0
LINE
5
28E
100
AcDbEntity
8
0
100
AcDbLine
62
7
6
CONTINUOUS
10
77.6737021174
20
203.6120460611
11
77.5281702199
21
204.2326066721
0
LINE
5
28F
100
AcDbEntity
8
0
100
AcDbLine
62
7
6
CONTINUOUS
10
73.8898723736
20
222.2288913761
11
74.0354042711
21
221.6083307651
0
LINE
5
290
100
AcDbEntity
8
0
100
AcDbLine
62
7
6
CONTINUOUS
10
94.3872283285
20
219.7016480986
11
94.3872283285
21
210.4951072807
0
LINE
5
291
100
AcDbEntity
8
0
100
AcDbLine
62
7
6
CONTINUOUS
10
94.3872283285
20
60.3016480964
11
94.3872283285
21
69.5081889143
0
LINE
5
292
100
AcDbEntity
8
0
100
AcDbLine
62
7
6
CONTINUOUS
10
96.7555317225
20
67.3088698344
11
96.7555317225
21
48.5815092327
0
LINE
5
293
100
AcDbEntity
8
0
100
AcDbLine
62
7
6
CONTINUOUS
10
96.7555317225
20
211.3283675652
11
96.7555317225
21
231.4217869624
0
LINE
5
294
100
AcDbEntity
8
0
100
AcDbLine
62
7
6
CONTINUOUS
10
99.0448955385
20
50.6766480964
11
99.0448955385
21
42.1058974810
0
LINE
5
295
100
AcDbEntity
8
0
100
AcDbLine
62
7
6
CONTINUOUS
10
99.0448955385
20
229.3266480986
11
99.0448955385
21
237.8973987140
0
LINE
5
296
100
AcDbEntity
8
0
100
AcDbLine
62
7
6
CONTINUOUS
10
64.8448955385
20
116.8016480964
11
65.3448955385
21
117.3016480964
0
LINE
5
297
100
AcDbEntity
8
0
100
AcDbLine
62
7
6
CONTINUOUS
10
79.7111489888
20
188.4703435763
11
79.8566808864
21
187.9738942708
0
LINE
5
298
100
AcDbEntity
8
0
100
AcDbLine
62
7
6
CONTINUOUS
10
77.6737021174
20
209.1971000817
11
77.5281702199
21
209.8176621130
0
LINE
5
299
100
AcDbEntity
8
0
100
AcDbLine
62
7
6
CONTINUOUS
10
76.3639150395
20
222.2288913761
11
76.5094469371
21
221.6083307651
0
LINE
5
29A
100
AcDbEntity
8
0
100
AcDbLine
62
7
6
CONTINUOUS
10
80.7298723736
20
222.8494548277
11
80.5843404633
21
223.4700154387
0
LINE
5
29B
100
AcDbEntity
8
DEFAULT_1
100
AcDbLine
62
2
6
CENTER
10
107.8448955385
20
241.1428249743
11
107.8448955385
21
44.4060273538
0
LINE
5
29C
100
AcDbEntity
8
0
100
AcDbLine
62
7
6
CONTINUOUS
10
76.6549788346
20
204.1084948339
11
76.8005107322
21
203.7361578992
0
LINE
5
29D
100
AcDbEntity
8
0
100
AcDbLine
62
7
6
CONTINUOUS
10
76.6549788346
20
209.6935488545
11
76.8005107322
21
209.3212119198
0
LINE
5
29E
100
AcDbEntity
8
0
100
AcDbLine
62
7
6
CONTINUOUS
10
74.7630637588
20
221.7324440236
11
74.6175318613
21
222.1047809583
0
LINE
5
29F
100
AcDbEntity
8
0
100
AcDbLine
62
7
6
CONTINUOUS
10
79.4200850918
20
188.8426805110
11
79.7111489888
21
188.4703435763
0
LINE
5
2A0
100
AcDbEntity
8
0
100
AcDbLine
62
7
6
CONTINUOUS
10
80.5843404633
20
188.5944557695
11
80.2932766300
21
189.0909052525
0
LINE
5
2A1
100
AcDbEntity
8
0
100
AcDbLine
62
7
6
CONTINUOUS
10
77.2371064248
20
221.7324440236
11
77.0915745272
21
222.1047809583
0
LINE
5
2A2
100
AcDbEntity
8
0
100
AcDbLine
62
7
6
CONTINUOUS
10
79.8566808864
20
223.3459021802
11
80.0022127839
21
222.9735652455
0
LINE
5
2A3
100
AcDbEntity
8
0
100
AcDbLine
62
7
6
CONTINUOUS
10
116.6448955385
20
50.6766480964
11
116.6448955385
21
42.1058974810
0
LINE
5
2A4
100
AcDbEntity
8
0
100
AcDbLine
62
7
6
CONTINUOUS
10
116.6448955385
20
229.3266480986
11
116.6448955385
21
237.8973987140
0
LINE
5
2A5
100
AcDbEntity
8
0
100
AcDbLine
62
7
6
CONTINUOUS
10
118.9342593545
20
67.3088698344
11
118.9342593545
21
48.5815092327
0
LINE
5
2A6
100
AcDbEntity
8
0
100
AcDbLine
62
7
6
CONTINUOUS
10
118.9342593545
20
211.3283675652
11
118.9342593545
21
231.4217869624
0
LINE
5
2A7
100
AcDbEntity
8
0
100
AcDbLine
62
7
6
CONTINUOUS
10
121.3025627485
20
219.7016480986
11
121.3025627485
21
210.4951072807
0
LINE
5
2A8
100
AcDbEntity
8
0
100
AcDbLine
62
7
6
CONTINUOUS
10
121.3025627485
20
60.3016480964
11
121.3025627485
21
69.5081889143
0
LINE
5
2A9
100
AcDbEntity
8
0
100
AcDbLine
62
7
6
CONTINUOUS
10
146.4610764981
20
235.7973069482
11
145.2380707293
21
230.6021371142
0
LINE
5
2AA
100
AcDbEntity
8
0
100
AcDbLine
62
7
6
CONTINUOUS
10
150.8448955385
20
116.8016480964
11
150.3448955385
21
117.3016480964
0
LINE
5
2AB
100
AcDbEntity
8
0
100
AcDbLine
62
7
6
CONTINUOUS
10
146.4610764981
20
44.2059892468
11
145.2380707293
21
49.4011590808
0
LINE
5
2AC
100
AcDbEntity
8
0
100
AcDbLine
62
7
6
CONTINUOUS
10
128.8448955385
20
219.7016480986
11
128.8448955385
21
213.7016480986
0
LINE
5
2AD
100
AcDbEntity
8
0
100
AcDbLine
62
7
6
CONTINUOUS
10
80.2932766300
20
189.0909052525
11
79.7111489888
21
189.5873543804
0
LINE
5
2AE
100
AcDbEntity
8
0
100
AcDbLine
62
7
6
CONTINUOUS
10
77.5281702199
20
204.2326066721
11
77.0915745272
21
204.7290568652
0
LINE
5
2AF
100
AcDbEntity
8
0
100
AcDbLine
62
7
6
CONTINUOUS
10
77.5281702199
20
209.8176621130
11
77.0915745272
21
210.3141094655
0
LINE
5
2B0
100
AcDbEntity
8
0
100
AcDbLine
62
7
6
CONTINUOUS
10
74.0354042711
20
221.6083307651
11
74.4719999637
21
220.9877701542
0
LINE
5
2B1
100
AcDbEntity
8
0
100
AcDbLine
62
7
6
CONTINUOUS
10
133.0639359643
20
60.3016480964
11
133.0639359643
21
69.5081889143
0
LINE
5
2B2
100
AcDbEntity
8
DEFAULT_1
100
AcDbLine
62
2
6
CENTER
10
134.8448955385
20
219.7016480986
11
134.8448955385
21
215.9516480986
0
LINE
5
2B3
100
AcDbEntity
8
DEFAULT_1
100
AcDbLine
62
2
6
CENTER
10
134.8448955385
20
219.7016480986
11
134.8448955385
21
223.4516480986
0
LINE
5
2B4
100
AcDbEntity
8
0
100
AcDbLine
62
7
6
CONTINUOUS
10
135.8404308968
20
244.7016480986
11
135.8404308968
21
228.2310091532
0
LINE
5
2B5
100
AcDbEntity
8
0
100
AcDbLine
62
7
6
CONTINUOUS
10
135.8404308968
20
51.7722870418
11
135.8404308968
21
35.3016480964
0
LINE
5
2B6
100
AcDbEntity
8
0
100
AcDbLine
62
9
6
CONTINUOUS
10
85.9310095778
20
167.8418912689
11
129.7587822415
21
167.8418913385
0
LINE
5
2B7
100
AcDbEntity
8
0
100
AcDbLine
62
7
6
CONTINUOUS
10
78.9834893992
20
189.0909052525
11
79.4200850918
21
188.8426805110
0
LINE
5
2B8
100
AcDbEntity
8
0
100
AcDbLine
62
7
6
CONTINUOUS
10
76.3639150395
20
204.3567199305
11
76.6549788346
21
204.1084948339
0
LINE
5
2B9
100
AcDbEntity
8
0
100
AcDbLine
62
7
6
CONTINUOUS
10
75.0541275539
20
221.3601070889
11
74.7630637588
21
221.7324440236
0
LINE
5
2BA
100
AcDbEntity
8
0
100
AcDbLine
62
7
6
CONTINUOUS
10
76.5094469371
20
221.6083307651
11
77.0915745272
21
220.8636568957
0
LINE
5
2BB
100
AcDbEntity
8
0
100
AcDbLine
62
7
6
CONTINUOUS
10
77.5281702199
20
221.3601070889
11
77.2371064248
21
221.7324440236
0
LINE
5
2BC
100
AcDbEntity
8
0
100
AcDbLine
62
7
6
CONTINUOUS
10
79.5656170913
20
223.7182391149
11
79.8566808864
21
223.3459021802
0
LINE
5
2BD
100
AcDbEntity
8
0
100
AcDbLine
62
7
6
CONTINUOUS
10
80.5843404633
20
223.4700154387
11
80.1477447324
21
224.0905760496
0
LINE
5
2BE
100
AcDbEntity
8
0
100
AcDbLine
62
7
6
CONTINUOUS
10
139.6948955385
20
123.2016480986
11
139.6948955385
21
122.8016480964
0
LINE
5
2BF
100
AcDbEntity
8
0
100
AcDbLine
62
7
6
CONTINUOUS
10
141.9711981203
20
35.3016480964
11
141.9711981203
21
39.8228469891
0
LINE
5
2C0
100
AcDbEntity
8
0
100
AcDbLine
62
7
6
CONTINUOUS
10
141.9711981203
20
240.1804492059
11
141.9711981203
21
244.7016480986
0
LINE
5
2C1
100
AcDbEntity
8
0
100
AcDbLine
62
7
6
CONTINUOUS
10
143.8553106986
20
228.2310091532
11
143.8553106986
21
183.6449047184
0
LINE
5
2C2
100
AcDbEntity
8
0
100
AcDbLine
62
7
6
CONTINUOUS
10
143.8553106986
20
51.7722870418
11
143.8553106986
21
96.3583914766
0
LINE
5
2C3
100
AcDbEntity
8
0
100
AcDbLine
62
7
6
CONTINUOUS
10
145.2380707293
20
230.6021371142
11
145.2380707293
21
206.3093432532
0
LINE
5
2C4
100
AcDbEntity
8
0
100
AcDbLine
62
7
6
CONTINUOUS
10
145.2380707293
20
49.4011590808
11
145.2380707293
21
73.6939529418
0
LINE
5
2C5
100
AcDbEntity
8
0
100
AcDbLine
62
7
6
CONTINUOUS
10
146.3448955385
20
122.8016480964
11
146.3448955385
21
117.3016480964
0
LINE
5
2C6
100
AcDbEntity
8
0
100
AcDbLine
62
9
6
CONTINUOUS
10
67.0410479612
20
76.6939529418
11
69.0025433619
21
77.8264228394
0
LINE
5
2C7
100
AcDbEntity
8
0
100
AcDbLine
62
7
6
CONTINUOUS
10
79.7111489888
20
189.5873543804
11
79.1290212967
21
189.8355791219
0
LINE
5
2C8
100
AcDbEntity
8
0
100
AcDbLine
62
9
6
CONTINUOUS
10
67.0410479612
20
203.3093432532
11
69.0025433619
21
202.1768733556
0
LINE
5
2C9
100
AcDbEntity
8
0
100
AcDbLine
62
7
6
CONTINUOUS
10
77.0915745272
20
204.7290568652
11
76.5094469371
21
205.1013937999
0
LINE
5
2CA
100
AcDbEntity
8
0
100
AcDbLine
62
7
6
CONTINUOUS
10
76.3639150395
20
209.9417725308
11
76.6549788346
21
209.6935488545
0
LINE
5
2CB
100
AcDbEntity
8
0
100
AcDbLine
62
7
6
CONTINUOUS
10
147.8448955385
20
237.7016480986
11
147.8448955385
21
230.8266480986
0
LINE
5
2CC
100
AcDbEntity
8
0
100
AcDbLine
62
7
6
CONTINUOUS
10
147.8448955385
20
208.5766480986
11
147.8448955385
21
206.3093432532
0
LINE
5
2CD
100
AcDbEntity
8
0
100
AcDbLine
62
7
6
CONTINUOUS
10
147.8448955385
20
42.3016480964
11
147.8448955385
21
51.5516480964
0
LINE
5
2CE
100
AcDbEntity
8
0
100
AcDbLine
62
7
6
CONTINUOUS
10
147.8448955385
20
69.0516480964
11
147.8448955385
21
73.6939529418
0
LINE
5
2CF
100
AcDbEntity
8
0
100
AcDbLine
62
7
6
CONTINUOUS
10
150.8448955385
20
199.5054956759
11
150.8448955385
21
123.2016480986
0
LINE
5
2D0
100
AcDbEntity
8
0
100
AcDbLine
62
7
6
CONTINUOUS
10
150.8448955385
20
80.4978005191
11
150.8448955385
21
116.8016480964
0
LINE
5
2D1
100
AcDbEntity
8
0
100
AcDbLine
62
9
6
CONTINUOUS
10
91.2291920141
20
73.8594166733
11
93.6730733408
21
75.9100773172
0
LINE
5
2D2
100
AcDbEntity
8
0
100
AcDbLine
62
9
6
CONTINUOUS
10
87.3363374889
20
183.6449047184
11
71.8344803784
21
183.6449047184
0
LINE
5
2D3
100
AcDbEntity
8
0
100
AcDbLine
62
9
6
CONTINUOUS
10
128.3534535881
20
183.6449047184
11
143.8553106986
21
183.6449047184
0
LINE
5
2D4
100
AcDbEntity
8
0
100
AcDbLine
62
7
6
CONTINUOUS
10
73.8898723736
20
185.4916480986
11
78.4013618090
21
185.4916480986
0
LINE
5
2D5
100
AcDbEntity
8
0
100
AcDbLine
62
7
6
CONTINUOUS
10
78.4013618090
20
186.2363219680
11
73.8898723736
21
186.2363219680
0
LINE
5
2D6
100
AcDbEntity
8
0
100
AcDbLine
62
7
6
CONTINUOUS
10
79.1290212967
20
189.8355791219
11
78.4013618090
21
189.9596913151
0
LINE
5
2D7
100
AcDbEntity
8
0
100
AcDbLine
62
7
6
CONTINUOUS
10
73.8898723736
20
193.4348362758
11
79.1290212967
21
192.4419373098
0
LINE
5
2D8
100
AcDbEntity
8
0
100
AcDbLine
62
7
6
CONTINUOUS
10
78.4013618090
20
189.2150174457
11
78.9834893992
21
189.0909052525
0
LINE
5
2D9
100
AcDbEntity
8
0
100
AcDbLine
62
7
6
CONTINUOUS
10
77.0915745272
20
210.3141094655
11
76.5094469371
21
210.6864464002
0
LINE
5
2DA
100
AcDbEntity
8
0
100
AcDbLine
62
7
6
CONTINUOUS
10
73.8898723736
20
218.5055220290
11
74.9085956564
21
217.7608481596
0
LINE
5
2DB
100
AcDbEntity
8
0
100
AcDbLine
62
7
6
CONTINUOUS
10
76.0728512444
20
217.7608481596
11
75.0541275539
21
218.5055220290
0
LINE
5
2DC
100
AcDbEntity
8
0
100
AcDbLine
62
9
6
CONTINUOUS
10
91.2291920141
20
206.1438795217
11
93.6730733408
21
204.0932188778
0
LINE
5
2DD
100
AcDbEntity
8
0
100
AcDbLine
62
7
6
CONTINUOUS
10
77.8192340150
20
221.1118805720
11
77.5281702199
21
221.3601070889
0
LINE
5
2DE
100
AcDbEntity
8
0
100
AcDbLine
62
7
6
CONTINUOUS
10
122.0167177362
20
75.9100773172
11
117.5229812063
21
70.5546506635
0
LINE
5
2DF
100
AcDbEntity
8
0
100
AcDbLine
62
7
6
CONTINUOUS
10
78.9834893992
20
186.3604342500
11
78.4013618090
21
186.2363219680
0
LINE
5
2E0
100
AcDbEntity
8
0
100
AcDbLine
62
7
6
CONTINUOUS
10
78.4013618090
20
185.4916480986
11
79.1290212967
21
185.6157604139
0
LINE
5
2E1
100
AcDbEntity
8
0
100
AcDbLine
62
7
6
CONTINUOUS
10
73.8898723736
20
189.2150174457
11
78.4013618090
21
189.2150174457
0
LINE
5
2E2
100
AcDbEntity
8
0
100
AcDbLine
62
7
6
CONTINUOUS
10
78.4013618090
20
189.9596913151
11
73.8898723736
21
189.9596913151
0
LINE
5
2E3
100
AcDbEntity
8
0
100
AcDbLine
62
7
6
CONTINUOUS
10
73.8898723736
20
196.1653066568
11
79.1290212967
21
195.4206327874
0
LINE
5
2E4
100
AcDbEntity
8
0
100
AcDbLine
62
7
6
CONTINUOUS
10
80.7298723736
20
195.9170822704
11
73.8898723736
21
196.9099805262
0
LINE
5
2E5
100
AcDbEntity
8
0
100
AcDbLine
62
7
6
CONTINUOUS
10
80.7298723736
20
192.9383867928
11
75.1996594515
21
193.9312850486
0
LINE
5
2E6
100
AcDbEntity
8
0
100
AcDbLine
62
7
6
CONTINUOUS
10
75.9273193469
20
204.4808317686
11
76.3639150395
21
204.3567199305
0
LINE
5
2E7
100
AcDbEntity
8
0
100
AcDbLine
62
7
6
CONTINUOUS
10
74.4719999637
20
220.9877701542
11
75.0541275539
21
220.6154332195
0
LINE
5
2E8
100
AcDbEntity
8
0
100
AcDbLine
62
7
6
CONTINUOUS
10
122.0167177362
20
204.0932188778
11
116.9960244838
21
210.0766480986
0
LINE
5
2E9
100
AcDbEntity
8
0
100
AcDbLine
62
7
6
CONTINUOUS
10
79.1290212967
20
195.4206327874
11
73.8898723736
21
194.4277345316
0
LINE
5
2EA
100
AcDbEntity
8
0
100
AcDbLine
62
7
6
CONTINUOUS
10
75.1996594515
20
193.9312850486
11
80.7298723736
21
194.9241840146
0
LINE
5
2EB
100
AcDbEntity
8
0
100
AcDbLine
62
7
6
CONTINUOUS
10
73.8898723736
20
190.9525899260
11
80.7298723736
21
191.9454885369
0
LINE
5
2EC
100
AcDbEntity
8
0
100
AcDbLine
62
7
6
CONTINUOUS
10
79.1290212967
20
192.4419373098
11
73.8898723736
21
191.6972634403
0
LINE
5
2ED
100
AcDbEntity
8
0
100
AcDbLine
62
7
6
CONTINUOUS
10
77.5281702199
20
197.9028787821
11
78.2558299115
21
197.9028787821
0
LINE
5
2EE
100
AcDbEntity
8
0
100
AcDbLine
62
7
6
CONTINUOUS
10
78.2558299115
20
199.6404516175
11
77.5281702199
21
199.6404516175
0
LINE
5
2EF
100
AcDbEntity
8
0
100
AcDbLine
62
7
6
CONTINUOUS
10
73.8898723736
20
200.6333505835
11
80.7298723736
21
200.6333505835
0
LINE
5
2F0
100
AcDbEntity
8
0
100
AcDbLine
62
7
6
CONTINUOUS
10
80.7298723736
20
201.3780244529
11
77.6737021174
21
201.3780244529
0
LINE
5
2F1
100
AcDbEntity
8
0
100
AcDbLine
62
7
6
CONTINUOUS
10
76.8005107322
20
201.3780244529
11
74.6175318613
21
201.3780244529
0
LINE
5
2F2
100
AcDbEntity
8
0
100
AcDbLine
62
7
6
CONTINUOUS
10
76.5094469371
20
205.1013937999
11
76.0728512444
21
205.2255056381
0
LINE
5
2F3
100
AcDbEntity
8
0
100
AcDbLine
62
7
6
CONTINUOUS
10
75.9273193469
20
210.0658857892
11
76.3639150395
21
209.9417725308
0
LINE
5
2F4
100
AcDbEntity
8
0
100
AcDbLine
62
7
6
CONTINUOUS
10
76.5094469371
20
210.6864464002
11
76.0728512444
21
210.8105596587
0
LINE
5
2F5
100
AcDbEntity
8
0
100
AcDbLine
62
7
6
CONTINUOUS
10
75.4907232466
20
221.1118805720
11
75.0541275539
21
221.3601070889
0
LINE
5
2F6
100
AcDbEntity
8
0
100
AcDbLine
62
7
6
CONTINUOUS
10
79.1290212967
20
223.9664656318
11
79.5656170913
21
223.7182391149
0
LINE
5
2F7
100
AcDbEntity
8
0
100
AcDbLine
62
7
6
CONTINUOUS
10
80.1477447324
20
224.0905760496
11
79.5656170913
21
224.4629129843
0
LINE
5
2F8
100
AcDbEntity
8
0
100
AcDbLine
62
7
6
CONTINUOUS
10
148.6487431158
20
76.6939529418
11
150.8448955385
21
80.4978005191
0
LINE
5
2F9
100
AcDbEntity
8
0
100
AcDbLine
62
9
6
CONTINUOUS
10
95.5984782155
20
69.6198543894
11
98.1668098706
21
70.5546506635
0
LINE
5
2FA
100
AcDbEntity
8
0
100
AcDbLine
62
9
6
CONTINUOUS
10
96.7555317225
20
67.3088698344
11
98.0879065820
21
67.7938146241
0
LINE
5
2FB
100
AcDbEntity
8
0
100
AcDbLine
62
7
6
CONTINUOUS
10
75.4907232466
20
204.4808317686
11
75.9273193469
21
204.4808317686
0
LINE
5
2FC
100
AcDbEntity
8
0
100
AcDbLine
62
7
6
CONTINUOUS
10
76.0728512444
20
205.2255056381
11
75.4907232466
21
205.2255056381
0
LINE
5
2FD
100
AcDbEntity
8
0
100
AcDbLine
62
7
6
CONTINUOUS
10
73.8898723736
20
206.2184046041
11
80.7298723736
21
206.2184046041
0
LINE
5
2FE
100
AcDbEntity
8
0
100
AcDbLine
62
9
6
CONTINUOUS
10
147.8448955385
20
206.3093432532
11
145.2380707293
21
206.3093432532
0
LINE
5
2FF
100
AcDbEntity
8
0
100
AcDbLine
62
9
6
CONTINUOUS
10
67.8448955385
20
206.3093432532
11
70.4517203477
21
206.3093432532
0
LINE
5
300
100
AcDbEntity
8
0
100
AcDbLine
62
7
6
CONTINUOUS
10
80.7298723736
20
206.9630784735
11
77.6737021174
21
206.9630784735
0
LINE
5
301
100
AcDbEntity
8
0
100
AcDbLine
62
7
6
CONTINUOUS
10
76.8005107322
20
206.9630784735
11
74.6175318613
21
206.9630784735
0
LINE
5
302
100
AcDbEntity
8
0
100
AcDbLine
62
7
6
CONTINUOUS
10
75.0541275539
20
220.6154332195
11
75.7817874493
21
220.3672067025
0
LINE
5
303
100
AcDbEntity
8
0
100
AcDbLine
62
7
6
CONTINUOUS
10
96.7555317225
20
211.3283675652
11
98.5094008310
21
210.6900114148
0
LINE
5
304
100
AcDbEntity
8
0
100
AcDbLine
62
7
6
CONTINUOUS
10
148.6487431158
20
203.3093432532
11
150.8448955385
21
199.5054956759
0
LINE
5
305
100
AcDbEntity
8
0
100
AcDbLine
62
7
6
CONTINUOUS
10
75.0541275539
20
204.3567199305
11
75.4907232466
21
204.4808317686
0
LINE
5
306
100
AcDbEntity
8
0
100
AcDbLine
62
7
6
CONTINUOUS
10
75.4907232466
20
205.2255056381
11
75.0541275539
21
205.1013937999
0
LINE
5
307
100
AcDbEntity
8
0
100
AcDbLine
62
7
6
CONTINUOUS
10
75.0541275539
20
209.9417725308
11
75.4907232466
21
210.0658857892
0
LINE
5
308
100
AcDbEntity
8
0
100
AcDbLine
62
7
6
CONTINUOUS
10
131.8956799129
20
219.1816218119
11
132.8752800325
21
219.3543517433
0
LINE
5
309
100
AcDbEntity
8
0
100
AcDbLine
62
7
6
CONTINUOUS
10
75.4907232466
20
210.0658857892
11
75.9273193469
21
210.0658857892
0
LINE
5
30A
100
AcDbEntity
8
0
100
AcDbLine
62
7
6
CONTINUOUS
10
98.4840023205
20
210.2016480986
11
117.2057887565
21
210.2016480986
0
LINE
5
30B
100
AcDbEntity
8
0
100
AcDbLine
62
9
6
CONTINUOUS
10
130.0084784622
20
210.4951072807
11
121.3025627485
21
210.4951072807
0
LINE
5
30C
100
AcDbEntity
8
0
100
AcDbLine
62
9
6
CONTINUOUS
10
82.6258551127
20
210.4951072807
11
94.3872283285
21
210.4951072807
0
LINE
5
30D
100
AcDbEntity
8
0
100
AcDbLine
62
7
6
CONTINUOUS
10
76.0728512444
20
210.8105596587
11
75.4907232466
21
210.8105596587
0
LINE
5
30E
100
AcDbEntity
8
0
100
AcDbLine
62
7
6
CONTINUOUS
10
75.7817874493
20
220.3672067025
11
76.8005107322
21
220.2430962848
0
LINE
5
30F
100
AcDbEntity
8
0
100
AcDbLine
62
7
6
CONTINUOUS
10
76.8005107322
20
220.8636568957
11
75.9273193469
21
220.9877701542
0
LINE
5
310
100
AcDbEntity
8
0
100
AcDbLine
62
7
6
CONTINUOUS
10
75.9273193469
20
220.9877701542
11
75.4907232466
21
221.1118805720
0
LINE
5
311
100
AcDbEntity
8
0
100
AcDbLine
62
7
6
CONTINUOUS
10
78.2558299115
20
220.9877701542
11
77.8192340150
21
221.1118805720
0
LINE
5
312
100
AcDbEntity
8
0
100
AcDbLine
62
7
6
CONTINUOUS
10
78.6924256041
20
224.0905760496
11
79.1290212967
21
223.9664656318
0
LINE
5
313
100
AcDbEntity
8
0
100
AcDbLine
62
7
6
CONTINUOUS
10
79.5656170913
20
224.4629129843
11
78.8379575016
21
224.7111395013
0
LINE
5
314
100
AcDbEntity
8
0
100
AcDbLine
62
7
6
CONTINUOUS
10
75.4907232466
20
210.8105596587
11
75.0541275539
21
210.6864464002
0
LINE
5
315
100
AcDbEntity
8
0
100
AcDbLine
62
7
6
CONTINUOUS
10
77.8192340150
20
220.2430962848
11
78.8379575016
21
220.3672067025
0
LINE
5
316
100
AcDbEntity
8
0
100
AcDbLine
62
7
6
CONTINUOUS
10
74.9085956564
20
217.7608481596
11
76.0728512444
21
217.7608481596
0
LINE
5
317
100
AcDbEntity
8
0
100
AcDbLine
62
7
6
CONTINUOUS
10
75.0541275539
20
218.5055220290
11
80.7298723736
21
218.5055220290
0
LINE
5
318
100
AcDbEntity
8
0
100
AcDbLine
62
7
6
CONTINUOUS
10
80.7298723736
20
219.2501958984
11
73.8898723736
21
219.2501958984
0
LINE
5
319
100
AcDbEntity
8
DEFAULT_1
100
AcDbLine
62
2
6
CENTER
10
134.8448955385
20
219.7016480986
11
66.7412357344
21
219.7016480986
0
LINE
5
31A
100
AcDbEntity
8
DEFAULT_1
100
AcDbLine
62
2
6
CENTER
10
134.8448955385
20
219.7016480986
11
149.8961936611
21
219.7016480986
0
LINE
5
31B
100
AcDbEntity
8
0
100
AcDbLine
62
7
6
CONTINUOUS
10
76.8005107322
20
220.2430962848
11
77.8192340150
21
220.2430962848
0
LINE
5
31C
100
AcDbEntity
8
0
100
AcDbLine
62
7
6
CONTINUOUS
10
77.0915745272
20
220.8636568957
11
76.8005107322
21
220.8636568957
0
LINE
5
31D
100
AcDbEntity
8
0
100
AcDbLine
62
7
6
CONTINUOUS
10
78.6924256041
20
220.9877701542
11
78.2558299115
21
220.9877701542
0
LINE
5
31E
100
AcDbEntity
8
0
100
AcDbLine
62
7
6
CONTINUOUS
10
131.8956799129
20
220.2216743854
11
132.8752800325
21
220.0489444540
0
LINE
5
31F
100
AcDbEntity
8
0
100
AcDbLine
62
7
6
CONTINUOUS
10
79.1290212967
20
221.1118805720
11
78.6924256041
21
220.9877701542
0
LINE
5
320
100
AcDbEntity
8
0
100
AcDbLine
62
7
6
CONTINUOUS
10
77.8192340150
20
223.9664656318
11
78.2558299115
21
224.0905760496
0
LINE
5
321
100
AcDbEntity
8
0
100
AcDbLine
62
7
6
CONTINUOUS
10
75.4907232466
20
224.4629129843
11
75.0541275539
21
224.3388025666
0
LINE
5
322
100
AcDbEntity
8
0
100
AcDbLine
62
7
6
CONTINUOUS
10
78.2558299115
20
224.0905760496
11
78.6924256041
21
224.0905760496
0
LINE
5
323
100
AcDbEntity
8
0
100
AcDbLine
62
7
6
CONTINUOUS
10
78.8379575016
20
224.7111395013
11
78.1102978101
21
224.7111395013
0
LINE
5
324
100
AcDbEntity
8
0
100
AcDbLine
62
7
6
CONTINUOUS
10
79.8493601802
20
228.2310091532
11
71.8344803784
21
228.2310091532
0
LINE
5
325
100
AcDbEntity
8
0
100
AcDbLine
62
7
6
CONTINUOUS
10
135.8404308968
20
228.2310091532
11
143.8553106986
21
228.2310091532
0
LINE
5
326
100
AcDbEntity
8
0
100
AcDbLine
62
7
6
CONTINUOUS
10
98.8143151875
20
229.2016480986
11
116.8754758894
21
229.2016480986
0
LINE
5
327
100
AcDbEntity
8
0
100
AcDbLine
62
7
6
CONTINUOUS
10
147.8448955385
20
42.3016480964
11
141.9711981203
21
35.3016480964
0
LINE
5
328
100
AcDbEntity
8
0
100
AcDbLine
62
9
6
CONTINUOUS
10
146.4610764981
20
44.2059892468
11
141.9711981203
21
39.8228469891
0
LINE
5
329
100
AcDbEntity
8
0
100
AcDbLine
62
9
6
CONTINUOUS
10
146.4610764981
20
235.7973069482
11
141.9711981203
21
240.1804492059
0
LINE
5
32A
100
AcDbEntity
8
0
100
AcDbLine
62
7
6
CONTINUOUS
10
141.9711981203
20
244.7016480986
11
147.8448955385
21
237.7016480986
0
LINE
5
32B
100
AcDbEntity
8
0
100
AcDbLine
62
7
6
CONTINUOUS
10
73.7185929567
20
244.7016480986
11
79.8493601802
21
244.7016480986
0
LINE
5
32C
100
AcDbEntity
8
0
100
AcDbLine
62
7
6
CONTINUOUS
10
135.8404308968
20
244.7016480986
11
141.9711981203
21
244.7016480986
0
LINE
5
32D
100
AcDbEntity
8
0
100
AcDbLine
62
7
6
CONTINUOUS
10
284.1068283340
20
235.7973069482
11
274.1462456695
21
230.6021371142
0
LINE
5
32E
100
AcDbEntity
8
0
100
AcDbLine
62
7
6
CONTINUOUS
10
284.1068283340
20
44.2059892468
11
274.1462456695
21
49.4011590808
0
LINE
5
32F
100
AcDbEntity
8
0
100
AcDbLine
62
7
6
CONTINUOUS
10
294.1271299929
20
54.3016480964
11
294.6479634256
21
54.4080310624
0
LINE
5
330
100
AcDbEntity
8
0
100
AcDbLine
62
7
6
CONTINUOUS
10
293.7104634256
20
54.3016480964
11
294.1271299929
21
54.3016480964
0
LINE
5
331
100
AcDbEntity
8
0
100
AcDbLine
62
7
6
CONTINUOUS
10
296.6271299929
20
54.3016480964
11
297.2521299929
21
54.3016480964
0
LINE
5
332
100
AcDbEntity
8
0
100
AcDbLine
62
7
6
CONTINUOUS
10
294.2312965602
20
54.8335629266
11
293.6062965602
21
54.8335629266
0
LINE
5
333
100
AcDbEntity
8
0
100
AcDbLine
62
7
6
CONTINUOUS
10
292.7729631276
20
55.4718607228
11
292.2521299929
21
55.4718607228
0
LINE
5
334
100
AcDbEntity
8
0
100
AcDbLine
62
7
6
CONTINUOUS
10
293.6062965602
20
56.1101588171
11
294.1271299929
21
56.1101588171
0
LINE
5
335
100
AcDbEntity
8
0
100
AcDbLine
62
7
6
CONTINUOUS
10
294.2312965602
20
56.6420736473
11
293.5021299929
21
56.6420736473
0
LINE
5
336
100
AcDbEntity
8
0
100
AcDbLine
62
7
6
CONTINUOUS
10
286.2422480989
20
57.3016480964
11
304.5120119742
21
57.3016480964
0
LINE
5
337
100
AcDbEntity
8
0
100
AcDbLine
62
7
6
CONTINUOUS
10
293.1896299929
20
54.4080310624
11
293.7104634256
21
54.3016480964
0
LINE
5
338
100
AcDbEntity
8
0
100
AcDbLine
62
7
6
CONTINUOUS
10
293.0854634256
20
56.2165417831
11
293.6062965602
21
56.1101588171
0
LINE
5
339
100
AcDbEntity
8
0
100
AcDbLine
62
7
6
CONTINUOUS
10
294.1271299929
20
56.1101588171
11
294.6479634256
21
56.2165417831
0
LINE
5
33A
100
AcDbEntity
8
0
100
AcDbLine
62
7
6
CONTINUOUS
10
285.7769018564
20
59.7807035634
11
304.9773579376
21
59.7807035634
0
LINE
5
33B
100
AcDbEntity
8
0
100
AcDbLine
62
7
6
CONTINUOUS
10
285.7686445686
20
59.9543517410
11
304.9856152894
21
59.9543517410
0
LINE
5
33C
100
AcDbEntity
8
DEFAULT_1
100
AcDbLine
62
2
6
CENTER
10
321.8771299929
20
60.3016480964
11
269.0234853106
21
60.3016480964
0
LINE
5
33D
100
AcDbEntity
8
0
100
AcDbLine
62
7
6
CONTINUOUS
10
285.7686446965
20
60.6489444517
11
304.9856154172
21
60.6489444517
0
LINE
5
33E
100
AcDbEntity
8
0
100
AcDbLine
62
7
6
CONTINUOUS
10
285.7769020482
20
60.8225926294
11
304.9773581294
21
60.8225926294
0
LINE
5
33F
100
AcDbEntity
8
0
100
AcDbLine
62
7
6
CONTINUOUS
10
286.2422480117
20
63.3016480964
11
304.5120118869
21
63.3016480964
0
LINE
5
340
100
AcDbEntity
8
0
100
AcDbLine
62
7
6
CONTINUOUS
10
292.7937968583
20
63.5676055115
11
290.9187968583
21
63.5676055115
0
LINE
5
341
100
AcDbEntity
8
0
100
AcDbLine
62
7
6
CONTINUOUS
10
293.6062965602
20
54.8335629266
11
293.2937965602
21
54.9399458926
0
LINE
5
342
100
AcDbEntity
8
0
100
AcDbLine
62
7
6
CONTINUOUS
10
293.5021299929
20
56.6420736473
11
293.1896299929
21
56.7484566134
0
LINE
5
343
100
AcDbEntity
8
0
100
AcDbLine
62
7
6
CONTINUOUS
10
293.8529633958
20
225.1059034366
11
294.0717133958
21
225.2548395891
0
LINE
5
344
100
AcDbEntity
8
0
100
AcDbLine
62
7
6
CONTINUOUS
10
295.0196299929
20
222.7973927085
11
294.8008799929
21
222.6484565560
0
LINE
5
345
100
AcDbEntity
8
0
100
AcDbLine
62
7
6
CONTINUOUS
10
293.9987965900
20
225.6271800159
11
293.6342131872
21
225.4037757676
0
LINE
5
346
100
AcDbEntity
8
0
100
AcDbLine
62
7
6
CONTINUOUS
10
294.8737965900
20
222.2761161749
11
295.2383799929
21
222.4995204035
0
LINE
5
347
100
AcDbEntity
8
0
100
AcDbLine
62
7
6
CONTINUOUS
10
290.9187968583
20
63.5676055115
11
290.3979631276
21
63.4612225454
0
LINE
5
348
100
AcDbEntity
8
0
100
AcDbLine
62
7
6
CONTINUOUS
10
298.2104632766
20
65.8016480964
11
297.3771299929
21
65.8016480964
0
LINE
5
349
100
AcDbEntity
8
0
100
AcDbLine
62
7
6
CONTINUOUS
10
294.8771299929
20
65.8016480964
11
294.2521299929
21
65.8016480964
0
LINE
5
34A
100
AcDbEntity
8
0
100
AcDbLine
62
7
6
CONTINUOUS
10
293.4187968583
20
65.8016480964
11
292.7937968583
21
65.8016480964
0
LINE
5
34B
100
AcDbEntity
8
0
100
AcDbLine
62
7
6
CONTINUOUS
10
292.6687968583
20
54.7271799605
11
293.1896299929
21
54.4080310624
0
LINE
5
34C
100
AcDbEntity
8
0
100
AcDbLine
62
7
6
CONTINUOUS
10
292.5646299929
20
56.5356906813
11
293.0854634256
21
56.2165417831
0
LINE
5
34D
100
AcDbEntity
8
0
100
AcDbLine
62
7
6
CONTINUOUS
10
293.2937965602
20
54.9399458926
11
292.9812965602
21
55.1527118247
0
LINE
5
34E
100
AcDbEntity
8
0
100
AcDbLine
62
7
6
CONTINUOUS
10
293.1896299929
20
56.7484566134
11
292.8771299929
21
56.9612225454
0
LINE
5
34F
100
AcDbEntity
8
0
100
AcDbLine
62
7
6
CONTINUOUS
10
293.6342131872
20
225.4037757676
11
293.4154631872
21
225.1803715129
0
LINE
5
350
100
AcDbEntity
8
0
100
AcDbLine
62
7
6
CONTINUOUS
10
295.8504052813
20
216.0125815802
11
295.6185190020
21
215.8510544234
0
LINE
5
351
100
AcDbEntity
8
0
100
AcDbLine
62
7
6
CONTINUOUS
10
295.6151687319
20
215.7952541047
11
295.8350521400
21
215.9479707413
0
LINE
5
352
100
AcDbEntity
8
0
100
AcDbLine
62
9
6
CONTINUOUS
10
295.3771299929
20
76.6939529418
11
313.8235843241
21
77.8264228394
0
LINE
5
353
100
AcDbEntity
8
0
100
AcDbLine
62
9
6
CONTINUOUS
10
274.1462456695
20
73.6939529418
11
316.6080143163
21
73.6939529418
0
LINE
5
354
100
AcDbEntity
8
0
100
AcDbLine
62
9
6
CONTINUOUS
10
295.3771299929
20
76.6939529418
11
276.9306756617
21
77.8264228394
0
LINE
5
355
100
AcDbEntity
8
0
100
AcDbLine
62
7
6
CONTINUOUS
10
292.2521299929
20
56.8548395794
11
292.5646299929
21
56.5356906813
0
LINE
5
356
100
AcDbEntity
8
0
100
AcDbLine
62
7
6
CONTINUOUS
10
292.8771299929
20
56.9612225454
11
292.6687968583
21
57.1739884775
0
LINE
5
357
100
AcDbEntity
8
0
100
AcDbLine
62
7
6
CONTINUOUS
10
297.2071299929
20
223.3186694507
11
296.7696299929
21
222.7973927085
0
LINE
5
358
100
AcDbEntity
8
0
100
AcDbLine
62
7
6
CONTINUOUS
10
295.2383799929
20
222.4995204035
11
295.4571299929
21
222.7229246322
0
LINE
5
359
100
AcDbEntity
8
0
100
AcDbLine
62
7
6
CONTINUOUS
10
292.3562968583
20
55.1527118247
11
292.6687968583
21
54.7271799605
0
LINE
5
35A
100
AcDbEntity
8
0
100
AcDbLine
62
7
6
CONTINUOUS
10
293.5612967987
20
224.6590949271
11
293.8529633958
21
225.1059034366
0
LINE
5
35B
100
AcDbEntity
8
0
100
AcDbLine
62
7
6
CONTINUOUS
10
295.3112965900
20
223.2442013745
11
295.0196299929
21
222.7973927085
0
LINE
5
35C
100
AcDbEntity
8
0
100
AcDbLine
62
9
6
CONTINUOUS
10
306.6474316518
20
235.7973069482
11
309.7165409017
21
240.1804492059
0
LINE
5
35D
100
AcDbEntity
8
0
100
AcDbLine
62
7
6
CONTINUOUS
10
296.7696299929
20
222.2016480986
11
297.2071299929
21
222.7229246322
0
LINE
5
35E
100
AcDbEntity
8
0
100
AcDbLine
62
7
6
CONTINUOUS
10
295.6771299929
20
218.9345361822
11
295.3646299929
21
218.5621956521
0
LINE
5
35F
100
AcDbEntity
8
0
100
AcDbLine
62
7
6
CONTINUOUS
10
295.3646299929
20
218.1366637879
11
295.6771299929
21
218.5090041691
0
LINE
5
360
100
AcDbEntity
8
0
100
AcDbLine
62
9
6
CONTINUOUS
10
306.6474316518
20
44.2059892468
11
309.7165409017
21
39.8228469891
0
LINE
5
361
100
AcDbEntity
8
0
100
AcDbLine
62
7
6
CONTINUOUS
10
292.9812965602
20
55.1527118247
11
292.7729631276
21
55.4718607228
0
LINE
5
362
100
AcDbEntity
8
0
100
AcDbLine
62
7
6
CONTINUOUS
10
252.3771299929
20
166.8911171647
11
252.3771299929
21
123.2821139108
0
LINE
5
363
100
AcDbEntity
8
0
100
AcDbLine
62
7
6
CONTINUOUS
10
252.3771299929
20
113.1121787848
11
252.3771299929
21
116.8016480964
0
LINE
5
364
100
AcDbEntity
8
0
100
AcDbLine
62
7
6
CONTINUOUS
10
256.9583845683
20
122.8016480964
11
256.9583845683
21
117.3016480964
0
LINE
5
365
100
AcDbEntity
8
0
100
AcDbLine
62
7
6
CONTINUOUS
10
293.4154631872
20
225.1803715129
11
293.2696299929
21
224.8824991558
0
LINE
5
366
100
AcDbEntity
8
0
100
AcDbLine
62
7
6
CONTINUOUS
10
263.5271299929
20
123.2016480986
11
263.5271299929
21
122.8016480964
0
LINE
5
367
100
AcDbEntity
8
0
100
AcDbLine
62
7
6
CONTINUOUS
10
295.4571299929
20
222.7229246322
11
295.6029632915
21
223.0207969372
0
LINE
5
368
100
AcDbEntity
8
0
100
AcDbLine
62
7
6
CONTINUOUS
10
332.3741780102
20
112.1614048402
11
338.3771299929
21
113.1121790303
0
LINE
5
369
100
AcDbEntity
8
0
100
AcDbLine
62
7
6
CONTINUOUS
10
252.3771299929
20
113.1121790303
11
258.3800816349
21
112.1614048942
0
LINE
5
36A
100
AcDbEntity
8
0
100
AcDbLine
62
7
6
CONTINUOUS
10
292.0771301365
20
57.3016480964
11
292.2521299929
21
56.8548395794
0
LINE
5
36B
100
AcDbEntity
8
0
100
AcDbLine
62
7
6
CONTINUOUS
10
292.2521299929
20
55.4718607228
11
292.3562968583
21
55.1527118247
0
LINE
5
36C
100
AcDbEntity
8
0
100
AcDbLine
62
7
6
CONTINUOUS
10
271.8771299929
20
228.2310091532
11
271.8771299929
21
183.6449047184
0
LINE
5
36D
100
AcDbEntity
8
0
100
AcDbLine
62
7
6
CONTINUOUS
10
271.8771299929
20
51.7722870418
11
271.8771299929
21
96.3583914766
0
LINE
5
36E
100
AcDbEntity
8
0
100
AcDbLine
62
7
6
CONTINUOUS
10
294.1694739466
20
217.0463554197
11
294.2109413851
21
217.1785139972
0
LINE
5
36F
100
AcDbEntity
8
0
100
AcDbLine
62
7
6
CONTINUOUS
10
293.2696299929
20
224.8824991558
11
293.1967131872
21
224.6590949271
0
LINE
5
370
100
AcDbEntity
8
0
100
AcDbLine
62
7
6
CONTINUOUS
10
295.6029632915
20
223.0207969372
11
295.6758799929
21
223.2442013745
0
LINE
5
371
100
AcDbEntity
8
0
100
AcDbLine
62
7
6
CONTINUOUS
10
295.2955810815
20
213.6366637879
11
295.3354600702
21
213.7453275853
0
LINE
5
372
100
AcDbEntity
8
0
100
AcDbLine
62
7
6
CONTINUOUS
10
252.3771299929
20
116.8016480964
11
338.3771299929
21
116.8016480964
0
LINE
5
373
100
AcDbEntity
8
0
100
AcDbLine
62
7
6
CONTINUOUS
10
252.8778728338
20
117.3016480964
11
337.8763871520
21
117.3016480964
0
LINE
5
374
100
AcDbEntity
8
0
100
AcDbLine
62
7
6
CONTINUOUS
10
292.6687968583
20
57.1739884775
11
292.6271301121
21
57.3016480964
0
LINE
5
375
100
AcDbEntity
8
0
100
AcDbLine
62
7
6
CONTINUOUS
10
274.1462456695
20
230.6021371142
11
274.1462456695
21
206.3093432532
0
LINE
5
376
100
AcDbEntity
8
0
100
AcDbLine
62
7
6
CONTINUOUS
10
274.1462456695
20
49.4011590808
11
274.1462456695
21
73.6939529418
0
LINE
5
377
100
AcDbEntity
8
0
100
AcDbLine
62
7
6
CONTINUOUS
10
293.4883799929
20
224.2122863654
11
293.5612967987
21
224.6590949271
0
LINE
5
378
100
AcDbEntity
8
0
100
AcDbLine
62
7
6
CONTINUOUS
10
293.1967131872
20
224.6590949271
11
293.1237967987
21
224.2867544417
0
LINE
5
379
100
AcDbEntity
8
0
100
AcDbLine
62
7
6
CONTINUOUS
10
295.6758799929
20
223.2442013745
11
295.7487966943
21
223.6165417556
0
LINE
5
37A
100
AcDbEntity
8
0
100
AcDbLine
62
7
6
CONTINUOUS
10
256.9583845683
20
122.8016480964
11
333.8768653011
21
122.8016480964
0
LINE
5
37B
100
AcDbEntity
8
0
100
AcDbLine
62
7
6
CONTINUOUS
10
252.4500589510
20
123.2016480986
11
338.3042010348
21
123.2016480986
0
LINE
5
37C
100
AcDbEntity
8
0
100
AcDbLine
62
7
6
CONTINUOUS
10
297.7937967092
20
65.1633502256
11
298.4162560379
21
63.3016480964
0
LINE
5
37D
100
AcDbEntity
8
0
100
AcDbLine
62
7
6
CONTINUOUS
10
299.0437966347
20
63.3016480964
11
298.2104632766
21
65.8016480964
0
LINE
5
37E
100
AcDbEntity
8
0
100
AcDbLine
62
7
6
CONTINUOUS
10
297.0365472981
20
214.9406286412
11
297.0445195300
21
215.0023025208
0
LINE
5
37F
100
AcDbEntity
8
0
100
AcDbLine
62
7
6
CONTINUOUS
10
295.3842133958
20
223.6910098318
11
295.3112965900
21
223.2442013745
0
LINE
5
380
100
AcDbEntity
8
0
100
AcDbLine
62
7
6
CONTINUOUS
10
297.0229975867
20
214.9964288407
11
296.9904578692
21
214.8025962048
0
LINE
5
381
100
AcDbEntity
8
0
100
AcDbLine
62
7
6
CONTINUOUS
10
252.3771299929
20
116.8016480964
11
252.8771299929
21
117.3016480964
0
LINE
5
382
100
AcDbEntity
8
0
100
AcDbLine
62
7
6
CONTINUOUS
10
295.7937967092
20
57.1739884775
11
295.7759395531
21
57.3016480964
0
LINE
5
383
100
AcDbEntity
8
0
100
AcDbLine
62
7
6
CONTINUOUS
10
292.7937968583
20
65.8016480964
11
292.7937968583
21
63.5676055115
0
LINE
5
384
100
AcDbEntity
8
0
100
AcDbLine
62
7
6
CONTINUOUS
10
293.1237967987
20
224.2867544417
11
293.1237967987
21
223.6165417556
0
LINE
5
385
100
AcDbEntity
8
0
100
AcDbLine
62
7
6
CONTINUOUS
10
293.4187968583
20
63.3016480964
11
293.4187968583
21
65.8016480964
0
LINE
5
386
100
AcDbEntity
8
0
100
AcDbLine
62
7
6
CONTINUOUS
10
293.4883799929
20
223.6910098318
11
293.4883799929
21
224.2122863654
0
LINE
5
387
100
AcDbEntity
8
0
100
AcDbLine
62
7
6
CONTINUOUS
10
294.2521299929
20
65.8016480964
11
294.2521299929
21
63.3016480964
0
LINE
5
388
100
AcDbEntity
8
0
100
AcDbLine
62
7
6
CONTINUOUS
10
294.8771299929
20
63.3016480964
11
294.8771299929
21
65.8016480964
0
LINE
5
389
100
AcDbEntity
8
0
100
AcDbLine
62
7
6
CONTINUOUS
10
295.0521299929
20
220.6366637879
11
295.0521299929
21
218.1366637879
0
LINE
5
38A
100
AcDbEntity
8
0
100
AcDbLine
62
7
6
CONTINUOUS
10
295.2729634256
20
56.6420736473
11
295.2729634256
21
56.4293077152
0
LINE
5
38B
100
AcDbEntity
8
0
100
AcDbLine
62
7
6
CONTINUOUS
10
295.3646299929
20
218.5621956521
11
295.3646299929
21
220.6366637879
0
LINE
5
38C
100
AcDbEntity
8
DEFAULT_1
100
AcDbLine
62
2
6
CENTER
10
295.3771299929
20
249.6496031135
11
295.3771299929
21
237.7016480986
0
LINE
5
38D
100
AcDbEntity
8
DEFAULT_1
100
AcDbLine
62
2
6
CENTER
10
295.3771299929
20
228.4516480986
11
295.3771299929
21
210.9516480986
0
LINE
5
38E
100
AcDbEntity
8
DEFAULT_1
100
AcDbLine
62
2
6
CENTER
10
295.3771299929
20
199.5054956759
11
295.3771299929
21
80.4978005191
0
LINE
5
38F
100
AcDbEntity
8
0
100
AcDbLine
62
7
6
CONTINUOUS
10
295.3771299929
20
237.7016480986
11
295.3771299929
21
228.4516480986
0
LINE
5
390
100
AcDbEntity
8
0
100
AcDbLine
62
7
6
CONTINUOUS
10
295.3771299929
20
210.9516480986
11
295.3771299929
21
199.5054956759
0
LINE
5
391
100
AcDbEntity
8
0
100
AcDbLine
62
7
6
CONTINUOUS
10
295.3771299929
20
42.3016480964
11
295.3771299929
21
49.6766480964
0
LINE
5
392
100
AcDbEntity
8
0
100
AcDbLine
62
7
6
CONTINUOUS
10
295.3771299929
20
70.9266480964
11
295.3771299929
21
80.4978005191
0
LINE
5
393
100
AcDbEntity
8
0
100
AcDbLine
62
7
6
CONTINUOUS
10
295.3842133958
20
224.2122863654
11
295.3842133958
21
223.6910098318
0
LINE
5
394
100
AcDbEntity
8
0
100
AcDbLine
62
7
6
CONTINUOUS
10
295.6771299929
20
218.5090041691
11
295.6771299929
21
218.9345361822
0
LINE
5
395
100
AcDbEntity
8
0
100
AcDbLine
62
7
6
CONTINUOUS
10
295.7487966943
20
223.6165417556
11
295.7487966943
21
224.2867544417
0
LINE
5
396
100
AcDbEntity
8
0
100
AcDbLine
62
7
6
CONTINUOUS
10
295.7937967092
20
56.4293077152
11
295.7937967092
21
57.1739884775
0
LINE
5
397
100
AcDbEntity
8
0
100
AcDbLine
62
7
6
CONTINUOUS
10
296.3321299929
20
225.7016480986
11
296.3321299929
21
222.2016480986
0
LINE
5
398
100
AcDbEntity
8
0
100
AcDbLine
62
7
6
CONTINUOUS
10
295.4060166841
20
215.7012746268
11
295.4016510753
21
215.0492922002
0
LINE
5
399
100
AcDbEntity
8
0
100
AcDbLine
62
7
6
CONTINUOUS
10
295.6185190020
20
215.8510544234
11
295.6268616537
21
216.2181615763
0
LINE
5
39A
100
AcDbEntity
8
0
100
AcDbLine
62
7
6
CONTINUOUS
10
296.6271299929
20
57.3016480964
11
296.6271299929
21
54.3016480964
0
LINE
5
39B
100
AcDbEntity
8
0
100
AcDbLine
62
7
6
CONTINUOUS
10
296.7696299929
20
222.7973927085
11
296.7696299929
21
225.7016480986
0
LINE
5
39C
100
AcDbEntity
8
0
100
AcDbLine
62
7
6
CONTINUOUS
10
297.2071299929
20
222.7229246322
11
297.2071299929
21
223.3186694507
0
LINE
5
39D
100
AcDbEntity
8
0
100
AcDbLine
62
7
6
CONTINUOUS
10
297.2521299929
20
55.1527118247
11
297.2521299929
21
57.3016480964
0
LINE
5
39E
100
AcDbEntity
8
0
100
AcDbLine
62
7
6
CONTINUOUS
10
297.8771299929
20
55.0463288587
11
297.8771299929
21
55.8973928850
0
LINE
5
39F
100
AcDbEntity
8
0
100
AcDbLine
62
7
6
CONTINUOUS
10
295.6896299929
20
55.6846269529
11
295.7937967092
21
56.4293077152
0
LINE
5
3A0
100
AcDbEntity
8
0
100
AcDbLine
62
7
6
CONTINUOUS
10
295.2729634256
20
56.4293077152
11
295.1687965602
21
55.7910099190
0
LINE
5
3A1
100
AcDbEntity
8
0
100
AcDbLine
62
7
6
CONTINUOUS
10
338.3771299929
20
116.8016480964
11
337.8771299929
21
117.3016480964
0
LINE
5
3A2
100
AcDbEntity
8
0
100
AcDbLine
62
7
6
CONTINUOUS
10
294.1580620582
20
217.0962819987
11
294.1694739466
21
217.0463554197
0
LINE
5
3A3
100
AcDbEntity
8
0
100
AcDbLine
62
7
6
CONTINUOUS
10
293.1237967987
20
223.6165417556
11
293.1967131872
21
223.2442013745
0
LINE
5
3A4
100
AcDbEntity
8
0
100
AcDbLine
62
7
6
CONTINUOUS
10
293.5612967987
20
223.2442013745
11
293.4883799929
21
223.6910098318
0
LINE
5
3A5
100
AcDbEntity
8
0
100
AcDbLine
62
7
6
CONTINUOUS
10
295.3112965900
20
224.6590949271
11
295.3842133958
21
224.2122863654
0
LINE
5
3A6
100
AcDbEntity
8
0
100
AcDbLine
62
7
6
CONTINUOUS
10
316.6080143163
20
230.6021371142
11
316.6080143163
21
206.3093432532
0
LINE
5
3A7
100
AcDbEntity
8
0
100
AcDbLine
62
7
6
CONTINUOUS
10
316.6080143163
20
49.4011590808
11
316.6080143163
21
73.6939529418
0
LINE
5
3A8
100
AcDbEntity
8
0
100
AcDbLine
62
7
6
CONTINUOUS
10
318.8771299929
20
228.2310091532
11
318.8771299929
21
183.6449047184
0
LINE
5
3A9
100
AcDbEntity
8
0
100
AcDbLine
62
7
6
CONTINUOUS
10
318.8771299929
20
51.7722870418
11
318.8771299929
21
96.3583914766
0
LINE
5
3AA
100
AcDbEntity
8
0
100
AcDbLine
62
7
6
CONTINUOUS
10
295.2786514199
20
213.6924639874
11
295.2955810815
21
213.6366637879
0
LINE
5
3AB
100
AcDbEntity
8
0
100
AcDbLine
62
7
6
CONTINUOUS
10
295.7487966943
20
224.2867544417
11
295.6758799929
21
224.6590949271
0
LINE
5
3AC
100
AcDbEntity
8
0
100
AcDbLine
62
7
6
CONTINUOUS
10
319.1771299929
20
224.7111395013
11
319.1771299929
21
220.2430962848
0
LINE
5
3AD
100
AcDbEntity
8
0
100
AcDbLine
62
7
6
CONTINUOUS
10
319.1771299929
20
219.2501958984
11
319.1771299929
21
217.7608481596
0
LINE
5
3AE
100
AcDbEntity
8
0
100
AcDbLine
62
7
6
CONTINUOUS
10
319.1771299929
20
210.8105596587
11
319.1771299929
21
206.2184046041
0
LINE
5
3AF
100
AcDbEntity
8
0
100
AcDbLine
62
7
6
CONTINUOUS
10
319.1771299929
20
205.2255056381
11
319.1771299929
21
200.6333505835
0
LINE
5
3B0
100
AcDbEntity
8
0
100
AcDbLine
62
7
6
CONTINUOUS
10
319.1771299929
20
199.6404516175
11
319.1771299929
21
197.9028787821
0
LINE
5
3B1
100
AcDbEntity
8
0
100
AcDbLine
62
7
6
CONTINUOUS
10
319.1771299929
20
196.9099805262
11
319.1771299929
21
190.9525899260
0
LINE
5
3B2
100
AcDbEntity
8
0
100
AcDbLine
62
7
6
CONTINUOUS
10
319.1771299929
20
189.9596913151
11
319.1771299929
21
185.4916480986
0
LINE
5
3B3
100
AcDbEntity
8
0
100
AcDbLine
62
7
6
CONTINUOUS
10
295.1062966198
20
57.3016480964
11
295.0646299929
21
57.1739884775
0
LINE
5
3B4
100
AcDbEntity
8
0
100
AcDbLine
62
7
6
CONTINUOUS
10
295.1687965602
20
55.7910099190
11
295.0646299929
21
55.4718607228
0
LINE
5
3B5
100
AcDbEntity
8
0
100
AcDbLine
62
7
6
CONTINUOUS
10
297.3771299929
20
65.8016480964
11
296.5437967092
21
63.3016480964
0
LINE
5
3B6
100
AcDbEntity
8
0
100
AcDbLine
62
7
6
CONTINUOUS
10
297.1713373805
20
63.3016480964
11
297.7937967092
21
65.1633502256
0
LINE
5
3B7
100
AcDbEntity
8
0
100
AcDbLine
62
7
6
CONTINUOUS
10
295.4812967092
20
55.1527118247
11
295.6896299929
21
55.6846269529
0
LINE
5
3B8
100
AcDbEntity
8
0
100
AcDbLine
62
7
6
CONTINUOUS
10
293.1967131872
20
223.2442013745
11
293.2696299929
21
223.0207969372
0
LINE
5
3B9
100
AcDbEntity
8
0
100
AcDbLine
62
7
6
CONTINUOUS
10
295.6758799929
20
224.6590949271
11
295.6029632915
21
224.8824991558
0
LINE
5
3BA
100
AcDbEntity
8
0
100
AcDbLine
62
7
6
CONTINUOUS
10
327.2271299929
20
123.2016480986
11
327.2271299929
21
122.8016480964
0
LINE
5
3BB
100
AcDbEntity
8
0
100
AcDbLine
62
7
6
CONTINUOUS
10
333.8771299929
20
122.8016480964
11
333.8771299929
21
117.3016480964
0
LINE
5
3BC
100
AcDbEntity
8
0
100
AcDbLine
62
7
6
CONTINUOUS
10
258.3800817266
20
167.8418913153
11
252.3771299929
21
166.8911171647
0
LINE
5
3BD
100
AcDbEntity
8
0
100
AcDbLine
62
7
6
CONTINUOUS
10
338.3771299929
20
166.8911171647
11
332.3741785523
21
167.8418912689
0
LINE
5
3BE
100
AcDbEntity
8
0
100
AcDbLine
62
7
6
CONTINUOUS
10
293.2696299929
20
223.0207969372
11
293.4154631872
21
222.7229246322
0
LINE
5
3BF
100
AcDbEntity
8
0
100
AcDbLine
62
7
6
CONTINUOUS
10
295.6029632915
20
224.8824991558
11
295.4571299929
21
225.1803715129
0
LINE
5
3C0
100
AcDbEntity
8
0
100
AcDbLine
62
7
6
CONTINUOUS
10
338.3771299929
20
166.8911171647
11
338.3771299929
21
123.2821139108
0
LINE
5
3C1
100
AcDbEntity
8
0
100
AcDbLine
62
7
6
CONTINUOUS
10
338.3771299929
20
113.1121787846
11
338.3771299929
21
116.8016480964
0
LINE
5
3C2
100
AcDbEntity
8
0
100
AcDbLine
62
7
6
CONTINUOUS
10
295.0646299929
20
55.4718607228
11
294.8562965602
21
55.1527118247
0
LINE
5
3C3
100
AcDbEntity
8
0
100
AcDbLine
62
9
6
CONTINUOUS
10
284.1068283340
20
44.2059892468
11
281.0377190841
21
39.8228469891
0
LINE
5
3C4
100
AcDbEntity
8
0
100
AcDbLine
62
7
6
CONTINUOUS
10
318.8771299929
20
185.4916480986
11
319.1771299929
21
185.4916480986
0
LINE
5
3C5
100
AcDbEntity
8
0
100
AcDbLine
62
7
6
CONTINUOUS
10
318.8771299929
20
186.2363219680
11
319.1771299929
21
186.2363219680
0
LINE
5
3C6
100
AcDbEntity
8
0
100
AcDbLine
62
9
6
CONTINUOUS
10
284.1068283340
20
235.7973069482
11
281.0377190841
21
240.1804492059
0
LINE
5
3C7
100
AcDbEntity
8
0
100
AcDbLine
62
7
6
CONTINUOUS
10
293.8529633958
20
222.7973927085
11
293.5612967987
21
223.2442013745
0
LINE
5
3C8
100
AcDbEntity
8
0
100
AcDbLine
62
7
6
CONTINUOUS
10
295.0196299929
20
225.1059034366
11
295.3112965900
21
224.6590949271
0
LINE
5
3C9
100
AcDbEntity
8
0
100
AcDbLine
62
7
6
CONTINUOUS
10
295.1687965602
20
54.7271799605
11
295.4812967092
21
55.1527118247
0
LINE
5
3CA
100
AcDbEntity
8
0
100
AcDbLine
62
7
6
CONTINUOUS
10
318.8771299929
20
186.3604342500
11
319.1771299929
21
186.3604342500
0
LINE
5
3CB
100
AcDbEntity
8
0
100
AcDbLine
62
7
6
CONTINUOUS
10
318.8771299929
20
186.6086589028
11
319.1771299929
21
186.6086589028
0
LINE
5
3CC
100
AcDbEntity
8
0
100
AcDbLine
62
7
6
CONTINUOUS
10
318.8771299929
20
186.9809958375
11
319.1771299929
21
186.9809958375
0
LINE
5
3CD
100
AcDbEntity
8
0
100
AcDbLine
62
7
6
CONTINUOUS
10
318.8771299929
20
187.4774451429
11
319.1771299929
21
187.4774451429
0
LINE
5
3CE
100
AcDbEntity
8
0
100
AcDbLine
62
7
6
CONTINUOUS
10
318.8771299929
20
187.9738942708
11
319.1771299929
21
187.9738942708
0
LINE
5
3CF
100
AcDbEntity
8
0
100
AcDbLine
62
7
6
CONTINUOUS
10
318.8771299929
20
188.4703435763
11
319.1771299929
21
188.4703435763
0
LINE
5
3D0
100
AcDbEntity
8
0
100
AcDbLine
62
7
6
CONTINUOUS
10
318.8771299929
20
188.8426805110
11
319.1771299929
21
188.8426805110
0
LINE
5
3D1
100
AcDbEntity
8
0
100
AcDbLine
62
7
6
CONTINUOUS
10
318.8771299929
20
189.0909052525
11
319.1771299929
21
189.0909052525
0
LINE
5
3D2
100
AcDbEntity
8
0
100
AcDbLine
62
7
6
CONTINUOUS
10
318.8771299929
20
189.2150174457
11
319.1771299929
21
189.2150174457
0
LINE
5
3D3
100
AcDbEntity
8
0
100
AcDbLine
62
7
6
CONTINUOUS
10
318.8771299929
20
189.9596913151
11
319.1771299929
21
189.9596913151
0
LINE
5
3D4
100
AcDbEntity
8
0
100
AcDbLine
62
7
6
CONTINUOUS
10
318.8771299929
20
190.9525899260
11
319.1771299929
21
190.9525899260
0
LINE
5
3D5
100
AcDbEntity
8
0
100
AcDbLine
62
7
6
CONTINUOUS
10
318.8771299929
20
191.6972634403
11
319.1771299929
21
191.6972634403
0
LINE
5
3D6
100
AcDbEntity
8
0
100
AcDbLine
62
7
6
CONTINUOUS
10
318.8771299929
20
192.4419373098
11
319.1771299929
21
192.4419373098
0
LINE
5
3D7
100
AcDbEntity
8
0
100
AcDbLine
62
7
6
CONTINUOUS
10
318.8771299929
20
193.4348362758
11
319.1771299929
21
193.4348362758
0
LINE
5
3D8
100
AcDbEntity
8
0
100
AcDbLine
62
7
6
CONTINUOUS
10
297.8771299929
20
55.8973928850
11
297.2521299929
21
55.1527118247
0
LINE
5
3D9
100
AcDbEntity
8
0
100
AcDbLine
62
7
6
CONTINUOUS
10
297.2521299929
20
54.3016480964
11
297.8771299929
21
55.0463288587
0
LINE
5
3DA
100
AcDbEntity
8
0
100
AcDbLine
62
7
6
CONTINUOUS
10
295.0646299929
20
57.1739884775
11
294.8562965602
21
56.9612225454
0
LINE
5
3DB
100
AcDbEntity
8
0
100
AcDbLine
62
7
6
CONTINUOUS
10
290.3979631276
20
63.4612225454
11
290.1896299929
21
63.3016480964
0
LINE
5
3DC
100
AcDbEntity
8
0
100
AcDbLine
62
7
6
CONTINUOUS
10
318.8771299929
20
194.4277345316
11
319.1771299929
21
194.4277345316
0
LINE
5
3DD
100
AcDbEntity
8
0
100
AcDbLine
62
7
6
CONTINUOUS
10
318.8771299929
20
195.4206327874
11
319.1771299929
21
195.4206327874
0
LINE
5
3DE
100
AcDbEntity
8
0
100
AcDbLine
62
7
6
CONTINUOUS
10
318.8771299929
20
196.1653066568
11
319.1771299929
21
196.1653066568
0
LINE
5
3DF
100
AcDbEntity
8
0
100
AcDbLine
62
7
6
CONTINUOUS
10
318.8771299929
20
196.9099805262
11
319.1771299929
21
196.9099805262
0
LINE
5
3E0
100
AcDbEntity
8
0
100
AcDbLine
62
7
6
CONTINUOUS
10
318.8771299929
20
197.9028787821
11
319.1771299929
21
197.9028787821
0
LINE
5
3E1
100
AcDbEntity
8
0
100
AcDbLine
62
7
6
CONTINUOUS
10
318.8771299929
20
199.6404516175
11
319.1771299929
21
199.6404516175
0
LINE
5
3E2
100
AcDbEntity
8
0
100
AcDbLine
62
7
6
CONTINUOUS
10
318.8771299929
20
200.6333505835
11
319.1771299929
21
200.6333505835
0
LINE
5
3E3
100
AcDbEntity
8
0
100
AcDbLine
62
7
6
CONTINUOUS
10
293.4154631872
20
222.7229246322
11
293.6342131872
21
222.4995204035
0
LINE
5
3E4
100
AcDbEntity
8
0
100
AcDbLine
62
7
6
CONTINUOUS
10
295.4571299929
20
225.1803715129
11
295.2383799929
21
225.4037757676
0
LINE
5
3E5
100
AcDbEntity
8
0
100
AcDbLine
62
7
6
CONTINUOUS
10
294.8562965602
20
56.9612225454
11
294.5437965602
21
56.7484566134
0
LINE
5
3E6
100
AcDbEntity
8
0
100
AcDbLine
62
7
6
CONTINUOUS
10
294.6479634256
20
56.2165417831
11
295.2729634256
21
56.6420736473
0
LINE
5
3E7
100
AcDbEntity
8
0
100
AcDbLine
62
9
6
CONTINUOUS
10
295.3771299929
20
203.3093432532
11
276.9306756617
21
202.1768733556
0
LINE
5
3E8
100
AcDbEntity
8
0
100
AcDbLine
62
7
6
CONTINUOUS
10
318.8771299929
20
203.6120460611
11
319.1771299929
21
203.6120460611
0
LINE
5
3E9
100
AcDbEntity
8
0
100
AcDbLine
62
7
6
CONTINUOUS
10
318.8771299929
20
204.2326066721
11
319.1771299929
21
204.2326066721
0
LINE
5
3EA
100
AcDbEntity
8
0
100
AcDbLine
62
7
6
CONTINUOUS
10
318.8771299929
20
204.7290568652
11
319.1771299929
21
204.7290568652
0
LINE
5
3EB
100
AcDbEntity
8
0
100
AcDbLine
62
7
6
CONTINUOUS
10
318.8771299929
20
205.1013937999
11
319.1771299929
21
205.1013937999
0
LINE
5
3EC
100
AcDbEntity
8
0
100
AcDbLine
62
7
6
CONTINUOUS
10
318.8771299929
20
205.2255056381
11
319.1771299929
21
205.2255056381
0
LINE
5
3ED
100
AcDbEntity
8
0
100
AcDbLine
62
7
6
CONTINUOUS
10
318.8771299929
20
206.2184046041
11
319.1771299929
21
206.2184046041
0
LINE
5
3EE
100
AcDbEntity
8
0
100
AcDbLine
62
9
6
CONTINUOUS
10
274.1462456695
20
206.3093432532
11
316.6080143163
21
206.3093432532
0
LINE
5
3EF
100
AcDbEntity
8
0
100
AcDbLine
62
9
6
CONTINUOUS
10
295.3771299929
20
203.3093432532
11
313.8235843241
21
202.1768733556
0
LINE
5
3F0
100
AcDbEntity
8
0
100
AcDbLine
62
7
6
CONTINUOUS
10
294.0717133958
20
222.6484565560
11
293.8529633958
21
222.7973927085
0
LINE
5
3F1
100
AcDbEntity
8
0
100
AcDbLine
62
7
6
CONTINUOUS
10
294.8562965602
20
55.1527118247
11
294.5437965602
21
54.9399458926
0
LINE
5
3F2
100
AcDbEntity
8
0
100
AcDbLine
62
7
6
CONTINUOUS
10
294.6479634256
20
54.4080310624
11
295.1687965602
21
54.7271799605
0
LINE
5
3F3
100
AcDbEntity
8
0
100
AcDbLine
62
7
6
CONTINUOUS
10
297.0445195300
20
215.0023025208
11
297.0229975867
21
214.9964288407
0
LINE
5
3F4
100
AcDbEntity
8
0
100
AcDbLine
62
7
6
CONTINUOUS
10
318.8771299929
20
209.1971000817
11
319.1771299929
21
209.1971000817
0
LINE
5
3F5
100
AcDbEntity
8
0
100
AcDbLine
62
7
6
CONTINUOUS
10
318.8771299929
20
209.8176621130
11
319.1771299929
21
209.8176621130
0
LINE
5
3F6
100
AcDbEntity
8
0
100
AcDbLine
62
7
6
CONTINUOUS
10
318.8771299929
20
210.3141094655
11
319.1771299929
21
210.3141094655
0
LINE
5
3F7
100
AcDbEntity
8
0
100
AcDbLine
62
7
6
CONTINUOUS
10
318.8771299929
20
210.6864464002
11
319.1771299929
21
210.6864464002
0
LINE
5
3F8
100
AcDbEntity
8
0
100
AcDbLine
62
7
6
CONTINUOUS
10
318.8771299929
20
210.8105596587
11
319.1771299929
21
210.8105596587
0
LINE
5
3F9
100
AcDbEntity
8
0
100
AcDbLine
62
7
6
CONTINUOUS
10
293.6342131872
20
222.4995204035
11
293.9987965900
21
222.2761161749
0
LINE
5
3FA
100
AcDbEntity
8
0
100
AcDbLine
62
7
6
CONTINUOUS
10
295.2383799929
20
225.4037757676
11
294.8737965900
21
225.6271800159
0
LINE
5
3FB
100
AcDbEntity
8
0
100
AcDbLine
62
7
6
CONTINUOUS
10
294.8008799929
20
225.2548395891
11
295.0196299929
21
225.1059034366
0
LINE
5
3FC
100
AcDbEntity
8
0
100
AcDbLine
62
7
6
CONTINUOUS
10
294.5437965602
20
56.7484566134
11
294.2312965602
21
56.6420736473
0
LINE
5
3FD
100
AcDbEntity
8
0
100
AcDbLine
62
7
6
CONTINUOUS
10
294.5437965602
20
54.9399458926
11
294.2312965602
21
54.8335629266
0
LINE
5
3FE
100
AcDbEntity
8
0
100
AcDbLine
62
7
6
CONTINUOUS
10
294.8008799929
20
222.6484565560
11
294.4362965900
21
222.5739884798
0
LINE
5
3FF
100
AcDbEntity
8
0
100
AcDbLine
62
7
6
CONTINUOUS
10
294.0717133958
20
225.2548395891
11
294.4362965900
21
225.3293076653
0
LINE
5
400
100
AcDbEntity
8
0
100
AcDbLine
62
7
6
CONTINUOUS
10
294.4362965900
20
222.2016480986
11
294.8737965900
21
222.2761161749
0
LINE
5
401
100
AcDbEntity
8
0
100
AcDbLine
62
7
6
CONTINUOUS
10
318.8771299929
20
217.7608481596
11
319.1771299929
21
217.7608481596
0
LINE
5
402
100
AcDbEntity
8
0
100
AcDbLine
62
7
6
CONTINUOUS
10
295.0521299929
20
218.1366637879
11
295.3646299929
21
218.1366637879
0
LINE
5
403
100
AcDbEntity
8
0
100
AcDbLine
62
7
6
CONTINUOUS
10
318.8771299929
20
218.5055220290
11
319.1771299929
21
218.5055220290
0
LINE
5
404
100
AcDbEntity
8
0
100
AcDbLine
62
7
6
CONTINUOUS
10
318.8771299929
20
219.2501958984
11
319.1771299929
21
219.2501958984
0
LINE
5
405
100
AcDbEntity
8
DEFAULT_1
100
AcDbLine
62
2
6
CENTER
10
322.4728782949
20
219.7016480986
11
267.8715587377
21
219.7016480986
0
LINE
5
406
100
AcDbEntity
8
0
100
AcDbLine
62
7
6
CONTINUOUS
10
318.8771299929
20
220.2430962848
11
319.1771299929
21
220.2430962848
0
LINE
5
407
100
AcDbEntity
8
0
100
AcDbLine
62
7
6
CONTINUOUS
10
318.8771299929
20
220.3672067025
11
319.1771299929
21
220.3672067025
0
LINE
5
408
100
AcDbEntity
8
0
100
AcDbLine
62
7
6
CONTINUOUS
10
318.8771299929
20
220.6154332195
11
319.1771299929
21
220.6154332195
0
LINE
5
409
100
AcDbEntity
8
0
100
AcDbLine
62
7
6
CONTINUOUS
10
295.3646299929
20
220.6366637879
11
295.0521299929
21
220.6366637879
0
LINE
5
40A
100
AcDbEntity
8
0
100
AcDbLine
62
7
6
CONTINUOUS
10
318.8771299929
20
220.9877701542
11
319.1771299929
21
220.9877701542
0
LINE
5
40B
100
AcDbEntity
8
0
100
AcDbLine
62
7
6
CONTINUOUS
10
318.8771299929
20
221.6083307651
11
319.1771299929
21
221.6083307651
0
LINE
5
40C
100
AcDbEntity
8
0
100
AcDbLine
62
7
6
CONTINUOUS
10
296.3321299929
20
222.2016480986
11
296.7696299929
21
222.2016480986
0
LINE
5
40D
100
AcDbEntity
8
0
100
AcDbLine
62
7
6
CONTINUOUS
10
318.8771299929
20
222.2288913761
11
319.1771299929
21
222.2288913761
0
LINE
5
40E
100
AcDbEntity
8
0
100
AcDbLine
62
7
6
CONTINUOUS
10
318.8771299929
20
222.7253415693
11
319.1771299929
21
222.7253415693
0
LINE
5
40F
100
AcDbEntity
8
0
100
AcDbLine
62
7
6
CONTINUOUS
10
318.8771299929
20
223.3459021802
11
319.1771299929
21
223.3459021802
0
LINE
5
410
100
AcDbEntity
8
0
100
AcDbLine
62
7
6
CONTINUOUS
10
318.8771299929
20
223.9664656318
11
319.1771299929
21
223.9664656318
0
LINE
5
411
100
AcDbEntity
8
0
100
AcDbLine
62
7
6
CONTINUOUS
10
293.9987965900
20
222.2761161749
11
294.4362965900
21
222.2016480986
0
LINE
5
412
100
AcDbEntity
8
0
100
AcDbLine
62
7
6
CONTINUOUS
10
294.4362965900
20
222.5739884798
11
294.0717133958
21
222.6484565560
0
LINE
5
413
100
AcDbEntity
8
0
100
AcDbLine
62
7
6
CONTINUOUS
10
294.4362965900
20
225.3293076653
11
294.8008799929
21
225.2548395891
0
LINE
5
414
100
AcDbEntity
8
0
100
AcDbLine
62
7
6
CONTINUOUS
10
306.6474316518
20
44.2059892468
11
316.6080143163
21
49.4011590808
0
LINE
5
415
100
AcDbEntity
8
0
100
AcDbLine
62
7
6
CONTINUOUS
10
294.4362965900
20
225.7016480986
11
293.9987965900
21
225.6271800159
0
LINE
5
416
100
AcDbEntity
8
0
100
AcDbLine
62
7
6
CONTINUOUS
10
318.8771299929
20
224.3388025666
11
319.1771299929
21
224.3388025666
0
LINE
5
417
100
AcDbEntity
8
0
100
AcDbLine
62
7
6
CONTINUOUS
10
318.8771299929
20
224.4629129843
11
319.1771299929
21
224.4629129843
0
LINE
5
418
100
AcDbEntity
8
0
100
AcDbLine
62
7
6
CONTINUOUS
10
318.8771299929
20
224.7111395013
11
319.1771299929
21
224.7111395013
0
LINE
5
419
100
AcDbEntity
8
0
100
AcDbLine
62
7
6
CONTINUOUS
10
296.7696299929
20
225.7016480986
11
296.3321299929
21
225.7016480986
0
LINE
5
41A
100
AcDbEntity
8
0
100
AcDbLine
62
7
6
CONTINUOUS
10
294.8737965900
20
225.6271800159
11
294.4362965900
21
225.7016480986
0
LINE
5
41B
100
AcDbEntity
8
0
100
AcDbLine
62
7
6
CONTINUOUS
10
306.6474316518
20
235.7973069482
11
316.6080143163
21
230.6021371142
0
ARC
5
41C
100
AcDbEntity
8
0
100
AcDbCircle
62
7
6
CONTINUOUS
10
134.8448955385
20
219.7016480986
40
2.0000000000
100
AcDbArc
50
190.0000000000
51
170.0000000000
0
ARC
5
41D
100
AcDbEntity
8
0
100
AcDbCircle
62
7
6
CONTINUOUS
10
134.8448955385
20
219.7016480986
40
2.6784609691
100
AcDbArc
50
190.0000000000
51
170.0000000000
0
ARC
5
41E
100
AcDbEntity
8
0
100
AcDbCircle
62
7
6
CONTINUOUS
10
80.8448955385
20
60.3016480964
40
2.0000000000
100
AcDbArc
50
190.0000000000
51
170.0000000000
0
ARC
5
41F
100
AcDbEntity
8
0
100
AcDbCircle
62
7
6
CONTINUOUS
10
80.8448955385
20
60.3016480964
40
2.6784609691
100
AcDbArc
50
190.0000000000
51
170.0000000000
0
ARC
5
420
100
AcDbEntity
8
0
100
AcDbCircle
62
7
6
CONTINUOUS
10
81.8448955385
20
66.3016480964
40
5.0000000000
100
AcDbArc
50
0.0000000000
51
80.5567245911
0
ARC
5
421
100
AcDbEntity
8
0
100
AcDbCircle
62
7
6
CONTINUOUS
10
80.8448955385
20
60.3016480964
40
6.0000000000
100
AcDbArc
50
273.2801969464
51
360.0000000000
0
ARC
5
422
100
AcDbEntity
8
0
100
AcDbCircle
62
7
6
CONTINUOUS
10
61.8448955385
20
73.6939529418
40
6.0000000000
100
AcDbArc
50
0.0000000000
51
30.0000000000
0
ARC
5
423
100
AcDbEntity
8
0
100
AcDbCircle
62
7
6
CONTINUOUS
10
107.8448955385
20
-13.1983519036
40
56.0000000000
100
AcDbArc
50
99.0410961486
51
119.9947255274
0
ARC
5
424
100
AcDbEntity
8
0
100
AcDbCircle
62
7
6
CONTINUOUS
10
107.8448955385
20
-13.1983519036
40
56.0000000000
100
AcDbArc
50
60.0052744726
51
80.9589038514
0
CIRCLE
5
425
100
AcDbEntity
8
0
100
AcDbCircle
62
7
6
CONTINUOUS
10
80.8448955385
20
60.3016480964
40
3.0000000000
0
ARC
5
426
100
AcDbEntity
8
0
100
AcDbCircle
62
7
6
CONTINUOUS
10
153.8448955385
20
73.6939529418
40
6.0000000000
100
AcDbArc
50
150.0000000000
51
180.0000000000
0
ARC
5
427
100
AcDbEntity
8
0
100
AcDbCircle
62
7
6
CONTINUOUS
10
107.8448955385
20
87.8016480964
40
18.5000000000
100
AcDbArc
50
320.0000000000
51
220.0000000000
0
ARC
5
428
100
AcDbEntity
8
0
100
AcDbCircle
62
7
6
CONTINUOUS
10
107.8448955385
20
87.8016480964
40
22.2220343476
100
AcDbArc
50
351.7003236365
51
22.6472607794
0
CIRCLE
5
429
100
AcDbEntity
8
0
100
AcDbCircle
62
7
6
CONTINUOUS
10
80.8448955385
20
60.3016480964
40
4.0000000000
0
ARC
5
42A
100
AcDbEntity
8
0
100
AcDbCircle
62
7
6
CONTINUOUS
10
107.8448955385
20
87.8016480964
40
22.2220343476
100
AcDbArc
50
157.3527392206
51
188.2996763635
0
ARC
5
42B
100
AcDbEntity
8
0
100
AcDbCircle
62
7
6
CONTINUOUS
10
107.8448955385
20
293.2016480986
40
56.0000000000
100
AcDbArc
50
279.0410961486
51
299.9947255274
0
ARC
5
42C
100
AcDbEntity
8
0
100
AcDbCircle
62
7
6
CONTINUOUS
10
107.8448955385
20
293.2016480986
40
56.0000000000
100
AcDbArc
50
240.0052744726
51
260.9589038514
0
CIRCLE
5
42D
100
AcDbEntity
8
0
100
AcDbCircle
62
7
6
CONTINUOUS
10
134.8448955385
20
219.7016480986
40
3.0000000000
0
ARC
5
42E
100
AcDbEntity
8
0
100
AcDbCircle
62
7
6
CONTINUOUS
10
133.8448955385
20
213.7016480986
40
5.0000000000
100
AcDbArc
50
180.0000000000
51
260.5567245911
0
ARC
5
42F
100
AcDbEntity
8
0
100
AcDbCircle
62
7
6
CONTINUOUS
10
134.8448955385
20
219.7016480986
40
6.0000000000
100
AcDbArc
50
93.2801969464
51
180.0000000000
0
ARC
5
430
100
AcDbEntity
8
0
100
AcDbCircle
62
7
6
CONTINUOUS
10
153.8448955385
20
206.3093432532
40
6.0000000000
100
AcDbArc
50
180.0000000000
51
210.0000000000
0
ARC
5
431
100
AcDbEntity
8
0
100
AcDbCircle
62
7
6
CONTINUOUS
10
61.8448955385
20
206.3093432532
40
6.0000000000
100
AcDbArc
50
330.0000000000
51
360.0000000000
0
ARC
5
432
100
AcDbEntity
8
0
100
AcDbCircle
62
7
6
CONTINUOUS
10
107.8448955385
20
192.2016480986
40
18.5000000000
100
AcDbArc
50
140.0000000000
51
40.0000000000
0
CIRCLE
5
433
100
AcDbEntity
8
0
100
AcDbCircle
62
7
6
CONTINUOUS
10
134.8448955385
20
219.7016480986
40
4.0000000000
0
ARC
5
434
100
AcDbEntity
8
0
100
AcDbCircle
62
7
6
CONTINUOUS
10
107.8448955385
20
192.2016480986
40
22.2220343476
100
AcDbArc
50
337.3527392206
51
8.2996763635
0
ARC
5
435
100
AcDbEntity
8
0
100
AcDbCircle
62
7
6
CONTINUOUS
10
107.8448955385
20
192.2016480986
40
22.2220343476
100
AcDbArc
50
171.7003236365
51
202.6472607794
0
ARC
5
436
100
AcDbEntity
8
0
100
AcDbCircle
62
7
6
CONTINUOUS
10
295.3771299929
20
60.3016480964
40
9.5000000000
100
AcDbArc
50
198.4383789683
51
341.5616210317
0
ARC
5
437
100
AcDbEntity
8
0
100
AcDbCircle
62
7
6
CONTINUOUS
10
295.3771299929
20
60.3016480964
40
9.5000000000
100
AcDbArc
50
18.4383789683
51
161.5616210317
0
ARC
5
438
100
AcDbEntity
8
0
100
AcDbCircle
62
7
6
CONTINUOUS
10
295.3771299929
20
60.3016480964
40
8.5000000000
100
AcDbArc
50
200.6705145795
51
339.3294854205
0
ARC
5
439
100
AcDbEntity
8
0
100
AcDbCircle
62
7
6
CONTINUOUS
10
295.3771299929
20
60.3016480964
40
8.5000000000
100
AcDbArc
50
20.6705145795
51
159.3294854205
0
CIRCLE
5
43A
100
AcDbEntity
8
0
100
AcDbCircle
62
7
6
CONTINUOUS
10
295.3771299929
20
219.7016480986
40
8.5000000000
0
ARC
5
43B
100
AcDbEntity
8
0
100
AcDbCircle
62
7
6
CONTINUOUS
10
334.8771299929
20
96.3583914766
40
16.0000000000
100
AcDbArc
50
99.0000019655
51
180.0000000000
0
CIRCLE
5
43C
100
AcDbEntity
8
0
100
AcDbCircle
62
7
6
CONTINUOUS
10
295.3771299929
20
60.3016480964
40
9.6250000000
0
ARC
5
43D
100
AcDbEntity
8
0
100
AcDbCircle
62
7
6
CONTINUOUS
10
295.3771299929
20
60.3016480964
40
25.0000000000
100
AcDbArc
50
199.9484435888
51
340.0515564112
0
ARC
5
43E
100
AcDbEntity
8
0
100
AcDbCircle
62
7
6
CONTINUOUS
10
255.8771299929
20
96.3583914766
40
16.0000000000
100
AcDbArc
50
0.0000000000
51
80.9999992700
0
ARC
5
43F
100
AcDbEntity
8
0
100
AcDbCircle
62
7
6
CONTINUOUS
10
295.3771299929
20
60.3016480964
40
9.6000000000
100
AcDbArc
50
198.1527848087
51
341.8472152768
0
ARC
5
440
100
AcDbEntity
8
0
100
AcDbCircle
62
7
6
CONTINUOUS
10
295.3771299929
20
60.3016480964
40
9.6000000000
100
AcDbArc
50
18.1527825110
51
161.8472136849
0
ARC
5
441
100
AcDbEntity
8
0
100
AcDbCircle
62
7
6
CONTINUOUS
10
334.8771299929
20
183.6449047184
40
16.0000000000
100
AcDbArc
50
180.0000000000
51
261.0000000000
0
ARC
5
442
100
AcDbEntity
8
0
100
AcDbCircle
62
7
6
CONTINUOUS
10
335.3771159932
20
125.9278491561
40
4.0000000000
100
AcDbArc
50
317.0350931432
51
318.5906831232
0
ARC
5
443
100
AcDbEntity
8
0
100
AcDbCircle
62
7
6
CONTINUOUS
10
255.3771439926
20
125.9278491561
40
4.0000000000
100
AcDbArc
50
221.4093168768
51
222.9649068568
0
CIRCLE
5
444
100
AcDbEntity
8
0
100
AcDbCircle
62
7
6
CONTINUOUS
10
295.3771299929
20
219.7016480986
40
8.7500000000
0
ARC
5
445
100
AcDbEntity
8
0
100
AcDbCircle
62
7
6
CONTINUOUS
10
295.3771299929
20
219.7016480986
40
25.0000000000
100
AcDbArc
50
19.9484435888
51
160.0515564112
0
ARC
5
446
100
AcDbEntity
8
0
100
AcDbCircle
62
7
6
CONTINUOUS
10
255.8771299929
20
183.6449047184
40
16.0000000000
100
AcDbArc
50
279.0000010626
51
360.0000000000
0
SPLINE
5
447
100
AcDbEntity
8
0
100
AcDbSpline
62
7
6
CONTINUOUS
70
0
71
3
72
14
73
10
74
8
42
0.0000001000
43
0.0000001000
44
0.0000000001
12
9.9366115249
22
0.0000000000
32
0.0000000000
13
0.0000000000
23
9.9366115249
33
0.0000000000
40
0.0000000000
40
0.0000000000
40
0.0000000000
40
0.0000000000
40
0.0422981754
40
0.1218065577
40
0.2417706303
40
0.3975937891
40
0.5819326959
40
0.7859541140
40
1.0000000000
40
1.0000000000
40
1.0000000000
40
1.0000000000
10
116.6448955385
20
50.6766480964
30
0.0000000000
10
116.7849957175
20
50.6766480964
30
0.0000000000
10
117.1097462146
20
51.0258063232
30
0.0000000000
10
117.3592250118
20
51.7570395125
30
0.0000000000
10
117.6459366910
20
52.9147658993
30
0.0000000000
10
117.8648745978
20
54.4190084285
30
0.0000000000
10
118.0392675239
20
56.2152501633
30
0.0000000000
10
118.1451879436
20
58.2077257967
30
0.0000000000
10
118.1693457766
20
59.5926844905
30
0.0000000000
10
118.1693457766
20
60.3016480964
30
0.0000000000
11
116.6448955385
21
50.6766480964
31
0.0000000000
11
116.9865352747
21
50.9214640111
31
0.0000000000
11
117.3103515931
21
51.6420973213
31
0.0000000000
11
117.5997194963
21
52.7984782980
31
0.0000000000
11
117.8402169579
21
54.3280408783
31
0.0000000000
11
118.0203043385
21
56.1508706748
31
0.0000000000
11
118.1316723048
21
58.1750909589
31
0.0000000000
11
118.1693457766
21
60.3016480964
31
0.0000000000
0
SPLINE
5
448
100
AcDbEntity
8
0
100
AcDbSpline
62
7
6
CONTINUOUS
70
0
71
3
72
11
73
7
74
5
42
0.0000001000
43
0.0000001000
44
0.0000000001
12
0.0000000000
22
7.5230228431
32
0.0000000000
13
-1.4497729484
23
7.3820072539
33
0.0000000000
40
0.0000000000
40
0.0000000000
40
0.0000000000
40
0.0000000000
40
0.2821556856
40
0.5511482916
40
0.7942974272
40
1.0000000000
40
1.0000000000
40
1.0000000000
40
1.0000000000
10
118.1693457766
20
60.3016480964
30
0.0000000000
10
118.1693457766
20
61.0092026524
30
0.0000000000
10
118.1454734530
20
62.3914202633
30
0.0000000000
10
118.0391465008
20
64.3809447077
30
0.0000000000
10
117.8679122032
20
66.1733770446
30
0.0000000000
10
117.7012918368
20
67.2876486627
30
0.0000000000
10
117.6018844950
20
67.7938146241
30
0.0000000000
11
118.1693457766
21
60.3016480964
31
0.0000000000
11
118.1318237456
21
62.4239801026
31
0.0000000000
11
118.0208979591
21
64.4445751343
31
0.0000000000
11
117.8415041150
21
66.2649736779
31
0.0000000000
11
117.6018844950
21
67.7938146241
31
0.0000000000
0
SPLINE
5
449
100
AcDbEntity
8
0
100
AcDbSpline
62
7
6
CONTINUOUS
70
0
71
3
72
14
73
10
74
8
42
0.0000001000
43
0.0000001000
44
0.0000000001
12
0.0000000000
22
8.9306050864
32
0.0000000000
13
8.9306050864
23
-0.0000000000
33
0.0000000000
40
0.0000000000
40
0.0000000000
40
0.0000000000
40
0.0000000000
40
0.2171176373
40
0.4237746892
40
0.6099638331
40
0.7665980781
40
0.8861159112
40
0.9634398580
40
1.0000000000
40
1.0000000000
40
1.0000000000
40
1.0000000000
10
146.7705306306
20
60.3016480964
30
0.0000000000
10
146.7705306306
20
60.9479787216
30
0.0000000000
10
146.7876800321
20
62.2098154485
30
0.0000000000
10
146.8624447885
20
64.0232713818
30
0.0000000000
10
146.9861992269
20
65.6580122693
30
0.0000000000
10
147.1388282288
20
67.0165908900
30
0.0000000000
10
147.3435489656
20
68.0755029626
30
0.0000000000
10
147.5078821765
20
68.6993136275
30
0.0000000000
10
147.7360608084
20
69.0516480964
30
0.0000000000
10
147.8448955385
20
69.0516480964
30
0.0000000000
11
146.7705306306
21
60.3016480964
31
0.0000000000
11
146.7972365067
21
62.2404560524
31
0.0000000000
11
146.8761127118
21
64.0843422924
31
0.0000000000
11
147.0034632403
21
65.7422400208
31
0.0000000000
11
147.1732069464
21
67.1307415370
31
0.0000000000
11
147.3770509706
21
68.1784623994
31
0.0000000000
11
147.6048090854
21
68.8303711629
31
0.0000000000
11
147.8448955385
21
69.0516480964
31
0.0000000000
0
SPLINE
5
44A
100
AcDbEntity
8
0
100
AcDbSpline
62
7
6
CONTINUOUS
70
0
71
3
72
14
73
10
74
8
42
0.0000001000
43
0.0000001000
44
0.0000000001
12
-8.9306051831
22
0.0000000000
32
0.0000000000
13
0.0000000000
23
8.9306051831
33
0.0000000000
40
0.0000000000
40
0.0000000000
40
0.0000000000
40
0.0000000000
40
0.0365599267
40
0.1138836789
40
0.2334016753
40
0.3900364563
40
0.5762261566
40
0.7828832487
40
1.0000000000
40
1.0000000000
40
1.0000000000
40
1.0000000000
10
147.8448955385
20
51.5516480964
30
0.0000000000
10
147.7360614483
20
51.5516480964
30
0.0000000000
10
147.5078828832
20
51.9039803329
30
0.0000000000
10
147.3435496082
20
52.5277907429
30
0.0000000000
10
147.1388282659
20
53.5867041001
30
0.0000000000
10
146.9861989468
20
54.9452865077
30
0.0000000000
10
146.8624444232
20
56.5800307724
30
0.0000000000
10
146.7876799320
20
58.3934858832
30
0.0000000000
10
146.7705306306
20
59.6553201017
30
0.0000000000
10
146.7705306306
20
60.3016480964
30
0.0000000000
11
147.8448955385
21
51.5516480964
31
0.0000000000
11
147.6048100449
21
51.7729232384
31
0.0000000000
11
147.3770518936
21
52.4248301570
31
0.0000000000
11
147.1732072917
21
53.4725524035
31
0.0000000000
11
147.0034629952
21
54.8610586862
31
0.0000000000
11
146.8761122704
21
56.5189614004
31
0.0000000000
11
146.7972362866
21
58.3628480297
31
0.0000000000
11
146.7705306306
21
60.3016480964
31
0.0000000000
0
SPLINE
5
44B
100
AcDbEntity
8
0
100
AcDbSpline
62
7
6
CONTINUOUS
70
0
71
3
72
14
73
10
74
8
42
0.0000001000
43
0.0000001000
44
0.0000000001
12
0.0000000000
22
-9.9366113477
32
0.0000000000
13
9.9366113477
23
0.0000000000
33
0.0000000000
40
0.0000000000
40
0.0000000000
40
0.0000000000
40
0.0000000000
40
0.2140473132
40
0.4180686699
40
0.6024066922
40
0.7582290036
40
0.8781928113
40
0.9577014795
40
1.0000000000
40
1.0000000000
40
1.0000000000
40
1.0000000000
10
97.5204453004
20
60.3016480964
30
0.0000000000
10
97.5204453004
20
59.5926797759
30
0.0000000000
10
97.5446033667
20
58.2077165757
30
0.0000000000
10
97.6505243900
20
56.2152394271
30
0.0000000000
10
97.8249171698
20
54.4190036469
30
0.0000000000
10
98.0438542603
20
52.9147678209
30
0.0000000000
10
98.3305648169
20
51.7570437476
30
0.0000000000
10
98.5800430756
20
51.0258099070
30
0.0000000000
10
98.9047942189
20
50.6766480964
30
0.0000000000
10
99.0448955385
20
50.6766480964
30
0.0000000000
11
97.5204453004
21
60.3016480964
31
0.0000000000
11
97.5581192794
21
58.1750768218
31
0.0000000000
11
97.6694877576
21
56.1508572133
31
0.0000000000
11
97.8495747008
21
54.3280362382
31
0.0000000000
11
98.0900708502
21
52.7984820040
31
0.0000000000
11
98.3794374850
21
51.6421034448
31
0.0000000000
11
98.7032537392
21
50.9214670065
31
0.0000000000
11
99.0448955385
21
50.6766480964
31
0.0000000000
0
SPLINE
5
44C
100
AcDbEntity
8
0
100
AcDbSpline
62
7
6
CONTINUOUS
70
0
71
3
72
11
73
7
74
5
42
0.0000001000
43
0.0000001000
44
0.0000000001
12
-1.4497729480
22
-7.3820072517
32
0.0000000000
13
0.0000000000
23
-7.5230228409
33
0.0000000000
40
0.0000000000
40
0.0000000000
40
0.0000000000
40
0.0000000000
40
0.2057036597
40
0.4488538538
40
0.7178463801
40
1.0000000000
40
1.0000000000
40
1.0000000000
40
1.0000000000
10
98.0879065820
20
67.7938146241
30
0.0000000000
10
97.9884987149
20
67.2876459882
30
0.0000000000
10
97.8218777920
20
66.1733689998
30
0.0000000000
10
97.6506435770
20
64.3809314511
30
0.0000000000
10
97.5443173616
20
62.3914096995
30
0.0000000000
10
97.5204453004
20
61.0091974722
30
0.0000000000
10
97.5204453004
20
60.3016480964
30
0.0000000000
11
98.0879065820
21
67.7938146241
31
0.0000000000
11
97.8482859472
21
66.2649655603
31
0.0000000000
11
97.6688919020
21
64.4445590358
31
0.0000000000
11
97.5579667752
21
62.4239645694
31
0.0000000000
11
97.5204453004
21
60.3016480964
31
0.0000000000
0
SPLINE
5
44D
100
AcDbEntity
8
0
100
AcDbSpline
62
7
6
CONTINUOUS
70
0
71
3
72
12
73
8
74
6
42
0.0000001000
43
0.0000001000
44
0.0000000001
12
3.9790207291
22
3.9790207291
32
0.0000000000
13
0.3791465287
23
5.6143975487
33
0.0000000000
40
0.0000000000
40
0.0000000000
40
0.0000000000
40
0.0000000000
40
0.0898345572
40
0.2392612816
40
0.4457049091
40
0.7023007374
40
1.0000000000
40
1.0000000000
40
1.0000000000
40
1.0000000000
10
67.8448955385
20
49.6766480964
30
0.0000000000
10
67.9640467269
20
49.7957992848
30
0.0000000000
10
68.1457089095
20
50.2250873872
30
0.0000000000
10
68.3594103474
20
51.0252059162
30
0.0000000000
10
68.5538140429
20
52.1625737558
30
0.0000000000
10
68.7229146777
20
53.5782188171
30
0.0000000000
10
68.8072716578
20
54.6151626465
30
0.0000000000
10
68.8448955385
20
55.1722966499
30
0.0000000000
11
67.8448955385
21
49.6766480964
31
0.0000000000
11
68.0910253745
21
50.1181978744
31
0.0000000000
11
68.3219046040
21
50.9267314783
31
0.0000000000
11
68.5291395517
21
52.0697942219
31
0.0000000000
11
68.7054516134
21
53.5029015261
31
0.0000000000
11
68.8448955385
21
55.1722966499
31
0.0000000000
0
SPLINE
5
44E
100
AcDbEntity
8
0
100
AcDbSpline
62
7
6
CONTINUOUS
70
0
71
3
72
10
73
6
74
4
42
0.0000001000
43
0.0000001000
44
0.0000000001
12
0.0000000000
22
-5.1336539411
32
0.0000000000
13
-0.3958055680
23
-5.1183728605
33
0.0000000000
40
0.0000000000
40
0.0000000000
40
0.0000000000
40
0.0000000000
40
0.3494765277
40
0.6863421324
40
1.0000000000
40
1.0000000000
40
1.0000000000
40
1.0000000000
10
69.0266969372
20
60.3016480964
30
0.0000000000
10
69.0266969372
20
59.7036175785
30
0.0000000000
10
69.0133729558
20
58.5290851308
30
0.0000000000
10
68.9538329879
20
56.8187583316
30
0.0000000000
10
68.8862780486
20
55.7074359556
30
0.0000000000
10
68.8448955385
20
55.1722966499
30
0.0000000000
11
69.0266969372
21
60.3016480964
31
0.0000000000
11
69.0059875944
21
58.5076760716
31
0.0000000000
11
68.9447221974
21
56.7794101917
31
0.0000000000
11
68.8448955385
21
55.1722966499
31
0.0000000000
0
SPLINE
5
44F
100
AcDbEntity
8
0
100
AcDbSpline
62
7
6
CONTINUOUS
70
0
71
3
72
10
73
6
74
4
42
0.0000001000
43
0.0000001000
44
0.0000000001
12
0.3958055680
22
-5.1183728604
32
0.0000000000
13
0.0000000000
23
-5.1336539410
33
0.0000000000
40
0.0000000000
40
0.0000000000
40
0.0000000000
40
0.0000000000
40
0.3136586731
40
0.6505244075
40
1.0000000000
40
1.0000000000
40
1.0000000000
40
1.0000000000
10
68.8448955385
20
65.4309995428
30
0.0000000000
10
68.8862781549
20
64.8958588628
30
0.0000000000
10
68.9538331461
20
63.7845348856
30
0.0000000000
10
69.0133730063
20
62.0742080828
30
0.0000000000
10
69.0266969372
20
60.8996770139
30
0.0000000000
10
69.0266969372
20
60.3016480964
30
0.0000000000
11
68.8448955385
21
65.4309995428
31
0.0000000000
11
68.9447223968
21
63.8238818702
31
0.0000000000
11
69.0059877062
21
62.0956153211
31
0.0000000000
11
69.0266969372
21
60.3016480964
31
0.0000000000
0
SPLINE
5
450
100
AcDbEntity
8
0
100
AcDbSpline
62
7
6
CONTINUOUS
70
0
71
3
72
12
73
8
74
6
42
0.0000001000
43
0.0000001000
44
0.0000000001
12
-0.3791465283
22
5.6143975428
32
0.0000000000
13
-3.9790207249
23
3.9790207249
33
0.0000000000
40
0.0000000000
40
0.0000000000
40
0.0000000000
40
0.0000000000
40
0.2977043130
40
0.5542989785
40
0.7607402029
40
0.9101649629
40
1.0000000000
40
1.0000000000
40
1.0000000000
40
1.0000000000
10
68.8448955385
20
65.4309995428
30
0.0000000000
10
68.8072710196
20
65.9881429973
30
0.0000000000
10
68.7229132343
20
67.0250941028
30
0.0000000000
10
68.5538111699
20
68.4407417805
30
0.0000000000
10
68.3594082713
20
69.5780992214
30
0.0000000000
10
68.1457079420
20
70.3782104854
30
0.0000000000
10
67.9640473633
20
70.8074962716
30
0.0000000000
10
67.8448955385
20
70.9266480964
30
0.0000000000
11
68.8448955385
21
65.4309995428
31
0.0000000000
11
68.7054487374
21
67.1004229431
31
0.0000000000
11
68.5291363320
21
68.5335236112
31
0.0000000000
11
68.3219027761
21
69.6765728625
31
0.0000000000
11
68.0910263466
21
70.4850957691
31
0.0000000000
11
67.8448955385
21
70.9266480964
31
0.0000000000
0
SPLINE
5
451
100
AcDbEntity
8
0
100
AcDbSpline
62
7
6
CONTINUOUS
70
0
71
3
72
15
73
11
74
9
42
0.0000001000
43
0.0000001000
44
0.0000000001
12
0.4433925914
22
2.2576827150
32
0.0000000000
13
2.3008103424
23
0.0000000000
33
0.0000000000
40
0.0000000000
40
0.0000000000
40
0.0000000000
40
0.0000000000
40
0.2036042557
40
0.3846630164
40
0.5404456417
40
0.6699086570
40
0.7748424428
40
0.8593654724
40
0.9285312162
40
1.0000000000
40
1.0000000000
40
1.0000000000
40
1.0000000000
10
98.0879065820
20
67.7938146241
30
0.0000000000
10
98.1179987882
20
67.9470392271
30
0.0000000000
10
98.1643868189
20
68.2386614547
30
0.0000000000
10
98.2058188234
20
68.6511916412
30
0.0000000000
10
98.2296357598
20
69.0080649797
30
0.0000000000
10
98.2492369177
20
69.3065891112
30
0.0000000000
10
98.2777765784
20
69.5499735816
30
0.0000000000
10
98.3260573698
20
69.7427728609
30
0.0000000000
10
98.4250671593
20
69.8946635398
30
0.0000000000
10
98.5388494234
20
69.9266480964
30
0.0000000000
10
98.5936614623
20
69.9266480964
30
0.0000000000
11
98.0879065820
21
67.7938146241
31
0.0000000000
11
98.1623712456
21
68.2563131563
31
0.0000000000
11
98.2052663930
21
68.6706806984
31
0.0000000000
11
98.2309086205
21
69.0281885601
31
0.0000000000
11
98.2532759279
21
69.3252174272
31
0.0000000000
11
98.2852520633
21
69.5645232870
31
0.0000000000
11
98.3406872885
21
69.7509263041
31
0.0000000000
11
98.4366176890
21
69.8778988419
31
0.0000000000
11
98.5936614623
21
69.9266480964
31
0.0000000000
0
SPLINE
5
452
100
AcDbEntity
8
0
100
AcDbSpline
62
7
6
CONTINUOUS
70
0
71
3
72
9
73
5
74
3
42
0.0000001000
43
0.0000001000
44
0.0000000001
12
0.4887170243
22
-0.5824302695
32
0.0000000000
13
0.3616209073
23
-0.6688046562
33
0.0000000000
40
0.0000000000
40
0.0000000000
40
0.0000000000
40
0.0000000000
40
0.5002650755
40
1.0000000000
40
1.0000000000
40
1.0000000000
40
1.0000000000
10
98.1668098706
20
70.5546506635
30
0.0000000000
10
98.2483058903
20
70.4575274893
30
0.0000000000
10
98.4014977652
20
70.2550201476
30
0.0000000000
10
98.5334232634
20
70.0380564445
30
0.0000000000
10
98.5936614623
20
69.9266480964
30
0.0000000000
11
98.1668098706
21
70.5546506635
31
0.0000000000
11
98.3962567472
21
70.2512948647
31
0.0000000000
11
98.5936614623
21
69.9266480964
31
0.0000000000
0
SPLINE
5
453
100
AcDbEntity
8
0
100
AcDbSpline
62
7
6
CONTINUOUS
70
0
71
3
72
15
73
11
74
9
42
0.0000001000
43
0.0000001000
44
0.0000000001
12
2.3008269960
22
0.0000000000
32
0.0000000000
13
0.4433958008
23
-2.2576990565
33
0.0000000000
40
0.0000000000
40
0.0000000000
40
0.0000000000
40
0.0000000000
40
0.0713394511
40
0.1404000838
40
0.2248108394
40
0.3296690618
40
0.4591177599
40
0.6149844137
40
0.7962117488
40
1.0000000000
40
1.0000000000
40
1.0000000000
40
1.0000000000
10
117.0961296147
20
69.9266480964
30
0.0000000000
10
117.1508428596
20
69.9266480964
30
0.0000000000
10
117.2644247228
20
69.8948135753
30
0.0000000000
10
117.3635186788
20
69.7433096361
30
0.0000000000
10
117.4118829286
20
69.5507443113
30
0.0000000000
10
117.4404807054
20
69.3075235540
30
0.0000000000
10
117.4600993294
20
69.0090010534
30
0.0000000000
10
117.4839089090
20
68.6519422150
30
0.0000000000
10
117.5253436427
20
68.2390724029
30
0.0000000000
10
117.5717648767
20
67.9471788049
30
0.0000000000
10
117.6018844950
20
67.7938146241
30
0.0000000000
11
117.0961296147
21
69.9266480964
31
0.0000000000
11
117.2529215314
21
69.8780873364
31
0.0000000000
11
117.3488724603
21
69.7514321406
31
0.0000000000
11
117.4043846277
21
69.5653201076
31
0.0000000000
11
117.4364231987
21
69.3261962462
31
0.0000000000
11
117.4588151710
21
69.0292001105
31
0.0000000000
11
117.4844576093
21
68.6714958314
31
0.0000000000
11
117.5273656407
21
68.2567366592
31
0.0000000000
11
117.6018844950
21
67.7938146241
31
0.0000000000
0
SPLINE
5
454
100
AcDbEntity
8
0
100
AcDbSpline
62
7
6
CONTINUOUS
70
0
71
3
72
9
73
5
74
3
42
0.0000001000
43
0.0000001000
44
0.0000000001
12
-0.4887170243
22
-0.5824302695
32
0.0000000000
13
-0.3616209073
23
-0.6688046562
33
0.0000000000
40
0.0000000000
40
0.0000000000
40
0.0000000000
40
0.0000000000
40
0.5002650755
40
1.0000000000
40
1.0000000000
40
1.0000000000
40
1.0000000000
10
117.5229812063
20
70.5546506635
30
0.0000000000
10
117.4414851866
20
70.4575274893
30
0.0000000000
10
117.2882933118
20
70.2550201476
30
0.0000000000
10
117.1563678136
20
70.0380564445
30
0.0000000000
10
117.0961296147
20
69.9266480964
30
0.0000000000
11
117.5229812063
21
70.5546506635
31
0.0000000000
11
117.2935343298
21
70.2512948647
31
0.0000000000
11
117.0961296147
21
69.9266480964
31
0.0000000000
0
SPLINE
5
455
100
AcDbEntity
8
0
100
AcDbSpline
62
7
6
CONTINUOUS
70
0
71
3
72
9
73
5
74
3
42
0.0000001000
43
0.0000001000
44
0.0000000001
12
-1.1340695204
22
0.8471075753
32
0.0000000000
13
-1.3436991511
23
0.4451713295
33
0.0000000000
40
0.0000000000
40
0.0000000000
40
0.0000000000
40
0.0000000000
40
0.5976885344
40
1.0000000000
40
1.0000000000
40
1.0000000000
40
1.0000000000
10
95.5984782155
20
69.6198543894
30
0.0000000000
10
95.3725380990
20
69.7886232177
30
0.0000000000
10
94.9861623891
20
70.0587368336
30
0.0000000000
10
94.5660691094
20
70.2833196546
30
0.0000000000
10
94.3858739178
20
70.3430188312
30
0.0000000000
11
95.5984782155
21
69.6198543894
31
0.0000000000
11
94.8986284546
21
70.0952458021
31
0.0000000000
11
94.3858739178
21
70.3430188312
31
0.0000000000
0
SPLINE
5
456
100
AcDbEntity
8
0
100
AcDbSpline
62
7
6
CONTINUOUS
70
0
71
3
72
10
73
6
74
4
42
0.0000001000
43
0.0000001000
44
0.0000000001
12
-3.1350336507
22
3.5357478262
32
0.0000000000
13
-3.1786443127
23
3.4965939162
33
0.0000000000
40
0.0000000000
40
0.0000000000
40
0.0000000000
40
0.0000000000
40
0.3356712566
40
0.6690643446
40
1.0000000000
40
1.0000000000
40
1.0000000000
40
1.0000000000
10
94.3858739178
20
70.3430188312
30
0.0000000000
10
94.0350936895
20
70.7386351365
30
0.0000000000
10
93.3343141836
20
71.5257660915
30
0.0000000000
10
92.2820881507
20
72.6979173098
30
0.0000000000
10
91.5798342604
20
73.4737008068
30
0.0000000000
10
91.2291920141
20
73.8594166733
30
0.0000000000
11
94.3858739178
21
70.3430188312
31
0.0000000000
11
93.3311156668
21
71.5277197633
31
0.0000000000
11
92.2786889183
21
72.7000648374
31
0.0000000000
11
91.2291920141
21
73.8594166733
31
0.0000000000
0
SPLINE
5
457
100
AcDbEntity
8
0
100
AcDbSpline
62
7
6
CONTINUOUS
70
0
71
3
72
9
73
5
74
3
42
0.0000001000
43
0.0000001000
44
0.0000000001
12
0.7006298174
22
-0.1552684899
32
0.0000000000
13
0.6858212965
23
-0.2112808420
33
0.0000000000
40
0.0000000000
40
0.0000000000
40
0.0000000000
40
0.0000000000
40
0.4895877483
40
1.0000000000
40
1.0000000000
40
1.0000000000
40
1.0000000000
10
70.4517203477
20
49.4011590808
30
0.0000000000
10
70.5660602726
20
49.3758198973
30
0.0000000000
10
70.7984812827
20
49.3188994888
30
0.0000000000
10
71.0284066680
20
49.2526642234
30
0.0000000000
10
71.1450905321
20
49.2167174466
30
0.0000000000
11
70.4517203477
21
49.4011590808
31
0.0000000000
11
70.7930430389
21
49.3178520926
31
0.0000000000
11
71.1450905321
21
49.2167174466
31
0.0000000000
0
SPLINE
5
458
100
AcDbEntity
8
0
100
AcDbSpline
62
7
6
CONTINUOUS
70
0
71
3
72
12
73
8
74
6
42
0.0000001000
43
0.0000001000
44
0.0000000001
12
0.0000000000
22
9.8022075416
32
0.0000000000
13
-4.0170145263
23
8.9413011908
33
0.0000000000
40
0.0000000000
40
0.0000000000
40
0.0000000000
40
0.0000000000
40
0.1519801978
40
0.3259983755
40
0.5241044818
40
0.7482825687
40
1.0000000000
40
1.0000000000
40
1.0000000000
40
1.0000000000
10
73.7185929567
20
39.8228469891
30
0.0000000000
10
73.7185929567
20
40.3194274696
30
0.0000000000
10
73.6390325773
20
41.3849304047
30
0.0000000000
10
73.3290759724
20
43.0713610682
30
0.0000000000
10
72.8142223224
20
44.9525706553
30
0.0000000000
10
72.0843960016
20
47.0318814384
30
0.0000000000
10
71.4821413914
20
48.4664903239
30
0.0000000000
10
71.1450905321
20
49.2167174466
30
0.0000000000
11
73.7185929567
21
39.8228469891
31
0.0000000000
11
73.6198001094
21
41.3093090759
31
0.0000000000
11
73.3211864532
21
42.9887300731
31
0.0000000000
11
72.8163412270
21
44.8638349338
31
0.0000000000
11
72.0949234744
21
46.9394793083
31
0.0000000000
11
71.1450905321
21
49.2167174466
31
0.0000000000
0
SPLINE
5
459
100
AcDbEntity
8
0
100
AcDbSpline
62
7
6
CONTINUOUS
70
0
71
3
72
10
73
6
74
4
42
0.0000001000
43
0.0000001000
44
0.0000000001
12
3.1350336507
22
3.5357478262
32
0.0000000000
13
3.1786443127
23
3.4965939162
33
0.0000000000
40
0.0000000000
40
0.0000000000
40
0.0000000000
40
0.0000000000
40
0.3356712566
40
0.6690643446
40
1.0000000000
40
1.0000000000
40
1.0000000000
40
1.0000000000
10
121.3039171592
20
70.3430188312
30
0.0000000000
10
121.6546973875
20
70.7386351365
30
0.0000000000
10
122.3554768934
20
71.5257660915
30
0.0000000000
10
123.4077029262
20
72.6979173098
30
0.0000000000
10
124.1099568165
20
73.4737008068
30
0.0000000000
10
124.4605990629
20
73.8594166733
30
0.0000000000
11
121.3039171592
21
70.3430188312
31
0.0000000000
11
122.3586754102
21
71.5277197633
31
0.0000000000
11
123.4111021587
21
72.7000648374
31
0.0000000000
11
124.4605990629
21
73.8594166733
31
0.0000000000
0
SPLINE
5
45A
100
AcDbEntity
8
0
100
AcDbSpline
62
7
6
CONTINUOUS
70
0
71
3
72
9
73
5
74
3
42
0.0000001000
43
0.0000001000
44
0.0000000001
12
1.1340695204
22
0.8471075753
32
0.0000000000
13
1.3436991511
23
0.4451713295
33
0.0000000000
40
0.0000000000
40
0.0000000000
40
0.0000000000
40
0.0000000000
40
0.5976885344
40
1.0000000000
40
1.0000000000
40
1.0000000000
40
1.0000000000
10
120.0913128615
20
69.6198543894
30
0.0000000000
10
120.3172529780
20
69.7886232177
30
0.0000000000
10
120.7036286878
20
70.0587368336
30
0.0000000000
10
121.1237219676
20
70.2833196546
30
0.0000000000
10
121.3039171592
20
70.3430188312
30
0.0000000000
11
120.0913128615
21
69.6198543894
31
0.0000000000
11
120.7911626224
21
70.0952458021
31
0.0000000000
11
121.3039171592
21
70.3430188312
31
0.0000000000
0
SPLINE
5
45B
100
AcDbEntity
8
0
100
AcDbSpline
62
7
6
CONTINUOUS
70
0
71
3
72
9
73
5
74
3
42
0.0000001000
43
0.0000001000
44
0.0000000001
12
0.6858212966
22
0.2112808420
32
0.0000000000
13
0.7006298174
23
0.1552684900
33
0.0000000000
40
0.0000000000
40
0.0000000000
40
0.0000000000
40
0.0000000000
40
0.5104162119
40
1.0000000000
40
1.0000000000
40
1.0000000000
40
1.0000000000
10
144.5447005449
20
49.2167174466
30
0.0000000000
10
144.6613853143
20
49.2526645023
30
0.0000000000
10
144.8913107105
20
49.3188997355
30
0.0000000000
10
145.1237317293
20
49.3758201023
30
0.0000000000
10
145.2380707293
20
49.4011590808
30
0.0000000000
11
144.5447005449
21
49.2167174466
31
0.0000000000
11
144.8967507852
21
49.3178528231
31
0.0000000000
11
145.2380707293
21
49.4011590808
31
0.0000000000
0
SPLINE
5
45C
100
AcDbEntity
8
0
100
AcDbSpline
62
7
6
CONTINUOUS
70
0
71
3
72
12
73
8
74
6
42
0.0000001000
43
0.0000001000
44
0.0000000001
12
0.0000000000
22
9.8022075416
32
0.0000000000
13
4.0170145263
23
8.9413011908
33
0.0000000000
40
0.0000000000
40
0.0000000000
40
0.0000000000
40
0.0000000000
40
0.1519801978
40
0.3259983755
40
0.5241044818
40
0.7482825687
40
1.0000000000
40
1.0000000000
40
1.0000000000
40
1.0000000000
10
141.9711981203
20
39.8228469891
30
0.0000000000
10
141.9711981203
20
40.3194274696
30
0.0000000000
10
142.0507584997
20
41.3849304047
30
0.0000000000
10
142.3607151046
20
43.0713610682
30
0.0000000000
10
142.8755687546
20
44.9525706553
30
0.0000000000
10
143.6053950754
20
47.0318814384
30
0.0000000000
10
144.2076496856
20
48.4664903239
30
0.0000000000
10
144.5447005449
20
49.2167174466
30
0.0000000000
11
141.9711981203
21
39.8228469891
31
0.0000000000
11
142.0699909676
21
41.3093090759
31
0.0000000000
11
142.3686046238
21
42.9887300731
31
0.0000000000
11
142.8734498500
21
44.8638349338
31
0.0000000000
11
143.5948676026
21
46.9394793083
31
0.0000000000
11
144.5447005449
21
49.2167174466
31
0.0000000000
0
SPLINE
5
45D
100
AcDbEntity
8
0
100
AcDbSpline
62
7
6
CONTINUOUS
70
0
71
3
72
15
73
11
74
9
42
0.0000001000
43
0.0000001000
44
0.0000000001
12
0.0000000000
22
4.4646604117
32
0.0000000000
13
-2.8372773541
23
3.4471799790
33
0.0000000000
40
0.0000000000
40
0.0000000000
40
0.0000000000
40
0.0000000000
40
0.1466915672
40
0.2895542297
40
0.4255720717
40
0.5516838511
40
0.6690765106
40
0.7811954667
40
0.8906568465
40
1.0000000000
40
1.0000000000
40
1.0000000000
40
1.0000000000
10
70.4517203477
20
73.6939529418
30
0.0000000000
10
70.4517203477
20
73.9122622861
30
0.0000000000
10
70.4307757102
20
74.3434798748
30
0.0000000000
10
70.3393834442
20
74.9711122240
30
0.0000000000
10
70.1972688441
20
75.5577115746
30
0.0000000000
10
70.0160920458
20
76.0934038261
30
0.0000000000
10
69.8051781344
20
76.5794347654
30
0.0000000000
10
69.5678326234
20
77.0251779965
30
0.0000000000
10
69.3026589216
20
77.4407486492
30
0.0000000000
10
69.1059556464
20
77.7007809962
30
0.0000000000
10
69.0025433619
20
77.8264228394
30
0.0000000000
11
70.4517203477
21
73.6939529418
31
0.0000000000
11
70.4199148995
21
74.3481082306
31
0.0000000000
11
70.3279490406
21
74.9792766434
31
0.0000000000
11
70.1848663081
21
75.5694532311
31
0.0000000000
11
70.0043728374
21
76.1027854051
31
0.0000000000
11
69.7956191009
21
76.5835368295
31
0.0000000000
11
69.5602348526
21
77.0253146573
31
0.0000000000
11
69.2972153875
21
77.4372080435
31
0.0000000000
11
69.0025433619
21
77.8264228394
31
0.0000000000
0
SPLINE
5
45E
100
AcDbEntity
8
0
100
AcDbSpline
62
7
6
CONTINUOUS
70
0
71
3
72
10
73
6
74
4
42
0.0000001000
43
0.0000001000
44
0.0000000001
12
6.5133075923
22
-14.1024916727
32
0.0000000000
13
0.0000000000
23
-15.5339449970
33
0.0000000000
40
0.0000000000
40
0.0000000000
40
0.0000000000
40
0.0000000000
40
0.3223146265
40
0.6573407770
40
1.0000000000
40
1.0000000000
40
1.0000000000
40
1.0000000000
10
129.8341897305
20
84.5938838464
30
0.0000000000
10
130.5339678318
20
83.0787374009
30
0.0000000000
10
131.7260261881
20
79.8748498366
30
0.0000000000
10
132.8169179635
20
74.7968827680
30
0.0000000000
10
133.0639359643
20
71.2824720885
30
0.0000000000
10
133.0639359643
20
69.5081889143
30
0.0000000000
11
129.8341897305
21
84.5938838464
31
0.0000000000
11
131.5887797659
21
79.9045729068
31
0.0000000000
11
132.6882819359
21
74.8177662132
31
0.0000000000
11
133.0639359643
21
69.5081889143
31
0.0000000000
0
SPLINE
5
45F
100
AcDbEntity
8
0
100
AcDbSpline
62
7
6
CONTINUOUS
70
0
71
3
72
13
73
9
74
7
42
0.0000001000
43
0.0000001000
44
0.0000000001
12
0.0000000000
22
6.0610289270
32
0.0000000000
13
3.8517644191
23
-4.6797417145
33
0.0000000000
40
0.0000000000
40
0.0000000000
40
0.0000000000
40
0.0000000000
40
0.0958421913
40
0.1576763239
40
0.2545171889
40
0.4174931312
40
0.6611866957
40
1.0000000000
40
1.0000000000
40
1.0000000000
40
1.0000000000
10
64.8448955385
20
80.4978005191
30
0.0000000000
10
64.8448955385
20
80.6914346171
30
0.0000000000
10
64.8343802018
20
81.0627971506
30
0.0000000000
10
65.3681239488
20
81.3330840497
30
0.0000000000
10
65.9761417507
20
80.9586251503
30
0.0000000000
10
66.7504078699
20
80.3464830975
30
0.0000000000
10
67.8050629407
20
79.2444523365
30
0.0000000000
10
68.5675336853
20
78.3549424239
30
0.0000000000
10
69.0025433619
20
77.8264228394
30
0.0000000000
11
64.8448955385
21
80.4978005191
31
0.0000000000
11
64.9581668017
21
81.0675523037
31
0.0000000000
11
65.2897293061
21
81.2422669413
31
0.0000000000
11
65.8384004070
21
81.0337566814
31
0.0000000000
11
66.6182512915
21
80.4274686373
31
0.0000000000
11
67.6597101234
21
79.3800946912
31
0.0000000000
11
69.0025433619
21
77.8264228394
31
0.0000000000
0
SPLINE
5
460
100
AcDbEntity
8
0
100
AcDbSpline
62
7
6
CONTINUOUS
70
0
71
3
72
15
73
11
74
9
42
0.0000001000
43
0.0000001000
44
0.0000000001
12
43.6915977234
22
4.0988571632
32
0.0000000000
13
43.6915977608
23
-4.0988567650
33
0.0000000000
40
0.0000000000
40
0.0000000000
40
0.0000000000
40
0.0000000000
40
0.1173498923
40
0.2412591792
40
0.3695322274
40
0.5000005469
40
0.6304687784
40
0.7587415760
40
0.8826504814
40
1.0000000000
40
1.0000000000
40
1.0000000000
40
1.0000000000
10
85.9310086411
20
112.1614048402
30
0.0000000000
10
87.6400767375
20
112.3217383225
30
0.0000000000
10
91.1586572257
20
112.6002532347
30
0.0000000000
10
96.5565687573
20
112.8941027164
30
0.0000000000
10
102.1515256522
20
113.0724394548
30
0.0000000000
10
107.8449175265
20
113.1322176343
30
0.0000000000
10
113.5383057253
20
113.0724385578
30
0.0000000000
10
119.1332520635
20
112.8941013424
30
0.0000000000
10
124.5311488714
20
112.6002521132
30
0.0000000000
10
128.0497183305
20
112.3217379233
30
0.0000000000
10
129.7587809855
20
112.1614049672
30
0.0000000000
11
85.9310086411
21
112.1614048402
31
0.0000000000
11
91.0643167461
21
112.5721762526
31
0.0000000000
11
96.4936876792
21
112.8705939834
31
0.0000000000
11
102.1198411573
21
113.0515457808
31
0.0000000000
11
107.8449188129
21
113.1121790303
31
0.0000000000
11
113.5699925945
21
113.0515448728
31
0.0000000000
11
119.1961350558
21
112.8705926111
31
0.0000000000
11
124.6254892430
21
112.5721752515
31
0.0000000000
11
129.7587809855
21
112.1614049672
31
0.0000000000
0
SPLINE
5
461
100
AcDbEntity
8
0
100
AcDbSpline
62
7
6
CONTINUOUS
70
0
71
3
72
15
73
11
74
9
42
0.0000001000
43
0.0000001000
44
0.0000000001
12
0.0000000000
22
-12.1472925176
32
0.0000000000
13
7.4796348108
23
-9.5714042129
33
0.0000000000
40
0.0000000000
40
0.0000000000
40
0.0000000000
40
0.0000000000
40
0.1855951219
40
0.3441849569
40
0.4800885502
40
0.5996472321
40
0.7074421201
40
0.8081644568
40
0.9055950460
40
1.0000000000
40
1.0000000000
40
1.0000000000
40
1.0000000000
10
94.3872283285
20
60.3016480964
30
0.0000000000
10
94.3872283285
20
59.5501553510
30
0.0000000000
10
94.4118939563
20
58.1563479634
30
0.0000000000
10
94.5202734486
20
56.2149397897
30
0.0000000000
10
94.6884282895
20
54.5461816521
30
0.0000000000
10
94.9165975807
20
53.0921848465
30
0.0000000000
10
95.2138876431
20
51.7961064597
30
0.0000000000
10
95.5982709315
20
50.6161837636
30
0.0000000000
10
96.0940724719
20
49.5368877726
30
0.0000000000
10
96.5201601958
20
48.8827052240
30
0.0000000000
10
96.7555317225
20
48.5815092327
30
0.0000000000
11
94.3872283285
21
60.3016480964
31
0.0000000000
11
94.4292498799
21
58.0475615173
31
0.0000000000
11
94.5407991408
21
56.1243567125
31
0.0000000000
11
94.7111168074
21
54.4823052659
31
0.0000000000
11
94.9414678385
21
53.0483752910
31
0.0000000000
11
95.2398119674
21
51.7734003344
31
0.0000000000
11
95.6248488106
21
50.6120614946
31
0.0000000000
11
96.1252480769
21
49.5395340514
31
0.0000000000
11
96.7555317225
21
48.5815092327
31
0.0000000000
0
SPLINE
5
462
100
AcDbEntity
8
0
100
AcDbSpline
62
7
6
CONTINUOUS
70
0
71
3
72
21
73
17
74
15
42
0.0000001000
43
0.0000001000
44
0.0000000001
12
0.0000000000
22
23.8625505741
32
0.0000000000
13
-23.7582320940
23
2.2288399826
33
0.0000000000
40
0.0000000000
40
0.0000000000
40
0.0000000000
40
0.0000000000
40
0.0786770530
40
0.1562444023
40
0.2318448683
40
0.3047349176
40
0.3749606135
40
0.4431591787
40
0.5101913624
40
0.5772411739
40
0.6446738365
40
0.7126906934
40
0.7816884303
40
0.8524909218
40
0.9252776383
40
1.0000000000
40
1.0000000000
40
1.0000000000
40
1.0000000000
10
143.8553106986
20
96.3583914766
30
0.0000000000
10
143.8553106986
20
96.9842031953
30
0.0000000000
10
143.8079354583
20
98.2275456635
30
0.0000000000
10
143.5939482185
20
100.0611333484
30
0.0000000000
10
143.2364102005
20
101.8257182137
30
0.0000000000
10
142.7335267525
20
103.4940821466
30
0.0000000000
10
142.0813520185
20
105.0470088102
30
0.0000000000
10
141.2720785337
20
106.4717852054
30
0.0000000000
10
140.2954632370
20
107.7570106755
30
0.0000000000
10
139.1481310536
20
108.8846358090
30
0.0000000000
10
137.8417069932
20
109.8363773688
30
0.0000000000
10
136.4034159412
20
110.6051765513
30
0.0000000000
10
134.8584636126
20
111.2026272881
30
0.0000000000
10
133.2250443491
20
111.6491487787
30
0.0000000000
10
131.5163594456
20
111.9670947444
30
0.0000000000
10
130.3505381056
20
112.1058902381
30
0.0000000000
10
129.7587810351
20
112.1614049672
30
0.0000000000
11
143.8553106986
21
96.3583914766
31
0.0000000000
11
143.7830452375
21
98.2344353109
31
0.0000000000
11
143.5662601027
21
100.0726512561
31
0.0000000000
11
143.2045016499
21
101.8400274969
31
0.0000000000
11
142.6981835198
21
103.5040449984
31
0.0000000000
11
142.0447191359
21
105.0471490176
31
0.0000000000
11
141.2369044774
21
106.4598907698
31
0.0000000000
11
140.2665433570
21
107.7314991574
31
0.0000000000
11
139.1249727666
21
108.8525482374
31
0.0000000000
11
137.8258864755
21
109.8020886169
31
0.0000000000
11
136.3968384763
21
110.5715894791
31
0.0000000000
11
134.8633895335
21
111.1710654291
31
0.0000000000
11
133.2352879182
21
111.6224966034
31
0.0000000000
11
131.5287593457
21
111.9457626215
31
0.0000000000
11
129.7587810351
21
112.1614049672
31
0.0000000000
0
SPLINE
5
463
100
AcDbEntity
8
0
100
AcDbSpline
62
7
6
CONTINUOUS
70
0
71
3
72
9
73
5
74
3
42
0.0000001000
43
0.0000001000
44
0.0000000001
12
0.0027069757
22
-0.8348269013
32
0.0000000000
13
0.0000000000
23
-0.8348312900
33
0.0000000000
40
0.0000000000
40
0.0000000000
40
0.0000000000
40
0.0000000000
40
0.5003382591
40
1.0000000000
40
1.0000000000
40
1.0000000000
40
1.0000000000
10
94.3858739178
20
70.3430188312
30
0.0000000000
10
94.3863253857
20
70.2037868851
30
0.0000000000
10
94.3870025541
20
69.9255104753
30
0.0000000000
10
94.3872283285
20
69.6472333329
30
0.0000000000
10
94.3872283285
20
69.5081889143
30
0.0000000000
11
94.3858739178
21
70.3430188312
31
0.0000000000
11
94.3868900110
21
69.9253220328
31
0.0000000000
11
94.3872283285
21
69.5081889143
31
0.0000000000
0
SPLINE
5
464
100
AcDbEntity
8
0
100
AcDbSpline
62
7
6
CONTINUOUS
70
0
71
3
72
9
73
5
74
3
42
0.0000001000
43
0.0000001000
44
0.0000000001
12
-0.6101360555
22
-2.5759552821
32
0.0000000000
13
-0.7654243116
23
-2.5341541478
33
0.0000000000
40
0.0000000000
40
0.0000000000
40
0.0000000000
40
0.0000000000
40
0.4991870249
40
1.0000000000
40
1.0000000000
40
1.0000000000
40
1.0000000000
10
71.8344803784
20
51.7722870418
30
0.0000000000
10
71.7329563777
20
51.3436592239
30
0.0000000000
10
71.5158592514
20
50.4882048402
30
0.0000000000
10
71.2728686743
20
49.6397632060
30
0.0000000000
10
71.1450905321
20
49.2167174466
30
0.0000000000
11
71.8344803784
21
51.7722870418
31
0.0000000000
11
71.5097599114
21
50.4913432572
31
0.0000000000
11
71.1450905321
21
49.2167174466
31
0.0000000000
0
SPLINE
5
465
100
AcDbEntity
8
0
100
AcDbSpline
62
7
6
CONTINUOUS
70
0
71
3
72
15
73
11
74
9
42
0.0000001000
43
0.0000001000
44
0.0000000001
12
-2.8372813792
22
-3.4471848694
32
0.0000000000
13
0.0000000000
23
-4.4646667455
33
0.0000000000
40
0.0000000000
40
0.0000000000
40
0.0000000000
40
0.0000000000
40
0.1103477344
40
0.2210315128
40
0.3343077321
40
0.4524199947
40
0.5784050261
40
0.7133432887
40
0.8546238601
40
1.0000000000
40
1.0000000000
40
1.0000000000
40
1.0000000000
10
146.6872477150
20
77.8264228394
30
0.0000000000
10
146.5828851911
20
77.6996264927
30
0.0000000000
10
146.3842739610
20
77.4368663257
30
0.0000000000
10
146.1168723444
20
77.0167237262
30
0.0000000000
10
145.8782406443
20
76.5664226509
30
0.0000000000
10
145.6675490121
20
76.0774468289
30
0.0000000000
10
145.4880739485
20
75.5419480776
30
0.0000000000
10
145.3482840868
20
74.9590765916
30
0.0000000000
10
145.2586195246
20
74.3372031931
30
0.0000000000
10
145.2380707293
20
73.9103049476
30
0.0000000000
10
145.2380707293
20
73.6939529418
30
0.0000000000
11
146.6872477150
21
77.8264228394
31
0.0000000000
11
146.3900132194
21
77.4335217014
31
0.0000000000
11
146.1245397356
21
77.0167195328
31
0.0000000000
11
145.8876061588
21
76.5699130831
31
0.0000000000
11
145.6788229425
21
76.0856729648
31
0.0000000000
11
145.4999746965
21
75.5523828163
31
0.0000000000
11
145.3593797236
21
74.9665634530
31
0.0000000000
11
145.2693081976
21
74.3422568324
31
0.0000000000
11
145.2380707293
21
73.6939529418
31
0.0000000000
0
SPLINE
5
466
100
AcDbEntity
8
0
100
AcDbSpline
62
7
6
CONTINUOUS
70
0
71
3
72
13
73
9
74
7
42
0.0000001000
43
0.0000001000
44
0.0000000001
12
3.8517690992
22
4.6797474006
32
0.0000000000
13
0.0000000000
23
-6.0610362915
33
0.0000000000
40
0.0000000000
40
0.0000000000
40
0.0000000000
40
0.0000000000
40
0.3388060115
40
0.5825350665
40
0.7455195846
40
0.8423417033
40
0.9041673506
40
1.0000000000
40
1.0000000000
40
1.0000000000
40
1.0000000000
10
146.6872477150
20
77.8264228394
30
0.0000000000
10
147.1222485570
20
78.3549316900
30
0.0000000000
10
147.8847529765
20
79.2444864800
30
0.0000000000
10
148.9394761607
20
80.3465712894
30
0.0000000000
10
149.7137718171
20
80.9587325559
30
0.0000000000
10
150.3218351915
20
81.3331031212
30
0.0000000000
10
150.8554114329
20
81.0627004226
30
0.0000000000
10
150.8448955385
20
80.6914155745
30
0.0000000000
10
150.8448955385
20
80.4978005191
30
0.0000000000
11
146.6872477150
21
77.8264228394
31
0.0000000000
11
148.0300527052
21
79.3800639810
31
0.0000000000
11
149.0716699659
21
80.4275862755
31
0.0000000000
11
149.8515867508
21
81.0338761950
31
0.0000000000
11
150.4001807598
21
81.2422714596
31
0.0000000000
11
150.7316558699
21
81.0675003388
31
0.0000000000
11
150.8448955385
21
80.4978005191
31
0.0000000000
0
SPLINE
5
467
100
AcDbEntity
8
0
100
AcDbSpline
62
7
6
CONTINUOUS
70
0
71
3
72
12
73
8
74
6
42
0.0000001000
43
0.0000001000
44
0.0000000001
12
0.0000000000
22
2.6770649838
32
0.0000000000
13
-2.1447748552
23
1.6020667114
33
0.0000000000
40
0.0000000000
40
0.0000000000
40
0.0000000000
40
0.0000000000
40
0.2056803891
40
0.4157274957
40
0.6195087509
40
0.8152423251
40
1.0000000000
40
1.0000000000
40
1.0000000000
40
1.0000000000
10
96.7555317225
20
67.3088698344
30
0.0000000000
10
96.7555317225
20
67.4924097569
30
0.0000000000
10
96.7211439721
20
67.8643691189
30
0.0000000000
10
96.5643369673
20
68.3981166190
30
0.0000000000
10
96.3109903374
20
68.8833399807
30
0.0000000000
10
95.9859257947
20
69.2945371127
30
0.0000000000
10
95.7305660874
20
69.5211896825
30
0.0000000000
10
95.5984782155
20
69.6198543894
30
0.0000000000
11
96.7555317225
21
67.3088698344
31
0.0000000000
11
96.7041654735
21
67.8570884376
31
0.0000000000
11
96.5454256420
21
68.3965269654
31
0.0000000000
11
96.2930169228
21
68.8801580208
31
0.0000000000
11
95.9682626981
21
69.2913778926
31
0.0000000000
11
95.5984782155
21
69.6198543894
31
0.0000000000
0
SPLINE
5
468
100
AcDbEntity
8
0
100
AcDbSpline
62
7
6
CONTINUOUS
70
0
71
3
72
12
73
8
74
6
42
0.0000001000
43
0.0000001000
44
0.0000000001
12
-2.1447795655
22
-1.6020702298
32
0.0000000000
13
0.0000000000
23
-2.6770708631
33
0.0000000000
40
0.0000000000
40
0.0000000000
40
0.0000000000
40
0.0000000000
40
0.1865223611
40
0.3841524332
40
0.5897399988
40
0.7974590255
40
1.0000000000
40
1.0000000000
40
1.0000000000
40
1.0000000000
10
120.0913128615
20
69.6198543894
30
0.0000000000
10
119.9579630786
20
69.5202470820
30
0.0000000000
10
119.7003017818
20
69.2911808499
30
0.0000000000
10
119.3732113206
20
68.8752634397
30
0.0000000000
10
119.1213680768
20
68.3877849572
30
0.0000000000
10
118.9676702814
20
67.8566461946
30
0.0000000000
10
118.9342593545
20
67.4896086815
30
0.0000000000
10
118.9342593545
20
67.3088698344
30
0.0000000000
11
120.0913128615
21
69.6198543894
31
0.0000000000
11
119.7182658106
21
69.2879358448
31
0.0000000000
11
119.3914193811
21
68.8718995878
31
0.0000000000
11
119.1388802747
21
68.3828864303
31
0.0000000000
11
118.9840605710
21
67.8487944741
31
0.0000000000
11
118.9342593545
21
67.3088698344
31
0.0000000000
0
SPLINE
5
469
100
AcDbEntity
8
0
100
AcDbSpline
62
7
6
CONTINUOUS
70
0
71
3
72
15
73
11
74
9
42
0.0000001000
43
0.0000001000
44
0.0000000001
12
0.0000000000
22
-12.1472925176
32
0.0000000000
13
-7.4796348108
23
-9.5714042129
33
0.0000000000
40
0.0000000000
40
0.0000000000
40
0.0000000000
40
0.0000000000
40
0.1855951219
40
0.3441849569
40
0.4800885502
40
0.5996472321
40
0.7074421201
40
0.8081644568
40
0.9055950460
40
1.0000000000
40
1.0000000000
40
1.0000000000
40
1.0000000000
10
121.3025627485
20
60.3016480964
30
0.0000000000
10
121.3025627485
20
59.5501553510
30
0.0000000000
10
121.2778971207
20
58.1563479634
30
0.0000000000
10
121.1695176284
20
56.2149397897
30
0.0000000000
10
121.0013627875
20
54.5461816521
30
0.0000000000
10
120.7731934963
20
53.0921848465
30
0.0000000000
10
120.4759034339
20
51.7961064597
30
0.0000000000
10
120.0915201455
20
50.6161837636
30
0.0000000000
10
119.5957186051
20
49.5368877726
30
0.0000000000
10
119.1696308812
20
48.8827052240
30
0.0000000000
10
118.9342593545
20
48.5815092327
30
0.0000000000
11
121.3025627485
21
60.3016480964
31
0.0000000000
11
121.2605411971
21
58.0475615173
31
0.0000000000
11
121.1489919362
21
56.1243567125
31
0.0000000000
11
120.9786742696
21
54.4823052659
31
0.0000000000
11
120.7483232385
21
53.0483752910
31
0.0000000000
11
120.4499791096
21
51.7734003344
31
0.0000000000
11
120.0649422664
21
50.6120614946
31
0.0000000000
11
119.5645430001
21
49.5395340514
31
0.0000000000
11
118.9342593545
21
48.5815092327
31
0.0000000000
0
SPLINE
5
46A
100
AcDbEntity
8
0
100
AcDbSpline
62
7
6
CONTINUOUS
70
0
71
3
72
12
73
8
74
6
42
0.0000001000
43
0.0000001000
44
0.0000000001
12
-7.0421623711
22
-1.1205473278
32
0.0000000000
13
-0.9466443159
23
7.0676404629
33
0.0000000000
40
0.0000000000
40
0.0000000000
40
0.0000000000
40
0.0000000000
40
0.0787658099
40
0.2103494822
40
0.4100320526
40
0.6755895057
40
1.0000000000
40
1.0000000000
40
1.0000000000
40
1.0000000000
10
99.0448955385
20
42.1058974810
30
0.0000000000
10
98.8600016642
20
42.0764772084
30
0.0000000000
10
98.3591353215
20
42.3690753616
30
0.0000000000
10
97.9376138841
20
43.2502505593
30
0.0000000000
10
97.4723261930
20
44.5941349668
30
0.0000000000
10
97.0762636416
20
46.4317711793
30
0.0000000000
10
96.8578988393
20
47.8172369873
30
0.0000000000
10
96.7555317225
20
48.5815092327
30
0.0000000000
11
99.0448955385
21
42.1058974810
31
0.0000000000
11
98.5248089364
21
42.3179625676
31
0.0000000000
11
98.0206047983
21
43.1092704934
31
0.0000000000
11
97.5475119200
21
44.4522668134
31
0.0000000000
11
97.1214934577
21
46.2973481541
31
0.0000000000
11
96.7555317225
21
48.5815092327
31
0.0000000000
0
SPLINE
5
46B
100
AcDbEntity
8
0
100
AcDbSpline
62
7
6
CONTINUOUS
70
0
71
3
72
11
73
7
74
5
42
0.0000001000
43
0.0000001000
44
0.0000000001
12
1.8072208895
22
-2.1537619877
32
0.0000000000
13
0.6442583765
23
2.7367259979
33
0.0000000000
40
0.0000000000
40
0.0000000000
40
0.0000000000
40
0.0000000000
40
0.1443516439
40
0.3009179365
40
0.5806388854
40
1.0000000000
40
1.0000000000
40
1.0000000000
40
1.0000000000
10
67.8448955385
20
42.3016480964
30
0.0000000000
10
67.9318539739
20
42.1980150686
30
0.0000000000
10
68.2273302397
20
41.9967982394
30
0.0000000000
10
68.6772535869
20
42.4637634920
30
0.0000000000
10
68.9535562775
20
43.1812554078
30
0.0000000000
10
69.1386556086
20
43.8234304252
30
0.0000000000
10
69.2287145789
20
44.2059892468
30
0.0000000000
11
67.8448955385
21
42.3016480964
31
0.0000000000
11
68.2009997558
21
42.1069587234
31
0.0000000000
11
68.5564303588
21
42.3666469241
31
0.0000000000
11
68.9019568189
21
43.0731228835
31
0.0000000000
11
69.2287145789
21
44.2059892468
31
0.0000000000
0
SPLINE
5
46C
100
AcDbEntity
8
0
100
AcDbSpline
62
7
6
CONTINUOUS
70
0
71
3
72
9
73
5
74
3
42
0.0000001000
43
0.0000001000
44
0.0000000001
12
-0.0027069757
22
-0.8348269013
32
0.0000000000
13
0.0000000000
23
-0.8348312900
33
0.0000000000
40
0.0000000000
40
0.0000000000
40
0.0000000000
40
0.0000000000
40
0.5003382591
40
1.0000000000
40
1.0000000000
40
1.0000000000
40
1.0000000000
10
121.3039171592
20
70.3430188312
30
0.0000000000
10
121.3034656913
20
70.2037868851
30
0.0000000000
10
121.3027885229
20
69.9255104753
30
0.0000000000
10
121.3025627485
20
69.6472333329
30
0.0000000000
10
121.3025627485
20
69.5081889143
30
0.0000000000
11
121.3039171592
21
70.3430188312
31
0.0000000000
11
121.3029010660
21
69.9253220328
31
0.0000000000
11
121.3025627485
21
69.5081889143
31
0.0000000000
0
SPLINE
5
46D
100
AcDbEntity
8
0
100
AcDbSpline
62
7
6
CONTINUOUS
70
0
71
3
72
12
73
8
74
6
42
0.0000001000
43
0.0000001000
44
0.0000000001
12
7.0421623711
22
-1.1205473278
32
0.0000000000
13
0.9466443159
23
7.0676404629
33
0.0000000000
40
0.0000000000
40
0.0000000000
40
0.0000000000
40
0.0000000000
40
0.0787658099
40
0.2103494822
40
0.4100320526
40
0.6755895057
40
1.0000000000
40
1.0000000000
40
1.0000000000
40
1.0000000000
10
116.6448955385
20
42.1058974810
30
0.0000000000
10
116.8297894128
20
42.0764772084
30
0.0000000000
10
117.3306557555
20
42.3690753616
30
0.0000000000
10
117.7521771928
20
43.2502505593
30
0.0000000000
10
118.2174648840
20
44.5941349668
30
0.0000000000
10
118.6135274354
20
46.4317711793
30
0.0000000000
10
118.8318922377
20
47.8172369873
30
0.0000000000
10
118.9342593545
20
48.5815092327
30
0.0000000000
11
116.6448955385
21
42.1058974810
31
0.0000000000
11
117.1649821406
21
42.3179625676
31
0.0000000000
11
117.6691862786
21
43.1092704934
31
0.0000000000
11
118.1422791570
21
44.4522668134
31
0.0000000000
11
118.5682976193
21
46.2973481541
31
0.0000000000
11
118.9342593545
21
48.5815092327
31
0.0000000000
0
SPLINE
5
46E
100
AcDbEntity
8
0
100
AcDbSpline
62
7
6
CONTINUOUS
70
0
71
3
72
15
73
11
74
9
42
0.0000001000
43
0.0000001000
44
0.0000000001
12
-8.1754694544
22
8.9932349863
32
0.0000000000
13
-2.2849706489
23
11.9371472912
33
0.0000000000
40
0.0000000000
40
0.0000000000
40
0.0000000000
40
0.0000000000
40
0.1308774604
40
0.2595472878
40
0.3861174952
40
0.5106888809
40
0.6334811221
40
0.7553234601
40
0.8771747096
40
1.0000000000
40
1.0000000000
40
1.0000000000
40
1.0000000000
10
91.2291920141
20
73.8594166733
30
0.0000000000
10
90.8725304542
20
74.2517539252
30
0.0000000000
10
90.1927189079
20
75.0553333918
30
0.0000000000
10
89.2687470798
20
76.3190807885
30
0.0000000000
10
88.4487141074
20
77.6225627203
30
0.0000000000
10
87.7315092909
20
78.9582813865
30
0.0000000000
10
87.1144573361
20
80.3220741966
30
0.0000000000
10
86.5943039891
20
81.7139224038
30
0.0000000000
10
86.1686228557
20
83.1375784708
30
0.0000000000
10
85.9491520743
20
84.1051559854
30
0.0000000000
10
85.8556013465
20
84.5938838464
30
0.0000000000
11
91.2291920141
21
73.8594166733
31
0.0000000000
11
90.2018673741
21
75.0738416288
31
0.0000000000
11
89.2788962689
21
76.3362634369
31
0.0000000000
11
88.4597750689
21
77.6383627348
31
0.0000000000
11
87.7435735801
21
78.9722764174
31
0.0000000000
11
87.1284013354
21
80.3319910821
31
0.0000000000
11
86.6100266186
21
81.7191544679
31
0.0000000000
11
86.1858007525
21
83.1380582045
31
0.0000000000
11
85.8556013465
21
84.5938838464
31
0.0000000000
0
SPLINE
5
46F
100
AcDbEntity
8
0
100
AcDbSpline
62
7
6
CONTINUOUS
70
0
71
3
72
11
73
7
74
5
42
0.0000001000
43
0.0000001000
44
0.0000000001
12
-1.8072208895
22
-2.1537619877
32
0.0000000000
13
-0.6442583765
23
2.7367259979
33
0.0000000000
40
0.0000000000
40
0.0000000000
40
0.0000000000
40
0.0000000000
40
0.1443516439
40
0.3009179365
40
0.5806388854
40
1.0000000000
40
1.0000000000
40
1.0000000000
40
1.0000000000
10
147.8448955385
20
42.3016480964
30
0.0000000000
10
147.7579371031
20
42.1980150686
30
0.0000000000
10
147.4624608373
20
41.9967982394
30
0.0000000000
10
147.0125374900
20
42.4637634920
30
0.0000000000
10
146.7362347995
20
43.1812554078
30
0.0000000000
10
146.5511354683
20
43.8234304252
30
0.0000000000
10
146.4610764981
20
44.2059892468
30
0.0000000000
11
147.8448955385
21
42.3016480964
31
0.0000000000
11
147.4887913212
21
42.1069587234
31
0.0000000000
11
147.1333607182
21
42.3666469241
31
0.0000000000
11
146.7878342581
21
43.0731228835
31
0.0000000000
11
146.4610764981
21
44.2059892468
31
0.0000000000
0
SPLINE
5
470
100
AcDbEntity
8
0
100
AcDbSpline
62
7
6
CONTINUOUS
70
0
71
3
72
15
73
11
74
9
42
0.0000001000
43
0.0000001000
44
0.0000000001
12
8.1754694544
22
8.9932349863
32
0.0000000000
13
2.2849706489
23
11.9371472912
33
0.0000000000
40
0.0000000000
40
0.0000000000
40
0.0000000000
40
0.0000000000
40
0.1308774604
40
0.2595472878
40
0.3861174952
40
0.5106888809
40
0.6334811221
40
0.7553234601
40
0.8771747096
40
1.0000000000
40
1.0000000000
40
1.0000000000
40
1.0000000000
10
124.4605990629
20
73.8594166733
30
0.0000000000
10
124.8172606228
20
74.2517539252
30
0.0000000000
10
125.4970721691
20
75.0553333918
30
0.0000000000
10
126.4210439972
20
76.3190807885
30
0.0000000000
10
127.2410769696
20
77.6225627203
30
0.0000000000
10
127.9582817861
20
78.9582813865
30
0.0000000000
10
128.5753337408
20
80.3220741966
30
0.0000000000
10
129.0954870879
20
81.7139224038
30
0.0000000000
10
129.5211682212
20
83.1375784708
30
0.0000000000
10
129.7406390027
20
84.1051559854
30
0.0000000000
10
129.8341897305
20
84.5938838464
30
0.0000000000
11
124.4605990629
21
73.8594166733
31
0.0000000000
11
125.4879237028
21
75.0738416288
31
0.0000000000
11
126.4108948081
21
76.3362634369
31
0.0000000000
11
127.2300160081
21
77.6383627348
31
0.0000000000
11
127.9462174968
21
78.9722764174
31
0.0000000000
11
128.5613897416
21
80.3319910821
31
0.0000000000
11
129.0797644584
21
81.7191544679
31
0.0000000000
11
129.5039903245
21
83.1380582045
31
0.0000000000
11
129.8341897305
21
84.5938838464
31
0.0000000000
0
SPLINE
5
471
100
AcDbEntity
8
0
100
AcDbSpline
62
7
6
CONTINUOUS
70
0
71
3
72
9
73
5
74
3
42
0.0000001000
43
0.0000001000
44
0.0000000001
12
-0.7654243117
22
2.5341541480
32
0.0000000000
13
-0.6101360555
23
2.5759552823
33
0.0000000000
40
0.0000000000
40
0.0000000000
40
0.0000000000
40
0.0000000000
40
0.5008230444
40
1.0000000000
40
1.0000000000
40
1.0000000000
40
1.0000000000
10
144.5447005449
20
49.2167174466
30
0.0000000000
10
144.4169198336
20
49.6397717117
30
0.0000000000
10
144.1739295000
20
50.4882134243
30
0.0000000000
10
143.9568326515
20
51.3436678699
30
0.0000000000
10
143.8553106986
20
51.7722870418
30
0.0000000000
11
144.5447005449
21
49.2167174466
31
0.0000000000
11
144.1800242166
21
50.4913689945
31
0.0000000000
11
143.8553106986
21
51.7722870418
31
0.0000000000
0
SPLINE
5
472
100
AcDbEntity
8
0
100
AcDbSpline
62
7
6
CONTINUOUS
70
0
71
3
72
20
73
16
74
14
42
0.0000001000
43
0.0000001000
44
0.0000000001
12
-23.7564113922
22
-2.2286701265
32
0.0000000000
13
0.0000000000
23
-23.8607219666
33
0.0000000000
40
0.0000000000
40
0.0000000000
40
0.0000000000
40
0.0000000000
40
0.0791569336
40
0.1560736253
40
0.2308195091
40
0.3037331474
40
0.3759302506
40
0.4477658594
40
0.5196826263
40
0.5925078958
40
0.6678796205
40
0.7465509501
40
0.8288994432
40
0.9137743834
40
1.0000000000
40
1.0000000000
40
1.0000000000
40
1.0000000000
10
85.9310086548
20
112.1614048402
30
0.0000000000
10
85.3041804284
20
112.1025999425
30
0.0000000000
10
84.0708731779
20
111.9539462582
30
0.0000000000
10
82.2663364045
20
111.6062789707
30
0.0000000000
10
80.5470417041
20
111.1110215036
30
0.0000000000
10
78.9273671624
20
110.4403307439
30
0.0000000000
10
77.4307605951
20
109.5695419523
30
0.0000000000
10
76.0885410234
20
108.4865641451
30
0.0000000000
10
74.9300778032
20
107.2022794947
30
0.0000000000
10
73.9630227704
20
105.7356739892
30
0.0000000000
10
73.1818400549
20
104.1036437450
30
0.0000000000
10
72.5778737789
20
102.3189903970
30
0.0000000000
10
72.1482389778
20
100.4077217681
30
0.0000000000
10
71.8912785895
20
98.4057767714
30
0.0000000000
10
71.8344803784
20
97.0441932977
30
0.0000000000
10
71.8344803784
20
96.3583914766
30
0.0000000000
11
85.9310086548
21
112.1614048402
31
0.0000000000
11
84.0565481327
21
111.9295805014
31
0.0000000000
11
82.2556933967
21
111.5757394243
31
0.0000000000
11
80.5439406755
21
111.0749980923
31
0.0000000000
11
78.9392509341
21
110.4028540395
31
0.0000000000
11
77.4529867901
21
109.5318614603
31
0.0000000000
11
76.1201500248
21
108.4541268911
31
0.0000000000
11
74.9690805671
21
107.1814733680
31
0.0000000000
11
74.0082117108
21
105.7336455110
31
0.0000000000
11
73.2259643183
21
104.1142576420
31
0.0000000000
11
72.6183149522
21
102.3381742827
31
0.0000000000
11
72.1823932634
21
100.4222456132
31
0.0000000000
11
71.9213574881
21
98.4139618617
31
0.0000000000
11
71.8344803784
21
96.3583914766
31
0.0000000000
0
SPLINE
5
473
100
AcDbEntity
8
0
100
AcDbSpline
62
7
6
CONTINUOUS
70
0
71
3
72
18
73
14
74
12
42
0.0000001000
43
0.0000001000
44
0.0000000001
12
-26.9035016994
22
-3.3898051546
32
0.0000000000
13
-10.4412809421
23
-25.0253638328
33
0.0000000000
40
0.0000000000
40
0.0000000000
40
0.0000000000
40
0.0000000000
40
0.0777911532
40
0.1591224999
40
0.2433856792
40
0.3302239828
40
0.4191731040
40
0.5096405782
40
0.6016842402
40
0.6960633553
40
0.7935551026
40
0.8947964193
40
1.0000000000
40
1.0000000000
40
1.0000000000
40
1.0000000000
10
107.8448985295
20
112.1614049261
30
0.0000000000
10
107.1472803887
20
112.0735059754
30
0.0000000000
10
105.7271404997
20
111.8337320488
30
0.0000000000
10
103.5945516138
20
111.2829201827
30
0.0000000000
10
101.4416321263
20
110.5179103395
30
0.0000000000
10
99.3047483241
20
109.5307526249
30
0.0000000000
10
97.2206997070
20
108.3200522293
30
0.0000000000
10
95.2226795156
20
106.8893987055
30
0.0000000000
10
93.3344689523
20
105.2407556730
30
0.0000000000
10
91.5727702753
20
103.3690368382
30
0.0000000000
10
89.9559501606
20
101.2644344932
30
0.0000000000
10
88.5117046925
20
98.9219747553
30
0.0000000000
10
87.7024908696
20
97.2359774377
30
0.0000000000
10
87.3363374889
20
96.3583914766
30
0.0000000000
11
107.8448985295
21
112.1614049261
31
0.0000000000
11
105.7649214196
21
111.8103053891
31
0.0000000000
11
103.6295680305
21
111.2588999764
31
0.0000000000
11
101.4765209352
21
110.4939491440
31
0.0000000000
11
99.3388198303
21
109.5065436826
31
0.0000000000
11
97.2531781531
21
108.2950705217
31
0.0000000000
11
95.2585372639
21
106.8670362199
31
0.0000000000
11
93.3783129170
21
105.2256488139
31
0.0000000000
11
91.6240697773
21
103.3622758919
31
0.0000000000
11
90.0131839961
21
101.2661588736
31
0.0000000000
11
88.5718426503
21
98.9296860440
31
0.0000000000
11
87.3363374889
21
96.3583914766
31
0.0000000000
0
SPLINE
5
474
100
AcDbEntity
8
0
100
AcDbSpline
62
7
6
CONTINUOUS
70
0
71
3
72
10
73
6
74
4
42
0.0000001000
43
0.0000001000
44
0.0000000001
12
-5.7911049323
22
-12.5387919925
32
0.0000000000
13
-0.6304795297
23
-13.7971263867
33
0.0000000000
40
0.0000000000
40
0.0000000000
40
0.0000000000
40
0.0000000000
40
0.3233049887
40
0.6582441672
40
1.0000000000
40
1.0000000000
40
1.0000000000
40
1.0000000000
10
85.8556013465
20
84.5938838464
30
0.0000000000
10
85.2315036416
20
83.2425991787
30
0.0000000000
10
84.1476070900
20
80.4013335047
30
0.0000000000
10
83.0741034624
20
75.9127265901
30
0.0000000000
10
82.7370742504
20
72.8056401712
30
0.0000000000
10
82.6652508981
20
71.2338906983
30
0.0000000000
11
85.8556013465
21
84.5938838464
31
0.0000000000
11
84.2577771976
21
80.4242109847
31
0.0000000000
11
83.1768210507
21
75.9262558775
31
0.0000000000
11
82.6652508981
21
71.2338906983
31
0.0000000000
0
SPLINE
5
475
100
AcDbEntity
8
0
100
AcDbSpline
62
7
6
CONTINUOUS
70
0
71
3
72
18
73
14
74
12
42
0.0000001000
43
0.0000001000
44
0.0000000001
12
26.9035016994
22
-3.3898051546
32
0.0000000000
13
10.4412809421
23
-25.0253638328
33
0.0000000000
40
0.0000000000
40
0.0000000000
40
0.0000000000
40
0.0000000000
40
0.0777911532
40
0.1591224999
40
0.2433856792
40
0.3302239828
40
0.4191731040
40
0.5096405782
40
0.6016842402
40
0.6960633553
40
0.7935551026
40
0.8947964193
40
1.0000000000
40
1.0000000000
40
1.0000000000
40
1.0000000000
10
107.8448925475
20
112.1614049261
30
0.0000000000
10
108.5425106882
20
112.0735059754
30
0.0000000000
10
109.9626505773
20
111.8337320488
30
0.0000000000
10
112.0952394632
20
111.2829201827
30
0.0000000000
10
114.2481589507
20
110.5179103395
30
0.0000000000
10
116.3850427529
20
109.5307526249
30
0.0000000000
10
118.4690913699
20
108.3200522293
30
0.0000000000
10
120.4671115614
20
106.8893987055
30
0.0000000000
10
122.3553221246
20
105.2407556730
30
0.0000000000
10
124.1170208017
20
103.3690368382
30
0.0000000000
10
125.7338409164
20
101.2644344932
30
0.0000000000
10
127.1780863845
20
98.9219747553
30
0.0000000000
10
127.9873002073
20
97.2359774377
30
0.0000000000
10
128.3534535881
20
96.3583914766
30
0.0000000000
11
107.8448925475
21
112.1614049261
31
0.0000000000
11
109.9248696574
21
111.8103053891
31
0.0000000000
11
112.0602230465
21
111.2588999764
31
0.0000000000
11
114.2132701418
21
110.4939491440
31
0.0000000000
11
116.3509712467
21
109.5065436826
31
0.0000000000
11
118.4366129239
21
108.2950705217
31
0.0000000000
11
120.4312538131
21
106.8670362199
31
0.0000000000
11
122.3114781600
21
105.2256488139
31
0.0000000000
11
124.0657212997
21
103.3622758919
31
0.0000000000
11
125.6766070809
21
101.2661588736
31
0.0000000000
11
127.1179484267
21
98.9296860440
31
0.0000000000
11
128.3534535881
21
96.3583914766
31
0.0000000000
0
SPLINE
5
476
100
AcDbEntity
8
0
100
AcDbSpline
62
7
6
CONTINUOUS
70
0
71
3
72
10
73
6
74
4
42
0.0000001000
43
0.0000001000
44
0.0000000001
12
-1.1922137226
22
-2.6125524308
32
0.0000000000
13
-1.4612018523
23
-2.4721838343
33
0.0000000000
40
0.0000000000
40
0.0000000000
40
0.0000000000
40
0.0000000000
40
0.3314797528
40
0.6643949810
40
1.0000000000
40
1.0000000000
40
1.0000000000
40
1.0000000000
10
81.1882093474
20
54.3114781799
30
0.0000000000
10
81.0564777774
20
54.0228087685
30
0.0000000000
10
80.7796927561
20
53.4499721712
30
0.0000000000
10
80.3309251681
20
52.6042491024
30
0.0000000000
10
80.0128224053
20
52.0488461426
30
0.0000000000
10
79.8493601802
20
51.7722870418
30
0.0000000000
11
81.1882093474
21
54.3114781799
31
0.0000000000
11
80.7749703580
21
53.4539336284
31
0.0000000000
11
80.3276454474
21
52.6089988924
31
0.0000000000
11
79.8493601802
21
51.7722870418
31
0.0000000000
0
SPLINE
5
477
100
AcDbEntity
8
0
100
AcDbSpline
62
7
6
CONTINUOUS
70
0
71
3
72
15
73
11
74
9
42
0.0000001000
43
0.0000001000
44
0.0000000001
12
0.0000000000
22
-9.0788919185
32
0.0000000000
13
4.6195559326
23
-7.8157521361
33
0.0000000000
40
0.0000000000
40
0.0000000000
40
0.0000000000
40
0.0000000000
40
0.1251229938
40
0.2505963480
40
0.3759258079
40
0.5008729260
40
0.6251844985
40
0.7494545677
40
0.8741666844
40
1.0000000000
40
1.0000000000
40
1.0000000000
40
1.0000000000
10
133.0639359643
20
60.3016480964
30
0.0000000000
10
133.0639359643
20
59.9229887174
30
0.0000000000
10
133.1004889577
20
59.1641217051
30
0.0000000000
10
133.2618600729
20
58.0364453711
30
0.0000000000
10
133.5208003318
20
56.9278323731
30
0.0000000000
10
133.8638765651
20
55.8463468119
30
0.0000000000
10
134.2772970784
20
54.7934843839
30
0.0000000000
10
134.7492641186
20
53.7665446091
30
0.0000000000
10
135.2713978125
20
52.7591757487
30
0.0000000000
10
135.6466662170
20
52.1001143768
30
0.0000000000
10
135.8404308968
20
51.7722870418
30
0.0000000000
11
133.0639359643
21
60.3016480964
31
0.0000000000
11
133.1181429407
21
59.1669640297
31
0.0000000000
11
133.2782343259
21
58.0391103047
31
0.0000000000
11
133.5352945364
21
56.9306750858
31
0.0000000000
11
133.8764165835
21
55.8487985374
31
0.0000000000
11
134.2871363262
21
54.7975740948
31
0.0000000000
11
134.7566884525
21
53.7716920601
31
0.0000000000
11
135.2763393670
21
52.7657357624
31
0.0000000000
11
135.8404308968
21
51.7722870418
31
0.0000000000
0
SPLINE
5
478
100
AcDbEntity
8
0
100
AcDbSpline
62
7
6
CONTINUOUS
70
0
71
3
72
14
73
10
74
8
42
0.0000001000
43
0.0000001000
44
0.0000000001
12
-7.9658443002
22
7.9658443002
32
0.0000000000
13
0.0000000000
23
11.2654050451
33
0.0000000000
40
0.0000000000
40
0.0000000000
40
0.0000000000
40
0.0000000000
40
0.0529905332
40
0.1433269601
40
0.2687041478
40
0.4240022126
40
0.6026680239
40
0.7972931072
40
1.0000000000
40
1.0000000000
40
1.0000000000
40
1.0000000000
10
147.8448955385
20
208.5766480986
30
0.0000000000
10
147.7041907594
20
208.7173528777
30
0.0000000000
10
147.4999133165
20
209.2402822092
30
0.0000000000
10
147.2584779654
20
210.2080053171
30
0.0000000000
10
147.0449404865
20
211.5918416332
30
0.0000000000
10
146.8644859708
20
213.3054268339
30
0.0000000000
10
146.7301192327
20
215.2869315351
30
0.0000000000
10
146.6468934445
20
217.4482885343
30
0.0000000000
10
146.6282968359
20
218.9404563475
30
0.0000000000
10
146.6282968359
20
219.7016480986
30
0.0000000000
11
147.8448955385
21
208.5766480986
31
0.0000000000
11
147.5634603323
21
209.1031034642
31
0.0000000000
11
147.3021807165
21
210.0866675428
31
0.0000000000
11
147.0723938104
21
211.4802750204
31
0.0000000000
11
146.8836792928
21
213.2195627179
31
0.0000000000
11
146.7435576928
21
215.2274220865
31
0.0000000000
11
146.6573739071
21
217.4182579740
31
0.0000000000
11
146.6282968359
21
219.7016480986
31
0.0000000000
0
SPLINE
5
479
100
AcDbEntity
8
0
100
AcDbSpline
62
7
6
CONTINUOUS
70
0
71
3
72
13
73
9
74
7
42
0.0000001000
43
0.0000001000
44
0.0000000001
12
-3.5397396474
22
8.3848983168
32
0.0000000000
13
-0.0000000000
23
9.1014436522
33
0.0000000000
40
0.0000000000
40
0.0000000000
40
0.0000000000
40
0.0000000000
40
0.1000895811
40
0.2345453141
40
0.3985267061
40
0.5856871834
40
0.7887204331
40
1.0000000000
40
1.0000000000
40
1.0000000000
40
1.0000000000
10
98.5094008310
20
210.6900114148
30
0.0000000000
10
98.3913038115
20
210.9697584016
30
0.0000000000
10
98.1913123071
20
211.6561798157
30
0.0000000000
10
97.9610375518
20
212.8431985075
30
0.0000000000
10
97.7706298936
20
214.3050765158
30
0.0000000000
10
97.6280955516
20
215.9806121708
30
0.0000000000
10
97.5401491806
20
217.8036294334
30
0.0000000000
10
97.5204453004
20
219.0606650742
30
0.0000000000
10
97.5204453004
20
219.7016480986
30
0.0000000000
11
98.5094008310
21
210.6900114148
31
0.0000000000
11
98.2323555002
21
211.5578209724
31
0.0000000000
11
97.9893473342
21
212.7571915346
31
0.0000000000
11
97.7900497693
21
214.2362924165
31
0.0000000000
11
97.6421413411
21
215.9332893803
31
0.0000000000
11
97.5511712525
21
217.7789445193
31
0.0000000000
11
97.5204453004
21
219.7016480986
31
0.0000000000
0
SPLINE
5
47A
100
AcDbEntity
8
0
100
AcDbSpline
62
7
6
CONTINUOUS
70
0
71
3
72
14
73
10
74
8
42
0.0000001000
43
0.0000001000
44
0.0000000001
12
0.0000000000
22
9.9366113477
32
0.0000000000
13
9.9366113477
23
0.0000000000
33
0.0000000000
40
0.0000000000
40
0.0000000000
40
0.0000000000
40
0.0000000000
40
0.2140473132
40
0.4180686699
40
0.6024066922
40
0.7582290036
40
0.8781928113
40
0.9577014795
40
1.0000000000
40
1.0000000000
40
1.0000000000
40
1.0000000000
10
97.5204453004
20
219.7016480986
30
0.0000000000
10
97.5204453004
20
220.4106164191
30
0.0000000000
10
97.5446033667
20
221.7955796193
30
0.0000000000
10
97.6505243900
20
223.7880567679
30
0.0000000000
10
97.8249171698
20
225.5842925481
30
0.0000000000
10
98.0438542603
20
227.0885283741
30
0.0000000000
10
98.3305648169
20
228.2462524474
30
0.0000000000
10
98.5800430756
20
228.9774862880
30
0.0000000000
10
98.9047942189
20
229.3266480986
30
0.0000000000
10
99.0448955385
20
229.3266480986
30
0.0000000000
11
97.5204453004
21
219.7016480986
31
0.0000000000
11
97.5581192794
21
221.8282193732
31
0.0000000000
11
97.6694877576
21
223.8524389818
31
0.0000000000
11
97.8495747008
21
225.6752599568
31
0.0000000000
11
98.0900708502
21
227.2048141910
31
0.0000000000
11
98.3794374850
21
228.3611927503
31
0.0000000000
11
98.7032537392
21
229.0818291886
31
0.0000000000
11
99.0448955385
21
229.3266480986
31
0.0000000000
0
SPLINE
5
47B
100
AcDbEntity
8
0
100
AcDbSpline
62
7
6
CONTINUOUS
70
0
71
3
72
10
73
6
74
4
42
0.0000001000
43
0.0000001000
44
0.0000000001
12
-0.7508600644
22
0.0000000000
32
0.0000000000
13
0.2078103459
23
0.7215301078
33
0.0000000000
40
0.0000000000
40
0.0000000000
40
0.0000000000
40
0.0000000000
40
0.2582266361
40
0.5435680351
40
1.0000000000
40
1.0000000000
40
1.0000000000
40
1.0000000000
10
98.6937665931
20
210.0766480986
30
0.0000000000
10
98.6291359036
20
210.0766480986
30
0.0000000000
10
98.4758369248
20
210.1262023848
30
0.0000000000
10
98.4339812863
20
210.4040724117
30
0.0000000000
10
98.4777837362
20
210.5802349466
30
0.0000000000
10
98.5094008310
20
210.6900114148
30
0.0000000000
11
98.6937665931
21
210.0766480986
31
0.0000000000
11
98.5129459868
21
210.1466341157
31
0.0000000000
11
98.4522182656
21
210.3520990337
31
0.0000000000
11
98.5094008310
21
210.6900114148
31
0.0000000000
0
SPLINE
5
47C
100
AcDbEntity
8
0
100
AcDbSpline
62
7
6
CONTINUOUS
70
0
71
3
72
14
73
10
74
8
42
0.0000001000
43
0.0000001000
44
0.0000000001
12
8.9306051831
22
0.0000000000
32
0.0000000000
13
0.0000000000
23
8.9306051831
33
0.0000000000
40
0.0000000000
40
0.0000000000
40
0.0000000000
40
0.0000000000
40
0.0365599267
40
0.1138836789
40
0.2334016753
40
0.3900364563
40
0.5762261566
40
0.7828832487
40
1.0000000000
40
1.0000000000
40
1.0000000000
40
1.0000000000
10
67.8448955385
20
210.9516480986
30
0.0000000000
10
67.9537296287
20
210.9516480986
30
0.0000000000
10
68.1819081938
20
211.3039803352
30
0.0000000000
10
68.3462414687
20
211.9277907452
30
0.0000000000
10
68.5509628111
20
212.9867041023
30
0.0000000000
10
68.7035921302
20
214.3452865100
30
0.0000000000
10
68.8273466538
20
215.9800307747
30
0.0000000000
10
68.9021111450
20
217.7934858855
30
0.0000000000
10
68.9192604464
20
219.0553201039
30
0.0000000000
10
68.9192604464
20
219.7016480986
30
0.0000000000
11
67.8448955385
21
210.9516480986
31
0.0000000000
11
68.0849810321
21
211.1729232406
31
0.0000000000
11
68.3127391834
21
211.8248301592
31
0.0000000000
11
68.5165837853
21
212.8725524057
31
0.0000000000
11
68.6863280817
21
214.2610586884
31
0.0000000000
11
68.8136788066
21
215.9189614026
31
0.0000000000
11
68.8925547904
21
217.7628480320
31
0.0000000000
11
68.9192604464
21
219.7016480986
31
0.0000000000
0
SPLINE
5
47D
100
AcDbEntity
8
0
100
AcDbSpline
62
7
6
CONTINUOUS
70
0
71
3
72
14
73
10
74
8
42
0.0000001000
43
0.0000001000
44
0.0000000001
12
0.0000000000
22
8.9306050864
32
0.0000000000
13
-8.9306050864
23
0.0000000000
33
0.0000000000
40
0.0000000000
40
0.0000000000
40
0.0000000000
40
0.0000000000
40
0.2171176373
40
0.4237746892
40
0.6099638331
40
0.7665980781
40
0.8861159112
40
0.9634398580
40
1.0000000000
40
1.0000000000
40
1.0000000000
40
1.0000000000
10
68.9192604464
20
219.7016480986
30
0.0000000000
10
68.9192604464
20
220.3479787239
30
0.0000000000
10
68.9021110449
20
221.6098154508
30
0.0000000000
10
68.8273462885
20
223.4232713840
30
0.0000000000
10
68.7035918501
20
225.0580122716
30
0.0000000000
10
68.5509628481
20
226.4165908923
30
0.0000000000
10
68.3462421114
20
227.4755029648
30
0.0000000000
10
68.1819089005
20
228.0993136297
30
0.0000000000
10
67.9537302686
20
228.4516480986
30
0.0000000000
10
67.8448955385
20
228.4516480986
30
0.0000000000
11
68.9192604464
21
219.7016480986
31
0.0000000000
11
68.8925545703
21
221.6404560547
31
0.0000000000
11
68.8136783651
21
223.4843422946
31
0.0000000000
11
68.6863278367
21
225.1422400231
31
0.0000000000
11
68.5165841305
21
226.5307415392
31
0.0000000000
11
68.3127401064
21
227.5784624017
31
0.0000000000
11
68.0849819916
21
228.2303711652
31
0.0000000000
11
67.8448955385
21
228.4516480986
31
0.0000000000
0
SPLINE
5
47E
100
AcDbEntity
8
0
100
AcDbSpline
62
7
6
CONTINUOUS
70
0
71
3
72
13
73
9
74
7
42
0.0000001000
43
0.0000001000
44
0.0000000001
12
3.5397396474
22
8.3848983168
32
0.0000000000
13
0.0000000000
23
9.1014436522
33
0.0000000000
40
0.0000000000
40
0.0000000000
40
0.0000000000
40
0.0000000000
40
0.1000895811
40
0.2345453141
40
0.3985267061
40
0.5856871834
40
0.7887204331
40
1.0000000000
40
1.0000000000
40
1.0000000000
40
1.0000000000
10
117.1803902460
20
210.6900114148
30
0.0000000000
10
117.2984872655
20
210.9697584016
30
0.0000000000
10
117.4984787699
20
211.6561798157
30
0.0000000000
10
117.7287535252
20
212.8431985075
30
0.0000000000
10
117.9191611834
20
214.3050765158
30
0.0000000000
10
118.0616955254
20
215.9806121708
30
0.0000000000
10
118.1496418964
20
217.8036294334
30
0.0000000000
10
118.1693457766
20
219.0606650742
30
0.0000000000
10
118.1693457766
20
219.7016480986
30
0.0000000000
11
117.1803902460
21
210.6900114148
31
0.0000000000
11
117.4574355768
21
211.5578209724
31
0.0000000000
11
117.7004437427
21
212.7571915346
31
0.0000000000
11
117.8997413077
21
214.2362924165
31
0.0000000000
11
118.0476497359
21
215.9332893803
31
0.0000000000
11
118.1386198245
21
217.7789445193
31
0.0000000000
11
118.1693457766
21
219.7016480986
31
0.0000000000
0
SPLINE
5
47F
100
AcDbEntity
8
0
100
AcDbSpline
62
7
6
CONTINUOUS
70
0
71
3
72
14
73
10
74
8
42
0.0000001000
43
0.0000001000
44
0.0000000001
12
0.0000000000
22
9.9366113477
32
0.0000000000
13
-9.9366113477
23
0.0000000000
33
0.0000000000
40
0.0000000000
40
0.0000000000
40
0.0000000000
40
0.0000000000
40
0.2140473132
40
0.4180686699
40
0.6024066922
40
0.7582290036
40
0.8781928113
40
0.9577014795
40
1.0000000000
40
1.0000000000
40
1.0000000000
40
1.0000000000
10
118.1693457766
20
219.7016480986
30
0.0000000000
10
118.1693457766
20
220.4106164191
30
0.0000000000
10
118.1451877103
20
221.7955796193
30
0.0000000000
10
118.0392666870
20
223.7880567679
30
0.0000000000
10
117.8648739072
20
225.5842925481
30
0.0000000000
10
117.6459368167
20
227.0885283741
30
0.0000000000
10
117.3592262601
20
228.2462524474
30
0.0000000000
10
117.1097480014
20
228.9774862880
30
0.0000000000
10
116.7849968581
20
229.3266480986
30
0.0000000000
10
116.6448955385
20
229.3266480986
30
0.0000000000
11
118.1693457766
21
219.7016480986
31
0.0000000000
11
118.1316717976
21
221.8282193732
31
0.0000000000
11
118.0203033194
21
223.8524389818
31
0.0000000000
11
117.8402163762
21
225.6752599568
31
0.0000000000
11
117.5997202268
21
227.2048141910
31
0.0000000000
11
117.3103535920
21
228.3611927503
31
0.0000000000
11
116.9865373378
21
229.0818291886
31
0.0000000000
11
116.6448955385
21
229.3266480986
31
0.0000000000
0
SPLINE
5
480
100
AcDbEntity
8
0
100
AcDbSpline
62
7
6
CONTINUOUS
70
0
71
3
72
10
73
6
74
4
42
0.0000001000
43
0.0000001000
44
0.0000000001
12
0.7508600644
22
0.0000000000
32
0.0000000000
13
-0.2078103459
23
0.7215301078
33
0.0000000000
40
0.0000000000
40
0.0000000000
40
0.0000000000
40
0.0000000000
40
0.2582266361
40
0.5435680351
40
1.0000000000
40
1.0000000000
40
1.0000000000
40
1.0000000000
10
116.9960244838
20
210.0766480986
30
0.0000000000
10
117.0606551734
20
210.0766480986
30
0.0000000000
10
117.2139541522
20
210.1262023848
30
0.0000000000
10
117.2558097907
20
210.4040724117
30
0.0000000000
10
117.2120073408
20
210.5802349466
30
0.0000000000
10
117.1803902460
20
210.6900114148
30
0.0000000000
11
116.9960244838
21
210.0766480986
31
0.0000000000
11
117.1768450902
21
210.1466341157
31
0.0000000000
11
117.2375728114
21
210.3520990337
31
0.0000000000
11
117.1803902460
21
210.6900114148
31
0.0000000000
0
SPLINE
5
481
100
AcDbEntity
8
0
100
AcDbSpline
62
7
6
CONTINUOUS
70
0
71
3
72
14
73
10
74
8
42
0.0000001000
43
0.0000001000
44
0.0000000001
12
0.0000000000
22
11.2654051050
32
0.0000000000
13
7.9658443425
23
7.9658443425
33
0.0000000000
40
0.0000000000
40
0.0000000000
40
0.0000000000
40
0.0000000000
40
0.2027189630
40
0.3973489646
40
0.5760134513
40
0.7313062555
40
0.8566775203
40
0.9470093003
40
1.0000000000
40
1.0000000000
40
1.0000000000
40
1.0000000000
10
146.6282968359
20
219.7016480986
30
0.0000000000
10
146.6282968359
20
220.4628851787
30
0.0000000000
10
146.6468953196
20
221.9551168144
30
0.0000000000
10
146.7301277031
20
224.1165324446
30
0.0000000000
10
146.8644998000
20
226.0980305512
30
0.0000000000
10
147.0449557217
20
227.8115684235
30
0.0000000000
10
147.2584893907
20
229.1953449082
30
0.0000000000
10
147.4999195802
20
230.1630294918
30
0.0000000000
10
147.7041903167
20
230.6859428768
30
0.0000000000
10
147.8448955385
20
230.8266480986
30
0.0000000000
11
146.6282968359
21
219.7016480986
31
0.0000000000
11
146.6573774068
21
221.9851741766
31
0.0000000000
11
146.7435679878
21
224.1760652596
31
0.0000000000
11
146.8836947125
21
226.1839093218
31
0.0000000000
11
147.0724093250
21
227.9231374077
31
0.0000000000
11
147.3021909316
21
229.3166781422
31
0.0000000000
11
147.5634596906
21
230.3001909461
31
0.0000000000
11
147.8448955385
21
230.8266480986
31
0.0000000000
0
SPLINE
5
482
100
AcDbEntity
8
0
100
AcDbSpline
62
7
6
CONTINUOUS
70
0
71
3
72
9
73
5
74
3
42
0.0000001000
43
0.0000001000
44
0.0000000001
12
-8.3456560242
22
0.0004133934
32
0.0000000000
13
-8.3440781901
23
-0.1622769288
33
0.0000000000
40
0.0000000000
40
0.0000000000
40
0.0000000000
40
0.0000000000
40
0.5011842318
40
1.0000000000
40
1.0000000000
40
1.0000000000
40
1.0000000000
10
107.8448955385
20
123.2821139108
30
0.0000000000
10
106.4506584708
20
123.2821829729
30
0.0000000000
10
103.6687550097
20
123.2690735743
30
0.0000000000
10
100.8871130056
20
123.2286301956
30
0.0000000000
10
99.4997270814
20
123.2016480986
30
0.0000000000
11
107.8448955385
21
123.2821139108
31
0.0000000000
11
103.6622318469
21
123.2621766220
31
0.0000000000
11
99.4997270814
21
123.2016480986
31
0.0000000000
0
SPLINE
5
483
100
AcDbEntity
8
0
100
AcDbSpline
62
7
6
CONTINUOUS
70
0
71
3
72
26
73
22
74
20
42
0.0000001000
43
0.0000001000
44
0.0000000001
12
23.7619659789
22
2.2291910960
32
0.0000000000
13
0.0000000000
23
23.8663009309
33
0.0000000000
40
0.0000000000
40
0.0000000000
40
0.0000000000
40
0.0000000000
40
0.0399672012
40
0.0795460204
40
0.1182625022
40
0.1559644294
40
0.1934789828
40
0.2324800260
40
0.2745848450
40
0.3214255191
40
0.3744226986
40
0.4332780528
40
0.4953831460
40
0.5582168412
40
0.6206805486
40
0.6830776820
40
0.7453542251
40
0.8077065887
40
0.8707627891
40
0.9347380749
40
1.0000000000
40
1.0000000000
40
1.0000000000
40
1.0000000000
10
129.7587822408
20
167.8418913385
30
0.0000000000
10
130.0753486661
20
167.8715895148
30
0.0000000000
10
130.7046577699
20
167.9391525294
30
0.0000000000
10
131.6367010902
20
168.0686608080
30
0.0000000000
10
132.5458598301
20
168.2280701196
30
0.0000000000
10
133.4319342843
20
168.4201395435
30
0.0000000000
10
134.3107748362
20
168.6523107073
30
0.0000000000
10
135.2099426383
20
168.9403146409
30
0.0000000000
10
136.1589586592
20
169.3104773787
30
0.0000000000
10
137.1777723887
20
169.8005835880
30
0.0000000000
10
138.2598746061
20
170.4555242769
30
0.0000000000
10
139.3546659932
20
171.3082060756
30
0.0000000000
10
140.3825452995
20
172.3544640581
30
0.0000000000
10
141.2787944155
20
173.5511149297
30
0.0000000000
10
142.0220146841
20
174.8500359468
30
0.0000000000
10
142.6183233490
20
176.2169083773
30
0.0000000000
10
143.0832682442
20
177.6322590272
30
0.0000000000
10
143.4321343965
20
179.0855443231
30
0.0000000000
10
143.6764411487
20
180.5734756695
30
0.0000000000
10
143.8227514367
20
182.0972702807
30
0.0000000000
10
143.8553106986
20
183.1257178039
30
0.0000000000
10
143.8553106986
20
183.6449047184
30
0.0000000000
11
129.7587822408
21
167.8418913385
31
0.0000000000
11
130.7071255498
21
167.9444170325
31
0.0000000000
11
131.6426294277
21
168.0751903913
31
0.0000000000
11
132.5526228588
21
168.2355756946
31
0.0000000000
11
133.4318284647
21
168.4270111042
31
0.0000000000
11
134.2972360178
21
168.6565586154
31
0.0000000000
11
135.1833598139
21
168.9415025607
31
0.0000000000
11
136.1190550185
21
169.3079325300
31
0.0000000000
11
137.1256979224
21
169.7941433228
31
0.0000000000
11
138.2067356583
21
170.4507972816
31
0.0000000000
11
139.3141428257
21
171.3149257100
31
0.0000000000
11
140.3534623487
21
172.3717074437
31
0.0000000000
11
141.2546393635
21
173.5703332295
31
0.0000000000
11
141.9981151505
21
174.8624871374
31
0.0000000000
11
142.5968323336
21
176.2260196459
31
0.0000000000
11
143.0635615341
21
177.6371480636
31
0.0000000000
11
143.4131933700
21
179.0836125556
31
0.0000000000
11
143.6586934944
21
180.5683713380
31
0.0000000000
11
143.8056548864
21
182.0881357020
31
0.0000000000
11
143.8553106986
21
183.6449047184
31
0.0000000000
0
SPLINE
5
484
100
AcDbEntity
8
0
100
AcDbSpline
62
7
6
CONTINUOUS
70
0
71
3
72
18
73
14
74
12
42
0.0000001000
43
0.0000001000
44
0.0000000001
12
26.9035016994
22
3.3898051546
32
0.0000000000
13
10.4412809421
23
25.0253638328
33
0.0000000000
40
0.0000000000
40
0.0000000000
40
0.0000000000
40
0.0000000000
40
0.0777911532
40
0.1591224999
40
0.2433856792
40
0.3302239828
40
0.4191731040
40
0.5096405782
40
0.6016842402
40
0.6960633553
40
0.7935551026
40
0.8947964193
40
1.0000000000
40
1.0000000000
40
1.0000000000
40
1.0000000000
10
107.8448925475
20
167.8418912689
30
0.0000000000
10
108.5425106882
20
167.9297902196
30
0.0000000000
10
109.9626505773
20
168.1695641462
30
0.0000000000
10
112.0952394632
20
168.7203760123
30
0.0000000000
10
114.2481589507
20
169.4853858555
30
0.0000000000
10
116.3850427529
20
170.4725435701
30
0.0000000000
10
118.4690913699
20
171.6832439657
30
0.0000000000
10
120.4671115614
20
173.1138974895
30
0.0000000000
10
122.3553221246
20
174.7625405220
30
0.0000000000
10
124.1170208017
20
176.6342593568
30
0.0000000000
10
125.7338409164
20
178.7388617018
30
0.0000000000
10
127.1780863845
20
181.0813214397
30
0.0000000000
10
127.9873002073
20
182.7673187573
30
0.0000000000
10
128.3534535881
20
183.6449047184
30
0.0000000000
11
107.8448925475
21
167.8418912689
31
0.0000000000
11
109.9248696574
21
168.1929908060
31
0.0000000000
11
112.0602230465
21
168.7443962186
31
0.0000000000
11
114.2132701418
21
169.5093470510
31
0.0000000000
11
116.3509712467
21
170.4967525124
31
0.0000000000
11
118.4366129239
21
171.7082256733
31
0.0000000000
11
120.4312538131
21
173.1362599751
31
0.0000000000
11
122.3114781600
21
174.7776473812
31
0.0000000000
11
124.0657212997
21
176.6410203031
31
0.0000000000
11
125.6766070809
21
178.7371373214
31
0.0000000000
11
127.1179484267
21
181.0736101510
31
0.0000000000
11
128.3534535881
21
183.6449047184
31
0.0000000000
0
SPLINE
5
485
100
AcDbEntity
8
0
100
AcDbSpline
62
7
6
CONTINUOUS
70
0
71
3
72
10
73
6
74
4
42
0.0000001000
43
0.0000001000
44
0.0000000001
12
5.7911049323
22
12.5387919925
32
0.0000000000
13
0.6304795297
23
13.7971263867
33
0.0000000000
40
0.0000000000
40
0.0000000000
40
0.0000000000
40
0.0000000000
40
0.3233049887
40
0.6582441672
40
1.0000000000
40
1.0000000000
40
1.0000000000
40
1.0000000000
10
129.8341897305
20
195.4094123486
30
0.0000000000
10
130.4582874354
20
196.7606970163
30
0.0000000000
10
131.5421839870
20
199.6019626903
30
0.0000000000
10
132.6156876146
20
204.0905696049
30
0.0000000000
10
132.9527168266
20
207.1976560238
30
0.0000000000
10
133.0245401788
20
208.7694054967
30
0.0000000000
11
129.8341897305
21
195.4094123486
31
0.0000000000
11
131.4320138793
21
199.5790852103
31
0.0000000000
11
132.5129700263
21
204.0770403175
31
0.0000000000
11
133.0245401788
21
208.7694054967
31
0.0000000000
0
SPLINE
5
486
100
AcDbEntity
8
0
100
AcDbSpline
62
7
6
CONTINUOUS
70
0
71
3
72
18
73
14
74
12
42
0.0000001000
43
0.0000001000
44
0.0000000001
12
-26.9035016994
22
3.3898051546
32
0.0000000000
13
-10.4412809421
23
25.0253638328
33
0.0000000000
40
0.0000000000
40
0.0000000000
40
0.0000000000
40
0.0000000000
40
0.0777911532
40
0.1591224999
40
0.2433856792
40
0.3302239828
40
0.4191731040
40
0.5096405782
40
0.6016842402
40
0.6960633553
40
0.7935551026
40
0.8947964193
40
1.0000000000
40
1.0000000000
40
1.0000000000
40
1.0000000000
10
107.8448985295
20
167.8418912689
30
0.0000000000
10
107.1472803887
20
167.9297902196
30
0.0000000000
10
105.7271404997
20
168.1695641462
30
0.0000000000
10
103.5945516138
20
168.7203760123
30
0.0000000000
10
101.4416321263
20
169.4853858555
30
0.0000000000
10
99.3047483241
20
170.4725435701
30
0.0000000000
10
97.2206997070
20
171.6832439657
30
0.0000000000
10
95.2226795156
20
173.1138974895
30
0.0000000000
10
93.3344689523
20
174.7625405220
30
0.0000000000
10
91.5727702753
20
176.6342593568
30
0.0000000000
10
89.9559501606
20
178.7388617018
30
0.0000000000
10
88.5117046925
20
181.0813214397
30
0.0000000000
10
87.7024908696
20
182.7673187573
30
0.0000000000
10
87.3363374889
20
183.6449047184
30
0.0000000000
11
107.8448985295
21
167.8418912689
31
0.0000000000
11
105.7649214196
21
168.1929908060
31
0.0000000000
11
103.6295680305
21
168.7443962186
31
0.0000000000
11
101.4765209352
21
169.5093470510
31
0.0000000000
11
99.3388198303
21
170.4967525124
31
0.0000000000
11
97.2531781531
21
171.7082256733
31
0.0000000000
11
95.2585372639
21
173.1362599751
31
0.0000000000
11
93.3783129170
21
174.7776473812
31
0.0000000000
11
91.6240697773
21
176.6410203031
31
0.0000000000
11
90.0131839961
21
178.7371373214
31
0.0000000000
11
88.5718426503
21
181.0736101510
31
0.0000000000
11
87.3363374889
21
183.6449047184
31
0.0000000000
0
SPLINE
5
487
100
AcDbEntity
8
0
100
AcDbSpline
62
7
6
CONTINUOUS
70
0
71
3
72
12
73
8
74
6
42
0.0000001000
43
0.0000001000
44
0.0000000001
12
-7.0421623711
22
1.1205473278
32
0.0000000000
13
-0.9466443159
23
-7.0676404629
33
0.0000000000
40
0.0000000000
40
0.0000000000
40
0.0000000000
40
0.0000000000
40
0.0787658099
40
0.2103494822
40
0.4100320526
40
0.6755895057
40
1.0000000000
40
1.0000000000
40
1.0000000000
40
1.0000000000
10
99.0448955385
20
237.8973987140
30
0.0000000000
10
98.8600016642
20
237.9268189866
30
0.0000000000
10
98.3591353215
20
237.6342208334
30
0.0000000000
10
97.9376138841
20
236.7530456357
30
0.0000000000
10
97.4723261930
20
235.4091612282
30
0.0000000000
10
97.0762636416
20
233.5715250157
30
0.0000000000
10
96.8578988393
20
232.1860592077
30
0.0000000000
10
96.7555317225
20
231.4217869624
30
0.0000000000
11
99.0448955385
21
237.8973987140
31
0.0000000000
11
98.5248089364
21
237.6853336274
31
0.0000000000
11
98.0206047983
21
236.8940257016
31
0.0000000000
11
97.5475119200
21
235.5510293816
31
0.0000000000
11
97.1214934577
21
233.7059480409
31
0.0000000000
11
96.7555317225
21
231.4217869624
31
0.0000000000
0
SPLINE
5
488
100
AcDbEntity
8
0
100
AcDbSpline
62
7
6
CONTINUOUS
70
0
71
3
72
10
73
6
74
4
42
0.0000001000
43
0.0000001000
44
0.0000000001
12
1.1922137226
22
2.6125524308
32
0.0000000000
13
1.4612018523
23
2.4721838343
33
0.0000000000
40
0.0000000000
40
0.0000000000
40
0.0000000000
40
0.0000000000
40
0.3314797528
40
0.6643949810
40
1.0000000000
40
1.0000000000
40
1.0000000000
40
1.0000000000
10
134.5015817296
20
225.6918180151
30
0.0000000000
10
134.6333132996
20
225.9804874265
30
0.0000000000
10
134.9100983209
20
226.5533240239
30
0.0000000000
10
135.3588659089
20
227.3990470926
30
0.0000000000
10
135.6769686717
20
227.9544500524
30
0.0000000000
10
135.8404308968
20
228.2310091532
30
0.0000000000
11
134.5015817296
21
225.6918180151
31
0.0000000000
11
134.9148207189
21
226.5493625666
31
0.0000000000
11
135.3621456296
21
227.3942973026
31
0.0000000000
11
135.8404308968
21
228.2310091532
31
0.0000000000
0
SPLINE
5
489
100
AcDbEntity
8
0
100
AcDbSpline
62
7
6
CONTINUOUS
70
0
71
3
72
11
73
7
74
5
42
0.0000001000
43
0.0000001000
44
0.0000000001
12
1.8072208895
22
2.1537619877
32
0.0000000000
13
0.6442583765
23
-2.7367259979
33
0.0000000000
40
0.0000000000
40
0.0000000000
40
0.0000000000
40
0.0000000000
40
0.1443516439
40
0.3009179365
40
0.5806388854
40
1.0000000000
40
1.0000000000
40
1.0000000000
40
1.0000000000
10
67.8448955385
20
237.7016480986
30
0.0000000000
10
67.9318539739
20
237.8052811265
30
0.0000000000
10
68.2273302397
20
238.0064979556
30
0.0000000000
10
68.6772535869
20
237.5395327030
30
0.0000000000
10
68.9535562775
20
236.8220407872
30
0.0000000000
10
69.1386556086
20
236.1798657698
30
0.0000000000
10
69.2287145789
20
235.7973069482
30
0.0000000000
11
67.8448955385
21
237.7016480986
31
0.0000000000
11
68.2009997558
21
237.8963374716
31
0.0000000000
11
68.5564303588
21
237.6366492709
31
0.0000000000
11
68.9019568189
21
236.9301733115
31
0.0000000000
11
69.2287145789
21
235.7973069482
31
0.0000000000
0
SPLINE
5
48A
100
AcDbEntity
8
0
100
AcDbSpline
62
7
6
CONTINUOUS
70
0
71
3
72
12
73
8
74
6
42
0.0000001000
43
0.0000001000
44
0.0000000001
12
7.0421623711
22
1.1205473278
32
0.0000000000
13
0.9466443159
23
-7.0676404629
33
0.0000000000
40
0.0000000000
40
0.0000000000
40
0.0000000000
40
0.0000000000
40
0.0787658099
40
0.2103494822
40
0.4100320526
40
0.6755895057
40
1.0000000000
40
1.0000000000
40
1.0000000000
40
1.0000000000
10
116.6448955385
20
237.8973987140
30
0.0000000000
10
116.8297894128
20
237.9268189866
30
0.0000000000
10
117.3306557555
20
237.6342208334
30
0.0000000000
10
117.7521771928
20
236.7530456357
30
0.0000000000
10
118.2174648840
20
235.4091612282
30
0.0000000000
10
118.6135274354
20
233.5715250157
30
0.0000000000
10
118.8318922377
20
232.1860592077
30
0.0000000000
10
118.9342593545
20
231.4217869624
30
0.0000000000
11
116.6448955385
21
237.8973987140
31
0.0000000000
11
117.1649821406
21
237.6853336274
31
0.0000000000
11
117.6691862786
21
236.8940257016
31
0.0000000000
11
118.1422791570
21
235.5510293816
31
0.0000000000
11
118.5682976193
21
233.7059480409
31
0.0000000000
11
118.9342593545
21
231.4217869624
31
0.0000000000
0
SPLINE
5
48B
100
AcDbEntity
8
0
100
AcDbSpline
62
7
6
CONTINUOUS
70
0
71
3
72
10
73
6
74
4
42
0.0000001000
43
0.0000001000
44
0.0000000001
12
2.1926877842
22
-1.9120278965
32
0.0000000000
13
2.7616336814
23
-0.9149370501
33
0.0000000000
40
0.0000000000
40
0.0000000000
40
0.0000000000
40
0.0000000000
40
0.4560056330
40
0.7842532317
40
1.0000000000
40
1.0000000000
40
1.0000000000
40
1.0000000000
10
118.9342593545
20
211.3283675652
30
0.0000000000
10
119.2675520148
20
211.0377357347
30
0.0000000000
10
119.8515021221
20
210.5485944651
30
0.0000000000
10
120.6384658821
20
209.9835086871
30
0.0000000000
10
121.1053126451
20
209.7260756010
30
0.0000000000
10
121.3039171592
20
209.6602773638
30
0.0000000000
11
118.9342593545
21
211.3283675652
31
0.0000000000
11
119.9578641600
21
210.4844535135
31
0.0000000000
11
120.7411060454
21
209.9381300215
31
0.0000000000
11
121.3039171592
21
209.6602773638
31
0.0000000000
0
SPLINE
5
48C
100
AcDbEntity
8
0
100
AcDbSpline
62
7
6
CONTINUOUS
70
0
71
3
72
10
73
6
74
4
42
0.0000001000
43
0.0000001000
44
0.0000000001
12
3.1350336507
22
-3.5357478262
32
0.0000000000
13
3.1786443127
23
-3.4965939162
33
0.0000000000
40
0.0000000000
40
0.0000000000
40
0.0000000000
40
0.0000000000
40
0.3356712566
40
0.6690643446
40
1.0000000000
40
1.0000000000
40
1.0000000000
40
1.0000000000
10
121.3039171592
20
209.6602773638
30
0.0000000000
10
121.6546973875
20
209.2646610585
30
0.0000000000
10
122.3554768934
20
208.4775301035
30
0.0000000000
10
123.4077029262
20
207.3053788852
30
0.0000000000
10
124.1099568165
20
206.5295953882
30
0.0000000000
10
124.4605990629
20
206.1438795217
30
0.0000000000
11
121.3039171592
21
209.6602773638
31
0.0000000000
11
122.3586754102
21
208.4755764317
31
0.0000000000
11
123.4111021587
21
207.3032313576
31
0.0000000000
11
124.4605990629
21
206.1438795217
31
0.0000000000
0
SPLINE
5
48D
100
AcDbEntity
8
0
100
AcDbSpline
62
7
6
CONTINUOUS
70
0
71
3
72
9
73
5
74
3
42
0.0000001000
43
0.0000001000
44
0.0000000001
12
-0.7006298174
22
0.1552684899
32
0.0000000000
13
-0.6858212965
23
0.2112808420
33
0.0000000000
40
0.0000000000
40
0.0000000000
40
0.0000000000
40
0.0000000000
40
0.4895877483
40
1.0000000000
40
1.0000000000
40
1.0000000000
40
1.0000000000
10
145.2380707293
20
230.6021371142
30
0.0000000000
10
145.1237308044
20
230.6274762977
30
0.0000000000
10
144.8913097943
20
230.6843967062
30
0.0000000000
10
144.6613844090
20
230.7506319716
30
0.0000000000
10
144.5447005449
20
230.7865787484
30
0.0000000000
11
145.2380707293
21
230.6021371142
31
0.0000000000
11
144.8967480381
21
230.6854441024
31
0.0000000000
11
144.5447005449
21
230.7865787484
31
0.0000000000
0
SPLINE
5
48E
100
AcDbEntity
8
0
100
AcDbSpline
62
7
6
CONTINUOUS
70
0
71
3
72
12
73
8
74
6
42
0.0000001000
43
0.0000001000
44
0.0000000001
12
0.0000000000
22
-9.8022075416
32
0.0000000000
13
4.0170145263
23
-8.9413011908
33
0.0000000000
40
0.0000000000
40
0.0000000000
40
0.0000000000
40
0.0000000000
40
0.1519801978
40
0.3259983755
40
0.5241044818
40
0.7482825687
40
1.0000000000
40
1.0000000000
40
1.0000000000
40
1.0000000000
10
141.9711981203
20
240.1804492059
30
0.0000000000
10
141.9711981203
20
239.6838687254
30
0.0000000000
10
142.0507584997
20
238.6183657903
30
0.0000000000
10
142.3607151046
20
236.9319351268
30
0.0000000000
10
142.8755687546
20
235.0507255397
30
0.0000000000
10
143.6053950754
20
232.9714147566
30
0.0000000000
10
144.2076496856
20
231.5368058711
30
0.0000000000
10
144.5447005449
20
230.7865787484
30
0.0000000000
11
141.9711981203
21
240.1804492059
31
0.0000000000
11
142.0699909676
21
238.6939871191
31
0.0000000000
11
142.3686046238
21
237.0145661219
31
0.0000000000
11
142.8734498500
21
235.1394612612
31
0.0000000000
11
143.5948676026
21
233.0638168867
31
0.0000000000
11
144.5447005449
21
230.7865787484
31
0.0000000000
0
SPLINE
5
48F
100
AcDbEntity
8
0
100
AcDbSpline
62
7
6
CONTINUOUS
70
0
71
3
72
26
73
22
74
20
42
0.0000001000
43
0.0000001000
44
0.0000000001
12
0.0000000000
22
-23.8664099895
32
0.0000000000
13
23.7620746075
23
-2.2292007838
33
0.0000000000
40
0.0000000000
40
0.0000000000
40
0.0000000000
40
0.0000000000
40
0.0642796470
40
0.1275830660
40
0.1899043016
40
0.2511644063
40
0.3118849060
40
0.3726776831
40
0.4338599969
40
0.4959663172
40
0.5581584348
40
0.6177386750
40
0.6718546960
40
0.7198158161
40
0.7629701097
40
0.8029498309
40
0.8413624657
40
0.8798523389
40
0.9192194059
40
0.9593807516
40
1.0000000000
40
1.0000000000
40
1.0000000000
40
1.0000000000
10
71.8344803784
20
183.6449047184
30
0.0000000000
10
71.8344803784
20
183.1335299153
30
0.0000000000
10
71.8661424486
20
182.1182514062
30
0.0000000000
10
72.0086347380
20
180.6132136404
30
0.0000000000
10
72.2464776309
20
179.1444164100
30
0.0000000000
10
72.5839609101
20
177.7161732948
30
0.0000000000
10
73.0301644143
20
176.3304713232
30
0.0000000000
10
73.5998190694
20
174.9908555444
30
0.0000000000
10
74.3115769696
20
173.7075286562
30
0.0000000000
10
75.1782470709
20
172.5083868544
30
0.0000000000
10
76.1866960836
20
171.4424823167
30
0.0000000000
10
77.2782116498
20
170.5606513877
30
0.0000000000
10
78.3707043409
20
169.8771785638
30
0.0000000000
10
79.4075111063
20
169.3639527711
30
0.0000000000
10
80.3767835626
20
168.9766451354
30
0.0000000000
10
81.2964366315
20
168.6761526218
30
0.0000000000
10
82.1948630479
20
168.4350073178
30
0.0000000000
10
83.0986317861
20
168.2367128294
30
0.0000000000
10
84.0234008747
20
168.0731362922
30
0.0000000000
10
84.9702092736
20
167.9408257499
30
0.0000000000
10
85.6092770407
20
167.8720740890
30
0.0000000000
10
85.9310095778
20
167.8418912689
30
0.0000000000
11
71.8344803784
21
183.6449047184
31
0.0000000000
11
71.8826478382
21
182.1115366610
31
0.0000000000
11
72.0260337332
21
180.6075307675
31
0.0000000000
11
72.2653798896
21
179.1395304082
31
0.0000000000
11
72.6037205841
21
177.7171586444
31
0.0000000000
11
73.0505223441
21
176.3385753689
31
0.0000000000
11
73.6212830576
21
175.0046493870
31
0.0000000000
11
74.3324766161
21
173.7293477982
31
0.0000000000
11
75.2030363803
21
172.5296789706
31
0.0000000000
11
76.2239346640
21
171.4522186075
31
0.0000000000
11
77.3293663690
21
170.5577862159
31
0.0000000000
11
78.4232280897
21
169.8710684993
31
0.0000000000
11
79.4482560881
21
169.3615946898
31
0.0000000000
11
80.4041216694
21
168.9780671117
31
0.0000000000
11
81.3107472659
21
168.6806195843
31
0.0000000000
11
82.1959280736
21
168.4420294082
31
0.0000000000
11
83.0930076375
21
168.2442872893
31
0.0000000000
11
84.0180454178
21
168.0797869551
31
0.0000000000
11
84.9672154382
21
167.9463245437
31
0.0000000000
11
85.9310095778
21
167.8418912689
31
0.0000000000
0
SPLINE
5
490
100
AcDbEntity
8
0
100
AcDbSpline
62
7
6
CONTINUOUS
70
0
71
3
72
15
73
11
74
9
42
0.0000001000
43
0.0000001000
44
0.0000000001
12
0.0000000000
22
-4.4646603849
32
0.0000000000
13
2.8372773371
23
-3.4471799583
33
0.0000000000
40
0.0000000000
40
0.0000000000
40
0.0000000000
40
0.0000000000
40
0.1466969288
40
0.2895667599
40
0.4255889854
40
0.5516996495
40
0.6690868490
40
0.7811994970
40
0.8906567362
40
1.0000000000
40
1.0000000000
40
1.0000000000
40
1.0000000000
10
145.2380707293
20
206.3093432532
30
0.0000000000
10
145.2380707293
20
206.0910259310
30
0.0000000000
10
145.2590170399
20
205.6597896653
30
0.0000000000
10
145.3504166839
20
205.0321328232
30
0.0000000000
10
145.4925407519
20
204.4455197058
30
0.0000000000
10
145.6737224547
20
203.9098325750
30
0.0000000000
10
145.8846330930
20
203.4238212002
30
0.0000000000
10
146.1219696971
20
202.9781001470
30
0.0000000000
10
146.3871356845
20
202.5625428918
30
0.0000000000
10
146.5838353269
20
202.3025153248
30
0.0000000000
10
146.6872477150
20
202.1768733556
30
0.0000000000
11
145.2380707293
21
206.3093432532
31
0.0000000000
11
145.2698785030
21
205.6551641156
31
0.0000000000
11
145.3618527382
21
205.0239645835
31
0.0000000000
11
145.5049459185
21
204.4337703952
31
0.0000000000
11
145.6854437224
21
203.9004449478
31
0.0000000000
11
145.8941920838
21
203.4197177689
31
0.0000000000
11
146.1295653168
21
202.9779659872
31
0.0000000000
11
146.3925754096
21
202.5660885538
31
0.0000000000
11
146.6872477150
21
202.1768733556
31
0.0000000000
0
SPLINE
5
491
100
AcDbEntity
8
0
100
AcDbSpline
62
7
6
CONTINUOUS
70
0
71
3
72
11
73
7
74
5
42
0.0000001000
43
0.0000001000
44
0.0000000001
12
-1.8072208895
22
2.1537619877
32
0.0000000000
13
-0.6442583765
23
-2.7367259979
33
0.0000000000
40
0.0000000000
40
0.0000000000
40
0.0000000000
40
0.0000000000
40
0.1443516439
40
0.3009179365
40
0.5806388854
40
1.0000000000
40
1.0000000000
40
1.0000000000
40
1.0000000000
10
147.8448955385
20
237.7016480986
30
0.0000000000
10
147.7579371031
20
237.8052811265
30
0.0000000000
10
147.4624608373
20
238.0064979556
30
0.0000000000
10
147.0125374900
20
237.5395327030
30
0.0000000000
10
146.7362347995
20
236.8220407872
30
0.0000000000
10
146.5511354683
20
236.1798657698
30
0.0000000000
10
146.4610764981
20
235.7973069482
30
0.0000000000
11
147.8448955385
21
237.7016480986
31
0.0000000000
11
147.4887913212
21
237.8963374716
31
0.0000000000
11
147.1333607182
21
237.6366492709
31
0.0000000000
11
146.7878342581
21
236.9301733115
31
0.0000000000
11
146.4610764981
21
235.7973069482
31
0.0000000000
0
SPLINE
5
492
100
AcDbEntity
8
0
100
AcDbSpline
62
7
6
CONTINUOUS
70
0
71
3
72
12
73
8
74
6
42
0.0000001000
43
0.0000001000
44
0.0000000001
12
0.0000000000
22
-6.0467058032
32
0.0000000000
13
-3.8426621199
23
4.6686827802
33
0.0000000000
40
0.0000000000
40
0.0000000000
40
0.0000000000
40
0.0000000000
40
0.1086122769
40
0.1881973936
40
0.3422993239
40
0.6048783278
40
1.0000000000
40
1.0000000000
40
1.0000000000
40
1.0000000000
10
150.8448955385
20
199.5054956759
30
0.0000000000
10
150.8448955385
20
199.2865801810
30
0.0000000000
10
150.8317991367
20
198.7864374936
30
0.0000000000
10
150.0005395090
20
198.7504772998
30
0.0000000000
10
149.2423131522
20
199.4364852988
30
0.0000000000
10
148.0446414369
20
200.5352602228
30
0.0000000000
10
147.1933540758
20
201.5619741066
30
0.0000000000
10
146.6872477150
20
202.1768733556
30
0.0000000000
11
150.8448955385
21
199.5054956759
31
0.0000000000
11
150.6819200374
21
198.8692921461
31
0.0000000000
11
150.2059099839
21
198.7986195763
31
0.0000000000
11
149.4110455031
21
199.2848896016
31
0.0000000000
11
148.2591577402
21
200.3776230989
31
0.0000000000
11
146.6872477150
21
202.1768733556
31
0.0000000000
0
SPLINE
5
493
100
AcDbEntity
8
0
100
AcDbSpline
62
7
6
CONTINUOUS
70
0
71
3
72
15
73
11
74
9
42
0.0000001000
43
0.0000001000
44
0.0000000001
12
0.0000000000
22
9.0788919185
32
0.0000000000
13
-4.6195559326
23
7.8157521361
33
0.0000000000
40
0.0000000000
40
0.0000000000
40
0.0000000000
40
0.0000000000
40
0.1251229938
40
0.2505963480
40
0.3759258079
40
0.5008729260
40
0.6251844985
40
0.7494545677
40
0.8741666844
40
1.0000000000
40
1.0000000000
40
1.0000000000
40
1.0000000000
10
82.6258551127
20
219.7016480986
30
0.0000000000
10
82.6258551127
20
220.0803074776
30
0.0000000000
10
82.5893021193
20
220.8391744900
30
0.0000000000
10
82.4279310040
20
221.9668508240
30
0.0000000000
10
82.1689907452
20
223.0754638220
30
0.0000000000
10
81.8259145119
20
224.1569493831
30
0.0000000000
10
81.4124939986
20
225.2098118111
30
0.0000000000
10
80.9405269584
20
226.2367515859
30
0.0000000000
10
80.4183932644
20
227.2441204463
30
0.0000000000
10
80.0431248600
20
227.9031818182
30
0.0000000000
10
79.8493601802
20
228.2310091532
30
0.0000000000
11
82.6258551127
21
219.7016480986
31
0.0000000000
11
82.5716481363
21
220.8363321653
31
0.0000000000
11
82.4115567510
21
221.9641858903
31
0.0000000000
11
82.1544965406
21
223.0726211092
31
0.0000000000
11
81.8133744935
21
224.1544976576
31
0.0000000000
11
81.4026547507
21
225.2057221002
31
0.0000000000
11
80.9331026244
21
226.2316041349
31
0.0000000000
11
80.4134517100
21
227.2375604326
31
0.0000000000
11
79.8493601802
21
228.2310091532
31
0.0000000000
0
SPLINE
5
494
100
AcDbEntity
8
0
100
AcDbSpline
62
7
6
CONTINUOUS
70
0
71
3
72
10
73
6
74
4
42
0.0000001000
43
0.0000001000
44
0.0000000001
12
-6.5133075923
22
14.1024916727
32
0.0000000000
13
-0.0000000000
23
15.5339449970
33
0.0000000000
40
0.0000000000
40
0.0000000000
40
0.0000000000
40
0.0000000000
40
0.3223146265
40
0.6573407770
40
1.0000000000
40
1.0000000000
40
1.0000000000
40
1.0000000000
10
85.8556013465
20
195.4094123486
30
0.0000000000
10
85.1558232451
20
196.9245587941
30
0.0000000000
10
83.9637648888
20
200.1284463584
30
0.0000000000
10
82.8728731135
20
205.2064134270
30
0.0000000000
10
82.6258551127
20
208.7208241065
30
0.0000000000
10
82.6258551127
20
210.4951072807
30
0.0000000000
11
85.8556013465
21
195.4094123486
31
0.0000000000
11
84.1010113111
21
200.0987232882
31
0.0000000000
11
83.0015091410
21
205.1855299818
31
0.0000000000
11
82.6258551127
21
210.4951072807
31
0.0000000000
0
SPLINE
5
495
100
AcDbEntity
8
0
100
AcDbSpline
62
7
6
CONTINUOUS
70
0
71
3
72
15
73
11
74
9
42
0.0000001000
43
0.0000001000
44
0.0000000001
12
0.0000000000
22
12.1472925177
32
0.0000000000
13
-7.4796348108
23
9.5714042129
33
0.0000000000
40
0.0000000000
40
0.0000000000
40
0.0000000000
40
0.0000000000
40
0.1855951219
40
0.3441849569
40
0.4800885502
40
0.5996472321
40
0.7074421201
40
0.8081644568
40
0.9055950460
40
1.0000000000
40
1.0000000000
40
1.0000000000
40
1.0000000000
10
121.3025627485
20
219.7016480986
30
0.0000000000
10
121.3025627485
20
220.4531408440
30
0.0000000000
10
121.2778971207
20
221.8469482316
30
0.0000000000
10
121.1695176284
20
223.7883564053
30
0.0000000000
10
121.0013627875
20
225.4571145429
30
0.0000000000
10
120.7731934963
20
226.9111113485
30
0.0000000000
10
120.4759034339
20
228.2071897353
30
0.0000000000
10
120.0915201455
20
229.3871124314
30
0.0000000000
10
119.5957186051
20
230.4664084224
30
0.0000000000
10
119.1696308812
20
231.1205909710
30
0.0000000000
10
118.9342593545
20
231.4217869624
30
0.0000000000
11
121.3025627485
21
219.7016480986
31
0.0000000000
11
121.2605411971
21
221.9557346777
31
0.0000000000
11
121.1489919362
21
223.8789394825
31
0.0000000000
11
120.9786742696
21
225.5209909291
31
0.0000000000
11
120.7483232385
21
226.9549209040
31
0.0000000000
11
120.4499791096
21
228.2298958606
31
0.0000000000
11
120.0649422664
21
229.3912347004
31
0.0000000000
11
119.5645430001
21
230.4637621436
31
0.0000000000
11
118.9342593545
21
231.4217869624
31
0.0000000000
0
SPLINE
5
496
100
AcDbEntity
8
0
100
AcDbSpline
62
7
6
CONTINUOUS
70
0
71
3
72
9
73
5
74
3
42
0.0000001000
43
0.0000001000
44
0.0000000001
12
-0.0027069757
22
0.8348269013
32
0.0000000000
13
0.0000000000
23
0.8348312900
33
0.0000000000
40
0.0000000000
40
0.0000000000
40
0.0000000000
40
0.0000000000
40
0.5003382591
40
1.0000000000
40
1.0000000000
40
1.0000000000
40
1.0000000000
10
121.3039171592
20
209.6602773638
30
0.0000000000
10
121.3034656913
20
209.7995093099
30
0.0000000000
10
121.3027885229
20
210.0777857197
30
0.0000000000
10
121.3025627485
20
210.3560628621
30
0.0000000000
10
121.3025627485
20
210.4951072807
30
0.0000000000
11
121.3039171592
21
209.6602773638
31
0.0000000000
11
121.3029010660
21
210.0779741622
31
0.0000000000
11
121.3025627485
21
210.4951072807
31
0.0000000000
0
SPLINE
5
497
100
AcDbEntity
8
0
100
AcDbSpline
62
7
6
CONTINUOUS
70
0
71
3
72
12
73
8
74
6
42
0.0000001000
43
0.0000001000
44
0.0000000001
12
-21.9418993147
22
0.0000000000
32
0.0000000000
13
-21.8459772030
23
2.0494451898
33
0.0000000000
40
0.0000000000
40
0.0000000000
40
0.0000000000
40
0.0000000000
40
0.2090434083
40
0.4157073630
40
0.6178907411
40
0.8133872983
40
1.0000000000
40
1.0000000000
40
1.0000000000
40
1.0000000000
10
107.8448955385
20
166.8911171647
30
0.0000000000
10
106.3159590659
20
166.8911171647
30
0.0000000000
10
103.2754250582
20
166.9167313864
30
0.0000000000
10
98.7574448383
20
167.0317692350
30
0.0000000000
10
94.3411441065
20
167.2220870621
30
0.0000000000
10
90.0755362976
20
167.4856641591
30
0.0000000000
10
87.2899218534
20
167.7144071010
30
0.0000000000
10
85.9310095778
20
167.8418912689
30
0.0000000000
11
107.8448955385
21
166.8911171647
31
0.0000000000
11
103.2582506931
21
166.9299719853
31
0.0000000000
11
98.7251370021
21
167.0460519733
31
0.0000000000
11
94.2930125090
21
167.2381918377
31
0.0000000000
11
90.0117167853
21
167.5044275566
31
0.0000000000
11
85.9310095778
21
167.8418912689
31
0.0000000000
0
SPLINE
5
498
100
AcDbEntity
8
0
100
AcDbSpline
62
7
6
CONTINUOUS
70
0
71
3
72
9
73
5
74
3
42
0.0000001000
43
0.0000001000
44
0.0000000001
12
0.6101360555
22
2.5759552821
32
0.0000000000
13
0.7654243116
23
2.5341541478
33
0.0000000000
40
0.0000000000
40
0.0000000000
40
0.0000000000
40
0.0000000000
40
0.4991870249
40
1.0000000000
40
1.0000000000
40
1.0000000000
40
1.0000000000
10
143.8553106986
20
228.2310091532
30
0.0000000000
10
143.9568346993
20
228.6596369711
30
0.0000000000
10
144.1739318256
20
229.5150913548
30
0.0000000000
10
144.4169224027
20
230.3635329890
30
0.0000000000
10
144.5447005449
20
230.7865787484
30
0.0000000000
11
143.8553106986
21
228.2310091532
31
0.0000000000
11
144.1800311656
21
229.5119529378
31
0.0000000000
11
144.5447005449
21
230.7865787484
31
0.0000000000
0
SPLINE
5
499
100
AcDbEntity
8
0
100
AcDbSpline
62
7
6
CONTINUOUS
70
0
71
3
72
12
73
8
74
6
42
0.0000001000
43
0.0000001000
44
0.0000000001
12
-21.8459779365
22
-2.0494453525
32
0.0000000000
13
-21.9419000603
23
0.0000000000
33
0.0000000000
40
0.0000000000
40
0.0000000000
40
0.0000000000
40
0.0000000000
40
0.1866127983
40
0.3821094408
40
0.5842928382
40
0.7909567349
40
1.0000000000
40
1.0000000000
40
1.0000000000
40
1.0000000000
10
129.7587822415
20
167.8418913385
30
0.0000000000
10
128.3998692169
20
167.7144070944
30
0.0000000000
10
125.6142533509
20
167.4856640428
30
0.0000000000
10
121.3486439254
20
167.2220868957
30
0.0000000000
10
116.9323427001
20
167.0317691163
30
0.0000000000
10
112.4143636556
20
166.9167313583
30
0.0000000000
10
109.3738310157
20
166.8911171647
30
0.0000000000
10
107.8448955385
20
166.8911171647
30
0.0000000000
11
129.7587822415
21
167.8418913385
31
0.0000000000
11
125.6780727822
21
167.5044274476
31
0.0000000000
11
121.3967750416
21
167.2381916522
31
0.0000000000
11
116.9646499739
21
167.0460518323
31
0.0000000000
11
112.4315373981
21
166.9299719345
31
0.0000000000
11
107.8448955385
21
166.8911171647
31
0.0000000000
0
SPLINE
5
49A
100
AcDbEntity
8
0
100
AcDbSpline
62
7
6
CONTINUOUS
70
0
71
3
72
9
73
5
74
3
42
0.0000001000
43
0.0000001000
44
0.0000000001
12
-8.3440781901
22
0.1622769288
32
0.0000000000
13
-8.3456560242
23
-0.0004133934
33
0.0000000000
40
0.0000000000
40
0.0000000000
40
0.0000000000
40
0.0000000000
40
0.4988157682
40
1.0000000000
40
1.0000000000
40
1.0000000000
40
1.0000000000
10
116.1900639956
20
123.2016480986
30
0.0000000000
10
114.8026780714
20
123.2286301956
30
0.0000000000
10
112.0210360673
20
123.2690735743
30
0.0000000000
10
109.2391326062
20
123.2821829729
30
0.0000000000
10
107.8448955385
20
123.2821139108
30
0.0000000000
11
116.1900639956
21
123.2016480986
31
0.0000000000
11
112.0275592301
21
123.2621766220
31
0.0000000000
11
107.8448955385
21
123.2821139108
31
0.0000000000
0
SPLINE
5
49B
100
AcDbEntity
8
0
100
AcDbSpline
62
7
6
CONTINUOUS
70
0
71
3
72
15
73
11
74
9
42
0.0000001000
43
0.0000001000
44
0.0000000001
12
8.1754694544
22
-8.9932349863
32
0.0000000000
13
2.2849706489
23
-11.9371472912
33
0.0000000000
40
0.0000000000
40
0.0000000000
40
0.0000000000
40
0.0000000000
40
0.1308774604
40
0.2595472878
40
0.3861174952
40
0.5106888809
40
0.6334811221
40
0.7553234601
40
0.8771747096
40
1.0000000000
40
1.0000000000
40
1.0000000000
40
1.0000000000
10
124.4605990629
20
206.1438795217
30
0.0000000000
10
124.8172606228
20
205.7515422698
30
0.0000000000
10
125.4970721691
20
204.9479628032
30
0.0000000000
10
126.4210439972
20
203.6842154065
30
0.0000000000
10
127.2410769696
20
202.3807334747
30
0.0000000000
10
127.9582817861
20
201.0450148085
30
0.0000000000
10
128.5753337408
20
199.6812219984
30
0.0000000000
10
129.0954870879
20
198.2893737912
30
0.0000000000
10
129.5211682212
20
196.8657177242
30
0.0000000000
10
129.7406390027
20
195.8981402096
30
0.0000000000
10
129.8341897305
20
195.4094123486
30
0.0000000000
11
124.4605990629
21
206.1438795217
31
0.0000000000
11
125.4879237028
21
204.9294545663
31
0.0000000000
11
126.4108948081
21
203.6670327581
31
0.0000000000
11
127.2300160081
21
202.3649334602
31
0.0000000000
11
127.9462174968
21
201.0310197776
31
0.0000000000
11
128.5613897416
21
199.6713051129
31
0.0000000000
11
129.0797644584
21
198.2841417271
31
0.0000000000
11
129.5039903245
21
196.8652379905
31
0.0000000000
11
129.8341897305
21
195.4094123486
31
0.0000000000
0
SPLINE
5
49C
100
AcDbEntity
8
0
100
AcDbSpline
62
7
6
CONTINUOUS
70
0
71
3
72
15
73
11
74
9
42
0.0000001000
43
0.0000001000
44
0.0000000001
12
-8.1754694544
22
-8.9932349863
32
0.0000000000
13
-2.2849706489
23
-11.9371472912
33
0.0000000000
40
0.0000000000
40
0.0000000000
40
0.0000000000
40
0.0000000000
40
0.1308774604
40
0.2595472878
40
0.3861174952
40
0.5106888809
40
0.6334811221
40
0.7553234601
40
0.8771747096
40
1.0000000000
40
1.0000000000
40
1.0000000000
40
1.0000000000
10
91.2291920141
20
206.1438795217
30
0.0000000000
10
90.8725304542
20
205.7515422698
30
0.0000000000
10
90.1927189079
20
204.9479628032
30
0.0000000000
10
89.2687470798
20
203.6842154065
30
0.0000000000
10
88.4487141074
20
202.3807334747
30
0.0000000000
10
87.7315092909
20
201.0450148085
30
0.0000000000
10
87.1144573361
20
199.6812219984
30
0.0000000000
10
86.5943039891
20
198.2893737912
30
0.0000000000
10
86.1686228557
20
196.8657177242
30
0.0000000000
10
85.9491520743
20
195.8981402096
30
0.0000000000
10
85.8556013465
20
195.4094123486
30
0.0000000000
11
91.2291920141
21
206.1438795217
31
0.0000000000
11
90.2018673741
21
204.9294545663
31
0.0000000000
11
89.2788962689
21
203.6670327581
31
0.0000000000
11
88.4597750689
21
202.3649334602
31
0.0000000000
11
87.7435735801
21
201.0310197776
31
0.0000000000
11
87.1284013354
21
199.6713051129
31
0.0000000000
11
86.6100266186
21
198.2841417271
31
0.0000000000
11
86.1858007525
21
196.8652379905
31
0.0000000000
11
85.8556013465
21
195.4094123486
31
0.0000000000
0
SPLINE
5
49D
100
AcDbEntity
8
0
100
AcDbSpline
62
7
6
CONTINUOUS
70
0
71
3
72
10
73
6
74
4
42
0.0000001000
43
0.0000001000
44
0.0000000001
12
-3.1350336507
22
-3.5357478262
32
0.0000000000
13
-3.1786443127
23
-3.4965939162
33
0.0000000000
40
0.0000000000
40
0.0000000000
40
0.0000000000
40
0.0000000000
40
0.3356712566
40
0.6690643446
40
1.0000000000
40
1.0000000000
40
1.0000000000
40
1.0000000000
10
94.3858739178
20
209.6602773638
30
0.0000000000
10
94.0350936895
20
209.2646610585
30
0.0000000000
10
93.3343141836
20
208.4775301035
30
0.0000000000
10
92.2820881507
20
207.3053788852
30
0.0000000000
10
91.5798342604
20
206.5295953882
30
0.0000000000
10
91.2291920141
20
206.1438795217
30
0.0000000000
11
94.3858739178
21
209.6602773638
31
0.0000000000
11
93.3311156668
21
208.4755764317
31
0.0000000000
11
92.2786889183
21
207.3032313576
31
0.0000000000
11
91.2291920141
21
206.1438795217
31
0.0000000000
0
SPLINE
5
49E
100
AcDbEntity
8
0
100
AcDbSpline
62
7
6
CONTINUOUS
70
0
71
3
72
10
73
6
74
4
42
0.0000001000
43
0.0000001000
44
0.0000000001
12
-2.1926877842
22
-1.9120278965
32
0.0000000000
13
-2.7616336814
23
-0.9149370501
33
0.0000000000
40
0.0000000000
40
0.0000000000
40
0.0000000000
40
0.0000000000
40
0.4560056330
40
0.7842532317
40
1.0000000000
40
1.0000000000
40
1.0000000000
40
1.0000000000
10
96.7555317225
20
211.3283675652
30
0.0000000000
10
96.4222390622
20
211.0377357347
30
0.0000000000
10
95.8382889549
20
210.5485944651
30
0.0000000000
10
95.0513251949
20
209.9835086871
30
0.0000000000
10
94.5844784319
20
209.7260756010
30
0.0000000000
10
94.3858739178
20
209.6602773638
30
0.0000000000
11
96.7555317225
21
211.3283675652
31
0.0000000000
11
95.7319269170
21
210.4844535135
31
0.0000000000
11
94.9486850316
21
209.9381300215
31
0.0000000000
11
94.3858739178
21
209.6602773638
31
0.0000000000
0
SPLINE
5
49F
100
AcDbEntity
8
0
100
AcDbSpline
62
7
6
CONTINUOUS
70
0
71
3
72
9
73
5
74
3
42
0.0000001000
43
0.0000001000
44
0.0000000001
12
-0.6858212966
22
-0.2112808420
32
0.0000000000
13
-0.7006298174
23
-0.1552684900
33
0.0000000000
40
0.0000000000
40
0.0000000000
40
0.0000000000
40
0.0000000000
40
0.5104162119
40
1.0000000000
40
1.0000000000
40
1.0000000000
40
1.0000000000
10
71.1450905321
20
230.7865787484
30
0.0000000000
10
71.0284057626
20
230.7506316927
30
0.0000000000
10
70.7984803664
20
230.6843964595
30
0.0000000000
10
70.5660593477
20
230.6274760927
30
0.0000000000
10
70.4517203477
20
230.6021371142
30
0.0000000000
11
71.1450905321
21
230.7865787484
31
0.0000000000
11
70.7930402918
21
230.6854433719
31
0.0000000000
11
70.4517203477
21
230.6021371142
31
0.0000000000
0
SPLINE
5
4A0
100
AcDbEntity
8
0
100
AcDbSpline
62
7
6
CONTINUOUS
70
0
71
3
72
12
73
8
74
6
42
0.0000001000
43
0.0000001000
44
0.0000000001
12
0.0000000000
22
-9.8022075416
32
0.0000000000
13
-4.0170145263
23
-8.9413011908
33
0.0000000000
40
0.0000000000
40
0.0000000000
40
0.0000000000
40
0.0000000000
40
0.1519801978
40
0.3259983755
40
0.5241044818
40
0.7482825687
40
1.0000000000
40
1.0000000000
40
1.0000000000
40
1.0000000000
10
73.7185929567
20
240.1804492059
30
0.0000000000
10
73.7185929567
20
239.6838687254
30
0.0000000000
10
73.6390325773
20
238.6183657903
30
0.0000000000
10
73.3290759724
20
236.9319351268
30
0.0000000000
10
72.8142223224
20
235.0507255397
30
0.0000000000
10
72.0843960016
20
232.9714147566
30
0.0000000000
10
71.4821413914
20
231.5368058711
30
0.0000000000
10
71.1450905321
20
230.7865787484
30
0.0000000000
11
73.7185929567
21
240.1804492059
31
0.0000000000
11
73.6198001094
21
238.6939871191
31
0.0000000000
11
73.3211864532
21
237.0145661219
31
0.0000000000
11
72.8163412270
21
235.1394612612
31
0.0000000000
11
72.0949234744
21
233.0638168867
31
0.0000000000
11
71.1450905321
21
230.7865787484
31
0.0000000000
0
SPLINE
5
4A1
100
AcDbEntity
8
0
100
AcDbSpline
62
7
6
CONTINUOUS
70
0
71
3
72
15
73
11
74
9
42
0.0000001000
43
0.0000001000
44
0.0000000001
12
2.8372812958
22
3.4471847681
32
0.0000000000
13
0.0000000000
23
4.4646666143
33
0.0000000000
40
0.0000000000
40
0.0000000000
40
0.0000000000
40
0.0000000000
40
0.1103298674
40
0.2209875748
40
0.3342367730
40
0.4523308933
40
0.5783174672
40
0.7132796068
40
0.8545954171
40
1.0000000000
40
1.0000000000
40
1.0000000000
40
1.0000000000
10
69.0025433619
20
202.1768733556
30
0.0000000000
10
69.1068889850
20
202.3036491683
30
0.0000000000
10
69.3054624077
20
202.5663556592
30
0.0000000000
10
69.5728165104
20
202.9864029002
30
0.0000000000
10
69.8114166071
20
203.4366003157
30
0.0000000000
10
70.0221094580
20
203.9255046436
30
0.0000000000
10
70.2016200960
20
204.4610029201
30
0.0000000000
10
70.3414606666
20
205.0439555063
30
0.0000000000
10
70.4311629595
20
205.6659557514
30
0.0000000000
10
70.4517203477
20
206.0929489242
30
0.0000000000
10
70.4517203477
20
206.3093432532
30
0.0000000000
11
69.0025433619
21
202.1768733556
31
0.0000000000
11
69.2997323047
21
202.5697089114
31
0.0000000000
11
69.5651524969
21
202.9864070023
31
0.0000000000
11
69.8020475781
21
203.4330972954
31
0.0000000000
11
70.0108254498
21
203.9172514928
31
0.0000000000
11
70.1897078945
21
204.4505374177
31
0.0000000000
11
70.3303575011
21
205.0364532798
31
0.0000000000
11
70.4204706523
21
205.6609128351
31
0.0000000000
11
70.4517203477
21
206.3093432532
31
0.0000000000
0
SPLINE
5
4A2
100
AcDbEntity
8
0
100
AcDbSpline
62
7
6
CONTINUOUS
70
0
71
3
72
12
73
8
74
6
42
0.0000001000
43
0.0000001000
44
0.0000000001
12
-3.8426677104
22
-4.6686895725
32
0.0000000000
13
0.0000000000
23
6.0467146002
33
0.0000000000
40
0.0000000000
40
0.0000000000
40
0.0000000000
40
0.0000000000
40
0.3951138472
40
0.6577430303
40
0.8118384560
40
0.8914023978
40
1.0000000000
40
1.0000000000
40
1.0000000000
40
1.0000000000
10
69.0025433619
20
202.1768733556
30
0.0000000000
10
68.4964462877
20
201.5619853894
30
0.0000000000
10
67.6450901346
20
200.5351840604
30
0.0000000000
10
66.4473925389
20
199.4364262832
30
0.0000000000
10
65.6890377298
20
198.7503178584
30
0.0000000000
10
64.8579360349
20
198.7866115019
30
0.0000000000
10
64.8448955385
20
199.2866094404
30
0.0000000000
10
64.8448955385
20
199.5054956759
30
0.0000000000
11
69.0025433619
21
202.1768733556
31
0.0000000000
11
67.4306635000
21
200.3776549600
31
0.0000000000
11
66.2785408791
21
199.2847248118
31
0.0000000000
11
65.4836632155
21
198.7985491142
31
0.0000000000
11
65.0078032614
21
198.8693653978
31
0.0000000000
11
64.8448955385
21
199.5054956759
31
0.0000000000
0
SPLINE
5
4A3
100
AcDbEntity
8
0
100
AcDbSpline
62
7
6
CONTINUOUS
70
0
71
3
72
15
73
11
74
9
42
0.0000001000
43
0.0000001000
44
0.0000000001
12
0.0000000000
22
12.1472925177
32
0.0000000000
13
7.4796348108
23
9.5714042129
33
0.0000000000
40
0.0000000000
40
0.0000000000
40
0.0000000000
40
0.0000000000
40
0.1855951219
40
0.3441849569
40
0.4800885502
40
0.5996472321
40
0.7074421201
40
0.8081644568
40
0.9055950460
40
1.0000000000
40
1.0000000000
40
1.0000000000
40
1.0000000000
10
94.3872283285
20
219.7016480986
30
0.0000000000
10
94.3872283285
20
220.4531408440
30
0.0000000000
10
94.4118939563
20
221.8469482316
30
0.0000000000
10
94.5202734486
20
223.7883564053
30
0.0000000000
10
94.6884282895
20
225.4571145429
30
0.0000000000
10
94.9165975807
20
226.9111113485
30
0.0000000000
10
95.2138876431
20
228.2071897353
30
0.0000000000
10
95.5982709315
20
229.3871124314
30
0.0000000000
10
96.0940724719
20
230.4664084224
30
0.0000000000
10
96.5201601958
20
231.1205909710
30
0.0000000000
10
96.7555317225
20
231.4217869624
30
0.0000000000
11
94.3872283285
21
219.7016480986
31
0.0000000000
11
94.4292498799
21
221.9557346777
31
0.0000000000
11
94.5407991408
21
223.8789394825
31
0.0000000000
11
94.7111168074
21
225.5209909291
31
0.0000000000
11
94.9414678385
21
226.9549209040
31
0.0000000000
11
95.2398119674
21
228.2298958606
31
0.0000000000
11
95.6248488106
21
229.3912347004
31
0.0000000000
11
96.1252480769
21
230.4637621436
31
0.0000000000
11
96.7555317225
21
231.4217869624
31
0.0000000000
0
SPLINE
5
4A4
100
AcDbEntity
8
0
100
AcDbSpline
62
7
6
CONTINUOUS
70
0
71
3
72
9
73
5
74
3
42
0.0000001000
43
0.0000001000
44
0.0000000001
12
0.0027069757
22
0.8348269013
32
0.0000000000
13
0.0000000000
23
0.8348312900
33
0.0000000000
40
0.0000000000
40
0.0000000000
40
0.0000000000
40
0.0000000000
40
0.5003382591
40
1.0000000000
40
1.0000000000
40
1.0000000000
40
1.0000000000
10
94.3858739178
20
209.6602773638
30
0.0000000000
10
94.3863253857
20
209.7995093099
30
0.0000000000
10
94.3870025541
20
210.0777857197
30
0.0000000000
10
94.3872283285
20
210.3560628621
30
0.0000000000
10
94.3872283285
20
210.4951072807
30
0.0000000000
11
94.3858739178
21
209.6602773638
31
0.0000000000
11
94.3868900110
21
210.0779741622
31
0.0000000000
11
94.3872283285
21
210.4951072807
31
0.0000000000
0
SPLINE
5
4A5
100
AcDbEntity
8
0
100
AcDbSpline
62
7
6
CONTINUOUS
70
0
71
3
72
9
73
5
74
3
42
0.0000001000
43
0.0000001000
44
0.0000000001
12
0.7654243117
22
-2.5341541480
32
0.0000000000
13
0.6101360555
23
-2.5759552823
33
0.0000000000
40
0.0000000000
40
0.0000000000
40
0.0000000000
40
0.0000000000
40
0.5008230444
40
1.0000000000
40
1.0000000000
40
1.0000000000
40
1.0000000000
10
71.1450905321
20
230.7865787484
30
0.0000000000
10
71.2728712434
20
230.3635244833
30
0.0000000000
10
71.5158615770
20
229.5150827708
30
0.0000000000
10
71.7329584255
20
228.6596283251
30
0.0000000000
10
71.8344803784
20
228.2310091532
30
0.0000000000
11
71.1450905321
21
230.7865787484
31
0.0000000000
11
71.5097668604
21
229.5119272005
31
0.0000000000
11
71.8344803784
21
228.2310091532
31
0.0000000000
0
SPLINE
5
4A6
100
AcDbEntity
8
0
100
AcDbSpline
62
7
6
CONTINUOUS
70
0
71
3
72
15
73
11
74
9
42
0.0000001000
43
0.0000001000
44
0.0000000001
12
0.0000000000
22
-15.7058494966
32
0.0000000000
13
0.0000000000
23
15.7058494966
33
0.0000000000
40
0.0000000000
40
0.0000000000
40
0.0000000000
40
0.0000000000
40
0.1250000000
40
0.2500000000
40
0.3750000000
40
0.5000000000
40
0.6250000000
40
0.7500000000
40
0.8750000000
40
1.0000000000
40
1.0000000000
40
1.0000000000
40
1.0000000000
10
292.8771299929
20
216.8866637879
30
0.0000000000
10
292.8771299929
20
216.2322533922
30
0.0000000000
10
293.0073003140
20
214.9234326008
30
0.0000000000
10
293.5633408816
20
213.2590855653
30
0.0000000000
10
294.3955143994
20
212.1470044300
30
0.0000000000
10
295.3771299929
20
211.7564934669
30
0.0000000000
10
296.3587455864
20
212.1470044300
30
0.0000000000
10
297.1909191042
20
213.2590855653
30
0.0000000000
10
297.7469596719
20
214.9234326008
30
0.0000000000
10
297.8771299929
20
216.2322533922
30
0.0000000000
10
297.8771299929
20
216.8866637879
30
0.0000000000
11
292.8771299929
21
216.8866637879
31
0.0000000000
11
293.0674311616
21
214.9732466261
31
0.0000000000
11
293.6093630399
21
213.3511298820
31
0.0000000000
11
294.4204214120
21
212.2672661254
31
0.0000000000
11
295.3771299929
21
211.8866637879
31
0.0000000000
11
296.3338385738
21
212.2672661254
31
0.0000000000
11
297.1448969459
21
213.3511298820
31
0.0000000000
11
297.6868288242
21
214.9732466261
31
0.0000000000
11
297.8771299929
21
216.8866637879
31
0.0000000000
0
SPLINE
5
4A7
100
AcDbEntity
8
0
100
AcDbSpline
62
7
6
CONTINUOUS
70
0
71
3
72
15
73
11
74
9
42
0.0000001000
43
0.0000001000
44
0.0000000001
12
0.0000000000
22
15.7058494966
32
0.0000000000
13
0.0000000000
23
-15.7058494966
33
0.0000000000
40
0.0000000000
40
0.0000000000
40
0.0000000000
40
0.0000000000
40
0.1250000000
40
0.2500000000
40
0.3750000000
40
0.5000000000
40
0.6250000000
40
0.7500000000
40
0.8750000000
40
1.0000000000
40
1.0000000000
40
1.0000000000
40
1.0000000000
10
297.8771299929
20
216.8866637879
30
0.0000000000
10
297.8771299929
20
217.5410741836
30
0.0000000000
10
297.7469596719
20
218.8498949750
30
0.0000000000
10
297.1909191042
20
220.5142420106
30
0.0000000000
10
296.3587455864
20
221.6263231458
30
0.0000000000
10
295.3771299929
20
222.0168341090
30
0.0000000000
10
294.3955143994
20
221.6263231458
30
0.0000000000
10
293.5633408816
20
220.5142420106
30
0.0000000000
10
293.0073003140
20
218.8498949750
30
0.0000000000
10
292.8771299929
20
217.5410741836
30
0.0000000000
10
292.8771299929
20
216.8866637879
30
0.0000000000
11
297.8771299929
21
216.8866637879
31
0.0000000000
11
297.6868288242
21
218.8000809497
31
0.0000000000
11
297.1448969459
21
220.4221976938
31
0.0000000000
11
296.3338385738
21
221.5060614505
31
0.0000000000
11
295.3771299929
21
221.8866637879
31
0.0000000000
11
294.4204214120
21
221.5060614505
31
0.0000000000
11
293.6093630399
21
220.4221976938
31
0.0000000000
11
293.0674311616
21
218.8000809497
31
0.0000000000
11
292.8771299929
21
216.8866637879
31
0.0000000000
0
SPLINE
5
4A8
100
AcDbEntity
8
0
100
AcDbSpline
62
7
6
CONTINUOUS
70
0
71
3
72
15
73
11
74
9
42
0.0000001000
43
0.0000001000
44
0.0000000001
12
0.0000000000
22
14.7634985268
32
0.0000000000
13
0.0000000000
23
-14.7634985268
33
0.0000000000
40
0.0000000000
40
0.0000000000
40
0.0000000000
40
0.0000000000
40
0.1250000000
40
0.2500000000
40
0.3750000000
40
0.5000000000
40
0.6250000000
40
0.7500000000
40
0.8750000000
40
1.0000000000
40
1.0000000000
40
1.0000000000
40
1.0000000000
10
297.5771299929
20
216.8866637879
30
0.0000000000
10
297.5771299929
20
217.5018095599
30
0.0000000000
10
297.4625801104
20
218.7321011038
30
0.0000000000
10
296.9732644109
20
220.2965873172
30
0.0000000000
10
296.2409517152
20
221.3419435843
30
0.0000000000
10
295.3771299929
20
221.7090238897
30
0.0000000000
10
294.5133082706
20
221.3419435843
30
0.0000000000
10
293.7809955749
20
220.2965873172
30
0.0000000000
10
293.2916798754
20
218.7321011038
30
0.0000000000
10
293.1771299929
20
217.5018095599
30
0.0000000000
10
293.1771299929
20
216.8866637879
30
0.0000000000
11
297.5771299929
21
216.8866637879
31
0.0000000000
11
297.4096649644
21
218.6852759200
31
0.0000000000
11
296.9327649115
21
220.2100656595
31
0.0000000000
11
296.2190335441
21
221.2288975907
31
0.0000000000
11
295.3771299929
21
221.5866637879
31
0.0000000000
11
294.5352264417
21
221.2288975907
31
0.0000000000
11
293.8214950743
21
220.2100656595
31
0.0000000000
11
293.3445950214
21
218.6852759200
31
0.0000000000
11
293.1771299929
21
216.8866637879
31
0.0000000000
0
SPLINE
5
4A9
100
AcDbEntity
8
0
100
AcDbSpline
62
7
6
CONTINUOUS
70
0
71
3
72
15
73
11
74
9
42
0.0000001000
43
0.0000001000
44
0.0000000001
12
0.0000000000
22
-14.7634985268
32
0.0000000000
13
0.0000000000
23
14.7634985268
33
0.0000000000
40
0.0000000000
40
0.0000000000
40
0.0000000000
40
0.0000000000
40
0.1250000000
40
0.2500000000
40
0.3750000000
40
0.5000000000
40
0.6250000000
40
0.7500000000
40
0.8750000000
40
1.0000000000
40
1.0000000000
40
1.0000000000
40
1.0000000000
10
293.1771299929
20
216.8866637879
30
0.0000000000
10
293.1771299929
20
216.2715180160
30
0.0000000000
10
293.2916798754
20
215.0412264721
30
0.0000000000
10
293.7809955749
20
213.4767402586
30
0.0000000000
10
294.5133082706
20
212.4313839915
30
0.0000000000
10
295.3771299929
20
212.0643036861
30
0.0000000000
10
296.2409517152
20
212.4313839915
30
0.0000000000
10
296.9732644109
20
213.4767402586
30
0.0000000000
10
297.4625801104
20
215.0412264721
30
0.0000000000
10
297.5771299929
20
216.2715180160
30
0.0000000000
10
297.5771299929
20
216.8866637879
30
0.0000000000
11
293.1771299929
21
216.8866637879
31
0.0000000000
11
293.3445950214
21
215.0880516558
31
0.0000000000
11
293.8214950743
21
213.5632619163
31
0.0000000000
11
294.5352264417
21
212.5444299851
31
0.0000000000
11
295.3771299929
21
212.1866637879
31
0.0000000000
11
296.2190335441
21
212.5444299851
31
0.0000000000
11
296.9327649115
21
213.5632619163
31
0.0000000000
11
297.4096649644
21
215.0880516558
31
0.0000000000
11
297.5771299929
21
216.8866637879
31
0.0000000000
0
SPLINE
5
4AA
100
AcDbEntity
8
0
100
AcDbSpline
62
7
6
CONTINUOUS
70
0
71
3
72
8
73
4
74
2
42
0.0000001000
43
0.0000001000
44
0.0000000001
12
0.1924070668
22
-0.5286340714
32
0.0000000000
13
0.3650370822
23
0.0000000000
33
0.0000000000
40
0.0000000000
40
0.0000000000
40
0.0000000000
40
0.0000000000
40
1.0000000000
40
1.0000000000
40
1.0000000000
40
1.0000000000
10
293.9506813908
20
213.8539911443
30
0.0000000000
10
294.0148170798
20
213.6777797871
30
0.0000000000
10
294.1077246619
20
213.5896738702
30
0.0000000000
10
294.2294036893
20
213.5896738702
30
0.0000000000
11
293.9506813908
21
213.8539911443
31
0.0000000000
11
294.2294036893
21
213.5896738702
31
0.0000000000
0
SPLINE
5
4AB
100
AcDbEntity
8
0
100
AcDbSpline
62
7
6
CONTINUOUS
70
0
71
3
72
8
73
4
74
2
42
0.0000001000
43
0.0000001000
44
0.0000000001
12
0.5374153613
22
0.0000000000
32
0.0000000000
13
0.4373326005
23
1.5691699587
33
0.0000000000
40
0.0000000000
40
0.0000000000
40
0.0000000000
40
0.0000000000
40
1.0000000000
40
1.0000000000
40
1.0000000000
40
1.0000000000
10
294.2294036893
20
213.5896738702
30
0.0000000000
10
294.4085421431
20
213.5896738702
30
0.0000000000
10
294.5719750012
20
213.8510543042
30
0.0000000000
10
294.7177525347
20
214.3741109571
30
0.0000000000
11
294.2294036893
21
213.5896738702
31
0.0000000000
11
294.7177525347
21
214.3741109571
31
0.0000000000
0
SPLINE
5
4AC
100
AcDbEntity
8
0
100
AcDbSpline
62
7
6
CONTINUOUS
70
0
71
3
72
8
73
4
74
2
42
0.0000001000
43
0.0000001000
44
0.0000000001
12
0.2772280089
22
0.9947071470
32
0.0000000000
13
0.1557180015
23
1.2158589363
33
0.0000000000
40
0.0000000000
40
0.0000000000
40
0.0000000000
40
0.0000000000
40
1.0000000000
40
1.0000000000
40
1.0000000000
40
1.0000000000
10
294.7177525347
20
214.3741109571
30
0.0000000000
10
294.8101618710
20
214.7056800061
30
0.0000000000
10
294.8827241236
20
215.0727871590
30
0.0000000000
10
294.9346301242
20
215.4780734711
30
0.0000000000
11
294.7177525347
21
214.3741109571
31
0.0000000000
11
294.9346301242
21
215.4780734711
31
0.0000000000
0
SPLINE
5
4AD
100
AcDbEntity
8
0
100
AcDbSpline
62
7
6
CONTINUOUS
70
0
71
3
72
8
73
4
74
2
42
0.0000001000
43
0.0000001000
44
0.0000000001
12
0.5642344643
22
0.2466959953
32
0.0000000000
13
0.3806765437
23
0.1938325167
33
0.0000000000
40
0.0000000000
40
0.0000000000
40
0.0000000000
40
0.0000000000
40
1.0000000000
40
1.0000000000
40
1.0000000000
40
1.0000000000
10
294.9346301242
20
215.4780734711
30
0.0000000000
10
295.1227082789
20
215.5603054696
30
0.0000000000
10
295.2791245029
20
215.6366637879
30
0.0000000000
10
295.4060166841
20
215.7012746268
30
0.0000000000
11
294.9346301242
21
215.4780734711
31
0.0000000000
11
295.4060166841
21
215.7012746268
31
0.0000000000
0
SPLINE
5
4AE
100
AcDbEntity
8
0
100
AcDbSpline
62
7
6
CONTINUOUS
70
0
71
3
72
8
73
4
74
2
42
0.0000001000
43
0.0000001000
44
0.0000000001
12
-0.0126312655
22
-1.3303964138
32
0.0000000000
13
-0.0109801768
23
-0.1994962738
33
0.0000000000
40
0.0000000000
40
0.0000000000
40
0.0000000000
40
0.0000000000
40
1.0000000000
40
1.0000000000
40
1.0000000000
40
1.0000000000
10
295.4016510753
20
215.0492922002
30
0.0000000000
10
295.3974406535
20
214.6058267289
30
0.0000000000
10
295.3924183176
20
214.3503202134
30
0.0000000000
10
295.3887582587
20
214.2838214555
30
0.0000000000
11
295.4016510753
21
215.0492922002
31
0.0000000000
11
295.3887582587
21
214.2838214555
31
0.0000000000
0
SPLINE
5
4AF
100
AcDbEntity
8
0
100
AcDbSpline
62
7
6
CONTINUOUS
70
0
71
3
72
8
73
4
74
2
42
0.0000001000
43
0.0000001000
44
0.0000000001
12
-0.0389675879
22
-0.7079930260
32
0.0000000000
13
-0.1817307676
23
-0.4757709503
33
0.0000000000
40
0.0000000000
40
0.0000000000
40
0.0000000000
40
0.0000000000
40
1.0000000000
40
1.0000000000
40
1.0000000000
40
1.0000000000
10
295.3887582587
20
214.2838214555
30
0.0000000000
10
295.3757690627
20
214.0478237801
30
0.0000000000
10
295.3392283424
20
213.8510543042
30
0.0000000000
10
295.2786514199
20
213.6924639874
30
0.0000000000
11
295.3887582587
21
214.2838214555
31
0.0000000000
11
295.2786514199
21
213.6924639874
31
0.0000000000
0
SPLINE
5
4B0
100
AcDbEntity
8
0
100
AcDbSpline
62
7
6
CONTINUOUS
70
0
71
3
72
8
73
4
74
2
42
0.0000001000
43
0.0000001000
44
0.0000000001
12
0.1516151645
22
0.4052860737
32
0.0000000000
13
0.3966560270
23
1.1916897896
33
0.0000000000
40
0.0000000000
40
0.0000000000
40
0.0000000000
40
0.0000000000
40
1.0000000000
40
1.0000000000
40
1.0000000000
40
1.0000000000
10
295.3354600702
20
213.7453275853
30
0.0000000000
10
295.3859984584
20
213.8804229432
30
0.0000000000
10
295.4763142449
20
214.1476770573
30
0.0000000000
10
295.6085329206
20
214.5449069872
30
0.0000000000
11
295.3354600702
21
213.7453275853
31
0.0000000000
11
295.6085329206
21
214.5449069872
31
0.0000000000
0
SPLINE
5
4B1
100
AcDbEntity
8
0
100
AcDbSpline
62
7
6
CONTINUOUS
70
0
71
3
72
8
73
4
74
2
42
0.0000001000
43
0.0000001000
44
0.0000000001
12
0.3540933339
22
1.0638169643
32
0.0000000000
13
0.4055960720
23
0.0000000000
33
0.0000000000
40
0.0000000000
40
0.0000000000
40
0.0000000000
40
0.0000000000
40
1.0000000000
40
1.0000000000
40
1.0000000000
40
1.0000000000
10
295.6085329206
20
214.5449069872
30
0.0000000000
10
295.7265640319
20
214.8995126420
30
0.0000000000
10
295.8517066471
20
215.0757239991
30
0.0000000000
10
295.9869053378
20
215.0757239991
30
0.0000000000
11
295.6085329206
21
214.5449069872
31
0.0000000000
11
295.9869053378
21
215.0757239991
31
0.0000000000
0
SPLINE
5
4B2
100
AcDbEntity
8
0
100
AcDbSpline
62
7
6
CONTINUOUS
70
0
71
3
72
8
73
4
74
2
42
0.0000001000
43
0.0000001000
44
0.0000000001
12
0.1875884663
22
0.0000000000
32
0.0000000000
13
0.1090308621
23
-0.2995598316
33
0.0000000000
40
0.0000000000
40
0.0000000000
40
0.0000000000
40
0.0000000000
40
1.0000000000
40
1.0000000000
40
1.0000000000
40
1.0000000000
10
295.9869053378
20
215.0757239991
30
0.0000000000
10
296.0494348265
20
215.0757239991
30
0.0000000000
10
296.0969573594
20
215.0287343198
30
0.0000000000
10
296.1333009801
20
214.9288810426
30
0.0000000000
11
295.9869053378
21
215.0757239991
31
0.0000000000
11
296.1333009801
21
214.9288810426
31
0.0000000000
0
SPLINE
5
4B3
100
AcDbEntity
8
0
100
AcDbSpline
62
7
6
CONTINUOUS
70
0
71
3
72
8
73
4
74
2
42
0.0000001000
43
0.0000001000
44
0.0000000001
12
0.0545153009
22
-0.1497795582
32
0.0000000000
13
-0.0345762462
23
-0.2114539146
33
0.0000000000
40
0.0000000000
40
0.0000000000
40
0.0000000000
40
0.0000000000
40
1.0000000000
40
1.0000000000
40
1.0000000000
40
1.0000000000
10
296.1333009801
20
214.9288810426
30
0.0000000000
10
296.1514727470
20
214.8789545232
30
0.0000000000
10
296.1553304778
20
214.8172806435
30
0.0000000000
10
296.1438050624
20
214.7467960053
30
0.0000000000
11
296.1333009801
21
214.9288810426
31
0.0000000000
11
296.1438050624
21
214.7467960053
31
0.0000000000
0
SPLINE
5
4B4
100
AcDbEntity
8
0
100
AcDbSpline
62
7
6
CONTINUOUS
70
0
71
3
72
8
73
4
74
2
42
0.0000001000
43
0.0000001000
44
0.0000000001
12
-0.0345762462
22
-0.2114539146
32
0.0000000000
13
-0.0278680698
23
-0.2178238906
33
0.0000000000
40
0.0000000000
40
0.0000000000
40
0.0000000000
40
0.0000000000
40
1.0000000000
40
1.0000000000
40
1.0000000000
40
1.0000000000
10
296.1438050624
20
214.7467960053
30
0.0000000000
10
296.1322796470
20
214.6763113671
30
0.0000000000
10
296.1213754215
20
214.6087635690
30
0.0000000000
10
296.1120860649
20
214.5361556054
30
0.0000000000
11
296.1438050624
21
214.7467960053
31
0.0000000000
11
296.1120860649
21
214.5361556054
31
0.0000000000
0
SPLINE
5
4B5
100
AcDbEntity
8
0
100
AcDbSpline
62
7
6
CONTINUOUS
70
0
71
3
72
8
73
4
74
2
42
0.0000001000
43
0.0000001000
44
0.0000000001
12
-0.0420190099
22
-0.3284312211
32
0.0000000000
13
0.1090306018
23
-0.2995591164
33
0.0000000000
40
0.0000000000
40
0.0000000000
40
0.0000000000
40
0.0000000000
40
1.0000000000
40
1.0000000000
40
1.0000000000
40
1.0000000000
10
296.1120860649
20
214.5361556054
30
0.0000000000
10
296.0980797283
20
214.4266785317
30
0.0000000000
10
296.1095213184
20
214.3209515744
30
0.0000000000
10
296.1458648523
20
214.2210985356
30
0.0000000000
11
296.1120860649
21
214.5361556054
31
0.0000000000
11
296.1458648523
21
214.2210985356
31
0.0000000000
0
SPLINE
5
4B6
100
AcDbEntity
8
0
100
AcDbSpline
62
7
6
CONTINUOUS
70
0
71
3
72
8
73
4
74
2
42
0.0000001000
43
0.0000001000
44
0.0000000001
12
0.1154443963
22
-0.3171808720
32
0.0000000000
13
0.1993504797
23
-0.1828700700
33
0.0000000000
40
0.0000000000
40
0.0000000000
40
0.0000000000
40
0.0000000000
40
1.0000000000
40
1.0000000000
40
1.0000000000
40
1.0000000000
10
296.1458648523
20
214.2210985356
30
0.0000000000
10
296.1843463177
20
214.1153715783
30
0.0000000000
10
296.2379362427
20
214.0331395798
30
0.0000000000
10
296.3043864026
20
213.9721828899
30
0.0000000000
11
296.1458648523
21
214.2210985356
31
0.0000000000
11
296.3043864026
21
213.9721828899
31
0.0000000000
0
SPLINE
5
4B7
100
AcDbEntity
8
0
100
AcDbSpline
62
7
6
CONTINUOUS
70
0
71
3
72
8
73
4
74
2
42
0.0000001000
43
0.0000001000
44
0.0000000001
12
0.2040421998
22
-0.1871739230
32
0.0000000000
13
0.2129380921
23
0.0000000000
33
0.0000000000
40
0.0000000000
40
0.0000000000
40
0.0000000000
40
0.0000000000
40
1.0000000000
40
1.0000000000
40
1.0000000000
40
1.0000000000
10
296.3043864026
20
213.9721828899
30
0.0000000000
10
296.3724004692
20
213.9097915822
30
0.0000000000
10
296.4416181283
20
213.8774861031
30
0.0000000000
10
296.5125974924
20
213.8774861031
30
0.0000000000
11
296.3043864026
21
213.9721828899
31
0.0000000000
11
296.5125974924
21
213.8774861031
31
0.0000000000
0
SPLINE
5
4B8
100
AcDbEntity
8
0
100
AcDbSpline
62
7
6
CONTINUOUS
70
0
71
3
72
8
73
4
74
2
42
0.0000001000
43
0.0000001000
44
0.0000000001
12
0.2687076807
22
0.0000000000
32
0.0000000000
13
0.2706073008
23
0.4405286196
33
0.0000000000
40
0.0000000000
40
0.0000000000
40
0.0000000000
40
0.0000000000
40
1.0000000000
40
1.0000000000
40
1.0000000000
40
1.0000000000
10
296.5125974924
20
213.8774861031
30
0.0000000000
10
296.6021667193
20
213.8774861031
30
0.0000000000
10
296.6920524516
20
213.9509075814
30
0.0000000000
10
296.7822548852
20
214.0977504546
30
0.0000000000
11
296.5125974924
21
213.8774861031
31
0.0000000000
11
296.7822548852
21
214.0977504546
31
0.0000000000
0
SPLINE
5
4B9
100
AcDbEntity
8
0
100
AcDbSpline
62
7
6
CONTINUOUS
70
0
71
3
72
8
73
4
74
2
42
0.0000001000
43
0.0000001000
44
0.0000000001
12
0.2164855899
22
0.3524224875
32
0.0000000000
13
0.1007579997
23
0.4272067525
33
0.0000000000
40
0.0000000000
40
0.0000000000
40
0.0000000000
40
0.0000000000
40
1.0000000000
40
1.0000000000
40
1.0000000000
40
1.0000000000
10
296.7822548852
20
214.0977504546
30
0.0000000000
10
296.8544167485
20
214.2152246171
30
0.0000000000
10
296.9115417672
20
214.3415096932
30
0.0000000000
10
296.9451277671
20
214.4839119441
30
0.0000000000
11
296.7822548852
21
214.0977504546
31
0.0000000000
11
296.9451277671
21
214.4839119441
31
0.0000000000
0
SPLINE
5
4BA
100
AcDbEntity
8
0
100
AcDbSpline
62
7
6
CONTINUOUS
70
0
71
3
72
8
73
4
74
2
42
0.0000001000
43
0.0000001000
44
0.0000000001
12
0.1444459018
22
0.6124403498
32
0.0000000000
13
0.0392087496
23
0.3033223009
33
0.0000000000
40
0.0000000000
40
0.0000000000
40
0.0000000000
40
0.0000000000
40
1.0000000000
40
1.0000000000
40
1.0000000000
40
1.0000000000
10
296.9451277671
20
214.4839119441
30
0.0000000000
10
296.9932764010
20
214.6880587273
30
0.0000000000
10
297.0234777149
20
214.8395212076
30
0.0000000000
10
297.0365472981
20
214.9406286412
30
0.0000000000
11
296.9451277671
21
214.4839119441
31
0.0000000000
11
297.0365472981
21
214.9406286412
31
0.0000000000
0
SPLINE
5
4BB
100
AcDbEntity
8
0
100
AcDbSpline
62
7
6
CONTINUOUS
70
0
71
3
72
8
73
4
74
2
42
0.0000001000
43
0.0000001000
44
0.0000000001
12
-0.1175947538
22
-0.6519820690
32
0.0000000000
13
-0.1639497927
23
-0.3548201102
33
0.0000000000
40
0.0000000000
40
0.0000000000
40
0.0000000000
40
0.0000000000
40
1.0000000000
40
1.0000000000
40
1.0000000000
40
1.0000000000
10
296.9904578692
20
214.8025962048
30
0.0000000000
10
296.9512596179
20
214.5852688485
30
0.0000000000
10
296.9067884342
20
214.4149309331
30
0.0000000000
10
296.8521385033
20
214.2966575630
30
0.0000000000
11
296.9904578692
21
214.8025962048
31
0.0000000000
11
296.8521385033
21
214.2966575630
31
0.0000000000
0
SPLINE
5
4BC
100
AcDbEntity
8
0
100
AcDbSpline
62
7
6
CONTINUOUS
70
0
71
3
72
8
73
4
74
2
42
0.0000001000
43
0.0000001000
44
0.0000000001
12
-0.3408607769
22
-0.7376908284
32
0.0000000000
13
-0.3701070074
23
0.0000000000
33
0.0000000000
40
0.0000000000
40
0.0000000000
40
0.0000000000
40
0.0000000000
40
1.0000000000
40
1.0000000000
40
1.0000000000
40
1.0000000000
10
296.8521385033
20
214.2966575630
30
0.0000000000
10
296.7385182444
20
214.0507606202
30
0.0000000000
10
296.6222436003
20
213.9244757825
30
0.0000000000
10
296.4988745979
20
213.9244757825
30
0.0000000000
11
296.8521385033
21
214.2966575630
31
0.0000000000
11
296.4988745979
21
213.9244757825
31
0.0000000000
0
SPLINE
5
4BD
100
AcDbEntity
8
0
100
AcDbSpline
62
7
6
CONTINUOUS
70
0
71
3
72
8
73
4
74
2
42
0.0000001000
43
0.0000001000
44
0.0000000001
12
-0.2788475310
22
0.0000000000
32
0.0000000000
13
-0.1218576701
23
0.3348011971
33
0.0000000000
40
0.0000000000
40
0.0000000000
40
0.0000000000
40
0.0000000000
40
1.0000000000
40
1.0000000000
40
1.0000000000
40
1.0000000000
10
296.4988745979
20
213.9244757825
30
0.0000000000
10
296.4059254209
20
213.9244757825
30
0.0000000000
10
296.3372272240
20
213.9832130605
30
0.0000000000
10
296.2966080006
20
214.0948134595
30
0.0000000000
11
296.4988745979
21
213.9244757825
31
0.0000000000
11
296.2966080006
21
214.0948134595
31
0.0000000000
0
SPLINE
5
4BE
100
AcDbEntity
8
0
100
AcDbSpline
62
7
6
CONTINUOUS
70
0
71
3
72
8
73
4
74
2
42
0.0000001000
43
0.0000001000
44
0.0000000001
12
-0.0705493967
22
0.1938328743
32
0.0000000000
13
0.0587710708
23
0.4231431553
33
0.0000000000
40
0.0000000000
40
0.0000000000
40
0.0000000000
40
0.0000000000
40
1.0000000000
40
1.0000000000
40
1.0000000000
40
1.0000000000
10
296.2966080006
20
214.0948134595
30
0.0000000000
10
296.2730915351
20
214.1594244176
30
0.0000000000
10
296.2722376650
20
214.2592776948
30
0.0000000000
10
296.2918280220
20
214.4003254132
30
0.0000000000
11
296.2966080006
21
214.0948134595
31
0.0000000000
11
296.2918280220
21
214.4003254132
31
0.0000000000
0
SPLINE
5
4BF
100
AcDbEntity
8
0
100
AcDbSpline
62
7
6
CONTINUOUS
70
0
71
3
72
8
73
4
74
2
42
0.0000001000
43
0.0000001000
44
0.0000000001
12
0.0770613226
22
0.5548303058
32
0.0000000000
13
-0.1090308621
23
0.2995598316
33
0.0000000000
40
0.0000000000
40
0.0000000000
40
0.0000000000
40
0.0000000000
40
1.0000000000
40
1.0000000000
40
1.0000000000
40
1.0000000000
10
296.2918280220
20
214.4003254132
30
0.0000000000
10
296.3175151295
20
214.5852688485
30
0.0000000000
10
296.3107672743
20
214.7291747266
30
0.0000000000
10
296.2744236536
20
214.8290280038
30
0.0000000000
11
296.2918280220
21
214.4003254132
31
0.0000000000
11
296.2744236536
21
214.8290280038
31
0.0000000000
0
SPLINE
5
4C0
100
AcDbEntity
8
0
100
AcDbSpline
62
7
6
CONTINUOUS
70
0
71
3
72
8
73
4
74
2
42
0.0000001000
43
0.0000001000
44
0.0000000001
12
-0.2148546968
22
0.5903084278
32
0.0000000000
13
-0.3903862965
23
0.0000000000
33
0.0000000000
40
0.0000000000
40
0.0000000000
40
0.0000000000
40
0.0000000000
40
1.0000000000
40
1.0000000000
40
1.0000000000
40
1.0000000000
10
296.2744236536
20
214.8290280038
30
0.0000000000
10
296.2028054214
20
215.0257974797
30
0.0000000000
10
296.1033113460
20
215.1227136784
30
0.0000000000
10
295.9731825805
20
215.1227136784
30
0.0000000000
11
296.2744236536
21
214.8290280038
31
0.0000000000
11
295.9731825805
21
215.1227136784
31
0.0000000000
0
SPLINE
5
4C1
100
AcDbEntity
8
0
100
AcDbSpline
62
7
6
CONTINUOUS
70
0
71
3
72
8
73
4
74
2
42
0.0000001000
43
0.0000001000
44
0.0000000001
12
-0.3954566332
22
0.0000000000
32
0.0000000000
13
-0.4396354577
23
-1.2158589363
33
0.0000000000
40
0.0000000000
40
0.0000000000
40
0.0000000000
40
0.0000000000
40
1.0000000000
40
1.0000000000
40
1.0000000000
40
1.0000000000
10
295.9731825805
20
215.1227136784
30
0.0000000000
10
295.8413637028
20
215.1227136784
30
0.0000000000
10
295.7004915753
20
214.9200705224
30
0.0000000000
10
295.5539464228
20
214.5147842103
30
0.0000000000
11
295.9731825805
21
215.1227136784
31
0.0000000000
11
295.5539464228
21
214.5147842103
31
0.0000000000
0
SPLINE
5
4C2
100
AcDbEntity
8
0
100
AcDbSpline
62
7
6
CONTINUOUS
70
0
71
3
72
8
73
4
74
2
42
0.0000001000
43
0.0000001000
44
0.0000000001
12
0.0866380820
22
1.6563878059
32
0.0000000000
13
0.0379439331
23
0.8986787796
33
0.0000000000
40
0.0000000000
40
0.0000000000
40
0.0000000000
40
0.0000000000
40
1.0000000000
40
1.0000000000
40
1.0000000000
40
1.0000000000
10
295.5539464228
20
214.5147842103
30
0.0000000000
10
295.5828257834
20
215.0669134789
30
0.0000000000
10
295.6025207542
20
215.4956945115
30
0.0000000000
10
295.6151687319
20
215.7952541047
30
0.0000000000
11
295.5539464228
21
214.5147842103
31
0.0000000000
11
295.6151687319
21
215.7952541047
31
0.0000000000
0
SPLINE
5
4C3
100
AcDbEntity
8
0
100
AcDbSpline
62
7
6
CONTINUOUS
70
0
71
3
72
8
73
4
74
2
42
0.0000001000
43
0.0000001000
44
0.0000000001
12
1.8463960819
22
1.2511010170
32
0.0000000000
13
-0.4906382937
23
1.3480176330
33
0.0000000000
40
0.0000000000
40
0.0000000000
40
0.0000000000
40
0.0000000000
40
1.0000000000
40
1.0000000000
40
1.0000000000
40
1.0000000000
10
295.8350521400
20
215.9479707413
30
0.0000000000
10
296.4505175006
20
216.3650044137
30
0.0000000000
10
296.6753215856
20
216.7967225247
30
0.0000000000
10
296.5117754877
20
217.2460617357
30
0.0000000000
11
295.8350521400
21
215.9479707413
31
0.0000000000
11
296.5117754877
21
217.2460617357
31
0.0000000000
0
SPLINE
5
4C4
100
AcDbEntity
8
0
100
AcDbSpline
62
7
6
CONTINUOUS
70
0
71
3
72
8
73
4
74
2
42
0.0000001000
43
0.0000001000
44
0.0000000001
12
-0.2854039633
22
0.7841409445
32
0.0000000000
13
-0.5881148189
23
0.0000000000
33
0.0000000000
40
0.0000000000
40
0.0000000000
40
0.0000000000
40
0.0000000000
40
1.0000000000
40
1.0000000000
40
1.0000000000
40
1.0000000000
10
296.5117754877
20
217.2460617357
30
0.0000000000
10
296.4166408333
20
217.5074420505
30
0.0000000000
10
296.2715888650
20
217.6366637879
30
0.0000000000
10
296.0755505921
20
217.6366637879
30
0.0000000000
11
296.5117754877
21
217.2460617357
31
0.0000000000
11
296.0755505921
21
217.6366637879
31
0.0000000000
0
SPLINE
5
4C5
100
AcDbEntity
8
0
100
AcDbSpline
62
7
6
CONTINUOUS
70
0
71
3
72
8
73
4
74
2
42
0.0000001000
43
0.0000001000
44
0.0000000001
12
-1.2826988896
22
0.0000000000
32
0.0000000000
13
-0.0540167370
23
-3.7797355056
33
0.0000000000
40
0.0000000000
40
0.0000000000
40
0.0000000000
40
0.0000000000
40
1.0000000000
40
1.0000000000
40
1.0000000000
40
1.0000000000
10
296.0755505921
20
217.6366637879
30
0.0000000000
10
295.6479842955
20
217.6366637879
30
0.0000000000
10
295.4255091008
20
217.0081762605
30
0.0000000000
10
295.4075035217
20
215.7482644254
30
0.0000000000
11
296.0755505921
21
217.6366637879
31
0.0000000000
11
295.4075035217
21
215.7482644254
31
0.0000000000
0
SPLINE
5
4C6
100
AcDbEntity
8
0
100
AcDbSpline
62
7
6
CONTINUOUS
70
0
71
3
72
8
73
4
74
2
42
0.0000001000
43
0.0000001000
44
0.0000000001
12
-0.4881846334
22
-0.2466963530
32
0.0000000000
13
-0.4377894598
23
-0.1762111187
33
0.0000000000
40
0.0000000000
40
0.0000000000
40
0.0000000000
40
0.0000000000
40
1.0000000000
40
1.0000000000
40
1.0000000000
40
1.0000000000
10
295.4075035217
20
215.7482644254
30
0.0000000000
10
295.2447753106
20
215.6660323077
30
0.0000000000
10
295.0896011487
20
215.5955477887
30
0.0000000000
10
294.9436713288
20
215.5368107491
30
0.0000000000
11
295.4075035217
21
215.7482644254
31
0.0000000000
11
294.9436713288
21
215.5368107491
31
0.0000000000
0
SPLINE
5
4C7
100
AcDbEntity
8
0
100
AcDbSpline
62
7
6
CONTINUOUS
70
0
71
3
72
8
73
4
74
2
42
0.0000001000
43
0.0000001000
44
0.0000000001
12
0.0619870384
22
1.3480170965
32
0.0000000000
13
0.0004026893
23
0.1401694643
33
0.0000000000
40
0.0000000000
40
0.0000000000
40
0.0000000000
40
0.0000000000
40
1.0000000000
40
1.0000000000
40
1.0000000000
40
1.0000000000
10
294.9436713288
20
215.5368107491
30
0.0000000000
10
294.9643336749
20
215.9861497813
30
0.0000000000
10
294.9731837872
20
216.2357827359
30
0.0000000000
10
294.9733180169
20
216.2825058907
30
0.0000000000
11
294.9436713288
21
215.5368107491
31
0.0000000000
11
294.9733180169
21
216.2825058907
31
0.0000000000
0
SPLINE
5
4C8
100
AcDbEntity
8
0
100
AcDbSpline
62
7
6
CONTINUOUS
70
0
71
3
72
8
73
4
74
2
42
0.0000001000
43
0.0000001000
44
0.0000000001
12
0.0036471779
22
1.2695221675
32
0.0000000000
13
-0.2244750306
23
0.6167400777
33
0.0000000000
40
0.0000000000
40
0.0000000000
40
0.0000000000
40
0.0000000000
40
1.0000000000
40
1.0000000000
40
1.0000000000
40
1.0000000000
10
294.9733180169
20
216.2825058907
30
0.0000000000
10
294.9745337429
20
216.7056799465
30
0.0000000000
10
294.9372764519
20
217.0169868403
30
0.0000000000
10
294.8624514417
20
217.2225668662
30
0.0000000000
11
294.9733180169
21
216.2825058907
31
0.0000000000
11
294.8624514417
21
217.2225668662
31
0.0000000000
0
SPLINE
5
4C9
100
AcDbEntity
8
0
100
AcDbSpline
62
7
6
CONTINUOUS
70
0
71
3
72
8
73
4
74
2
42
0.0000001000
43
0.0000001000
44
0.0000000001
12
-0.3014379126
22
0.8281938583
32
0.0000000000
13
-0.4208062591
23
0.0000000000
33
0.0000000000
40
0.0000000000
40
0.0000000000
40
0.0000000000
40
0.0000000000
40
1.0000000000
40
1.0000000000
40
1.0000000000
40
1.0000000000
10
294.8624514417
20
217.2225668662
30
0.0000000000
10
294.7619721375
20
217.4986314857
30
0.0000000000
10
294.6424432363
20
217.6366637879
30
0.0000000000
10
294.5021744832
20
217.6366637879
30
0.0000000000
11
294.8624514417
21
217.2225668662
31
0.0000000000
11
294.5021744832
21
217.6366637879
31
0.0000000000
0
SPLINE
5
4CA
100
AcDbEntity
8
0
100
AcDbSpline
62
7
6
CONTINUOUS
70
0
71
3
72
8
73
4
74
2
42
0.0000001000
43
0.0000001000
44
0.0000000001
12
-0.1825189527
22
0.0000000000
32
0.0000000000
13
-0.2081235555
23
-0.3226617756
33
0.0000000000
40
0.0000000000
40
0.0000000000
40
0.0000000000
40
0.0000000000
40
1.0000000000
40
1.0000000000
40
1.0000000000
40
1.0000000000
10
294.5021744832
20
217.6366637879
30
0.0000000000
10
294.4413348324
20
217.6366637879
30
0.0000000000
10
294.3743865478
20
217.5838003502
30
0.0000000000
10
294.3050120293
20
217.4762464250
30
0.0000000000
11
294.5021744832
21
217.6366637879
31
0.0000000000
11
294.3050120293
21
217.4762464250
31
0.0000000000
0
SPLINE
5
4CB
100
AcDbEntity
8
0
100
AcDbSpline
62
7
6
CONTINUOUS
70
0
71
3
72
8
73
4
74
2
42
0.0000001000
43
0.0000001000
44
0.0000000001
12
-0.2067356062
22
-0.3205099856
32
0.0000000000
13
-0.0880886817
23
-0.4405286014
33
0.0000000000
40
0.0000000000
40
0.0000000000
40
0.0000000000
40
0.0000000000
40
1.0000000000
40
1.0000000000
40
1.0000000000
40
1.0000000000
10
294.3050120293
20
217.4762464250
30
0.0000000000
10
294.2361001605
20
217.3694097632
30
0.0000000000
10
294.1874249521
20
217.2431248658
30
0.0000000000
10
294.1580620582
20
217.0962819987
30
0.0000000000
11
294.3050120293
21
217.4762464250
31
0.0000000000
11
294.1580620582
21
217.0962819987
31
0.0000000000
0
SPLINE
5
4CC
100
AcDbEntity
8
0
100
AcDbSpline
62
7
6
CONTINUOUS
70
0
71
3
72
8
73
4
74
2
42
0.0000001000
43
0.0000001000
44
0.0000000001
12
0.0585822631
22
0.2290749550
32
0.0000000000
13
0.1713484289
23
0.2774138317
33
0.0000000000
40
0.0000000000
40
0.0000000000
40
0.0000000000
40
0.0000000000
40
1.0000000000
40
1.0000000000
40
1.0000000000
40
1.0000000000
10
294.2109413851
20
217.1785139972
30
0.0000000000
10
294.2304688062
20
217.2548723155
30
0.0000000000
10
294.2681380831
20
217.3371043139
30
0.0000000000
10
294.3252542261
20
217.4295755912
30
0.0000000000
11
294.2109413851
21
217.1785139972
31
0.0000000000
11
294.3252542261
21
217.4295755912
31
0.0000000000
0
SPLINE
5
4CD
100
AcDbEntity
8
0
100
AcDbSpline
62
7
6
CONTINUOUS
70
0
71
3
72
8
73
4
74
2
42
0.0000001000
43
0.0000001000
44
0.0000000001
12
0.1987055435
22
0.3217051162
32
0.0000000000
13
0.1368888029
23
0.0000000000
33
0.0000000000
40
0.0000000000
40
0.0000000000
40
0.0000000000
40
0.0000000000
40
1.0000000000
40
1.0000000000
40
1.0000000000
40
1.0000000000
10
294.3252542261
20
217.4295755912
30
0.0000000000
10
294.3914894073
20
217.5368106299
30
0.0000000000
10
294.4482978415
20
217.5896740676
30
0.0000000000
10
294.4939274425
20
217.5896740676
30
0.0000000000
11
294.3252542261
21
217.4295755912
31
0.0000000000
11
294.4939274425
21
217.5896740676
31
0.0000000000
0
SPLINE
5
4CE
100
AcDbEntity
8
0
100
AcDbSpline
62
7
6
CONTINUOUS
70
0
71
3
72
8
73
4
74
2
42
0.0000001000
43
0.0000001000
44
0.0000000001
12
0.2230783541
22
0.0000000000
32
0.0000000000
13
0.1635460979
23
-0.4493392110
33
0.0000000000
40
0.0000000000
40
0.0000000000
40
0.0000000000
40
0.0000000000
40
1.0000000000
40
1.0000000000
40
1.0000000000
40
1.0000000000
10
294.4939274425
20
217.5896740676
30
0.0000000000
10
294.5682868938
20
217.5896740676
30
0.0000000000
10
294.6321898373
20
217.5162526303
30
0.0000000000
10
294.6867052032
20
217.3664728933
30
0.0000000000
11
294.4939274425
21
217.5896740676
31
0.0000000000
11
294.6867052032
21
217.3664728933
31
0.0000000000
0
SPLINE
5
4CF
100
AcDbEntity
8
0
100
AcDbSpline
62
7
6
CONTINUOUS
70
0
71
3
72
8
73
4
74
2
42
0.0000001000
43
0.0000001000
44
0.0000000001
12
0.3014379289
22
-0.8281939030
32
0.0000000000
13
-0.2422670436
23
-3.0396476984
33
0.0000000000
40
0.0000000000
40
0.0000000000
40
0.0000000000
40
0.0000000000
40
1.0000000000
40
1.0000000000
40
1.0000000000
40
1.0000000000
10
294.6867052032
20
217.3664728933
30
0.0000000000
10
294.7871845128
20
217.0904082590
30
0.0000000000
10
294.7982017975
20
216.4472365313
30
0.0000000000
10
294.7174461163
20
215.4340206319
30
0.0000000000
11
294.6867052032
21
217.3664728933
31
0.0000000000
11
294.7174461163
21
215.4340206319
31
0.0000000000
0
SPLINE
5
4D0
100
AcDbEntity
8
0
100
AcDbSpline
62
7
6
CONTINUOUS
70
0
71
3
72
8
73
4
74
2
42
0.0000001000
43
0.0000001000
44
0.0000000001
12
-1.1438934821
22
-0.5903084278
32
0.0000000000
13
-0.3674866034
23
-1.1090495553
33
0.0000000000
40
0.0000000000
40
0.0000000000
40
0.0000000000
40
0.0000000000
40
1.0000000000
40
1.0000000000
40
1.0000000000
40
1.0000000000
10
294.7174461163
20
215.4340206319
30
0.0000000000
10
294.3361482890
20
215.2372511559
30
0.0000000000
10
294.0849374083
20
214.9523760014
30
0.0000000000
10
293.9624418738
20
214.5826928163
30
0.0000000000
11
294.7174461163
21
215.4340206319
31
0.0000000000
11
293.9624418738
21
214.5826928163
31
0.0000000000
0
SPLINE
5
4D1
100
AcDbEntity
8
0
100
AcDbSpline
62
7
6
CONTINUOUS
70
0
71
3
72
8
73
4
74
2
42
0.0000001000
43
0.0000001000
44
0.0000000001
12
-0.2631054191
22
-0.7940342460
32
0.0000000000
13
0.2405090938
23
-0.6607933044
33
0.0000000000
40
0.0000000000
40
0.0000000000
40
0.0000000000
40
0.0000000000
40
1.0000000000
40
1.0000000000
40
1.0000000000
40
1.0000000000
10
293.9624418738
20
214.5826928163
30
0.0000000000
10
293.8747400675
20
214.3180147343
30
0.0000000000
10
293.8705116929
20
214.0742555791
30
0.0000000000
10
293.9506813908
20
213.8539911443
30
0.0000000000
11
293.9624418738
21
214.5826928163
31
0.0000000000
11
293.9506813908
21
213.8539911443
31
0.0000000000
0
SPLINE
5
4D2
100
AcDbEntity
8
0
100
AcDbSpline
62
7
6
CONTINUOUS
70
0
71
3
72
8
73
4
74
2
42
0.0000001000
43
0.0000001000
44
0.0000000001
12
-0.2308887925
22
0.6343617439
32
0.0000000000
13
0.2601947831
23
0.7594337627
33
0.0000000000
40
0.0000000000
40
0.0000000000
40
0.0000000000
40
0.0000000000
40
1.0000000000
40
1.0000000000
40
1.0000000000
40
1.0000000000
10
293.9777215406
20
213.8539911443
30
0.0000000000
10
293.9007586097
20
214.0654450589
30
0.0000000000
10
293.9075721499
20
214.2974568539
30
0.0000000000
10
293.9943037443
20
214.5506014415
30
0.0000000000
11
293.9777215406
21
213.8539911443
31
0.0000000000
11
293.9943037443
21
214.5506014415
31
0.0000000000
0
SPLINE
5
4D3
100
AcDbEntity
8
0
100
AcDbSpline
62
7
6
CONTINUOUS
70
0
71
3
72
8
73
4
74
2
42
0.0000001000
43
0.0000001000
44
0.0000000001
12
0.3888148655
22
1.1348388031
32
0.0000000000
13
1.0492124608
23
0.5022025108
33
0.0000000000
40
0.0000000000
40
0.0000000000
40
0.0000000000
40
0.0000000000
40
1.0000000000
40
1.0000000000
40
1.0000000000
40
1.0000000000
10
293.9943037443
20
214.5506014415
30
0.0000000000
10
294.1239086994
20
214.9288810426
30
0.0000000000
10
294.3641852197
20
215.2020088368
30
0.0000000000
10
294.7139227066
20
215.3694096738
30
0.0000000000
11
293.9943037443
21
214.5506014415
31
0.0000000000
11
294.7139227066
21
215.3694096738
31
0.0000000000
0
SPLINE
5
4D4
100
AcDbEntity
8
0
100
AcDbSpline
62
7
6
CONTINUOUS
70
0
71
3
72
8
73
4
74
2
42
0.0000001000
43
0.0000001000
44
0.0000000001
12
-0.4275086565
22
-3.4361228943
32
0.0000000000
13
-0.6337447628
23
0.0000000000
33
0.0000000000
40
0.0000000000
40
0.0000000000
40
0.0000000000
40
0.0000000000
40
1.0000000000
40
1.0000000000
40
1.0000000000
40
1.0000000000
10
294.7139227066
20
215.3694096738
30
0.0000000000
10
294.5714198211
20
214.2240353757
30
0.0000000000
10
294.3956133975
20
213.6484111481
30
0.0000000000
10
294.1843651433
20
213.6484111481
30
0.0000000000
11
294.7139227066
21
215.3694096738
31
0.0000000000
11
294.1843651433
21
213.6484111481
31
0.0000000000
0
SPLINE
5
4D5
100
AcDbEntity
8
0
100
AcDbSpline
62
7
6
CONTINUOUS
70
0
71
3
72
8
73
4
74
2
42
0.0000001000
43
0.0000001000
44
0.0000000001
12
-0.2636377555
22
0.0000000000
32
0.0000000000
13
-0.1475120672
23
0.4052860737
33
0.0000000000
40
0.0000000000
40
0.0000000000
40
0.0000000000
40
0.0000000000
40
1.0000000000
40
1.0000000000
40
1.0000000000
40
1.0000000000
10
294.1843651433
20
213.6484111481
30
0.0000000000
10
294.0964858914
20
213.6484111481
30
0.0000000000
10
294.0268922296
20
213.7188957864
30
0.0000000000
10
293.9777215406
20
213.8539911443
30
0.0000000000
11
294.1843651433
21
213.6484111481
31
0.0000000000
11
293.9777215406
21
213.8539911443
31
0.0000000000
0
SPLINE
5
4D6
100
AcDbEntity
8
0
100
AcDbSpline
62
7
6
CONTINUOUS
70
0
71
3
72
8
73
4
74
2
42
0.0000001000
43
0.0000001000
44
0.0000000001
12
0.0641731407
22
2.7488987446
32
0.0000000000
13
0.8973821067
23
0.0000000000
33
0.0000000000
40
0.0000000000
40
0.0000000000
40
0.0000000000
40
0.0000000000
40
1.0000000000
40
1.0000000000
40
1.0000000000
40
1.0000000000
10
295.6268616537
20
216.2181615763
30
0.0000000000
10
295.6482527006
20
217.1344611579
30
0.0000000000
10
295.8087358582
20
217.5896740676
30
0.0000000000
10
296.1078632271
20
217.5896740676
30
0.0000000000
11
295.6268616537
21
216.2181615763
31
0.0000000000
11
296.1078632271
21
217.5896740676
31
0.0000000000
0
SPLINE
5
4D7
100
AcDbEntity
8
0
100
AcDbSpline
62
7
6
CONTINUOUS
70
0
71
3
72
8
73
4
74
2
42
0.0000001000
43
0.0000001000
44
0.0000000001
12
0.3802468577
22
0.0000000000
32
0.0000000000
13
0.1988207474
23
-0.5462555140
33
0.0000000000
40
0.0000000000
40
0.0000000000
40
0.0000000000
40
0.0000000000
40
1.0000000000
40
1.0000000000
40
1.0000000000
40
1.0000000000
10
296.1078632271
20
217.5896740676
30
0.0000000000
10
296.2346121797
20
217.5896740676
30
0.0000000000
10
296.3302783897
20
217.4986314857
30
0.0000000000
10
296.3965519722
20
217.3165463143
30
0.0000000000
11
296.1078632271
21
217.5896740676
31
0.0000000000
11
296.3965519722
21
217.3165463143
31
0.0000000000
0
SPLINE
5
4D8
100
AcDbEntity
8
0
100
AcDbSpline
62
7
6
CONTINUOUS
70
0
71
3
72
8
73
4
74
2
42
0.0000001000
43
0.0000001000
44
0.0000000001
12
0.2629564635
22
-0.7224669456
32
0.0000000000
13
-0.4144949669
23
-0.7996105913
33
0.0000000000
40
0.0000000000
40
0.0000000000
40
0.0000000000
40
0.0000000000
40
1.0000000000
40
1.0000000000
40
1.0000000000
40
1.0000000000
10
296.3965519722
20
217.3165463143
30
0.0000000000
10
296.4842041267
20
217.0757239991
30
0.0000000000
10
296.4605919714
20
216.8202173644
30
0.0000000000
10
296.3224269824
20
216.5536805006
30
0.0000000000
11
296.3965519722
21
217.3165463143
31
0.0000000000
11
296.3224269824
21
216.5536805006
31
0.0000000000
0
SPLINE
5
4D9
100
AcDbEntity
8
0
100
AcDbSpline
62
7
6
CONTINUOUS
70
0
71
3
72
8
73
4
74
2
42
0.0000001000
43
0.0000001000
44
0.0000000001
12
-0.3390840230
22
-0.6541338202
32
0.0000000000
13
-0.6067203231
23
-0.4226287518
33
0.0000000000
40
0.0000000000
40
0.0000000000
40
0.0000000000
40
0.0000000000
40
1.0000000000
40
1.0000000000
40
1.0000000000
40
1.0000000000
10
296.3224269824
20
216.5536805006
30
0.0000000000
10
296.2093989748
20
216.3356358939
30
0.0000000000
10
296.0526453890
20
216.1534578308
30
0.0000000000
10
295.8504052813
20
216.0125815802
30
0.0000000000
11
296.3224269824
21
216.5536805006
31
0.0000000000
11
295.8504052813
21
216.0125815802
31
0.0000000000
0
SPLINE
5
4DA
100
AcDbEntity
8
0
100
AcDbSpline
62
7
6
CONTINUOUS
70
0
71
3
72
9
73
5
74
3
42
0.0000001000
43
0.0000001000
44
0.0000000001
12
1.1824211422
22
-0.1487793440
32
0.0000000000
13
1.1712048758
23
-0.2203047657
33
0.0000000000
40
0.0000000000
40
0.0000000000
40
0.0000000000
40
0.0000000000
40
0.5001591001
40
1.0000000000
40
1.0000000000
40
1.0000000000
40
1.0000000000
10
316.6080143163
20
49.4011590808
30
0.0000000000
10
316.8051472144
20
49.3763546332
30
0.0000000000
10
317.1985675064
20
49.3208543739
30
0.0000000000
10
317.5901217929
20
49.2534232240
30
0.0000000000
10
317.7852604926
20
49.2167174466
30
0.0000000000
11
316.6080143163
21
49.4011590808
31
0.0000000000
11
317.1982258945
21
49.3178520926
31
0.0000000000
11
317.7852604926
21
49.2167174466
31
0.0000000000
0
SPLINE
5
4DB
100
AcDbEntity
8
0
100
AcDbSpline
62
7
6
CONTINUOUS
70
0
71
3
72
11
73
7
74
5
42
0.0000001000
43
0.0000001000
44
0.0000000001
12
11.4845687932
22
-1.6805247959
32
0.0000000000
13
10.2911786127
23
5.3675997164
33
0.0000000000
40
0.0000000000
40
0.0000000000
40
0.0000000000
40
0.0000000000
40
0.2504346846
40
0.5008359016
40
0.7508095826
40
1.0000000000
40
1.0000000000
40
1.0000000000
40
1.0000000000
10
295.3771299929
20
42.3016480964
30
0.0000000000
10
296.3358414474
20
42.1613608640
30
0.0000000000
10
298.2785116241
20
42.0308547246
30
0.0000000000
10
301.1831471543
20
42.2915565435
30
0.0000000000
10
304.0070893395
20
43.0001141904
30
0.0000000000
10
305.7926106205
20
43.7601377755
30
0.0000000000
10
306.6474316518
20
44.2059892468
30
0.0000000000
11
295.3771299929
21
42.3016480964
31
0.0000000000
11
298.2773661029
21
42.1069587234
31
0.0000000000
11
301.1721160653
21
42.3666469241
31
0.0000000000
11
303.9862032563
21
43.0731228835
31
0.0000000000
11
306.6474316518
21
44.2059892468
31
0.0000000000
0
SPLINE
5
4DC
100
AcDbEntity
8
0
100
AcDbSpline
62
7
6
CONTINUOUS
70
0
71
3
72
12
73
8
74
6
42
0.0000001000
43
0.0000001000
44
0.0000000001
12
10.1097607530
22
1.2413225349
32
0.0000000000
13
4.9086498200
23
8.9248698064
33
0.0000000000
40
0.0000000000
40
0.0000000000
40
0.0000000000
40
0.0000000000
40
0.2015202231
40
0.4024711401
40
0.6025991154
40
0.8017736177
40
1.0000000000
40
1.0000000000
40
1.0000000000
40
1.0000000000
10
295.3771299929
20
49.6766480964
30
0.0000000000
10
296.0562370736
20
49.7600319611
30
0.0000000000
10
297.4002223407
20
50.0558563825
30
0.0000000000
10
299.2905110342
20
50.8685885566
30
0.0000000000
10
300.9884113538
20
52.0181819505
30
0.0000000000
10
302.4328203964
20
53.4591458356
30
0.0000000000
10
303.1971351223
20
54.5825817652
30
0.0000000000
10
303.5214764209
20
55.1722966499
30
0.0000000000
11
295.3771299929
21
49.6766480964
31
0.0000000000
11
297.3816966437
21
50.1181978744
31
0.0000000000
11
299.2620570720
21
50.9267314783
31
0.0000000000
11
300.9498502781
21
52.0697942219
31
0.0000000000
11
302.3857967876
21
53.5029015261
31
0.0000000000
11
303.5214764209
21
55.1722966499
31
0.0000000000
0
SPLINE
5
4DD
100
AcDbEntity
8
0
100
AcDbSpline
62
7
6
CONTINUOUS
70
0
71
3
72
12
73
8
74
6
42
0.0000001000
43
0.0000001000
44
0.0000000001
12
-4.9086498207
22
8.9248698077
32
0.0000000000
13
-10.1097607544
23
1.2413225351
33
0.0000000000
40
0.0000000000
40
0.0000000000
40
0.0000000000
40
0.0000000000
40
0.1982299710
40
0.3974042077
40
0.5975305187
40
0.7984789640
40
1.0000000000
40
1.0000000000
40
1.0000000000
40
1.0000000000
10
303.5214764209
20
65.4309995428
30
0.0000000000
10
303.1971292503
20
66.0207251040
30
0.0000000000
10
302.4328059843
20
67.1441694289
30
0.0000000000
10
300.9883882354
20
68.5851324874
30
0.0000000000
10
299.2904978066
20
69.7347133364
30
0.0000000000
10
297.4002195378
20
70.5474401458
30
0.0000000000
10
296.0562398131
20
70.8432638953
30
0.0000000000
10
295.3771299929
20
70.9266480964
30
0.0000000000
11
303.5214764209
21
65.4309995428
31
0.0000000000
11
302.3857733648
21
67.1004229431
31
0.0000000000
11
300.9498240551
21
68.5335236112
31
0.0000000000
11
299.2620421845
21
69.6765728625
31
0.0000000000
11
297.3817045608
21
70.4850957691
31
0.0000000000
11
295.3771299929
21
70.9266480964
31
0.0000000000
0
SPLINE
5
4DE
100
AcDbEntity
8
0
100
AcDbSpline
62
7
6
CONTINUOUS
70
0
71
3
72
15
73
11
74
9
42
0.0000001000
43
0.0000001000
44
0.0000000001
12
0.0000000000
22
5.2211892280
32
0.0000000000
13
-4.5223845647
23
2.6093782409
33
0.0000000000
40
0.0000000000
40
0.0000000000
40
0.0000000000
40
0.0000000000
40
0.1257487043
40
0.2506186599
40
0.3739477875
40
0.4941637049
40
0.6129230460
40
0.7341989395
40
0.8617173547
40
1.0000000000
40
1.0000000000
40
1.0000000000
40
1.0000000000
10
316.6080143163
20
73.6939529418
30
0.0000000000
10
316.6080143163
20
73.9128055353
30
0.0000000000
10
316.5703330821
20
74.3498912344
30
0.0000000000
10
316.4056350737
20
74.9824156968
30
0.0000000000
10
316.1470144925
20
75.5718888158
30
0.0000000000
10
315.8123286770
20
76.1085581019
30
0.0000000000
10
315.4142902937
20
76.5949446216
30
0.0000000000
10
314.9540659087
20
77.0410834162
30
0.0000000000
10
314.4229547328
20
77.4572839039
30
0.0000000000
10
314.0320400910
20
77.7061455975
30
0.0000000000
10
313.8235843241
20
77.8264228394
30
0.0000000000
11
316.6080143163
21
73.6939529418
31
0.0000000000
11
316.5518985672
21
74.3481082306
31
0.0000000000
11
316.3885251268
21
74.9792766434
31
0.0000000000
11
316.1309777895
21
75.5694532311
31
0.0000000000
11
315.8000299268
21
76.1027854051
31
0.0000000000
11
315.4084195813
21
76.5835368295
31
0.0000000000
11
314.9547896122
21
77.0253146573
31
0.0000000000
11
314.4316925693
21
77.4372080435
31
0.0000000000
11
313.8235843241
21
77.8264228394
31
0.0000000000
0
SPLINE
5
4DF
100
AcDbEntity
8
0
100
AcDbSpline
62
7
6
CONTINUOUS
70
0
71
3
72
13
73
9
74
7
42
0.0000001000
43
0.0000001000
44
0.0000000001
12
18.5550763635
22
4.5565538076
32
0.0000000000
13
16.5491633376
23
-9.5487294591
33
0.0000000000
40
0.0000000000
40
0.0000000000
40
0.0000000000
40
0.0000000000
40
0.1659481241
40
0.3258450531
40
0.4843258170
40
0.6461345014
40
0.8164298510
40
1.0000000000
40
1.0000000000
40
1.0000000000
40
1.0000000000
10
295.3771299929
20
80.4978005191
30
0.0000000000
10
296.4035233645
20
80.7498510380
30
0.0000000000
10
298.4503783732
20
81.1270204881
30
0.0000000000
10
301.5374238560
20
81.3067024115
30
0.0000000000
10
304.5967828530
20
81.0964085985
30
0.0000000000
10
307.6689379077
20
80.4804864240
30
0.0000000000
10
310.7856116815
20
79.4165802666
30
0.0000000000
10
312.8109401974
20
78.4107100694
30
0.0000000000
10
313.8235843241
20
77.8264228394
30
0.0000000000
11
295.3771299929
21
80.4978005191
31
0.0000000000
11
298.4961840577
21
81.0675523037
31
0.0000000000
11
301.5462325966
21
81.2422669413
31
0.0000000000
11
304.5670356923
21
81.0337566814
31
0.0000000000
11
307.5985785211
21
80.4274686373
31
0.0000000000
11
310.6791191825
21
79.3800946912
31
0.0000000000
11
313.8235843241
21
77.8264228394
31
0.0000000000
0
SPLINE
5
4E0
100
AcDbEntity
8
0
100
AcDbSpline
62
7
6
CONTINUOUS
70
0
71
3
72
13
73
9
74
7
42
0.0000001000
43
0.0000001000
44
0.0000000001
12
16.5491632113
22
9.5487293862
32
0.0000000000
13
18.5550762219
23
-4.5565537729
33
0.0000000000
40
0.0000000000
40
0.0000000000
40
0.0000000000
40
0.0000000000
40
0.1835659575
40
0.3538892446
40
0.5157214128
40
0.6741978232
40
0.8340747319
40
1.0000000000
40
1.0000000000
40
1.0000000000
40
1.0000000000
10
276.9306756617
20
77.8264228394
30
0.0000000000
10
277.9432966584
20
78.4106967236
30
0.0000000000
10
279.9687589444
20
79.4166370782
30
0.0000000000
10
283.0857290608
20
80.4806192968
30
0.0000000000
10
286.1581991237
20
81.0965136495
30
0.0000000000
10
289.2175594373
20
81.3066956702
30
0.0000000000
10
292.3042970983
20
81.1269523915
30
0.0000000000
10
294.3508779941
20
80.7498163212
30
0.0000000000
10
295.3771299929
20
80.4978005191
30
0.0000000000
11
276.9306756617
21
77.8264228394
31
0.0000000000
11
280.0750666195
21
79.3800639810
31
0.0000000000
11
283.1561206110
21
80.4275862755
31
0.0000000000
11
286.1881206127
21
81.0338761950
31
0.0000000000
11
289.2088482444
21
81.2422714596
31
0.0000000000
11
292.2585103815
21
81.0675003388
31
0.0000000000
11
295.3771299929
21
80.4978005191
31
0.0000000000
0
SPLINE
5
4E1
100
AcDbEntity
8
0
100
AcDbSpline
62
7
6
CONTINUOUS
70
0
71
3
72
15
73
11
74
9
42
0.0000001000
43
0.0000001000
44
0.0000000001
12
-4.5224067746
22
-2.6093910559
32
0.0000000000
13
0.0000000000
23
-5.2212148699
33
0.0000000000
40
0.0000000000
40
0.0000000000
40
0.0000000000
40
0.0000000000
40
0.1394986827
40
0.2682940046
40
0.3906066866
40
0.5098539731
40
0.6297368648
40
0.7519502833
40
0.8753849047
40
1.0000000000
40
1.0000000000
40
1.0000000000
40
1.0000000000
10
276.9306756617
20
77.8264228394
30
0.0000000000
10
276.7203857325
20
77.7050873011
30
0.0000000000
10
276.3258860148
20
77.4537316106
30
0.0000000000
10
275.7905088983
20
77.0329505125
30
0.0000000000
10
275.3279638048
20
76.5821403544
30
0.0000000000
10
274.9304650310
20
76.0925955972
30
0.0000000000
10
274.5990100706
20
75.5558883385
30
0.0000000000
10
274.3447116085
20
74.9700624585
30
0.0000000000
10
274.1832001174
20
74.3434265962
30
0.0000000000
10
274.1462456695
20
73.9108336713
30
0.0000000000
10
274.1462456695
20
73.6939529418
30
0.0000000000
11
276.9306756617
21
77.8264228394
31
0.0000000000
11
276.3173843764
21
77.4335217014
31
0.0000000000
11
275.7896635885
21
77.0167195328
31
0.0000000000
11
275.3333736418
21
76.5699130831
31
0.0000000000
11
274.9420146963
21
76.0856729648
31
0.0000000000
11
274.6143023048
21
75.5523828163
31
0.0000000000
11
274.3613388747
21
74.9665634530
31
0.0000000000
11
274.2013575838
21
74.3422568324
31
0.0000000000
11
274.1462456695
21
73.6939529418
31
0.0000000000
0
SPLINE
5
4E2
100
AcDbEntity
8
0
100
AcDbSpline
62
7
6
CONTINUOUS
70
0
71
3
72
11
73
7
74
5
42
0.0000001000
43
0.0000001000
44
0.0000000001
12
-11.4845687932
22
-1.6805247959
32
0.0000000000
13
-10.2911786127
23
5.3675997164
33
0.0000000000
40
0.0000000000
40
0.0000000000
40
0.0000000000
40
0.0000000000
40
0.2504346846
40
0.5008359016
40
0.7508095826
40
1.0000000000
40
1.0000000000
40
1.0000000000
40
1.0000000000
10
295.3771299929
20
42.3016480964
30
0.0000000000
10
294.4184185384
20
42.1613608640
30
0.0000000000
10
292.4757483617
20
42.0308547246
30
0.0000000000
10
289.5711128316
20
42.2915565435
30
0.0000000000
10
286.7471706464
20
43.0001141904
30
0.0000000000
10
284.9616493653
20
43.7601377755
30
0.0000000000
10
284.1068283340
20
44.2059892468
30
0.0000000000
11
295.3771299929
21
42.3016480964
31
0.0000000000
11
292.4768938829
21
42.1069587234
31
0.0000000000
11
289.5821439205
21
42.3666469241
31
0.0000000000
11
286.7680567295
21
43.0731228835
31
0.0000000000
11
284.1068283340
21
44.2059892468
31
0.0000000000
0
SPLINE
5
4E3
100
AcDbEntity
8
0
100
AcDbSpline
62
7
6
CONTINUOUS
70
0
71
3
72
12
73
8
74
6
42
0.0000001000
43
0.0000001000
44
0.0000000001
12
4.9086498207
22
-8.9248698077
32
0.0000000000
13
10.1097607544
23
-1.2413225351
33
0.0000000000
40
0.0000000000
40
0.0000000000
40
0.0000000000
40
0.0000000000
40
0.1982299710
40
0.3974042077
40
0.5975305187
40
0.7984789640
40
1.0000000000
40
1.0000000000
40
1.0000000000
40
1.0000000000
10
287.2327835649
20
55.1722966499
30
0.0000000000
10
287.5571307355
20
54.5825710888
30
0.0000000000
10
288.3214540015
20
53.4591267638
30
0.0000000000
10
289.7658717504
20
52.0181637053
30
0.0000000000
10
291.4637621792
20
50.8685828564
30
0.0000000000
10
293.3540404480
20
50.0558560469
30
0.0000000000
10
294.6980201727
20
49.7600322975
30
0.0000000000
10
295.3771299929
20
49.6766480964
30
0.0000000000
11
287.2327835649
21
55.1722966499
31
0.0000000000
11
288.3684866210
21
53.5028732497
31
0.0000000000
11
289.8044359307
21
52.0697725815
31
0.0000000000
11
291.4922178013
21
50.9267233303
31
0.0000000000
11
293.3725554250
21
50.1182004236
31
0.0000000000
11
295.3771299929
21
49.6766480964
31
0.0000000000
0
SPLINE
5
4E4
100
AcDbEntity
8
0
100
AcDbSpline
62
7
6
CONTINUOUS
70
0
71
3
72
12
73
8
74
6
42
0.0000001000
43
0.0000001000
44
0.0000000001
12
-10.1097607530
22
-1.2413225349
32
0.0000000000
13
-4.9086498200
23
-8.9248698064
33
0.0000000000
40
0.0000000000
40
0.0000000000
40
0.0000000000
40
0.0000000000
40
0.2015202231
40
0.4024711401
40
0.6025991154
40
0.8017736177
40
1.0000000000
40
1.0000000000
40
1.0000000000
40
1.0000000000
10
295.3771299929
20
70.9266480964
30
0.0000000000
10
294.6980229122
20
70.8432642317
30
0.0000000000
10
293.3540376451
20
70.5474398103
30
0.0000000000
10
291.4637489516
20
69.7347076361
30
0.0000000000
10
289.7658486321
20
68.5851142422
30
0.0000000000
10
288.3214395894
20
67.1441503571
30
0.0000000000
10
287.5571248635
20
66.0207144275
30
0.0000000000
10
287.2327835649
20
65.4309995428
30
0.0000000000
11
295.3771299929
21
70.9266480964
31
0.0000000000
11
293.3725633421
21
70.4850983183
31
0.0000000000
11
291.4922029138
21
69.6765647144
31
0.0000000000
11
289.8044097077
21
68.5335019709
31
0.0000000000
11
288.3684631982
21
67.1003946667
31
0.0000000000
11
287.2327835649
21
65.4309995428
31
0.0000000000
0
SPLINE
5
4E5
100
AcDbEntity
8
0
100
AcDbSpline
62
7
6
CONTINUOUS
70
0
71
3
72
9
73
5
74
3
42
0.0000001000
43
0.0000001000
44
0.0000000001
12
1.1712048758
22
0.2203047657
32
0.0000000000
13
1.1824211422
23
0.1487793440
33
0.0000000000
40
0.0000000000
40
0.0000000000
40
0.0000000000
40
0.0000000000
40
0.4998448612
40
1.0000000000
40
1.0000000000
40
1.0000000000
40
1.0000000000
10
272.9689994932
20
49.2167174466
30
0.0000000000
10
273.1641397394
20
49.2534235149
30
0.0000000000
10
273.5556940356
20
49.3208546173
30
0.0000000000
10
273.9491143327
20
49.3763548296
30
0.0000000000
10
274.1462456695
20
49.4011590808
30
0.0000000000
11
272.9689994932
21
49.2167174466
31
0.0000000000
11
273.5560387558
21
49.3178528231
31
0.0000000000
11
274.1462456695
21
49.4011590808
31
0.0000000000
0
SPLINE
5
4E6
100
AcDbEntity
8
0
100
AcDbSpline
62
7
6
CONTINUOUS
70
0
71
3
72
9
73
5
74
3
42
0.0000001000
43
0.0000001000
44
0.0000000001
12
-1.1712048758
22
-0.2203047657
32
0.0000000000
13
-1.1824211422
23
-0.1487793440
33
0.0000000000
40
0.0000000000
40
0.0000000000
40
0.0000000000
40
0.0000000000
40
0.4998448612
40
1.0000000000
40
1.0000000000
40
1.0000000000
40
1.0000000000
10
317.7852604926
20
230.7865787484
30
0.0000000000
10
317.5901202464
20
230.7498726801
30
0.0000000000
10
317.1985659503
20
230.6824415777
30
0.0000000000
10
316.8051456531
20
230.6269413654
30
0.0000000000
10
316.6080143163
20
230.6021371142
30
0.0000000000
11
317.7852604926
21
230.7865787484
31
0.0000000000
11
317.1982212300
21
230.6854433719
31
0.0000000000
11
316.6080143163
21
230.6021371142
31
0.0000000000
0
SPLINE
5
4E7
100
AcDbEntity
8
0
100
AcDbSpline
62
7
6
CONTINUOUS
70
0
71
3
72
11
73
7
74
5
42
0.0000001000
43
0.0000001000
44
0.0000000001
12
11.4845687932
22
1.6805247959
32
0.0000000000
13
10.2911786127
23
-5.3675997164
33
0.0000000000
40
0.0000000000
40
0.0000000000
40
0.0000000000
40
0.0000000000
40
0.2504346846
40
0.5008359016
40
0.7508095826
40
1.0000000000
40
1.0000000000
40
1.0000000000
40
1.0000000000
10
295.3771299929
20
237.7016480986
30
0.0000000000
10
296.3358414474
20
237.8419353310
30
0.0000000000
10
298.2785116241
20
237.9724414704
30
0.0000000000
10
301.1831471543
20
237.7117396515
30
0.0000000000
10
304.0070893395
20
237.0031820046
30
0.0000000000
10
305.7926106205
20
236.2431584195
30
0.0000000000
10
306.6474316518
20
235.7973069482
30
0.0000000000
11
295.3771299929
21
237.7016480986
31
0.0000000000
11
298.2773661029
21
237.8963374716
31
0.0000000000
11
301.1721160653
21
237.6366492709
31
0.0000000000
11
303.9862032563
21
236.9301733115
31
0.0000000000
11
306.6474316518
21
235.7973069482
31
0.0000000000
0
SPLINE
5
4E8
100
AcDbEntity
8
0
100
AcDbSpline
62
7
6
CONTINUOUS
70
0
71
3
72
15
73
11
74
9
42
0.0000001000
43
0.0000001000
44
0.0000000001
12
4.5224063116
22
2.6093907887
32
0.0000000000
13
-0.0000000000
23
5.2212143354
33
0.0000000000
40
0.0000000000
40
0.0000000000
40
0.0000000000
40
0.0000000000
40
0.1394770645
40
0.2682448569
40
0.3905327498
40
0.5097668288
40
0.6296558048
40
0.7518938437
40
0.8753603951
40
1.0000000000
40
1.0000000000
40
1.0000000000
40
1.0000000000
10
313.8235843241
20
202.1768733556
30
0.0000000000
10
314.0338416431
20
202.2981900781
30
0.0000000000
10
314.4282705398
20
202.5494968818
30
0.0000000000
10
314.9635572574
20
202.9701833506
30
0.0000000000
10
315.4260447391
20
203.4208877652
30
0.0000000000
10
315.8235480776
20
203.9103562243
30
0.0000000000
10
316.1550703758
20
204.4470576016
30
0.0000000000
10
316.4094630278
20
205.0329626753
30
0.0000000000
10
316.5710440981
20
205.6597282683
30
0.0000000000
10
316.6080143163
20
206.0924198892
30
0.0000000000
10
316.6080143163
20
206.3093432532
30
0.0000000000
11
313.8235843241
21
202.1768733556
31
0.0000000000
11
314.4367834861
21
202.5697089114
31
0.0000000000
11
314.9644032250
21
202.9864070023
31
0.0000000000
11
315.4206256726
21
203.4330972954
31
0.0000000000
11
315.8119811185
21
203.9172514928
31
0.0000000000
11
316.1397609316
21
204.4505374177
31
0.0000000000
11
316.3928249813
21
205.0364532798
31
0.0000000000
11
316.5528807928
21
205.6609128351
31
0.0000000000
11
316.6080143163
21
206.3093432532
31
0.0000000000
0
SPLINE
5
4E9
100
AcDbEntity
8
0
100
AcDbSpline
62
7
6
CONTINUOUS
70
0
71
3
72
12
73
8
74
6
42
0.0000001000
43
0.0000001000
44
0.0000000001
12
-16.5442221891
22
-9.5458784576
32
0.0000000000
13
-18.5495363017
23
4.5551933395
33
0.0000000000
40
0.0000000000
40
0.0000000000
40
0.0000000000
40
0.0000000000
40
0.2182318525
40
0.4189900465
40
0.6105588820
40
0.8014112056
40
1.0000000000
40
1.0000000000
40
1.0000000000
40
1.0000000000
10
313.8235843241
20
202.1768733556
30
0.0000000000
10
312.6200922385
20
201.4824684424
30
0.0000000000
10
310.2052285148
20
200.3185025841
30
0.0000000000
10
306.4659910620
20
199.2008344103
30
0.0000000000
10
302.7708913673
20
198.7050091472
30
0.0000000000
10
299.0589654515
20
198.7810510750
30
0.0000000000
10
296.6050400096
20
199.2039588915
30
0.0000000000
10
295.3771299929
20
199.5054956759
30
0.0000000000
11
313.8235843241
21
202.1768733556
31
0.0000000000
11
310.0635130991
21
200.3776549600
31
0.0000000000
11
306.3879501408
21
199.2847248118
31
0.0000000000
11
302.7613019897
21
198.7985491142
31
0.0000000000
11
299.1165851995
21
198.8693653978
31
0.0000000000
11
295.3771299929
21
199.5054956759
31
0.0000000000
0
SPLINE
5
4EA
100
AcDbEntity
8
0
100
AcDbSpline
62
7
6
CONTINUOUS
70
0
71
3
72
8
73
4
74
2
42
0.0000001000
43
0.0000001000
44
0.0000000001
12
-0.2039206573
22
-0.0198282158
32
0.0000000000
13
-0.2039008321
23
-0.0200299839
33
0.0000000000
40
0.0000000000
40
0.0000000000
40
0.0000000000
40
0.0000000000
40
1.0000000000
40
1.0000000000
40
1.0000000000
40
1.0000000000
10
338.3771299929
20
123.2821139108
30
0.0000000000
10
338.3091564405
20
123.2755045056
30
0.0000000000
10
338.2411869972
20
123.2688532834
30
0.0000000000
10
338.1732200531
20
123.2621766220
30
0.0000000000
11
338.3771299929
21
123.2821139108
31
0.0000000000
11
338.1732200531
21
123.2621766220
31
0.0000000000
0
SPLINE
5
4EB
100
AcDbEntity
8
0
100
AcDbSpline
62
7
6
CONTINUOUS
70
0
71
3
72
8
73
4
74
2
42
0.0000001000
43
0.0000001000
44
0.0000000001
12
-0.6136750470
22
-0.0602837232
32
0.0000000000
13
-0.6136708804
23
-0.0603268307
33
0.0000000000
40
0.0000000000
40
0.0000000000
40
0.0000000000
40
0.0000000000
40
1.0000000000
40
1.0000000000
40
1.0000000000
40
1.0000000000
10
338.1732200531
20
123.2621766220
30
0.0000000000
10
337.9686617041
20
123.2420820476
30
0.0000000000
10
337.7641259937
20
123.2217570422
30
0.0000000000
10
337.5595690336
20
123.2016480986
30
0.0000000000
11
338.1732200531
21
123.2621766220
31
0.0000000000
11
337.5595690336
21
123.2016480986
31
0.0000000000
0
SPLINE
5
4EC
100
AcDbEntity
8
0
100
AcDbSpline
62
7
6
CONTINUOUS
70
0
71
3
72
9
73
5
74
3
42
0.0000001000
43
0.0000001000
44
0.0000000001
12
-0.8175703281
22
0.0803711376
32
0.0000000000
13
-0.8176553715
23
0.0795046827
33
0.0000000000
40
0.0000000000
40
0.0000000000
40
0.0000000000
40
0.0000000000
40
0.7506031705
40
1.0000000000
40
1.0000000000
40
1.0000000000
40
1.0000000000
10
253.1946909522
20
123.2016480986
30
0.0000000000
10
252.9901339921
20
123.2217570422
30
0.0000000000
10
252.7176388596
20
123.2488352724
30
0.0000000000
10
252.4451035453
20
123.2755045056
30
0.0000000000
10
252.3771299929
20
123.2821139108
30
0.0000000000
11
253.1946909522
21
123.2016480986
31
0.0000000000
11
252.5810399327
21
123.2621766220
31
0.0000000000
11
252.3771299929
21
123.2821139108
31
0.0000000000
0
SPLINE
5
4ED
100
AcDbEntity
8
0
100
AcDbSpline
62
7
6
CONTINUOUS
70
0
71
3
72
12
73
8
74
6
42
0.0000001000
43
0.0000001000
44
0.0000000001
12
-18.5495365394
22
-4.5551933979
32
0.0000000000
13
-16.5442224011
23
9.5458785799
33
0.0000000000
40
0.0000000000
40
0.0000000000
40
0.0000000000
40
0.0000000000
40
0.1986295044
40
0.3895064624
40
0.5810511950
40
0.7817635103
40
1.0000000000
40
1.0000000000
40
1.0000000000
40
1.0000000000
10
295.3771299929
20
199.5054956759
30
0.0000000000
10
294.1489682430
20
199.2038970736
30
0.0000000000
10
291.6946203590
20
198.7809529860
30
0.0000000000
10
287.9824235234
20
198.7050616910
30
0.0000000000
10
284.2876365321
20
199.2010079359
30
0.0000000000
10
280.5488226585
20
200.3186058735
30
0.0000000000
10
278.1341933354
20
201.4824536782
30
0.0000000000
10
276.9306756617
20
202.1768733556
30
0.0000000000
11
295.3771299929
21
199.5054956759
31
0.0000000000
11
291.6368984390
21
198.8692921461
31
0.0000000000
11
287.9917081932
21
198.7986195763
31
0.0000000000
11
284.3655371416
21
199.2848896016
31
0.0000000000
11
280.6908298908
21
200.3776230989
31
0.0000000000
11
276.9306756617
21
202.1768733556
31
0.0000000000
0
SPLINE
5
4EE
100
AcDbEntity
8
0
100
AcDbSpline
62
7
6
CONTINUOUS
70
0
71
3
72
15
73
11
74
9
42
0.0000001000
43
0.0000001000
44
0.0000000001
12
0.0000000000
22
-5.2211891266
32
0.0000000000
13
4.5223844768
23
-2.6093781902
33
0.0000000000
40
0.0000000000
40
0.0000000000
40
0.0000000000
40
0.0000000000
40
0.1257533250
40
0.2506297729
40
0.3739634687
40
0.4941791863
40
0.6129338380
40
0.7342034525
40
0.8617172191
40
1.0000000000
40
1.0000000000
40
1.0000000000
40
1.0000000000
10
274.1462456695
20
206.3093432532
30
0.0000000000
10
274.1462456695
20
206.0904826221
30
0.0000000000
10
274.1839299762
20
205.6533774923
30
0.0000000000
10
274.3486416094
20
205.0208279666
30
0.0000000000
10
274.6072797161
20
204.4313416703
30
0.0000000000
10
274.9419746638
20
203.8946788300
30
0.0000000000
10
275.3400070331
20
203.4083127959
30
0.0000000000
10
275.8002147452
20
202.9621961693
30
0.0000000000
10
276.3313116997
20
202.5460081985
30
0.0000000000
10
276.7222196945
20
202.2971507131
30
0.0000000000
10
276.9306756617
20
202.1768733556
30
0.0000000000
11
274.1462456695
21
206.3093432532
31
0.0000000000
11
274.2023655288
21
205.6551641156
31
0.0000000000
11
274.3657539677
21
205.0239645835
31
0.0000000000
11
274.6233205745
21
204.4337703952
31
0.0000000000
11
274.9542772750
21
203.9004449478
31
0.0000000000
11
275.3458785989
21
203.4197177689
31
0.0000000000
11
275.7994881542
21
202.9779659872
31
0.0000000000
11
276.3225668503
21
202.5660885538
31
0.0000000000
11
276.9306756617
21
202.1768733556
31
0.0000000000
0
SPLINE
5
4EF
100
AcDbEntity
8
0
100
AcDbSpline
62
7
6
CONTINUOUS
70
0
71
3
72
11
73
7
74
5
42
0.0000001000
43
0.0000001000
44
0.0000000001
12
-11.4845687932
22
1.6805247959
32
0.0000000000
13
-10.2911786127
23
-5.3675997164
33
0.0000000000
40
0.0000000000
40
0.0000000000
40
0.0000000000
40
0.0000000000
40
0.2504346846
40
0.5008359016
40
0.7508095826
40
1.0000000000
40
1.0000000000
40
1.0000000000
40
1.0000000000
10
295.3771299929
20
237.7016480986
30
0.0000000000
10
294.4184185384
20
237.8419353310
30
0.0000000000
10
292.4757483617
20
237.9724414704
30
0.0000000000
10
289.5711128316
20
237.7117396515
30
0.0000000000
10
286.7471706464
20
237.0031820046
30
0.0000000000
10
284.9616493653
20
236.2431584195
30
0.0000000000
10
284.1068283340
20
235.7973069482
30
0.0000000000
11
295.3771299929
21
237.7016480986
31
0.0000000000
11
292.4768938829
21
237.8963374716
31
0.0000000000
11
289.5821439205
21
237.6366492709
31
0.0000000000
11
286.7680567295
21
236.9301733115
31
0.0000000000
11
284.1068283340
21
235.7973069482
31
0.0000000000
0
SPLINE
5
4F0
100
AcDbEntity
8
0
100
AcDbSpline
62
7
6
CONTINUOUS
70
0
71
3
72
9
73
5
74
3
42
0.0000001000
43
0.0000001000
44
0.0000000001
12
-1.1824211422
22
0.1487793440
32
0.0000000000
13
-1.1712048758
23
0.2203047657
33
0.0000000000
40
0.0000000000
40
0.0000000000
40
0.0000000000
40
0.0000000000
40
0.5001591001
40
1.0000000000
40
1.0000000000
40
1.0000000000
40
1.0000000000
10
274.1462456695
20
230.6021371142
30
0.0000000000
10
273.9491127714
20
230.6269415618
30
0.0000000000
10
273.5556924794
20
230.6824418211
30
0.0000000000
10
273.1641381929
20
230.7498729710
30
0.0000000000
10
272.9689994932
20
230.7865787484
30
0.0000000000
11
274.1462456695
21
230.6021371142
31
0.0000000000
11
273.5560340913
21
230.6854441024
31
0.0000000000
11
272.9689994932
21
230.7865787484
31
0.0000000000
0
ENDSEC
0
SECTION
2
OBJECTS
0
DICTIONARY
5
4F1
100
AcDbDictionary
3
ACAD_GROUP
350
4F2
3
ACAD_MLINESTYLE
350
4F3
0
DICTIONARY
5
4F2
102
{ACAD_REACTORS
330
4F1
102
}
100
AcDbDictionary
0
DICTIONARY
5
4F3
102
{ACAD_REACTORS
330
4F1
102
}
100
AcDbDictionary
3
STANDARD
350
4F4
0
MLINESTYLE
5
4F4
102
{ACAD_REACTORS
330
4F3
102
}
100
AcDbMlineStyle
2
STANDARD
70
0
3

62
256
51
90.0
52
90.0
71
2
49
0.5
62
256
6
BYLAYER
49
-0.5
62
256
6
BYLAYER
0
ENDSEC
0
EOF
