999
DXF file: D:\CAD-ICE-neu\2-uwpp-13.dxf
999
Pro/ENGINEER 2005030 by Parametric Technology Corporation
0
SECTION
2
HEADER
9
$ACADVER
1
AC1014
9
$HANDSEED
5
       4B1
9
$EXTMAX
10
420.0000000000
20
297.0000000000
9
$EXTMIN
10
0.0000000000
20
0.0000000000
9
$LIMMIN
10
0.0000000000
20
0.0000000000
9
$LIMMAX
10
420.0000000000
20
297.0000000000
9
$VIEWCTR
10
210.0000000000
20
148.5000000000
9
$VIEWSIZE
40
297.0000000000
9
$CLAYER
8
0
9
$LTSCALE
40
23.1000000000
9
$CELTYPE
6
BYLAYER
9
$DIMSCALE
40
1
9
$DIMASZ
40
3.5000000000
9
$DIMEXO
40
2.6250000000
9
$DIMDLI
40
15.9600000000
9
$DIMEXE
40
7.5600000000
9
$DIMCEN
40
3.7800000000
9
$DIMLFAC
40
1.0000000000
9
$DIMTXT
40
3.5000000000
9
$DIMTOL
70
1
9
$DIMLIM
70
0
9
$DIMTFAC
40
1.0000000000
9
$DIMTP
40
0.0050000000
9
$DIMTM
40
0.0050000000
9
$MEASUREMENT
70
1
0
ENDSEC
0
SECTION
2
CLASSES
0
ENDSEC
0
SECTION
2
TABLES
0
TABLE
2
VPORT
5
8
100
AcDbSymbolTable
70
2
0
VPORT
5
1F4
100
AcDbSymbolTableRecord
100
AcDbViewportTableRecord
2
*ACTIVE
70
0
10
0.0
20
0.0
11
1.0
21
1.0
12
210.0000000000
22
148.5000000000
13
0.0
23
0.0
14
1.0
24
1.0
15
0.0
25
0.0
16
0.0
26
0.0
36
1.0
17
0.0
27
0.0
37
0.0
40
297.0000000000
41
1.4141414141
42
50.0
43
0.0
44
0.0
50
0.0
51
0.0
71
0
72
100
73
1
74
1
75
0
76
0
77
0
78
0
0
ENDTAB
0
TABLE
2
LTYPE
5
5
100
AcDbSymbolTable
70
6
0
LTYPE
5
14
100
AcDbSymbolTableRecord
100
AcDbLinetypeTableRecord
2
BYBLOCK
70
0
3

72
65
73
0
40
0.0
0
LTYPE
5
15
100
AcDbSymbolTableRecord
100
AcDbLinetypeTableRecord
2
BYLAYER
70
0
3

72
65
73
0
40
0.0
0
LTYPE
5
16
100
AcDbSymbolTableRecord
100
AcDbLinetypeTableRecord
2
CONTINUOUS
70
64
3
Solid line
72
65
73
0
40
0
0
LTYPE
5
1F5
100
AcDbSymbolTableRecord
100
AcDbLinetypeTableRecord
2
CENTER
70
64
3
____ _ ____ _ ____ _ ____ _ ____ _ ____ _ ____
72
65
73
4
40
0.6
49
0.375
74
0
49
-0.075
74
0
49
0.075
74
0
49
-0.075
74
0
0
LTYPE
5
1F6
100
AcDbSymbolTableRecord
100
AcDbLinetypeTableRecord
2
HIDDEN
70
64
3
- - - - - - - - - - - - - - - - - - - -
72
65
73
2
40
0.2
49
0.1
74
0
49
-0.1
74
0
0
LTYPE
5
1F7
100
AcDbSymbolTableRecord
100
AcDbLinetypeTableRecord
2
PHANTOM
70
64
3
_____ _ _ _____ _ _ _____ _ _ _____
72
65
73
6
40
0.8
49
0.45
74
0
49
-0.05
74
0
49
0.1
74
0
49
-0.05
74
0
49
0.1
74
0
49
-0.05
74
0
0
LTYPE
5
1F8
100
AcDbSymbolTableRecord
100
AcDbLinetypeTableRecord
2
DOT
70
64
3
. . . . . . . . . . . . . . . . . . . .
72
65
73
2
40
0.2
49
0.1
74
0
49
-0.1
74
0
0
LTYPE
5
1F9
100
AcDbSymbolTableRecord
100
AcDbLinetypeTableRecord
2
DASHED
70
64
3
- - - - - - - - - - - - - - - - - - - -
72
65
73
2
40
0.2
49
0.1
74
0
49
-0.1
74
0
0
ENDTAB
0
TABLE
2
LAYER
5
2
100
AcDbSymbolTable
70
36
0
LAYER
5
10
100
AcDbSymbolTableRecord
100
AcDbLayerTableRecord
2
0
70
0
62
7
6
CONTINUOUS
0
LAYER
5
1FA
100
AcDbSymbolTableRecord
100
AcDbLayerTableRecord
2
DEFAULT_1
70
0
62
7
6
CENTER
0
LAYER
5
1FB
100
AcDbSymbolTableRecord
100
AcDbLayerTableRecord
2
DEFAULT_2
70
0
62
8
6
HIDDEN
0
LAYER
5
1FC
100
AcDbSymbolTableRecord
100
AcDbLayerTableRecord
2
DEFAULT_3
70
0
62
7
6
PHANTOM
0
LAYER
5
1FD
100
AcDbSymbolTableRecord
100
AcDbLayerTableRecord
2
AUSFORMSCHRAEGEN
70
0
62
7
6
CONTINUOUS
0
LAYER
5
1FE
100
AcDbSymbolTableRecord
100
AcDbLayerTableRecord
2
BEZUGSACHSEN
70
0
62
7
6
CONTINUOUS
0
LAYER
5
1FF
100
AcDbSymbolTableRecord
100
AcDbLayerTableRecord
2
BEZUGSEBENEN
70
0
62
7
6
CONTINUOUS
0
LAYER
5
200
100
AcDbSymbolTableRecord
100
AcDbLayerTableRecord
2
BG_STARTBEZUEGE
70
0
62
7
6
CONTINUOUS
0
LAYER
5
201
100
AcDbSymbolTableRecord
100
AcDbLayerTableRecord
2
BOHRUNGEN
70
0
62
7
6
CONTINUOUS
0
LAYER
5
202
100
AcDbSymbolTableRecord
100
AcDbLayerTableRecord
2
FASEN
70
0
62
7
6
CONTINUOUS
0
LAYER
5
203
100
AcDbSymbolTableRecord
100
AcDbLayerTableRecord
2
GEWINDE
70
0
62
7
6
CONTINUOUS
0
LAYER
5
204
100
AcDbSymbolTableRecord
100
AcDbLayerTableRecord
2
HILFEN
70
0
62
7
6
CONTINUOUS
0
LAYER
5
205
100
AcDbSymbolTableRecord
100
AcDbLayerTableRecord
2
KONSTRUKTIONSELEMENTE
70
0
62
7
6
CONTINUOUS
0
LAYER
5
206
100
AcDbSymbolTableRecord
100
AcDbLayerTableRecord
2
PLATZIERUNG
70
0
62
7
6
CONTINUOUS
0
LAYER
5
207
100
AcDbSymbolTableRecord
100
AcDbLayerTableRecord
2
PLAZIERUNG
70
0
62
7
6
CONTINUOUS
0
LAYER
5
208
100
AcDbSymbolTableRecord
100
AcDbLayerTableRecord
2
RUNDUNGEN
70
0
62
7
6
CONTINUOUS
0
LAYER
5
209
100
AcDbSymbolTableRecord
100
AcDbLayerTableRecord
2
TEIL_STARTBEZUEGE
70
0
62
7
6
CONTINUOUS
0
LAYER
5
20A
100
AcDbSymbolTableRecord
100
AcDbLayerTableRecord
2
XSEC_DATUMS
70
0
62
7
6
CONTINUOUS
0
ENDTAB
0
TABLE
2
STYLE
5
3
100
AcDbSymbolTable
70
1
0
STYLE
5
11
100
AcDbSymbolTableRecord
100
AcDbTextStyleTableRecord
2
STANDARD
70
0
40
0.0
41
0.7000000000
50
0.0
71
0
42
0.2
3
txt
4

0
ENDTAB
0
TABLE
2
VIEW
5
6
100
AcDbSymbolTable
70
0
0
ENDTAB
0
TABLE
2
UCS
5
7
100
AcDbSymbolTable
70
0
0
ENDTAB
0
TABLE
2
APPID
5
9
100
AcDbSymbolTable
70
1
0
APPID
5
20B
100
AcDbSymbolTableRecord
100
AcDbRegAppTableRecord
2
ACAD
70
0
0
ENDTAB
0
TABLE
2
DIMSTYLE
5
A
100
AcDbSymbolTable
70
1
0
DIMSTYLE
105
20C
100
AcDbSymbolTableRecord
100
AcDbDimStyleTableRecord
2
STANDARD
70
0
3

4

5

6

7

40
1.0
41
3.5000000000
42
0.0625
43
0.38
44
0.18
45
0.0
46
0.0
47
0.0050000000
48
0.0050000000
140
3.5000000000
141
0.09
142
0.0
143
25.4
144
1.0000000000
145
0.0
146
1.0000000000
147
0.09
71
1
72
0
73
0
74
0
75
0
76
0
77
1
78
8
170
0
171
2
172
0
173
0
174
0
175
0
176
0
177
0
178
5
270
2
271
3
272
3
273
2
274
2
340
11
275
0
280
0
281
0
282
0
283
1
284
8
285
0
286
0
287
3
288
0
0
ENDTAB
0
TABLE
2
BLOCK_RECORD
5
1
100
AcDbSymbolTable
70
0
0
BLOCK_RECORD
5
1B
100
AcDbSymbolTableRecord
100
AcDbBlockTableRecord
2
*MODEL_SPACE
0
BLOCK_RECORD
5
1C
100
AcDbSymbolTableRecord
100
AcDbBlockTableRecord
2
*PAPER_SPACE
0
ENDTAB
0
ENDSEC
0
SECTION
2
BLOCKS
0
BLOCK
5
1E
100
AcDbEntity
8
0
100
AcDbBlockBegin
2
*MODEL_SPACE
70
0
10
0.0
20
0.0
30
0.0
3
*MODEL_SPACE
1

0
ENDBLK
5
1F
100
AcDbEntity
8
0
100
AcDbBlockEnd
0
BLOCK
5
20
100
AcDbEntity
8
0
100
AcDbBlockBegin
2
*PAPER_SPACE
70
0
10
0.0
20
0.0
30
0.0
3
*PAPER_SPACE
1

0
ENDBLK
5
21
100
AcDbEntity
8
0
100
AcDbBlockEnd
0
ENDSEC
0
SECTION
2
ENTITIES
0
LINE
5
20D
100
AcDbEntity
8
0
100
AcDbLine
62
7
6
CONTINUOUS
10
0.0000000000
20
0.0000000000
11
0.0000000000
21
297.0000000000
0
LINE
5
20E
100
AcDbEntity
8
0
100
AcDbLine
62
7
6
CONTINUOUS
10
0.0000000000
20
0.0000000000
11
420.0000000000
21
0.0000000000
0
LINE
5
20F
100
AcDbEntity
8
0
100
AcDbLine
62
7
6
CONTINUOUS
10
0.0000000000
20
297.0000000000
11
420.0000000000
21
297.0000000000
0
LINE
5
210
100
AcDbEntity
8
0
100
AcDbLine
62
7
6
CONTINUOUS
10
420.0000000000
20
0.0000000000
11
420.0000000000
21
297.0000000000
0
LINE
5
211
100
AcDbEntity
8
0
100
AcDbLine
62
7
6
CONTINUOUS
10
92.4400265830
20
32.4658930254
11
89.2458814020
21
32.4658930254
0
LINE
5
212
100
AcDbEntity
8
0
100
AcDbLine
62
7
6
CONTINUOUS
10
50.0943636498
20
32.4658930254
11
46.9002184689
21
32.4658930254
0
LINE
5
213
100
AcDbEntity
8
0
100
AcDbLine
62
7
6
CONTINUOUS
10
62.3067453070
20
43.1658930254
11
77.0334997449
21
43.1658930254
0
LINE
5
214
100
AcDbEntity
8
0
100
AcDbLine
62
7
6
CONTINUOUS
10
37.6701225259
20
203.9658930254
11
46.9002184689
21
214.9658930254
0
LINE
5
215
100
AcDbEntity
8
0
100
AcDbLine
62
9
6
CONTINUOUS
10
37.9893547214
20
203.8107827098
11
46.8469614773
21
213.7302575816
0
LINE
5
216
100
AcDbEntity
8
0
100
AcDbLine
62
7
6
CONTINUOUS
10
44.4871436944
20
195.7265154286
11
43.9688458838
21
195.3588655814
0
LINE
5
217
100
AcDbEntity
8
0
100
AcDbLine
62
7
6
CONTINUOUS
10
44.6167181470
20
195.1750385540
11
45.0054415049
21
195.3588655814
0
LINE
5
218
100
AcDbEntity
8
0
100
AcDbLine
62
7
6
CONTINUOUS
10
47.2082075628
20
195.8184289423
11
46.8194842049
21
195.6346040187
0
LINE
5
219
100
AcDbEntity
8
0
100
AcDbLine
62
7
6
CONTINUOUS
10
47.2082075628
20
195.2669520677
11
47.7265055548
21
195.4507769913
0
LINE
5
21A
100
AcDbEntity
8
0
100
AcDbLine
62
7
6
CONTINUOUS
10
48.5039522707
20
193.1529580830
11
48.2448033654
21
193.0610445693
0
LINE
5
21B
100
AcDbEntity
8
DEFAULT_1
100
AcDbLine
62
2
6
CENTER
10
46.6701225259
20
50.9658930254
11
35.1289688090
21
50.9658930254
0
LINE
5
21C
100
AcDbEntity
8
DEFAULT_1
100
AcDbLine
62
2
6
CENTER
10
46.6701225259
20
50.9658930254
11
104.7414950409
21
50.9658930254
0
LINE
5
21D
100
AcDbEntity
8
0
100
AcDbLine
62
7
6
CONTINUOUS
10
43.7210268764
20
51.4858981571
11
44.7005070199
21
51.3131893808
0
LINE
5
21E
100
AcDbEntity
8
0
100
AcDbLine
62
9
6
CONTINUOUS
10
38.3123801694
20
43.2592529380
11
46.8469614773
21
33.7015284693
0
LINE
5
21F
100
AcDbEntity
8
0
100
AcDbLine
62
7
6
CONTINUOUS
10
46.9002184689
20
32.4658930254
11
38.3430973981
21
42.6638728038
0
LINE
5
220
100
AcDbEntity
8
0
100
AcDbLine
62
7
6
CONTINUOUS
10
44.3575692418
20
194.8993001167
11
44.6167181470
21
195.1750385540
0
LINE
5
221
100
AcDbEntity
8
0
100
AcDbLine
62
7
6
CONTINUOUS
10
48.7631012667
20
193.3367830066
11
48.5039522707
21
193.1529580830
0
LINE
5
222
100
AcDbEntity
8
0
100
AcDbLine
62
7
6
CONTINUOUS
10
44.6167181470
20
185.5241932484
11
44.0984203365
21
185.2484548111
0
LINE
5
223
100
AcDbEntity
8
0
100
AcDbLine
62
7
6
CONTINUOUS
10
48.6335268141
20
192.6933926183
11
49.0222501720
21
192.8772196457
0
LINE
5
224
100
AcDbEntity
8
0
100
AcDbLine
62
7
6
CONTINUOUS
10
43.7211884491
20
50.4459163834
11
44.7005070199
21
50.6185966701
0
LINE
5
225
100
AcDbEntity
8
0
100
AcDbLine
62
9
6
CONTINUOUS
10
101.5415626481
20
57.8581978709
11
99.7256941735
21
57.8581978709
0
LINE
5
226
100
AcDbEntity
8
0
100
AcDbLine
62
9
6
CONTINUOUS
10
38.1856554935
20
57.8581978709
11
39.6145508783
21
57.8581978709
0
LINE
5
227
100
AcDbEntity
8
0
100
AcDbLine
62
7
6
CONTINUOUS
10
36.8662749486
20
186.5735881800
11
29.6701225259
21
174.1094865649
0
LINE
5
228
100
AcDbEntity
8
0
100
AcDbLine
62
7
6
CONTINUOUS
10
43.9688458838
20
195.3588655814
11
43.7096969786
21
194.9912136304
0
LINE
5
229
100
AcDbEntity
8
0
100
AcDbLine
62
7
6
CONTINUOUS
10
46.9490586575
20
194.9912136304
11
47.2082075628
21
195.2669520677
0
LINE
5
22A
100
AcDbEntity
8
0
100
AcDbLine
62
7
6
CONTINUOUS
10
49.0222501720
20
192.8772196457
11
49.2813991226
21
193.1529580830
0
LINE
5
22B
100
AcDbEntity
8
0
100
AcDbLine
62
7
6
CONTINUOUS
10
44.0984203365
20
185.2484548111
11
43.7096969786
21
184.8808049639
0
LINE
5
22C
100
AcDbEntity
8
0
100
AcDbLine
62
7
6
CONTINUOUS
10
44.0984203365
20
181.1123793034
11
43.7096969786
21
180.7447273524
0
LINE
5
22D
100
AcDbEntity
8
0
100
AcDbLine
62
7
6
CONTINUOUS
10
44.3575692418
20
184.7888914502
11
44.6167181470
21
184.9727163738
0
LINE
5
22E
100
AcDbEntity
8
0
100
AcDbLine
62
7
6
CONTINUOUS
10
44.3575692418
20
180.6528148906
11
44.6167181470
21
180.8366408661
0
LINE
5
22F
100
AcDbEntity
8
0
100
AcDbLine
62
7
6
CONTINUOUS
10
44.6167181470
20
181.3881177407
11
44.0984203365
21
181.1123793034
0
LINE
5
230
100
AcDbEntity
8
0
100
AcDbLine
62
7
6
CONTINUOUS
10
62.3067451573
20
58.7658930254
11
77.0334998946
21
58.7658930254
0
LINE
5
231
100
AcDbEntity
8
0
100
AcDbLine
62
7
6
CONTINUOUS
10
36.8662749486
20
60.8581978709
11
29.6701225259
21
73.3222994860
0
LINE
5
232
100
AcDbEntity
8
0
100
AcDbLine
62
7
6
CONTINUOUS
10
46.8194842049
20
195.6346040187
11
46.5603352996
21
195.1750385540
0
LINE
5
233
100
AcDbEntity
8
0
100
AcDbLine
62
7
6
CONTINUOUS
10
34.2053512733
20
178.0758764745
11
38.5501992977
21
185.6013740038
0
LINE
5
234
100
AcDbEntity
8
0
100
AcDbLine
62
7
6
CONTINUOUS
10
48.8926757193
20
193.5206079302
11
48.7631012667
21
193.3367830066
0
LINE
5
235
100
AcDbEntity
8
0
100
AcDbLine
62
7
6
CONTINUOUS
10
49.2813991226
20
193.1529580830
11
49.5405480619
21
193.5206079302
0
LINE
5
236
100
AcDbEntity
8
0
100
AcDbLine
62
7
6
CONTINUOUS
10
59.5400103799
20
188.1927886512
11
56.9916186400
21
185.6443969113
0
LINE
5
237
100
AcDbEntity
8
0
100
AcDbLine
62
7
6
CONTINUOUS
10
79.8002346719
20
188.1927886512
11
76.8701225259
21
186.9790964610
0
LINE
5
238
100
AcDbEntity
8
0
100
AcDbLine
62
7
6
CONTINUOUS
10
79.8002346719
20
59.2389973997
11
76.8701225259
21
60.4526895899
0
LINE
5
239
100
AcDbEntity
8
0
100
AcDbLine
62
7
6
CONTINUOUS
10
59.5400103799
20
59.2389973997
11
56.9916186400
21
61.7873891396
0
LINE
5
23A
100
AcDbEntity
8
0
100
AcDbLine
62
7
6
CONTINUOUS
10
34.2053512733
20
69.3559095764
11
38.5501992977
21
61.8304120471
0
LINE
5
23B
100
AcDbEntity
8
0
100
AcDbLine
62
7
6
CONTINUOUS
10
44.2279947891
20
184.5131530129
11
44.3575692418
21
184.7888914502
0
LINE
5
23C
100
AcDbEntity
8
0
100
AcDbLine
62
7
6
CONTINUOUS
10
44.2279947891
20
180.3770764533
11
44.3575692418
21
180.6528148906
0
LINE
5
23D
100
AcDbEntity
8
0
100
AcDbLine
62
7
6
CONTINUOUS
10
59.0635208081
20
183.5724947432
11
62.4701225259
21
186.9790964610
0
LINE
5
23E
100
AcDbEntity
8
0
100
AcDbLine
62
7
6
CONTINUOUS
10
48.7631012667
20
167.1416314628
11
49.2813991226
21
167.5092826906
0
LINE
5
23F
100
AcDbEntity
8
0
100
AcDbLine
62
7
6
CONTINUOUS
10
48.5039522707
20
167.6931083374
11
48.1152289128
21
167.5092826906
0
LINE
5
240
100
AcDbEntity
8
0
100
AcDbLine
62
7
6
CONTINUOUS
10
48.2448033654
20
166.9578058406
11
48.7631012667
21
167.1416314628
0
LINE
5
241
100
AcDbEntity
8
0
100
AcDbLine
62
7
6
CONTINUOUS
10
59.0635208081
20
63.8592913076
11
62.4701225259
21
60.4526895899
0
LINE
5
242
100
AcDbEntity
8
0
100
AcDbLine
62
7
6
CONTINUOUS
10
29.6701225259
20
174.1094865649
11
29.6701225259
21
109.4658930254
0
LINE
5
243
100
AcDbEntity
8
0
100
AcDbLine
62
7
6
CONTINUOUS
10
29.6701225259
20
73.3222994860
11
29.6701225259
21
104.9658930254
0
LINE
5
244
100
AcDbEntity
8
0
100
AcDbLine
62
7
6
CONTINUOUS
10
43.7096969786
20
194.9912136304
11
43.5801225259
21
194.3478232421
0
LINE
5
245
100
AcDbEntity
8
0
100
AcDbLine
62
7
6
CONTINUOUS
10
44.2279947891
20
194.4397367558
11
44.3575692418
21
194.8993001167
0
LINE
5
246
100
AcDbEntity
8
0
100
AcDbLine
62
7
6
CONTINUOUS
10
43.7096969786
20
184.8808049639
11
43.5801225259
21
184.4212405511
0
LINE
5
247
100
AcDbEntity
8
0
100
AcDbLine
62
7
6
CONTINUOUS
10
43.7096969786
20
180.7447273524
11
43.5801225259
21
180.2851639915
0
LINE
5
248
100
AcDbEntity
8
0
100
AcDbLine
62
7
6
CONTINUOUS
10
49.5405480619
20
193.5206079302
11
49.6701225259
21
193.8882598812
0
LINE
5
249
100
AcDbEntity
8
0
100
AcDbLine
62
7
6
CONTINUOUS
10
49.2813991226
20
167.5092826906
11
49.5405480619
21
167.8769339841
0
LINE
5
24A
100
AcDbEntity
8
0
100
AcDbLine
62
7
6
CONTINUOUS
10
48.7631012667
20
167.9688467747
11
48.5039522707
21
167.6931083374
0
LINE
5
24B
100
AcDbEntity
8
0
100
AcDbLine
62
9
6
CONTINUOUS
10
53.0906132101
20
81.2929562604
11
34.2053512733
21
81.2929562604
0
LINE
5
24C
100
AcDbEntity
8
0
100
AcDbLine
62
9
6
CONTINUOUS
10
86.2496318418
20
81.2929562604
11
105.1348937785
21
81.2929562604
0
LINE
5
24D
100
AcDbEntity
8
0
100
AcDbLine
62
7
6
CONTINUOUS
10
34.2053512733
20
178.0758764745
11
34.2053512733
21
166.1388297905
0
LINE
5
24E
100
AcDbEntity
8
0
100
AcDbLine
62
7
6
CONTINUOUS
10
34.2053512733
20
69.3559095764
11
34.2053512733
21
81.2929562604
0
LINE
5
24F
100
AcDbEntity
8
0
100
AcDbLine
62
7
6
CONTINUOUS
10
46.8194842049
20
194.4397367558
11
46.9490586575
21
194.9912136304
0
LINE
5
250
100
AcDbEntity
8
0
100
AcDbLine
62
7
6
CONTINUOUS
10
49.0222501720
20
193.9801733949
11
48.8926757193
21
193.5206079302
0
LINE
5
251
100
AcDbEntity
8
0
100
AcDbLine
62
7
6
CONTINUOUS
10
48.8926757193
20
168.3364980682
11
48.7631012667
21
167.9688467747
0
LINE
5
252
100
AcDbEntity
8
0
100
AcDbLine
62
9
6
CONTINUOUS
10
82.3486264118
20
185.6443969113
11
80.2767242437
21
183.5724947432
0
LINE
5
253
100
AcDbEntity
8
0
100
AcDbLine
62
9
6
CONTINUOUS
10
102.4739701032
20
186.5735881800
11
100.7900457542
21
185.6013740038
0
LINE
5
254
100
AcDbEntity
8
0
100
AcDbLine
62
9
6
CONTINUOUS
10
102.4739701032
20
60.8581978709
11
100.7900457542
21
61.8304120471
0
LINE
5
255
100
AcDbEntity
8
0
100
AcDbLine
62
9
6
CONTINUOUS
10
82.3486264118
20
61.7873891396
11
80.2767242437
21
63.8592913076
0
LINE
5
256
100
AcDbEntity
8
0
100
AcDbLine
62
7
6
CONTINUOUS
10
37.6701225259
20
203.9658930254
11
37.6701225259
21
203.4658930254
0
LINE
5
257
100
AcDbEntity
8
0
100
AcDbLine
62
7
6
CONTINUOUS
10
39.6145508783
20
196.4658933580
11
39.6145508783
21
189.5735881800
0
LINE
5
258
100
AcDbEntity
8
0
100
AcDbLine
62
7
6
CONTINUOUS
10
39.6145508783
20
50.9658926929
11
39.6145508783
21
57.8581978709
0
LINE
5
259
100
AcDbEntity
8
0
100
AcDbLine
62
7
6
CONTINUOUS
10
43.5801225259
20
194.3478232421
11
43.5801225259
21
194.1639983185
0
LINE
5
25A
100
AcDbEntity
8
0
100
AcDbLine
62
7
6
CONTINUOUS
10
43.5801225259
20
191.8661773064
11
43.5801225259
21
191.3147004318
0
LINE
5
25B
100
AcDbEntity
8
0
100
AcDbLine
62
7
6
CONTINUOUS
10
43.5801225259
20
184.4212405511
11
43.5801225259
21
182.2153330526
0
LINE
5
25C
100
AcDbEntity
8
0
100
AcDbLine
62
7
6
CONTINUOUS
10
43.5801225259
20
180.2851639915
11
43.5801225259
21
178.0792564931
0
LINE
5
25D
100
AcDbEntity
8
0
100
AcDbLine
62
7
6
CONTINUOUS
10
43.5801225259
20
175.3218715941
11
43.5801225259
21
174.7703947195
0
LINE
5
25E
100
AcDbEntity
8
0
100
AcDbLine
62
7
6
CONTINUOUS
10
43.5801225259
20
173.4836155207
11
43.5801225259
21
172.7483131966
0
LINE
5
25F
100
AcDbEntity
8
0
100
AcDbLine
62
7
6
CONTINUOUS
10
43.5801225259
20
171.4615334719
11
43.5801225259
21
170.9100568602
0
LINE
5
260
100
AcDbEntity
8
0
100
AcDbLine
62
7
6
CONTINUOUS
10
43.5801225259
20
170.1747542731
11
43.5801225259
21
169.6232773985
0
LINE
5
261
100
AcDbEntity
8
0
100
AcDbLine
62
7
6
CONTINUOUS
10
43.5801225259
20
167.4173699001
11
43.5801225259
21
166.8658930254
0
LINE
5
262
100
AcDbEntity
8
0
100
AcDbLine
62
7
6
CONTINUOUS
10
49.5405480619
20
167.8769339841
11
49.6701225259
21
168.3364980682
0
LINE
5
263
100
AcDbEntity
8
0
100
AcDbLine
62
9
6
CONTINUOUS
10
42.6195383826
20
94.1329046882
11
96.7207066692
21
94.1329046882
0
LINE
5
264
100
AcDbEntity
8
0
100
AcDbLine
62
7
6
CONTINUOUS
10
44.2279947891
20
178.6307333677
11
44.2279947891
21
180.3770764533
0
LINE
5
265
100
AcDbEntity
8
0
100
AcDbLine
62
7
6
CONTINUOUS
10
44.2279947891
20
182.7668099272
11
44.2279947891
21
184.5131530129
0
LINE
5
266
100
AcDbEntity
8
0
100
AcDbLine
62
7
6
CONTINUOUS
10
44.2279947891
20
194.0720848048
11
44.2279947891
21
194.4397367558
0
LINE
5
267
100
AcDbEntity
8
0
100
AcDbLine
62
7
6
CONTINUOUS
10
45.0054415049
20
192.6933926183
11
45.0054415049
21
193.1529580830
0
LINE
5
268
100
AcDbEntity
8
0
100
AcDbLine
62
7
6
CONTINUOUS
10
46.1716119417
20
184.5131530129
11
46.1716119417
21
182.7668099272
0
LINE
5
269
100
AcDbEntity
8
0
100
AcDbLine
62
7
6
CONTINUOUS
10
46.1716119417
20
180.3770764533
11
46.1716119417
21
178.6307333677
0
LINE
5
26A
100
AcDbEntity
8
0
100
AcDbLine
62
7
6
CONTINUOUS
10
46.3011863943
20
194.4397367558
11
46.3011863943
21
194.0720848048
0
LINE
5
26B
100
AcDbEntity
8
DEFAULT_1
100
AcDbLine
62
2
6
CENTER
10
46.6701225259
20
50.9658930254
11
46.6701225259
21
47.2158930254
0
LINE
5
26C
100
AcDbEntity
8
DEFAULT_1
100
AcDbLine
62
2
6
CENTER
10
46.6701225259
20
50.9658930254
11
46.6701225259
21
54.7158930254
0
LINE
5
26D
100
AcDbEntity
8
0
100
AcDbLine
62
7
6
CONTINUOUS
10
46.8194842049
20
177.3439536430
11
46.8194842049
21
176.0571739183
0
LINE
5
26E
100
AcDbEntity
8
0
100
AcDbLine
62
7
6
CONTINUOUS
10
46.8194842049
20
194.0720848048
11
46.8194842049
21
194.4397367558
0
LINE
5
26F
100
AcDbEntity
8
0
100
AcDbLine
62
7
6
CONTINUOUS
10
46.9490586575
20
178.6307333677
11
46.9490586575
21
180.2851639915
0
LINE
5
270
100
AcDbEntity
8
0
100
AcDbLine
62
7
6
CONTINUOUS
10
46.9490586575
20
182.7668099272
11
46.9490586575
21
184.4212405511
0
LINE
5
271
100
AcDbEntity
8
0
100
AcDbLine
62
7
6
CONTINUOUS
10
47.4673566496
20
176.0571739183
11
47.4673566496
21
177.3439536430
0
LINE
5
272
100
AcDbEntity
8
0
100
AcDbLine
62
7
6
CONTINUOUS
10
48.2448033654
20
193.0610445693
11
48.2448033654
21
192.6014812084
0
LINE
5
273
100
AcDbEntity
8
0
100
AcDbLine
62
7
6
CONTINUOUS
10
48.8926757193
20
168.7041492303
11
48.8926757193
21
168.3364980682
0
LINE
5
274
100
AcDbEntity
8
0
100
AcDbLine
62
7
6
CONTINUOUS
10
49.0222501720
20
194.5316502695
11
49.0222501720
21
193.9801733949
0
LINE
5
275
100
AcDbEntity
8
0
100
AcDbLine
62
7
6
CONTINUOUS
10
49.6701225259
20
168.3364980682
11
49.6701225259
21
168.7041492303
0
LINE
5
276
100
AcDbEntity
8
0
100
AcDbLine
62
7
6
CONTINUOUS
10
49.6701225259
20
171.6453594474
11
49.6701225259
21
172.3806617715
0
LINE
5
277
100
AcDbEntity
8
0
100
AcDbLine
62
7
6
CONTINUOUS
10
49.6701225259
20
173.8512669458
11
49.6701225259
21
174.5865692699
0
LINE
5
278
100
AcDbEntity
8
0
100
AcDbLine
62
7
6
CONTINUOUS
10
49.6701225259
20
178.0792564931
11
49.6701225259
21
178.6307333677
0
LINE
5
279
100
AcDbEntity
8
0
100
AcDbLine
62
7
6
CONTINUOUS
10
49.6701225259
20
182.2153330526
11
49.6701225259
21
182.7668099272
0
LINE
5
27A
100
AcDbEntity
8
0
100
AcDbLine
62
7
6
CONTINUOUS
10
49.6701225259
20
191.3147004318
11
49.6701225259
21
191.8661773064
0
LINE
5
27B
100
AcDbEntity
8
0
100
AcDbLine
62
7
6
CONTINUOUS
10
49.6701225259
20
193.8882598812
11
49.6701225259
21
194.6235616794
0
LINE
5
27C
100
AcDbEntity
8
0
100
AcDbLine
62
7
6
CONTINUOUS
10
29.6701225259
20
104.9658930254
11
30.1701225259
21
105.4658930254
0
LINE
5
27D
100
AcDbEntity
8
0
100
AcDbLine
62
7
6
CONTINUOUS
10
29.6701225259
20
104.9658930254
11
109.6701225259
21
104.9658930254
0
LINE
5
27E
100
AcDbEntity
8
0
100
AcDbLine
62
7
6
CONTINUOUS
10
109.1701225259
20
105.4658930254
11
30.1701225259
21
105.4658930254
0
LINE
5
27F
100
AcDbEntity
8
0
100
AcDbLine
62
7
6
CONTINUOUS
10
109.6696538382
20
109.4658930254
11
29.6705912137
21
109.4658930254
0
LINE
5
280
100
AcDbEntity
8
0
100
AcDbLine
62
7
6
CONTINUOUS
10
59.5400103799
20
196.4658930254
11
59.5400103799
21
188.1927886512
0
LINE
5
281
100
AcDbEntity
8
0
100
AcDbLine
62
7
6
CONTINUOUS
10
59.5400103799
20
50.9658930254
11
59.5400103799
21
59.2389973997
0
LINE
5
282
100
AcDbEntity
8
0
100
AcDbLine
62
7
6
CONTINUOUS
10
62.4701225259
20
60.4526895899
11
62.4701225259
21
58.8408930254
0
LINE
5
283
100
AcDbEntity
8
0
100
AcDbLine
62
7
6
CONTINUOUS
10
62.4701225259
20
43.0908930254
11
62.4701225259
21
36.3861586708
0
LINE
5
284
100
AcDbEntity
8
0
100
AcDbLine
62
7
6
CONTINUOUS
10
62.4701225259
20
186.9790964610
11
62.4701225259
21
188.5908930254
0
LINE
5
285
100
AcDbEntity
8
0
100
AcDbLine
62
7
6
CONTINUOUS
10
62.4701225259
20
204.3408930254
11
62.4701225259
21
211.0456273801
0
LINE
5
286
100
AcDbEntity
8
0
100
AcDbLine
62
7
6
CONTINUOUS
10
49.6701225259
20
168.7041492303
11
49.5405480619
21
169.1637132487
0
LINE
5
287
100
AcDbEntity
8
0
100
AcDbLine
62
7
6
CONTINUOUS
10
46.9490586575
20
180.2851639915
11
46.8194842049
21
180.7447273524
0
LINE
5
288
100
AcDbEntity
8
0
100
AcDbLine
62
7
6
CONTINUOUS
10
43.5801225259
20
194.1639983185
11
43.7096969786
21
193.5206079302
0
LINE
5
289
100
AcDbEntity
8
DEFAULT_1
100
AcDbLine
62
2
6
CENTER
10
69.6701225259
20
36.0489571040
11
69.6701225259
21
217.6458796982
0
LINE
5
28A
100
AcDbEntity
8
0
100
AcDbLine
62
7
6
CONTINUOUS
10
101.1374409794
20
203.3423237592
11
99.7687728584
21
200.3384971918
0
LINE
5
28B
100
AcDbEntity
8
0
100
AcDbLine
62
7
6
CONTINUOUS
10
101.3508903304
20
43.6210033411
11
99.7687728584
21
47.0932888591
0
LINE
5
28C
100
AcDbEntity
8
0
100
AcDbLine
62
7
6
CONTINUOUS
10
48.7631012667
20
169.0718005239
11
48.8926757193
21
168.7041492303
0
LINE
5
28D
100
AcDbEntity
8
0
100
AcDbLine
62
7
6
CONTINUOUS
10
46.9490586575
20
184.4212405511
11
46.8194842049
21
184.8808049639
0
LINE
5
28E
100
AcDbEntity
8
0
100
AcDbLine
62
7
6
CONTINUOUS
10
44.3575692418
20
193.6125214439
11
44.2279947891
21
194.0720848048
0
LINE
5
28F
100
AcDbEntity
8
0
100
AcDbLine
62
7
6
CONTINUOUS
10
48.8926757193
20
194.9912136304
11
49.0222501720
21
194.5316502695
0
LINE
5
290
100
AcDbEntity
8
0
100
AcDbLine
62
7
6
CONTINUOUS
10
76.8701225259
20
60.4526895899
11
76.8701225259
21
58.8408930254
0
LINE
5
291
100
AcDbEntity
8
0
100
AcDbLine
62
7
6
CONTINUOUS
10
76.8701225259
20
43.0908930254
11
76.8701225259
21
36.3861586708
0
LINE
5
292
100
AcDbEntity
8
0
100
AcDbLine
62
7
6
CONTINUOUS
10
76.8701225259
20
186.9790964610
11
76.8701225259
21
188.5908930254
0
LINE
5
293
100
AcDbEntity
8
0
100
AcDbLine
62
7
6
CONTINUOUS
10
76.8701225259
20
204.3408930254
11
76.8701225259
21
211.0456273801
0
LINE
5
294
100
AcDbEntity
8
0
100
AcDbLine
62
7
6
CONTINUOUS
10
38.1818785316
20
44.0435368443
11
39.5714721934
21
47.0932888591
0
LINE
5
295
100
AcDbEntity
8
0
100
AcDbLine
62
7
6
CONTINUOUS
10
46.0420374890
20
180.6528148906
11
46.1716119417
21
180.3770764533
0
LINE
5
296
100
AcDbEntity
8
0
100
AcDbLine
62
7
6
CONTINUOUS
10
46.0420374890
20
184.7888914502
11
46.1716119417
21
184.5131530129
0
LINE
5
297
100
AcDbEntity
8
0
100
AcDbLine
62
7
6
CONTINUOUS
10
37.9893547214
20
203.8107827098
11
39.5714721934
21
200.3384971918
0
LINE
5
298
100
AcDbEntity
8
0
100
AcDbLine
62
7
6
CONTINUOUS
10
49.6701225259
20
194.6235616794
11
49.5405480619
21
194.9912136304
0
LINE
5
299
100
AcDbEntity
8
0
100
AcDbLine
62
7
6
CONTINUOUS
10
79.8002346719
20
196.4658930254
11
79.8002346719
21
188.1927886512
0
LINE
5
29A
100
AcDbEntity
8
0
100
AcDbLine
62
7
6
CONTINUOUS
10
79.8002346719
20
50.9658930254
11
79.8002346719
21
59.2389973997
0
LINE
5
29B
100
AcDbEntity
8
0
100
AcDbLine
62
7
6
CONTINUOUS
10
49.5405480619
20
169.1637132487
11
49.2813991226
21
169.5313646737
0
LINE
5
29C
100
AcDbEntity
8
0
100
AcDbLine
62
7
6
CONTINUOUS
10
46.0420374890
20
194.9912136304
11
46.3011863943
21
194.4397367558
0
LINE
5
29D
100
AcDbEntity
8
0
100
AcDbLine
62
7
6
CONTINUOUS
10
109.6701225259
20
104.9658930254
11
109.1701225259
21
105.4658930254
0
LINE
5
29E
100
AcDbEntity
8
0
100
AcDbLine
62
7
6
CONTINUOUS
10
48.5039522707
20
169.3475389612
11
48.7631012667
21
169.0718005239
0
LINE
5
29F
100
AcDbEntity
8
0
100
AcDbLine
62
7
6
CONTINUOUS
10
43.7096969786
20
193.5206079302
11
43.9688458838
21
193.1529580830
0
LINE
5
2A0
100
AcDbEntity
8
DEFAULT_1
100
AcDbLine
62
2
6
CENTER
10
92.6701225259
20
196.4658930254
11
92.6701225259
21
192.7158930254
0
LINE
5
2A1
100
AcDbEntity
8
DEFAULT_1
100
AcDbLine
62
2
6
CENTER
10
92.6701225259
20
196.4658930254
11
92.6701225259
21
200.2158930254
0
LINE
5
2A2
100
AcDbEntity
8
0
100
AcDbLine
62
7
6
CONTINUOUS
10
49.2813991226
20
169.5313646737
11
48.7631012667
21
169.8990158358
0
LINE
5
2A3
100
AcDbEntity
8
0
100
AcDbLine
62
7
6
CONTINUOUS
10
46.8194842049
20
180.7447273524
11
46.4307608470
21
181.1123793034
0
LINE
5
2A4
100
AcDbEntity
8
0
100
AcDbLine
62
7
6
CONTINUOUS
10
48.7631012667
20
195.1750385540
11
48.8926757193
21
194.9912136304
0
LINE
5
2A5
100
AcDbEntity
8
0
100
AcDbLine
62
7
6
CONTINUOUS
10
49.5405480619
20
194.9912136304
11
49.2813991226
21
195.3588655814
0
LINE
5
2A6
100
AcDbEntity
8
0
100
AcDbLine
62
7
6
CONTINUOUS
10
99.7256941735
20
196.4658933580
11
99.7256941735
21
189.5735881800
0
LINE
5
2A7
100
AcDbEntity
8
0
100
AcDbLine
62
7
6
CONTINUOUS
10
99.7256941735
20
50.9658926929
11
99.7256941735
21
57.8581978709
0
LINE
5
2A8
100
AcDbEntity
8
0
100
AcDbLine
62
7
6
CONTINUOUS
10
101.6701225259
20
43.4658930254
11
101.6701225259
21
43.9658930254
0
LINE
5
2A9
100
AcDbEntity
8
0
100
AcDbLine
62
9
6
CONTINUOUS
10
42.6195383826
20
153.2988813627
11
96.7207066692
21
153.2988813627
0
LINE
5
2AA
100
AcDbEntity
8
0
100
AcDbLine
62
7
6
CONTINUOUS
10
48.1152289128
20
169.5313646737
11
48.5039522707
21
169.3475389612
0
LINE
5
2AB
100
AcDbEntity
8
0
100
AcDbLine
62
7
6
CONTINUOUS
10
45.7828885838
20
180.8366408661
11
46.0420374890
21
180.6528148906
0
LINE
5
2AC
100
AcDbEntity
8
0
100
AcDbLine
62
7
6
CONTINUOUS
10
46.8194842049
20
184.8808049639
11
46.4307608470
21
185.2484548111
0
LINE
5
2AD
100
AcDbEntity
8
0
100
AcDbLine
62
7
6
CONTINUOUS
10
44.6167181470
20
193.3367830066
11
44.3575692418
21
193.6125214439
0
LINE
5
2AE
100
AcDbEntity
8
0
100
AcDbLine
62
7
6
CONTINUOUS
10
105.1348937785
20
178.0758764745
11
105.1348937785
21
166.1388297905
0
LINE
5
2AF
100
AcDbEntity
8
0
100
AcDbLine
62
7
6
CONTINUOUS
10
105.1348937785
20
69.3559095764
11
105.1348937785
21
81.2929562604
0
LINE
5
2B0
100
AcDbEntity
8
0
100
AcDbLine
62
7
6
CONTINUOUS
10
109.6701225259
20
174.1094865649
11
109.6701225259
21
109.4658930254
0
LINE
5
2B1
100
AcDbEntity
8
0
100
AcDbLine
62
7
6
CONTINUOUS
10
109.6701225259
20
73.3222994860
11
109.6701225259
21
104.9658930254
0
LINE
5
2B2
100
AcDbEntity
8
0
100
AcDbLine
62
9
6
CONTINUOUS
10
56.9916186400
20
61.7873891396
11
59.0635208081
21
63.8592913076
0
LINE
5
2B3
100
AcDbEntity
8
0
100
AcDbLine
62
9
6
CONTINUOUS
10
36.8662749486
20
60.8581978709
11
38.5501992977
21
61.8304120471
0
LINE
5
2B4
100
AcDbEntity
8
0
100
AcDbLine
62
7
6
CONTINUOUS
10
48.7631012667
20
169.8990158358
11
48.2448033654
21
170.0828415483
0
LINE
5
2B5
100
AcDbEntity
8
0
100
AcDbLine
62
7
6
CONTINUOUS
10
46.4307608470
20
181.1123793034
11
45.9124630364
21
181.3881177407
0
LINE
5
2B6
100
AcDbEntity
8
0
100
AcDbLine
62
9
6
CONTINUOUS
10
36.8662749486
20
186.5735881800
11
38.5501992977
21
185.6013740038
0
LINE
5
2B7
100
AcDbEntity
8
0
100
AcDbLine
62
7
6
CONTINUOUS
10
45.7828885838
20
184.9727163738
11
46.0420374890
21
184.7888914502
0
LINE
5
2B8
100
AcDbEntity
8
0
100
AcDbLine
62
7
6
CONTINUOUS
10
46.5603352996
20
195.1750385540
11
46.1716119417
21
195.5426905050
0
LINE
5
2B9
100
AcDbEntity
8
0
100
AcDbLine
62
9
6
CONTINUOUS
10
56.9916186400
20
185.6443969113
11
59.0635208081
21
183.5724947432
0
LINE
5
2BA
100
AcDbEntity
8
0
100
AcDbLine
62
7
6
CONTINUOUS
10
49.2813991226
20
195.3588655814
11
49.0222501720
21
195.6346040187
0
LINE
5
2BB
100
AcDbEntity
8
0
100
AcDbLine
62
7
6
CONTINUOUS
10
48.1152289128
20
167.5092826906
11
47.5969311022
21
167.4173699001
0
LINE
5
2BC
100
AcDbEntity
8
0
100
AcDbLine
62
7
6
CONTINUOUS
10
47.5969311022
20
166.8658930254
11
48.2448033654
21
166.9578058406
0
LINE
5
2BD
100
AcDbEntity
8
0
100
AcDbLine
62
9
6
CONTINUOUS
10
53.0906132101
20
166.1388297905
11
34.2053512733
21
166.1388297905
0
LINE
5
2BE
100
AcDbEntity
8
0
100
AcDbLine
62
9
6
CONTINUOUS
10
86.2496318418
20
166.1388297905
11
105.1348937785
21
166.1388297905
0
LINE
5
2BF
100
AcDbEntity
8
0
100
AcDbLine
62
7
6
CONTINUOUS
10
43.5801225259
20
166.8658930254
11
47.5969311022
21
166.8658930254
0
LINE
5
2C0
100
AcDbEntity
8
0
100
AcDbLine
62
7
6
CONTINUOUS
10
47.5969311022
20
167.4173699001
11
43.5801225259
21
167.4173699001
0
LINE
5
2C1
100
AcDbEntity
8
0
100
AcDbLine
62
7
6
CONTINUOUS
10
43.5801225259
20
169.6232773985
11
47.5969311022
21
169.6232773985
0
LINE
5
2C2
100
AcDbEntity
8
0
100
AcDbLine
62
7
6
CONTINUOUS
10
47.5969311022
20
170.1747542731
11
43.5801225259
21
170.1747542731
0
LINE
5
2C3
100
AcDbEntity
8
0
100
AcDbLine
62
7
6
CONTINUOUS
10
48.2448033654
20
170.0828415483
11
47.5969311022
21
170.1747542731
0
LINE
5
2C4
100
AcDbEntity
8
0
100
AcDbLine
62
7
6
CONTINUOUS
10
49.6701225259
20
172.3806617715
11
44.7462925997
21
173.1159640957
0
LINE
5
2C5
100
AcDbEntity
8
0
100
AcDbLine
62
7
6
CONTINUOUS
10
43.5801225259
20
172.7483131966
11
48.2448033654
21
172.0130103465
0
LINE
5
2C6
100
AcDbEntity
8
0
100
AcDbLine
62
7
6
CONTINUOUS
10
47.5969311022
20
169.6232773985
11
48.1152289128
21
169.5313646737
0
LINE
5
2C7
100
AcDbEntity
8
0
100
AcDbLine
62
7
6
CONTINUOUS
10
46.4307608470
20
185.2484548111
11
45.9124630364
21
185.5241932484
0
LINE
5
2C8
100
AcDbEntity
8
0
100
AcDbLine
62
7
6
CONTINUOUS
10
43.5801225259
20
191.3147004318
11
44.4871436944
21
190.7632235572
0
LINE
5
2C9
100
AcDbEntity
8
0
100
AcDbLine
62
7
6
CONTINUOUS
10
45.5237396785
20
190.7632235572
11
44.6167181470
21
191.3147004318
0
LINE
5
2CA
100
AcDbEntity
8
0
100
AcDbLine
62
7
6
CONTINUOUS
10
43.9688458838
20
193.1529580830
11
44.4871436944
21
192.7853061320
0
LINE
5
2CB
100
AcDbEntity
8
0
100
AcDbLine
62
7
6
CONTINUOUS
10
45.7828885838
20
195.1750385540
11
46.0420374890
21
194.9912136304
0
LINE
5
2CC
100
AcDbEntity
8
0
100
AcDbLine
62
7
6
CONTINUOUS
10
48.5039522707
20
195.3588655814
11
48.7631012667
21
195.1750385540
0
LINE
5
2CD
100
AcDbEntity
8
0
100
AcDbLine
62
7
6
CONTINUOUS
10
80.2767242437
20
63.8592913076
11
76.8701225259
21
60.4526895899
0
LINE
5
2CE
100
AcDbEntity
8
0
100
AcDbLine
62
7
6
CONTINUOUS
10
79.8002346719
20
59.2389973997
11
82.3486264118
21
61.7873891396
0
LINE
5
2CF
100
AcDbEntity
8
0
100
AcDbLine
62
7
6
CONTINUOUS
10
48.2448033654
20
174.2189178449
11
43.5801225259
21
173.4836155207
0
LINE
5
2D0
100
AcDbEntity
8
0
100
AcDbLine
62
7
6
CONTINUOUS
10
44.7462925997
20
173.1159640957
11
49.6701225259
21
173.8512669458
0
LINE
5
2D1
100
AcDbEntity
8
0
100
AcDbLine
62
7
6
CONTINUOUS
10
43.5801225259
20
170.9100568602
11
49.6701225259
21
171.6453594474
0
LINE
5
2D2
100
AcDbEntity
8
0
100
AcDbLine
62
7
6
CONTINUOUS
10
48.2448033654
20
172.0130103465
11
43.5801225259
21
171.4615334719
0
LINE
5
2D3
100
AcDbEntity
8
0
100
AcDbLine
62
7
6
CONTINUOUS
10
46.8194842049
20
176.0571739183
11
47.4673566496
21
176.0571739183
0
LINE
5
2D4
100
AcDbEntity
8
0
100
AcDbLine
62
7
6
CONTINUOUS
10
47.4673566496
20
177.3439536430
11
46.8194842049
21
177.3439536430
0
LINE
5
2D5
100
AcDbEntity
8
0
100
AcDbLine
62
7
6
CONTINUOUS
10
43.5801225259
20
174.7703947195
11
48.2448033654
21
174.2189178449
0
LINE
5
2D6
100
AcDbEntity
8
0
100
AcDbLine
62
7
6
CONTINUOUS
10
49.6701225259
20
174.5865692699
11
43.5801225259
21
175.3218715941
0
LINE
5
2D7
100
AcDbEntity
8
0
100
AcDbLine
62
7
6
CONTINUOUS
10
45.3941652259
20
180.9285533279
11
45.7828885838
21
180.8366408661
0
LINE
5
2D8
100
AcDbEntity
8
0
100
AcDbLine
62
7
6
CONTINUOUS
10
45.9124630364
20
181.3881177407
11
45.5237396785
21
181.4800302025
0
LINE
5
2D9
100
AcDbEntity
8
0
100
AcDbLine
62
7
6
CONTINUOUS
10
45.0054415049
20
193.1529580830
11
44.6167181470
21
193.3367830066
0
LINE
5
2DA
100
AcDbEntity
8
0
100
AcDbLine
62
7
6
CONTINUOUS
10
80.2767242437
20
183.5724947432
11
76.8701225259
21
186.9790964610
0
LINE
5
2DB
100
AcDbEntity
8
0
100
AcDbLine
62
7
6
CONTINUOUS
10
79.8002346719
20
188.1927886512
11
82.3486264118
21
185.6443969113
0
LINE
5
2DC
100
AcDbEntity
8
0
100
AcDbLine
62
7
6
CONTINUOUS
10
105.1348937785
20
69.3559095764
11
100.7900457542
21
61.8304120471
0
LINE
5
2DD
100
AcDbEntity
8
0
100
AcDbLine
62
7
6
CONTINUOUS
10
102.4739701032
20
60.8581978709
11
109.6701225259
21
73.3222994860
0
LINE
5
2DE
100
AcDbEntity
8
0
100
AcDbLine
62
7
6
CONTINUOUS
10
59.5400103799
20
59.2389973997
11
62.4701225259
21
60.4526895899
0
LINE
5
2DF
100
AcDbEntity
8
0
100
AcDbLine
62
7
6
CONTINUOUS
10
43.5801225259
20
178.0792564931
11
49.6701225259
21
178.0792564931
0
LINE
5
2E0
100
AcDbEntity
8
0
100
AcDbLine
62
7
6
CONTINUOUS
10
49.6701225259
20
178.6307333677
11
46.9490586575
21
178.6307333677
0
LINE
5
2E1
100
AcDbEntity
8
0
100
AcDbLine
62
7
6
CONTINUOUS
10
46.1716119417
20
178.6307333677
11
44.2279947891
21
178.6307333677
0
LINE
5
2E2
100
AcDbEntity
8
0
100
AcDbLine
62
7
6
CONTINUOUS
10
45.0054415049
20
180.9285533279
11
45.3941652259
21
180.9285533279
0
LINE
5
2E3
100
AcDbEntity
8
0
100
AcDbLine
62
7
6
CONTINUOUS
10
45.5237396785
20
181.4800302025
11
45.0054415049
21
181.4800302025
0
LINE
5
2E4
100
AcDbEntity
8
0
100
AcDbLine
62
7
6
CONTINUOUS
10
43.5801225259
20
182.2153330526
11
49.6701225259
21
182.2153330526
0
LINE
5
2E5
100
AcDbEntity
8
0
100
AcDbLine
62
7
6
CONTINUOUS
10
49.6701225259
20
182.7668099272
11
46.9490586575
21
182.7668099272
0
LINE
5
2E6
100
AcDbEntity
8
0
100
AcDbLine
62
7
6
CONTINUOUS
10
46.1716119417
20
182.7668099272
11
44.2279947891
21
182.7668099272
0
LINE
5
2E7
100
AcDbEntity
8
0
100
AcDbLine
62
7
6
CONTINUOUS
10
45.3941652259
20
185.0646298875
11
45.7828885838
21
184.9727163738
0
LINE
5
2E8
100
AcDbEntity
8
0
100
AcDbLine
62
7
6
CONTINUOUS
10
45.9124630364
20
185.5241932484
11
45.5237396785
21
185.6161067621
0
LINE
5
2E9
100
AcDbEntity
8
0
100
AcDbLine
62
7
6
CONTINUOUS
10
45.2645907732
20
195.3588655814
11
45.7828885838
21
195.1750385540
0
LINE
5
2EA
100
AcDbEntity
8
0
100
AcDbLine
62
7
6
CONTINUOUS
10
48.2448033654
20
195.4507769913
11
48.5039522707
21
195.3588655814
0
LINE
5
2EB
100
AcDbEntity
8
0
100
AcDbLine
62
7
6
CONTINUOUS
10
59.5400103799
20
188.1927886512
11
62.4701225259
21
186.9790964610
0
LINE
5
2EC
100
AcDbEntity
8
0
100
AcDbLine
62
7
6
CONTINUOUS
10
46.1716119417
20
195.5426905050
11
45.7828885838
21
195.7265154286
0
LINE
5
2ED
100
AcDbEntity
8
0
100
AcDbLine
62
7
6
CONTINUOUS
10
49.0222501720
20
195.6346040187
11
48.6335268141
21
195.8184289423
0
LINE
5
2EE
100
AcDbEntity
8
0
100
AcDbLine
62
7
6
CONTINUOUS
10
105.1348937785
20
178.0758764745
11
100.7900457542
21
185.6013740038
0
LINE
5
2EF
100
AcDbEntity
8
0
100
AcDbLine
62
7
6
CONTINUOUS
10
102.4739701032
20
186.5735881800
11
109.6701225259
21
174.1094865649
0
LINE
5
2F0
100
AcDbEntity
8
0
100
AcDbLine
62
7
6
CONTINUOUS
10
44.6167181470
20
180.8366408661
11
45.0054415049
21
180.9285533279
0
LINE
5
2F1
100
AcDbEntity
8
0
100
AcDbLine
62
7
6
CONTINUOUS
10
45.0054415049
20
181.4800302025
11
44.6167181470
21
181.3881177407
0
LINE
5
2F2
100
AcDbEntity
8
0
100
AcDbLine
62
7
6
CONTINUOUS
10
44.6167181470
20
184.9727163738
11
45.0054415049
21
185.0646298875
0
LINE
5
2F3
100
AcDbEntity
8
0
100
AcDbLine
62
7
6
CONTINUOUS
10
45.0054415049
20
185.6161067621
11
44.6167181470
21
185.5241932484
0
LINE
5
2F4
100
AcDbEntity
8
0
100
AcDbLine
62
7
6
CONTINUOUS
10
45.0054415049
20
185.0646298875
11
45.3941652259
21
185.0646298875
0
LINE
5
2F5
100
AcDbEntity
8
0
100
AcDbLine
62
7
6
CONTINUOUS
10
45.5237396785
20
185.6161067621
11
45.0054415049
21
185.6161067621
0
LINE
5
2F6
100
AcDbEntity
8
0
100
AcDbLine
62
7
6
CONTINUOUS
10
62.3067451573
20
188.6658930254
11
77.0334998946
21
188.6658930254
0
LINE
5
2F7
100
AcDbEntity
8
0
100
AcDbLine
62
9
6
CONTINUOUS
10
101.1393691889
20
189.5735881800
11
99.7256941735
21
189.5735881800
0
LINE
5
2F8
100
AcDbEntity
8
0
100
AcDbLine
62
9
6
CONTINUOUS
10
37.7986824037
20
189.5735881800
11
39.6145508783
21
189.5735881800
0
LINE
5
2F9
100
AcDbEntity
8
0
100
AcDbLine
62
7
6
CONTINUOUS
10
44.4871436944
20
190.7632235572
11
45.5237396785
21
190.7632235572
0
LINE
5
2FA
100
AcDbEntity
8
0
100
AcDbLine
62
7
6
CONTINUOUS
10
44.4871436944
20
192.7853061320
11
45.0054415049
21
192.6933926183
0
LINE
5
2FB
100
AcDbEntity
8
0
100
AcDbLine
62
7
6
CONTINUOUS
10
45.7828885838
20
195.7265154286
11
45.2645907732
21
195.8184289423
0
LINE
5
2FC
100
AcDbEntity
8
0
100
AcDbLine
62
7
6
CONTINUOUS
10
48.6335268141
20
195.8184289423
11
48.2448033654
21
195.9103424560
0
LINE
5
2FD
100
AcDbEntity
8
0
100
AcDbLine
62
7
6
CONTINUOUS
10
48.2448033654
20
192.6014812084
11
48.6335268141
21
192.6933926183
0
LINE
5
2FE
100
AcDbEntity
8
0
100
AcDbLine
62
7
6
CONTINUOUS
10
89.7213231795
20
195.9459401400
11
90.7005070199
21
196.1185966701
0
LINE
5
2FF
100
AcDbEntity
8
0
100
AcDbLine
62
7
6
CONTINUOUS
10
44.6167181470
20
191.3147004318
11
49.6701225259
21
191.3147004318
0
LINE
5
300
100
AcDbEntity
8
0
100
AcDbLine
62
7
6
CONTINUOUS
10
49.6701225259
20
191.8661773064
11
43.5801225259
21
191.8661773064
0
LINE
5
301
100
AcDbEntity
8
0
100
AcDbLine
62
7
6
CONTINUOUS
10
46.3011863943
20
194.0720848048
11
46.8194842049
21
194.0720848048
0
LINE
5
302
100
AcDbEntity
8
0
100
AcDbLine
62
7
6
CONTINUOUS
10
45.0054415049
20
195.3588655814
11
45.2645907732
21
195.3588655814
0
LINE
5
303
100
AcDbEntity
8
0
100
AcDbLine
62
7
6
CONTINUOUS
10
47.7265055548
20
195.4507769913
11
48.2448033654
21
195.4507769913
0
LINE
5
304
100
AcDbEntity
8
0
100
AcDbLine
62
7
6
CONTINUOUS
10
45.2645907732
20
195.8184289423
11
45.0054415049
21
195.8184289423
0
LINE
5
305
100
AcDbEntity
8
0
100
AcDbLine
62
7
6
CONTINUOUS
10
48.2448033654
20
195.9103424560
11
47.7265055548
21
195.9103424560
0
LINE
5
306
100
AcDbEntity
8
DEFAULT_1
100
AcDbLine
62
2
6
CENTER
10
92.6701225259
20
196.4658930254
11
88.9201225259
21
196.4658930254
0
LINE
5
307
100
AcDbEntity
8
0
100
AcDbLine
62
9
6
CONTINUOUS
10
59.5400103799
20
196.4658930254
11
39.6145508783
21
196.4658933580
0
LINE
5
308
100
AcDbEntity
8
0
100
AcDbLine
62
9
6
CONTINUOUS
10
79.8002346719
20
196.4658930254
11
88.9201225259
21
196.4658930254
0
LINE
5
309
100
AcDbEntity
8
DEFAULT_1
100
AcDbLine
62
2
6
CENTER
10
92.6701225259
20
196.4658930254
11
96.4201225259
21
196.4658930254
0
LINE
5
30A
100
AcDbEntity
8
0
100
AcDbLine
62
9
6
CONTINUOUS
10
96.4201225259
20
196.4658930254
11
99.7256941735
21
196.4658933580
0
LINE
5
30B
100
AcDbEntity
8
0
100
AcDbLine
62
7
6
CONTINUOUS
10
101.6701225259
20
43.4658930254
11
92.4400265830
21
32.4658930254
0
LINE
5
30C
100
AcDbEntity
8
0
100
AcDbLine
62
9
6
CONTINUOUS
10
101.3508903304
20
43.6210033411
11
92.4932835745
21
33.7015284693
0
LINE
5
30D
100
AcDbEntity
8
0
100
AcDbLine
62
7
6
CONTINUOUS
10
47.7265055548
20
195.9103424560
11
47.2082075628
21
195.8184289423
0
LINE
5
30E
100
AcDbEntity
8
0
100
AcDbLine
62
7
6
CONTINUOUS
10
45.0054415049
20
195.8184289423
11
44.4871436944
21
195.7265154286
0
LINE
5
30F
100
AcDbEntity
8
0
100
AcDbLine
62
7
6
CONTINUOUS
10
62.3067453070
20
204.2658930254
11
77.0334997449
21
204.2658930254
0
LINE
5
310
100
AcDbEntity
8
0
100
AcDbLine
62
7
6
CONTINUOUS
10
89.7213231795
20
196.9858459109
11
90.7005070199
21
196.8131893808
0
LINE
5
311
100
AcDbEntity
8
0
100
AcDbLine
62
9
6
CONTINUOUS
10
100.9822185351
20
204.2236516382
11
92.4932835745
21
213.7302575816
0
LINE
5
312
100
AcDbEntity
8
0
100
AcDbLine
62
7
6
CONTINUOUS
10
92.4400265830
20
214.9658930254
11
100.9515220698
21
204.8222877006
0
LINE
5
313
100
AcDbEntity
8
0
100
AcDbLine
62
7
6
CONTINUOUS
10
46.9002184689
20
214.9658930254
11
50.0943636498
21
214.9658930254
0
LINE
5
314
100
AcDbEntity
8
0
100
AcDbLine
62
7
6
CONTINUOUS
10
89.2458814020
20
214.9658930254
11
92.4400265830
21
214.9658930254
0
LINE
5
315
100
AcDbEntity
8
0
100
AcDbLine
62
7
6
CONTINUOUS
10
222.6589812384
20
44.0435368443
11
235.8800817804
21
47.0932888591
0
LINE
5
316
100
AcDbEntity
8
0
100
AcDbLine
62
7
6
CONTINUOUS
10
210.5087651466
20
47.9658930254
11
225.0646297318
21
47.9658930254
0
LINE
5
317
100
AcDbEntity
8
0
100
AcDbLine
62
7
6
CONTINUOUS
10
209.9390328083
20
50.4449484924
11
225.6408633697
21
50.4449484924
0
LINE
5
318
100
AcDbEntity
8
0
100
AcDbLine
62
7
6
CONTINUOUS
10
209.9310045686
20
50.6185966701
11
225.6488916095
21
50.6185966701
0
LINE
5
319
100
AcDbEntity
8
DEFAULT_1
100
AcDbLine
62
2
6
CENTER
10
240.7051813389
20
50.9658930254
11
194.4371645874
21
50.9658930254
0
LINE
5
31A
100
AcDbEntity
8
0
100
AcDbLine
62
7
6
CONTINUOUS
10
209.9310045686
20
51.3131893808
11
225.6488916095
21
51.3131893808
0
LINE
5
31B
100
AcDbEntity
8
0
100
AcDbLine
62
7
6
CONTINUOUS
10
209.9390328083
20
51.4868375584
11
225.6408633697
21
51.4868375584
0
LINE
5
31C
100
AcDbEntity
8
0
100
AcDbLine
62
7
6
CONTINUOUS
10
236.2899480890
20
51.5214435949
11
236.5399480890
21
51.5214435949
0
LINE
5
31D
100
AcDbEntity
8
0
100
AcDbLine
62
7
6
CONTINUOUS
10
212.9209149397
20
44.0435368443
11
199.6998143977
21
47.0932888591
0
LINE
5
31E
100
AcDbEntity
8
0
100
AcDbLine
62
7
6
CONTINUOUS
10
220.2022381661
20
197.8958930254
11
219.9979828713
21
197.7958931208
0
LINE
5
31F
100
AcDbEntity
8
0
100
AcDbLine
62
7
6
CONTINUOUS
10
220.3554297802
20
197.9458931208
11
220.2022381661
21
197.8958930254
0
LINE
5
320
100
AcDbEntity
8
0
100
AcDbLine
62
7
6
CONTINUOUS
10
221.3256425020
20
196.2458930254
11
221.4788339731
21
196.2958930493
0
LINE
5
321
100
AcDbEntity
8
0
100
AcDbLine
62
7
6
CONTINUOUS
10
214.2444001451
20
196.5249801692
11
214.2109200254
21
196.5148223723
0
LINE
5
322
100
AcDbEntity
8
0
100
AcDbLine
62
7
6
CONTINUOUS
10
236.2899480890
20
51.6133571086
11
236.5399480890
21
51.6133571086
0
LINE
5
323
100
AcDbEntity
8
0
100
AcDbLine
62
7
6
CONTINUOUS
10
236.2899480890
20
51.7971820322
11
236.5399480890
21
51.7971820322
0
LINE
5
324
100
AcDbEntity
8
0
100
AcDbLine
62
7
6
CONTINUOUS
10
236.2899480890
20
52.0729204695
11
236.5399480890
21
52.0729204695
0
LINE
5
325
100
AcDbEntity
8
0
100
AcDbLine
62
7
6
CONTINUOUS
10
236.2899480890
20
52.4405724205
11
236.5399480890
21
52.4405724205
0
LINE
5
326
100
AcDbEntity
8
0
100
AcDbLine
62
7
6
CONTINUOUS
10
236.2899480890
20
52.8082243715
11
236.5399480890
21
52.8082243715
0
LINE
5
327
100
AcDbEntity
8
0
100
AcDbLine
62
7
6
CONTINUOUS
10
236.2899480890
20
53.5435261697
11
236.5399480890
21
53.5435261697
0
LINE
5
328
100
AcDbEntity
8
0
100
AcDbLine
62
7
6
CONTINUOUS
10
236.2899480890
20
53.9111781207
11
236.5399480890
21
53.9111781207
0
LINE
5
329
100
AcDbEntity
8
0
100
AcDbLine
62
7
6
CONTINUOUS
10
210.5152664463
20
53.9658930254
11
225.0711310315
21
53.9658930254
0
LINE
5
32A
100
AcDbEntity
8
0
100
AcDbLine
62
7
6
CONTINUOUS
10
236.2899480890
20
54.2788279679
11
236.5399480890
21
54.2788279679
0
LINE
5
32B
100
AcDbEntity
8
0
100
AcDbLine
62
7
6
CONTINUOUS
10
236.2899480890
20
54.5545664052
11
236.5399480890
21
54.5545664052
0
LINE
5
32C
100
AcDbEntity
8
0
100
AcDbLine
62
7
6
CONTINUOUS
10
236.2899480890
20
54.7383934326
11
236.5399480890
21
54.7383934326
0
LINE
5
32D
100
AcDbEntity
8
0
100
AcDbLine
62
7
6
CONTINUOUS
10
236.2899480890
20
54.8303048425
11
236.5399480890
21
54.8303048425
0
LINE
5
32E
100
AcDbEntity
8
0
100
AcDbLine
62
7
6
CONTINUOUS
10
236.2899480890
20
55.5656087445
11
236.5399480890
21
55.5656087445
0
LINE
5
32F
100
AcDbEntity
8
0
100
AcDbLine
62
7
6
CONTINUOUS
10
236.2899480890
20
56.1170856191
11
236.5399480890
21
56.1170856191
0
LINE
5
330
100
AcDbEntity
8
0
100
AcDbLine
62
7
6
CONTINUOUS
10
236.2899480890
20
56.6685624937
11
236.5399480890
21
56.6685624937
0
LINE
5
331
100
AcDbEntity
8
0
100
AcDbLine
62
9
6
CONTINUOUS
10
212.8849795477
20
57.8581978709
11
199.2899480890
21
57.8581978709
0
LINE
5
332
100
AcDbEntity
8
0
100
AcDbLine
62
9
6
CONTINUOUS
10
222.6949166304
20
57.8581978709
11
236.2899480890
21
57.8581978709
0
LINE
5
333
100
AcDbEntity
8
0
100
AcDbLine
62
7
6
CONTINUOUS
10
220.0490466950
20
197.4958929778
11
220.3554297802
21
197.6958929301
0
LINE
5
334
100
AcDbEntity
8
0
100
AcDbLine
62
7
6
CONTINUOUS
10
221.6320254800
20
196.6958930254
11
221.3256425020
21
196.4958930731
0
LINE
5
335
100
AcDbEntity
8
0
100
AcDbLine
62
7
6
CONTINUOUS
10
221.4788339731
20
196.2958930493
11
221.6830893037
21
196.3958930254
0
LINE
5
336
100
AcDbEntity
8
0
100
AcDbLine
62
9
6
CONTINUOUS
10
217.7899480890
20
60.8581978709
11
236.2899480890
21
61.8304120471
0
LINE
5
337
100
AcDbEntity
8
0
100
AcDbLine
62
7
6
CONTINUOUS
10
236.2899480890
20
61.8156792888
11
236.5399480890
21
61.8156792888
0
LINE
5
338
100
AcDbEntity
8
0
100
AcDbLine
62
7
6
CONTINUOUS
10
236.2899480890
20
61.9075928025
11
236.5399480890
21
61.9075928025
0
LINE
5
339
100
AcDbEntity
8
0
100
AcDbLine
62
7
6
CONTINUOUS
10
236.2899480890
20
62.1833312398
11
236.5399480890
21
62.1833312398
0
LINE
5
33A
100
AcDbEntity
8
0
100
AcDbLine
62
7
6
CONTINUOUS
10
236.2899480890
20
62.5509810870
11
236.5399480890
21
62.5509810870
0
LINE
5
33B
100
AcDbEntity
8
0
100
AcDbLine
62
7
6
CONTINUOUS
10
236.2899480890
20
63.0105454998
11
236.5399480890
21
63.0105454998
0
LINE
5
33C
100
AcDbEntity
8
0
100
AcDbLine
62
7
6
CONTINUOUS
10
236.2899480890
20
64.6649761237
11
236.5399480890
21
64.6649761237
0
LINE
5
33D
100
AcDbEntity
8
0
100
AcDbLine
62
9
6
CONTINUOUS
10
217.7899480890
20
60.8581978709
11
199.2899480890
21
61.8304120471
0
LINE
5
33E
100
AcDbEntity
8
0
100
AcDbLine
62
7
6
CONTINUOUS
10
236.2899480890
20
65.2164529983
11
236.5399480890
21
65.2164529983
0
LINE
5
33F
100
AcDbEntity
8
0
100
AcDbLine
62
7
6
CONTINUOUS
10
236.2899480890
20
65.9517558484
11
236.5399480890
21
65.9517558484
0
LINE
5
340
100
AcDbEntity
8
0
100
AcDbLine
62
7
6
CONTINUOUS
10
236.2899480890
20
66.0436683102
11
236.5399480890
21
66.0436683102
0
LINE
5
341
100
AcDbEntity
8
0
100
AcDbLine
62
7
6
CONTINUOUS
10
236.2899480890
20
66.3194067475
11
236.5399480890
21
66.3194067475
0
LINE
5
342
100
AcDbEntity
8
0
100
AcDbLine
62
7
6
CONTINUOUS
10
236.2899480890
20
66.6870586985
11
236.5399480890
21
66.6870586985
0
LINE
5
343
100
AcDbEntity
8
0
100
AcDbLine
62
7
6
CONTINUOUS
10
236.2899480890
20
67.1466220594
11
236.5399480890
21
67.1466220594
0
LINE
5
344
100
AcDbEntity
8
0
100
AcDbLine
62
7
6
CONTINUOUS
10
236.2899480890
20
68.8010526832
11
236.5399480890
21
68.8010526832
0
LINE
5
345
100
AcDbEntity
8
0
100
AcDbLine
62
7
6
CONTINUOUS
10
236.2899480890
20
69.3525295578
11
236.5399480890
21
69.3525295578
0
LINE
5
346
100
AcDbEntity
8
0
100
AcDbLine
62
7
6
CONTINUOUS
10
236.2899480890
20
70.0878324079
11
236.5399480890
21
70.0878324079
0
LINE
5
347
100
AcDbEntity
8
0
100
AcDbLine
62
7
6
CONTINUOUS
10
236.2899480890
20
71.3746121326
11
236.5399480890
21
71.3746121326
0
LINE
5
348
100
AcDbEntity
8
0
100
AcDbLine
62
7
6
CONTINUOUS
10
219.9979828713
20
197.7958931208
11
219.8447914002
21
197.6458931208
0
LINE
5
349
100
AcDbEntity
8
0
100
AcDbLine
62
7
6
CONTINUOUS
10
221.6830893037
20
196.3958930254
11
221.8362807927
21
196.5458930254
0
LINE
5
34A
100
AcDbEntity
8
0
100
AcDbLine
62
7
6
CONTINUOUS
10
236.2899480890
20
72.1099144568
11
236.5399480890
21
72.1099144568
0
LINE
5
34B
100
AcDbEntity
8
0
100
AcDbLine
62
7
6
CONTINUOUS
10
236.2899480890
20
72.8452167809
11
236.5399480890
21
72.8452167809
0
LINE
5
34C
100
AcDbEntity
8
0
100
AcDbLine
62
7
6
CONTINUOUS
10
236.2899480890
20
73.5805191051
11
236.5399480890
21
73.5805191051
0
LINE
5
34D
100
AcDbEntity
8
0
100
AcDbLine
62
7
6
CONTINUOUS
10
236.2899480890
20
74.3158219552
11
236.5399480890
21
74.3158219552
0
LINE
5
34E
100
AcDbEntity
8
0
100
AcDbLine
62
7
6
CONTINUOUS
10
236.2899480890
20
75.0511242794
11
236.5399480890
21
75.0511242794
0
LINE
5
34F
100
AcDbEntity
8
0
100
AcDbLine
62
7
6
CONTINUOUS
10
236.2899480890
20
75.7864266035
11
236.5399480890
21
75.7864266035
0
LINE
5
350
100
AcDbEntity
8
0
100
AcDbLine
62
7
6
CONTINUOUS
10
236.2899480890
20
76.5217291907
11
236.5399480890
21
76.5217291907
0
LINE
5
351
100
AcDbEntity
8
0
100
AcDbLine
62
7
6
CONTINUOUS
10
236.2899480890
20
77.2570317778
11
236.5399480890
21
77.2570317778
0
LINE
5
352
100
AcDbEntity
8
0
100
AcDbLine
62
7
6
CONTINUOUS
10
236.2899480890
20
77.3489445026
11
236.5399480890
21
77.3489445026
0
LINE
5
353
100
AcDbEntity
8
0
100
AcDbLine
62
7
6
CONTINUOUS
10
236.2899480890
20
77.5327702151
11
236.5399480890
21
77.5327702151
0
LINE
5
354
100
AcDbEntity
8
0
100
AcDbLine
62
7
6
CONTINUOUS
10
236.2899480890
20
77.9004213772
11
236.5399480890
21
77.9004213772
0
LINE
5
355
100
AcDbEntity
8
0
100
AcDbLine
62
7
6
CONTINUOUS
10
177.7899480890
20
151.6305154125
11
177.7899480890
21
109.4658930254
0
LINE
5
356
100
AcDbEntity
8
0
100
AcDbLine
62
7
6
CONTINUOUS
10
177.7899480890
20
95.7868925938
11
177.7899480890
21
104.9658930254
0
LINE
5
357
100
AcDbEntity
8
0
100
AcDbLine
62
7
6
CONTINUOUS
10
219.9469190476
20
197.3458929778
11
220.0490466950
21
197.4958929778
0
LINE
5
358
100
AcDbEntity
8
0
100
AcDbLine
62
7
6
CONTINUOUS
10
236.2899480890
20
78.2680728022
11
236.5399480890
21
78.2680728022
0
LINE
5
359
100
AcDbEntity
8
0
100
AcDbLine
62
7
6
CONTINUOUS
10
236.2899480890
20
78.7276368206
11
236.5399480890
21
78.7276368206
0
LINE
5
35A
100
AcDbEntity
8
0
100
AcDbLine
62
7
6
CONTINUOUS
10
236.2899480890
20
79.0952879827
11
236.5399480890
21
79.0952879827
0
LINE
5
35B
100
AcDbEntity
8
0
100
AcDbLine
62
7
6
CONTINUOUS
10
236.2899480890
20
79.5548520668
11
236.5399480890
21
79.5548520668
0
LINE
5
35C
100
AcDbEntity
8
0
100
AcDbLine
62
7
6
CONTINUOUS
10
236.2899480890
20
79.9225033603
11
236.5399480890
21
79.9225033603
0
LINE
5
35D
100
AcDbEntity
8
0
100
AcDbLine
62
7
6
CONTINUOUS
10
236.2899480890
20
80.2901545881
11
236.5399480890
21
80.2901545881
0
LINE
5
35E
100
AcDbEntity
8
0
100
AcDbLine
62
7
6
CONTINUOUS
10
236.2899480890
20
80.4739802103
11
236.5399480890
21
80.4739802103
0
LINE
5
35F
100
AcDbEntity
8
0
100
AcDbLine
62
7
6
CONTINUOUS
10
236.2899480890
20
80.5658930254
11
236.5399480890
21
80.5658930254
0
LINE
5
360
100
AcDbEntity
8
0
100
AcDbLine
62
7
6
CONTINUOUS
10
219.8447914002
20
197.6458931208
11
219.6915999291
21
197.3958930731
0
LINE
5
361
100
AcDbEntity
8
0
100
AcDbLine
62
7
6
CONTINUOUS
10
221.8362807927
20
196.5458930254
11
221.9894722772
21
196.7958930731
0
LINE
5
362
100
AcDbEntity
8
0
100
AcDbLine
62
7
6
CONTINUOUS
10
221.7341531274
20
196.8458930254
11
221.6320254800
21
196.6958930254
0
LINE
5
363
100
AcDbEntity
8
0
100
AcDbLine
62
7
6
CONTINUOUS
10
247.2563000435
20
94.1329046882
11
257.7896625828
21
95.8012254187
0
LINE
5
364
100
AcDbEntity
8
0
100
AcDbLine
62
7
6
CONTINUOUS
10
177.7902335953
20
95.8012254187
11
188.3235961346
21
94.1329046882
0
LINE
5
365
100
AcDbEntity
8
0
100
AcDbLine
62
9
6
CONTINUOUS
10
220.8272395424
20
203.8107827098
11
224.4376331353
21
213.7302575816
0
LINE
5
366
100
AcDbEntity
8
0
100
AcDbLine
62
9
6
CONTINUOUS
10
220.9589059213
20
43.2592529380
11
224.4376331353
21
33.7015284693
0
LINE
5
367
100
AcDbEntity
8
0
100
AcDbLine
62
7
6
CONTINUOUS
10
199.2899480890
20
50.9658926929
11
199.2899480890
21
81.2929562604
0
LINE
5
368
100
AcDbEntity
8
0
100
AcDbLine
62
7
6
CONTINUOUS
10
199.2899480890
20
166.1388297905
11
199.2899480890
21
196.4658933580
0
LINE
5
369
100
AcDbEntity
8
0
100
AcDbLine
62
7
6
CONTINUOUS
10
219.8958552239
20
197.0958930731
11
219.9469190476
21
197.3458929778
0
LINE
5
36A
100
AcDbEntity
8
0
100
AcDbLine
62
7
6
CONTINUOUS
10
177.7899480890
20
104.9658930254
11
178.2899480890
21
105.4658930254
0
LINE
5
36B
100
AcDbEntity
8
0
100
AcDbLine
62
7
6
CONTINUOUS
10
177.7899480890
20
104.9658930254
11
257.7899480890
21
104.9658930254
0
LINE
5
36C
100
AcDbEntity
8
0
100
AcDbLine
62
7
6
CONTINUOUS
10
178.2899480890
20
105.4658930254
11
257.2899480890
21
105.4658930254
0
LINE
5
36D
100
AcDbEntity
8
0
100
AcDbLine
62
7
6
CONTINUOUS
10
257.7899480890
20
109.4658930254
11
177.7899480890
21
109.4658930254
0
LINE
5
36E
100
AcDbEntity
8
0
100
AcDbLine
62
7
6
CONTINUOUS
10
219.6915999291
20
197.3958930731
11
219.6405361054
21
197.0958930731
0
LINE
5
36F
100
AcDbEntity
8
0
100
AcDbLine
62
7
6
CONTINUOUS
10
221.9894722772
20
196.7958930731
11
222.0405361054
21
197.0958930731
0
LINE
5
370
100
AcDbEntity
8
0
100
AcDbLine
62
7
6
CONTINUOUS
10
221.7852169511
20
197.0958930731
11
221.7341531274
21
196.8458930254
0
LINE
5
371
100
AcDbEntity
8
0
100
AcDbLine
62
7
6
CONTINUOUS
10
216.9109200254
20
196.6608930254
11
216.9109200254
21
196.4733930254
0
LINE
5
372
100
AcDbEntity
8
0
100
AcDbLine
62
7
6
CONTINUOUS
10
217.7899480890
20
203.9658930254
11
217.7899480890
21
203.4658930254
0
LINE
5
373
100
AcDbEntity
8
0
100
AcDbLine
62
7
6
CONTINUOUS
10
217.7899480890
20
189.4658930254
11
217.7899480890
21
174.1094865649
0
LINE
5
374
100
AcDbEntity
8
0
100
AcDbLine
62
7
6
CONTINUOUS
10
217.7899480890
20
60.6082245122
11
217.7899480890
21
73.3222994860
0
LINE
5
375
100
AcDbEntity
8
DEFAULT_1
100
AcDbLine
62
2
6
CENTER
10
217.7899480890
20
28.1363181233
11
217.7899480890
21
60.6082245122
0
LINE
5
376
100
AcDbEntity
8
DEFAULT_1
100
AcDbLine
62
2
6
CENTER
10
217.7899480890
20
203.9658930254
11
217.7899480890
21
219.1886049812
0
LINE
5
377
100
AcDbEntity
8
DEFAULT_1
100
AcDbLine
62
2
6
CENTER
10
217.7899480890
20
189.4658930254
11
217.7899480890
21
203.4658930254
0
LINE
5
378
100
AcDbEntity
8
DEFAULT_1
100
AcDbLine
62
2
6
CENTER
10
217.7899480890
20
73.3222994860
11
217.7899480890
21
174.1094865649
0
LINE
5
379
100
AcDbEntity
8
0
100
AcDbLine
62
7
6
CONTINUOUS
10
218.4109200254
20
196.4733930254
11
218.4109200254
21
196.6608930254
0
LINE
5
37A
100
AcDbEntity
8
0
100
AcDbLine
62
7
6
CONTINUOUS
10
219.6405361054
20
195.7958930254
11
219.6405361054
21
195.4958930254
0
LINE
5
37B
100
AcDbEntity
8
0
100
AcDbLine
62
7
6
CONTINUOUS
10
222.0405361054
20
195.4958930254
11
222.0405361054
21
195.7958930254
0
LINE
5
37C
100
AcDbEntity
8
0
100
AcDbLine
62
7
6
CONTINUOUS
10
219.6405361054
20
197.0958930731
11
219.6915999291
21
196.7958930731
0
LINE
5
37D
100
AcDbEntity
8
0
100
AcDbLine
62
7
6
CONTINUOUS
10
236.2899480890
20
50.9658926929
11
236.2899480890
21
81.2929562604
0
LINE
5
37E
100
AcDbEntity
8
0
100
AcDbLine
62
7
6
CONTINUOUS
10
236.2899480890
20
166.1388297905
11
236.2899480890
21
196.4658933580
0
LINE
5
37F
100
AcDbEntity
8
0
100
AcDbLine
62
7
6
CONTINUOUS
10
236.5399480890
20
195.9103424560
11
236.5399480890
21
192.6014812084
0
LINE
5
380
100
AcDbEntity
8
0
100
AcDbLine
62
7
6
CONTINUOUS
10
236.5399480890
20
191.8661773064
11
236.5399480890
21
190.7632235572
0
LINE
5
381
100
AcDbEntity
8
0
100
AcDbLine
62
7
6
CONTINUOUS
10
236.5399480890
20
185.6161067621
11
236.5399480890
21
182.2153330526
0
LINE
5
382
100
AcDbEntity
8
0
100
AcDbLine
62
7
6
CONTINUOUS
10
236.5399480890
20
181.4800302025
11
236.5399480890
21
178.0792564931
0
LINE
5
383
100
AcDbEntity
8
0
100
AcDbLine
62
7
6
CONTINUOUS
10
236.5399480890
20
177.3439536430
11
236.5399480890
21
176.0571739183
0
LINE
5
384
100
AcDbEntity
8
0
100
AcDbLine
62
7
6
CONTINUOUS
10
236.5399480890
20
175.3218715941
11
236.5399480890
21
170.9100568602
0
LINE
5
385
100
AcDbEntity
8
0
100
AcDbLine
62
7
6
CONTINUOUS
10
236.5399480890
20
170.1747542731
11
236.5399480890
21
166.8658930254
0
LINE
5
386
100
AcDbEntity
8
0
100
AcDbLine
62
7
6
CONTINUOUS
10
236.5399480890
20
80.5658930254
11
236.5399480890
21
77.2570317778
0
LINE
5
387
100
AcDbEntity
8
0
100
AcDbLine
62
7
6
CONTINUOUS
10
236.5399480890
20
76.5217291907
11
236.5399480890
21
72.1099144568
0
LINE
5
388
100
AcDbEntity
8
0
100
AcDbLine
62
7
6
CONTINUOUS
10
236.5399480890
20
71.3746121326
11
236.5399480890
21
70.0878324079
0
LINE
5
389
100
AcDbEntity
8
0
100
AcDbLine
62
7
6
CONTINUOUS
10
236.5399480890
20
69.3525295578
11
236.5399480890
21
65.9517558484
0
LINE
5
38A
100
AcDbEntity
8
0
100
AcDbLine
62
7
6
CONTINUOUS
10
236.5399480890
20
65.2164529983
11
236.5399480890
21
61.8156792888
0
LINE
5
38B
100
AcDbEntity
8
0
100
AcDbLine
62
7
6
CONTINUOUS
10
236.5399480890
20
56.6685624937
11
236.5399480890
21
55.5656087445
0
LINE
5
38C
100
AcDbEntity
8
0
100
AcDbLine
62
7
6
CONTINUOUS
10
236.5399480890
20
54.8303048425
11
236.5399480890
21
51.5214435949
0
LINE
5
38D
100
AcDbEntity
8
0
100
AcDbLine
62
7
6
CONTINUOUS
10
257.7899480890
20
104.9658930254
11
257.2899480890
21
105.4658930254
0
LINE
5
38E
100
AcDbEntity
8
0
100
AcDbLine
62
7
6
CONTINUOUS
10
215.0303032651
20
195.4654593032
11
215.0267790570
21
195.4783724692
0
LINE
5
38F
100
AcDbEntity
8
0
100
AcDbLine
62
7
6
CONTINUOUS
10
219.9469190476
20
196.8458930254
11
219.8958552239
21
197.0958930731
0
LINE
5
390
100
AcDbEntity
8
0
100
AcDbLine
62
7
6
CONTINUOUS
10
221.7341531274
20
197.3458929778
11
221.7852169511
21
197.0958930731
0
LINE
5
391
100
AcDbEntity
8
0
100
AcDbLine
62
7
6
CONTINUOUS
10
222.0405361054
20
197.0958930731
11
221.9894722772
21
197.3958930731
0
LINE
5
392
100
AcDbEntity
8
0
100
AcDbLine
62
9
6
CONTINUOUS
10
214.6209902568
20
43.2592529380
11
211.1422630428
21
33.7015284693
0
LINE
5
393
100
AcDbEntity
8
0
100
AcDbLine
62
9
6
CONTINUOUS
10
214.7526566357
20
203.8107827098
11
211.1422630428
21
213.7302575816
0
LINE
5
394
100
AcDbEntity
8
0
100
AcDbLine
62
7
6
CONTINUOUS
10
188.3235961346
20
153.2988813627
11
177.7899480890
21
151.6305154125
0
LINE
5
395
100
AcDbEntity
8
0
100
AcDbLine
62
7
6
CONTINUOUS
10
257.7899480890
20
151.6305154125
11
247.2563000435
21
153.2988813627
0
LINE
5
396
100
AcDbEntity
8
0
100
AcDbLine
62
7
6
CONTINUOUS
10
257.7899480890
20
151.6305154125
11
257.7899480890
21
109.4658930254
0
LINE
5
397
100
AcDbEntity
8
0
100
AcDbLine
62
7
6
CONTINUOUS
10
257.7899480890
20
95.7868925938
11
257.7899480890
21
104.9658930254
0
LINE
5
398
100
AcDbEntity
8
0
100
AcDbLine
62
7
6
CONTINUOUS
10
215.6364707008
20
196.1819278524
11
215.5395544067
21
196.3210596200
0
LINE
5
399
100
AcDbEntity
8
0
100
AcDbLine
62
7
6
CONTINUOUS
10
215.5060742154
20
196.3230697821
11
215.5977041974
21
196.1911397372
0
LINE
5
39A
100
AcDbEntity
8
0
100
AcDbLine
62
7
6
CONTINUOUS
10
219.6915999291
20
196.7958930731
11
219.8447914002
21
196.5458930254
0
LINE
5
39B
100
AcDbEntity
8
0
100
AcDbLine
62
7
6
CONTINUOUS
10
236.2899480890
20
166.8658930254
11
236.5399480890
21
166.8658930254
0
LINE
5
39C
100
AcDbEntity
8
0
100
AcDbLine
62
7
6
CONTINUOUS
10
236.2899480890
20
167.4173699001
11
236.5399480890
21
167.4173699001
0
LINE
5
39D
100
AcDbEntity
8
0
100
AcDbLine
62
7
6
CONTINUOUS
10
236.2899480890
20
167.5092826906
11
236.5399480890
21
167.5092826906
0
LINE
5
39E
100
AcDbEntity
8
0
100
AcDbLine
62
7
6
CONTINUOUS
10
236.2899480890
20
167.6931083374
11
236.5399480890
21
167.6931083374
0
LINE
5
39F
100
AcDbEntity
8
0
100
AcDbLine
62
7
6
CONTINUOUS
10
236.2899480890
20
167.9688467747
11
236.5399480890
21
167.9688467747
0
LINE
5
3A0
100
AcDbEntity
8
0
100
AcDbLine
62
7
6
CONTINUOUS
10
236.2899480890
20
168.3364980682
11
236.5399480890
21
168.3364980682
0
LINE
5
3A1
100
AcDbEntity
8
0
100
AcDbLine
62
7
6
CONTINUOUS
10
236.2899480890
20
168.7041492303
11
236.5399480890
21
168.7041492303
0
LINE
5
3A2
100
AcDbEntity
8
0
100
AcDbLine
62
7
6
CONTINUOUS
10
236.2899480890
20
169.0718005239
11
236.5399480890
21
169.0718005239
0
LINE
5
3A3
100
AcDbEntity
8
0
100
AcDbLine
62
7
6
CONTINUOUS
10
236.2899480890
20
169.3475389612
11
236.5399480890
21
169.3475389612
0
LINE
5
3A4
100
AcDbEntity
8
0
100
AcDbLine
62
7
6
CONTINUOUS
10
236.2899480890
20
169.5313646737
11
236.5399480890
21
169.5313646737
0
LINE
5
3A5
100
AcDbEntity
8
0
100
AcDbLine
62
7
6
CONTINUOUS
10
236.2899480890
20
169.6232773985
11
236.5399480890
21
169.6232773985
0
LINE
5
3A6
100
AcDbEntity
8
0
100
AcDbLine
62
7
6
CONTINUOUS
10
236.2899480890
20
170.1747542731
11
236.5399480890
21
170.1747542731
0
LINE
5
3A7
100
AcDbEntity
8
0
100
AcDbLine
62
7
6
CONTINUOUS
10
236.2899480890
20
170.9100568602
11
236.5399480890
21
170.9100568602
0
LINE
5
3A8
100
AcDbEntity
8
0
100
AcDbLine
62
7
6
CONTINUOUS
10
220.0490466950
20
196.6958930254
11
219.9469190476
21
196.8458930254
0
LINE
5
3A9
100
AcDbEntity
8
0
100
AcDbLine
62
7
6
CONTINUOUS
10
221.6320254800
20
197.4958929778
11
221.7341531274
21
197.3458929778
0
LINE
5
3AA
100
AcDbEntity
8
0
100
AcDbLine
62
7
6
CONTINUOUS
10
221.9894722772
20
197.3958930731
11
221.8362807927
21
197.6458931208
0
LINE
5
3AB
100
AcDbEntity
8
0
100
AcDbLine
62
7
6
CONTINUOUS
10
236.2899480890
20
171.4615334719
11
236.5399480890
21
171.4615334719
0
LINE
5
3AC
100
AcDbEntity
8
0
100
AcDbLine
62
7
6
CONTINUOUS
10
236.2899480890
20
172.0130103465
11
236.5399480890
21
172.0130103465
0
LINE
5
3AD
100
AcDbEntity
8
0
100
AcDbLine
62
7
6
CONTINUOUS
10
236.2899480890
20
172.7483131966
11
236.5399480890
21
172.7483131966
0
LINE
5
3AE
100
AcDbEntity
8
0
100
AcDbLine
62
7
6
CONTINUOUS
10
236.2899480890
20
173.4836155207
11
236.5399480890
21
173.4836155207
0
LINE
5
3AF
100
AcDbEntity
8
0
100
AcDbLine
62
7
6
CONTINUOUS
10
236.2899480890
20
174.2189178449
11
236.5399480890
21
174.2189178449
0
LINE
5
3B0
100
AcDbEntity
8
0
100
AcDbLine
62
7
6
CONTINUOUS
10
236.2899480890
20
174.7703947195
11
236.5399480890
21
174.7703947195
0
LINE
5
3B1
100
AcDbEntity
8
0
100
AcDbLine
62
7
6
CONTINUOUS
10
236.2899480890
20
175.3218715941
11
236.5399480890
21
175.3218715941
0
LINE
5
3B2
100
AcDbEntity
8
0
100
AcDbLine
62
7
6
CONTINUOUS
10
236.2899480890
20
176.0571739183
11
236.5399480890
21
176.0571739183
0
LINE
5
3B3
100
AcDbEntity
8
0
100
AcDbLine
62
7
6
CONTINUOUS
10
236.2899480890
20
177.3439536430
11
236.5399480890
21
177.3439536430
0
LINE
5
3B4
100
AcDbEntity
8
0
100
AcDbLine
62
7
6
CONTINUOUS
10
219.8447914002
20
196.5458930254
11
219.9979828713
21
196.3958930254
0
LINE
5
3B5
100
AcDbEntity
8
0
100
AcDbLine
62
7
6
CONTINUOUS
10
236.2899480890
20
178.0792564931
11
236.5399480890
21
178.0792564931
0
LINE
5
3B6
100
AcDbEntity
8
0
100
AcDbLine
62
7
6
CONTINUOUS
10
236.2899480890
20
180.2851639915
11
236.5399480890
21
180.2851639915
0
LINE
5
3B7
100
AcDbEntity
8
0
100
AcDbLine
62
7
6
CONTINUOUS
10
236.2899480890
20
180.7447273524
11
236.5399480890
21
180.7447273524
0
LINE
5
3B8
100
AcDbEntity
8
0
100
AcDbLine
62
7
6
CONTINUOUS
10
236.2899480890
20
181.1123793034
11
236.5399480890
21
181.1123793034
0
LINE
5
3B9
100
AcDbEntity
8
0
100
AcDbLine
62
7
6
CONTINUOUS
10
236.2899480890
20
181.3881177407
11
236.5399480890
21
181.3881177407
0
LINE
5
3BA
100
AcDbEntity
8
0
100
AcDbLine
62
7
6
CONTINUOUS
10
236.2899480890
20
181.4800302025
11
236.5399480890
21
181.4800302025
0
LINE
5
3BB
100
AcDbEntity
8
0
100
AcDbLine
62
7
6
CONTINUOUS
10
236.2899480890
20
182.2153330526
11
236.5399480890
21
182.2153330526
0
LINE
5
3BC
100
AcDbEntity
8
0
100
AcDbLine
62
7
6
CONTINUOUS
10
216.9109200254
20
196.4733930254
11
217.1343242541
21
196.2858930254
0
LINE
5
3BD
100
AcDbEntity
8
0
100
AcDbLine
62
7
6
CONTINUOUS
10
217.3896434620
20
196.2858930254
11
217.1662391439
21
196.4733930254
0
LINE
5
3BE
100
AcDbEntity
8
0
100
AcDbLine
62
7
6
CONTINUOUS
10
219.6405361054
20
195.4958930254
11
219.9979828713
21
195.1958930254
0
LINE
5
3BF
100
AcDbEntity
8
0
100
AcDbLine
62
7
6
CONTINUOUS
10
220.4064936039
20
195.1958930254
11
220.0490466950
21
195.4958930254
0
LINE
5
3C0
100
AcDbEntity
8
0
100
AcDbLine
62
7
6
CONTINUOUS
10
221.8362807927
20
197.6458931208
11
221.6830893037
21
197.7958931208
0
LINE
5
3C1
100
AcDbEntity
8
0
100
AcDbLine
62
9
6
CONTINUOUS
10
217.7899480890
20
186.5735881800
11
199.2899480890
21
185.6013740038
0
LINE
5
3C2
100
AcDbEntity
8
0
100
AcDbLine
62
7
6
CONTINUOUS
10
236.2899480890
20
184.4212405511
11
236.5399480890
21
184.4212405511
0
LINE
5
3C3
100
AcDbEntity
8
0
100
AcDbLine
62
7
6
CONTINUOUS
10
236.2899480890
20
184.8808049639
11
236.5399480890
21
184.8808049639
0
LINE
5
3C4
100
AcDbEntity
8
0
100
AcDbLine
62
7
6
CONTINUOUS
10
236.2899480890
20
185.2484548111
11
236.5399480890
21
185.2484548111
0
LINE
5
3C5
100
AcDbEntity
8
0
100
AcDbLine
62
7
6
CONTINUOUS
10
236.2899480890
20
185.5241932484
11
236.5399480890
21
185.5241932484
0
LINE
5
3C6
100
AcDbEntity
8
0
100
AcDbLine
62
7
6
CONTINUOUS
10
236.2899480890
20
185.6161067621
11
236.5399480890
21
185.6161067621
0
LINE
5
3C7
100
AcDbEntity
8
0
100
AcDbLine
62
9
6
CONTINUOUS
10
216.5667825574
20
189.5735881800
11
199.2899480890
21
189.5735881800
0
LINE
5
3C8
100
AcDbEntity
8
0
100
AcDbLine
62
9
6
CONTINUOUS
10
219.0131136207
20
189.5735881800
11
236.2899480890
21
189.5735881800
0
LINE
5
3C9
100
AcDbEntity
8
0
100
AcDbLine
62
7
6
CONTINUOUS
10
236.2899480890
20
190.7632235572
11
236.5399480890
21
190.7632235572
0
LINE
5
3CA
100
AcDbEntity
8
0
100
AcDbLine
62
9
6
CONTINUOUS
10
217.7899480890
20
186.5735881800
11
236.2899480890
21
185.6013740038
0
LINE
5
3CB
100
AcDbEntity
8
0
100
AcDbLine
62
7
6
CONTINUOUS
10
214.2109200254
20
196.5148223723
11
214.2761183038
21
196.4908949791
0
LINE
5
3CC
100
AcDbEntity
8
0
100
AcDbLine
62
7
6
CONTINUOUS
10
219.9979828713
20
196.3958930254
11
220.2022381661
21
196.2958930493
0
LINE
5
3CD
100
AcDbEntity
8
0
100
AcDbLine
62
7
6
CONTINUOUS
10
220.3554297802
20
196.4958930731
11
220.0490466950
21
196.6958930254
0
LINE
5
3CE
100
AcDbEntity
8
0
100
AcDbLine
62
7
6
CONTINUOUS
10
221.3256425020
20
197.6958929301
11
221.6320254800
21
197.4958929778
0
LINE
5
3CF
100
AcDbEntity
8
0
100
AcDbLine
62
7
6
CONTINUOUS
10
216.2866909518
20
197.1973337863
11
216.2567350044
21
197.1904866532
0
LINE
5
3D0
100
AcDbEntity
8
0
100
AcDbLine
62
7
6
CONTINUOUS
10
221.0703233120
20
196.1958930016
11
221.3256425020
21
196.2458930254
0
LINE
5
3D1
100
AcDbEntity
8
0
100
AcDbLine
62
7
6
CONTINUOUS
10
220.6107488987
20
197.9958929301
11
220.3554297802
21
197.9458931208
0
LINE
5
3D2
100
AcDbEntity
8
0
100
AcDbLine
62
7
6
CONTINUOUS
10
221.3256425020
20
196.4958930731
11
221.0192594883
21
196.4458929778
0
LINE
5
3D3
100
AcDbEntity
8
0
100
AcDbLine
62
7
6
CONTINUOUS
10
220.3554297802
20
197.6958929301
11
220.6618127224
21
197.7458930254
0
LINE
5
3D4
100
AcDbEntity
8
0
100
AcDbLine
62
7
6
CONTINUOUS
10
236.2899480890
20
191.3147004318
11
236.5399480890
21
191.3147004318
0
LINE
5
3D5
100
AcDbEntity
8
0
100
AcDbLine
62
7
6
CONTINUOUS
10
236.2899480890
20
191.8661773064
11
236.5399480890
21
191.8661773064
0
LINE
5
3D6
100
AcDbEntity
8
0
100
AcDbLine
62
7
6
CONTINUOUS
10
236.2899480890
20
192.6014812084
11
236.5399480890
21
192.6014812084
0
LINE
5
3D7
100
AcDbEntity
8
0
100
AcDbLine
62
7
6
CONTINUOUS
10
236.2899480890
20
192.6933926183
11
236.5399480890
21
192.6933926183
0
LINE
5
3D8
100
AcDbEntity
8
0
100
AcDbLine
62
7
6
CONTINUOUS
10
236.2899480890
20
192.7853061320
11
236.5399480890
21
192.7853061320
0
LINE
5
3D9
100
AcDbEntity
8
0
100
AcDbLine
62
7
6
CONTINUOUS
10
236.2899480890
20
193.1529580830
11
236.5399480890
21
193.1529580830
0
LINE
5
3DA
100
AcDbEntity
8
0
100
AcDbLine
62
7
6
CONTINUOUS
10
236.2899480890
20
193.5206079302
11
236.5399480890
21
193.5206079302
0
LINE
5
3DB
100
AcDbEntity
8
0
100
AcDbLine
62
7
6
CONTINUOUS
10
236.2899480890
20
194.1639983185
11
236.5399480890
21
194.1639983185
0
LINE
5
3DC
100
AcDbEntity
8
0
100
AcDbLine
62
7
6
CONTINUOUS
10
236.2899480890
20
194.3478232421
11
236.5399480890
21
194.3478232421
0
LINE
5
3DD
100
AcDbEntity
8
0
100
AcDbLine
62
7
6
CONTINUOUS
10
236.2899480890
20
194.9912136304
11
236.5399480890
21
194.9912136304
0
LINE
5
3DE
100
AcDbEntity
8
0
100
AcDbLine
62
7
6
CONTINUOUS
10
219.9979828713
20
195.1958930254
11
220.4064936039
21
195.1958930254
0
LINE
5
3DF
100
AcDbEntity
8
0
100
AcDbLine
62
7
6
CONTINUOUS
10
236.2899480890
20
195.3588655814
11
236.5399480890
21
195.3588655814
0
LINE
5
3E0
100
AcDbEntity
8
0
100
AcDbLine
62
7
6
CONTINUOUS
10
220.0490466950
20
195.4958930254
11
222.0405361054
21
195.4958930254
0
LINE
5
3E1
100
AcDbEntity
8
0
100
AcDbLine
62
7
6
CONTINUOUS
10
236.2899480890
20
195.7265154286
11
236.5399480890
21
195.7265154286
0
LINE
5
3E2
100
AcDbEntity
8
0
100
AcDbLine
62
7
6
CONTINUOUS
10
222.0405361054
20
195.7958930254
11
219.6405361054
21
195.7958930254
0
LINE
5
3E3
100
AcDbEntity
8
0
100
AcDbLine
62
7
6
CONTINUOUS
10
236.2899480890
20
195.8184289423
11
236.5399480890
21
195.8184289423
0
LINE
5
3E4
100
AcDbEntity
8
0
100
AcDbLine
62
7
6
CONTINUOUS
10
236.2899480890
20
195.9103424560
11
236.5399480890
21
195.9103424560
0
LINE
5
3E5
100
AcDbEntity
8
0
100
AcDbLine
62
7
6
CONTINUOUS
10
220.6107488987
20
196.1958930016
11
221.0703233120
21
196.1958930016
0
LINE
5
3E6
100
AcDbEntity
8
0
100
AcDbLine
62
7
6
CONTINUOUS
10
217.1343242541
20
196.2858930254
11
217.3896434620
21
196.2858930254
0
LINE
5
3E7
100
AcDbEntity
8
0
100
AcDbLine
62
7
6
CONTINUOUS
10
221.0192594883
20
196.4458929778
11
220.6618127224
21
196.4458929778
0
LINE
5
3E8
100
AcDbEntity
8
DEFAULT_1
100
AcDbLine
62
2
6
CENTER
10
240.0756845123
20
196.4658930254
11
194.4371645874
21
196.4658930254
0
LINE
5
3E9
100
AcDbEntity
8
0
100
AcDbLine
62
7
6
CONTINUOUS
10
217.1662391439
20
196.4733930254
11
218.4109200254
21
196.4733930254
0
LINE
5
3EA
100
AcDbEntity
8
0
100
AcDbLine
62
7
6
CONTINUOUS
10
218.4109200254
20
196.6608930254
11
216.9109200254
21
196.6608930254
0
LINE
5
3EB
100
AcDbEntity
8
0
100
AcDbLine
62
7
6
CONTINUOUS
10
215.4496865287
20
196.4485610107
11
215.0584970727
21
196.4511803760
0
LINE
5
3EC
100
AcDbEntity
8
0
100
AcDbLine
62
7
6
CONTINUOUS
10
215.5395544067
20
196.3210596200
11
215.7598186984
21
196.3160540290
0
LINE
5
3ED
100
AcDbEntity
8
0
100
AcDbLine
62
7
6
CONTINUOUS
10
214.9932989373
20
195.4702426423
11
215.0303032651
21
195.4654593032
0
LINE
5
3EE
100
AcDbEntity
8
0
100
AcDbLine
62
7
6
CONTINUOUS
10
220.6618127224
20
196.4458929778
11
220.3554297802
21
196.4958930731
0
LINE
5
3EF
100
AcDbEntity
8
0
100
AcDbLine
62
7
6
CONTINUOUS
10
221.0192594883
20
197.7458930254
11
221.3256425020
21
197.6958929301
0
LINE
5
3F0
100
AcDbEntity
8
0
100
AcDbLine
62
7
6
CONTINUOUS
10
215.0267790570
20
195.4783724692
11
214.9104794755
21
195.4978962997
0
LINE
5
3F1
100
AcDbEntity
8
0
100
AcDbLine
62
7
6
CONTINUOUS
10
220.3554297802
20
196.2458930254
11
220.6107488987
21
196.1958930016
0
LINE
5
3F2
100
AcDbEntity
8
0
100
AcDbLine
62
7
6
CONTINUOUS
10
221.3256425020
20
197.9458931208
11
221.0703233120
21
197.9958929301
0
LINE
5
3F3
100
AcDbEntity
8
0
100
AcDbLine
62
7
6
CONTINUOUS
10
216.2567350044
20
197.1904866532
11
216.3360301509
21
197.1656061901
0
LINE
5
3F4
100
AcDbEntity
8
0
100
AcDbLine
62
7
6
CONTINUOUS
10
220.2022381661
20
196.2958930493
11
220.3554297802
21
196.2458930254
0
LINE
5
3F5
100
AcDbEntity
8
0
100
AcDbLine
62
7
6
CONTINUOUS
10
221.4788339731
20
197.8958930254
11
221.3256425020
21
197.9458931208
0
LINE
5
3F6
100
AcDbEntity
8
0
100
AcDbLine
62
7
6
CONTINUOUS
10
221.6830893037
20
197.7958931208
11
221.4788339731
21
197.8958930254
0
LINE
5
3F7
100
AcDbEntity
8
0
100
AcDbLine
62
7
6
CONTINUOUS
10
214.7526566357
20
203.8107827098
11
199.6998143977
21
200.3384971918
0
LINE
5
3F8
100
AcDbEntity
8
0
100
AcDbLine
62
7
6
CONTINUOUS
10
220.6618127224
20
197.7458930254
11
221.0192594883
21
197.7458930254
0
LINE
5
3F9
100
AcDbEntity
8
0
100
AcDbLine
62
7
6
CONTINUOUS
10
221.0703233120
20
197.9958929301
11
220.6107488987
21
197.9958929301
0
LINE
5
3FA
100
AcDbEntity
8
0
100
AcDbLine
62
7
6
CONTINUOUS
10
220.8272395424
20
203.8107827098
11
235.8800817804
21
200.3384971918
0
ARC
5
3FB
100
AcDbEntity
8
0
100
AcDbCircle
62
7
6
CONTINUOUS
10
92.6701225259
20
196.4658930254
40
2.0000000000
100
AcDbArc
50
190.0000000000
51
170.0000000000
0
ARC
5
3FC
100
AcDbEntity
8
0
100
AcDbCircle
62
7
6
CONTINUOUS
10
92.6701225259
20
196.4658930254
40
2.6784609691
100
AcDbArc
50
190.0000000000
51
170.0000000000
0
ARC
5
3FD
100
AcDbEntity
8
0
100
AcDbCircle
62
7
6
CONTINUOUS
10
46.6701225259
20
50.9658930254
40
2.0000000000
100
AcDbArc
50
190.0000000000
51
170.0000000000
0
ARC
5
3FE
100
AcDbEntity
8
0
100
AcDbCircle
62
7
6
CONTINUOUS
10
46.6701225259
20
50.9658930254
40
2.6784609691
100
AcDbArc
50
190.0000000000
51
170.0000000000
0
ARC
5
3FF
100
AcDbEntity
8
0
100
AcDbCircle
62
7
6
CONTINUOUS
10
100.5201225259
20
107.4658930254
40
2.0000000000
100
AcDbArc
50
270.0000000000
51
90.0000000000
0
ARC
5
400
100
AcDbEntity
8
0
100
AcDbCircle
62
7
6
CONTINUOUS
10
38.8201225259
20
107.4658930254
40
2.0000000000
100
AcDbArc
50
90.0000000000
51
270.0000000000
0
ARC
5
401
100
AcDbEntity
8
0
100
AcDbCircle
62
7
6
CONTINUOUS
10
69.6701225259
20
-8.0341069746
40
45.0000000000
100
AcDbArc
50
99.2068962213
51
115.7863669600
0
ARC
5
402
100
AcDbEntity
8
0
100
AcDbCircle
62
7
6
CONTINUOUS
10
69.6701225259
20
-8.0341069746
40
45.0000000000
100
AcDbArc
50
64.2136330400
51
80.7931037787
0
CIRCLE
5
403
100
AcDbEntity
8
0
100
AcDbCircle
62
7
6
CONTINUOUS
10
46.6701225259
20
50.9658930254
40
3.0000000000
0
ARC
5
404
100
AcDbEntity
8
0
100
AcDbCircle
62
7
6
CONTINUOUS
10
31.6701225259
20
57.8581978709
40
6.0000000000
100
AcDbArc
50
27.2798989786
51
30.0000000000
0
ARC
5
405
100
AcDbEntity
8
0
100
AcDbCircle
62
7
6
CONTINUOUS
10
107.6701225259
20
57.8581978709
40
6.0000000000
100
AcDbArc
50
150.0000000000
51
178.9715317988
0
ARC
5
406
100
AcDbEntity
8
0
100
AcDbCircle
62
7
6
CONTINUOUS
10
69.6701225259
20
74.4658930254
40
15.0000000000
100
AcDbArc
50
315.0000000000
51
225.0000000000
0
ARC
5
407
100
AcDbEntity
8
0
100
AcDbCircle
62
7
6
CONTINUOUS
10
107.6701225259
20
57.8581978709
40
7.9444283524
100
AcDbArc
50
150.0000000000
51
180.0000000000
0
ARC
5
408
100
AcDbEntity
8
0
100
AcDbCircle
62
7
6
CONTINUOUS
10
69.6701225259
20
74.4658930254
40
17.9301121460
100
AcDbArc
50
315.0000000000
51
22.3807450966
0
ARC
5
409
100
AcDbEntity
8
0
100
AcDbCircle
62
7
6
CONTINUOUS
10
69.6701225259
20
74.4658930254
40
17.9301121460
100
AcDbArc
50
157.6192549034
51
225.0000000000
0
ARC
5
40A
100
AcDbEntity
8
0
100
AcDbCircle
62
7
6
CONTINUOUS
10
31.6701225259
20
57.8581978709
40
7.9444283524
100
AcDbArc
50
0.0000000000
51
30.0000000000
0
ARC
5
40B
100
AcDbEntity
8
0
100
AcDbCircle
62
7
6
CONTINUOUS
10
69.6701225259
20
255.4658930254
40
45.0000000000
100
AcDbArc
50
279.2068962213
51
295.7863669600
0
ARC
5
40C
100
AcDbEntity
8
0
100
AcDbCircle
62
7
6
CONTINUOUS
10
69.6701225259
20
255.4658930254
40
45.0000000000
100
AcDbArc
50
244.2136330400
51
260.7931037787
0
CIRCLE
5
40D
100
AcDbEntity
8
0
100
AcDbCircle
62
7
6
CONTINUOUS
10
92.6701225259
20
196.4658930254
40
3.0000000000
0
ARC
5
40E
100
AcDbEntity
8
0
100
AcDbCircle
62
7
6
CONTINUOUS
10
107.6701225259
20
189.5735881800
40
6.0000000000
100
AcDbArc
50
209.6528342581
51
210.0000000000
0
ARC
5
40F
100
AcDbEntity
8
0
100
AcDbCircle
62
7
6
CONTINUOUS
10
31.6701225259
20
189.5735881800
40
6.0000000000
100
AcDbArc
50
330.0000000000
51
358.9715317988
0
ARC
5
410
100
AcDbEntity
8
0
100
AcDbCircle
62
7
6
CONTINUOUS
10
69.6701225259
20
172.9658930254
40
15.0000000000
100
AcDbArc
50
135.0000000000
51
45.0000000000
0
ARC
5
411
100
AcDbEntity
8
0
100
AcDbCircle
62
7
6
CONTINUOUS
10
107.6701225259
20
189.5735881800
40
7.9444283524
100
AcDbArc
50
180.0000000000
51
210.0000000000
0
ARC
5
412
100
AcDbEntity
8
0
100
AcDbCircle
62
7
6
CONTINUOUS
10
69.6701225259
20
172.9658930254
40
17.9301121460
100
AcDbArc
50
337.6192549034
51
45.0000000000
0
ARC
5
413
100
AcDbEntity
8
0
100
AcDbCircle
62
7
6
CONTINUOUS
10
31.6701225259
20
189.5735881800
40
7.9444283524
100
AcDbArc
50
330.0000000000
51
360.0000000000
0
ARC
5
414
100
AcDbEntity
8
0
100
AcDbCircle
62
7
6
CONTINUOUS
10
69.6701225259
20
172.9658930254
40
17.9301121460
100
AcDbArc
50
135.0000000000
51
202.3807450966
0
ARC
5
415
100
AcDbEntity
8
0
100
AcDbCircle
62
7
6
CONTINUOUS
10
92.6701225259
20
196.4658930254
40
3.5000000000
100
AcDbArc
50
179.9999963612
51
0.0000036741
0
ARC
5
416
100
AcDbEntity
8
0
100
AcDbCircle
62
7
6
CONTINUOUS
10
217.7899480890
20
50.9658930254
40
7.8000000000
100
AcDbArc
50
22.6235089141
51
157.3764910859
0
ARC
5
417
100
AcDbEntity
8
0
100
AcDbCircle
62
7
6
CONTINUOUS
10
217.7899480890
20
50.9658930254
40
7.8000000000
100
AcDbArc
50
202.6235089141
51
337.3764910859
0
ARC
5
418
100
AcDbEntity
8
0
100
AcDbCircle
62
7
6
CONTINUOUS
10
217.7899480890
20
50.9658930254
40
7.3000000000
100
AcDbArc
50
24.3194668634
51
155.6805331366
0
ARC
5
419
100
AcDbEntity
8
0
100
AcDbCircle
62
7
6
CONTINUOUS
10
217.7899480890
20
50.9658930254
40
7.3000000000
100
AcDbArc
50
204.3194668634
51
335.6805331366
0
ARC
5
41A
100
AcDbEntity
8
0
100
AcDbCircle
62
7
6
CONTINUOUS
10
248.6399480890
20
107.4658930254
40
2.0000000000
100
AcDbArc
50
270.0000000000
51
90.0000000000
0
ARC
5
41B
100
AcDbEntity
8
0
100
AcDbCircle
62
7
6
CONTINUOUS
10
188.4399480890
20
106.4658930254
40
1.0000000000
100
AcDbArc
50
270.0000000000
51
279.0000000000
0
CIRCLE
5
41C
100
AcDbEntity
8
0
100
AcDbCircle
62
7
6
CONTINUOUS
10
217.7899480890
20
50.9658930254
40
7.8750000000
0
ARC
5
41D
100
AcDbEntity
8
0
100
AcDbCircle
62
7
6
CONTINUOUS
10
249.2899480890
20
81.2929562604
40
13.0000000000
100
AcDbArc
50
99.0000000000
51
180.0000000000
0
ARC
5
41E
100
AcDbEntity
8
0
100
AcDbCircle
62
7
6
CONTINUOUS
10
186.2899480890
20
81.2929562604
40
13.0000000000
100
AcDbArc
50
0.0000000000
51
81.0000000000
0
ARC
5
41F
100
AcDbEntity
8
0
100
AcDbCircle
62
7
6
CONTINUOUS
10
217.7899480890
20
50.9658930254
40
18.5000000000
100
AcDbArc
50
180.0000010298
51
359.9999989702
0
ARC
5
420
100
AcDbEntity
8
0
100
AcDbCircle
62
7
6
CONTINUOUS
10
249.2899480890
20
166.1388297905
40
13.0000000000
100
AcDbArc
50
180.0000000000
51
261.0000000000
0
CIRCLE
5
421
100
AcDbEntity
8
0
100
AcDbCircle
62
7
6
CONTINUOUS
10
217.7899480890
20
196.4658930254
40
7.0000000000
0
ARC
5
422
100
AcDbEntity
8
0
100
AcDbCircle
62
7
6
CONTINUOUS
10
217.7899480890
20
196.4658930254
40
18.5000000000
100
AcDbArc
50
0.0000010298
51
179.9999989702
0
ARC
5
423
100
AcDbEntity
8
0
100
AcDbCircle
62
7
6
CONTINUOUS
10
186.2899480890
20
166.1388297905
40
13.0000000000
100
AcDbArc
50
279.0000000000
51
360.0000000000
0
SPLINE
5
424
100
AcDbEntity
8
0
100
AcDbSpline
62
7
6
CONTINUOUS
70
0
71
3
72
11
73
7
74
5
42
0.0000001000
43
0.0000001000
44
0.0000000001
12
2.1475571179
22
-2.1475571179
32
0.0000000000
13
0.3767825578
23
-3.0136419915
33
0.0000000000
40
0.0000000000
40
0.0000000000
40
0.0000000000
40
0.0000000000
40
0.1614682671
40
0.3826461575
40
0.6600225456
40
1.0000000000
40
1.0000000000
40
1.0000000000
40
1.0000000000
10
37.0027910391
20
60.6082245122
30
0.0000000000
10
37.1183784812
20
60.4926370701
30
0.0000000000
10
37.3578724514
20
60.1851491860
30
0.0000000000
10
37.6952567178
20
59.6065477143
30
0.0000000000
10
38.0106762017
20
58.8146314686
30
0.0000000000
10
38.1429563018
20
58.1997213151
30
0.0000000000
10
38.1856554935
20
57.8581978709
30
0.0000000000
11
37.0027910391
21
60.6082245122
31
0.0000000000
11
37.3126844273
21
60.2281530585
31
0.0000000000
11
37.6532817082
21
59.6491637819
31
0.0000000000
11
37.9669531809
21
58.8673176128
31
0.0000000000
11
38.1856554935
21
57.8581978709
31
0.0000000000
0
SPLINE
5
425
100
AcDbEntity
8
0
100
AcDbSpline
62
7
6
CONTINUOUS
70
0
71
3
72
14
73
10
74
8
42
0.0000001000
43
0.0000001000
44
0.0000000001
12
8.1299554399
22
0.0000000000
32
0.0000000000
13
-0.0000000000
23
-8.1299554399
33
0.0000000000
40
0.0000000000
40
0.0000000000
40
0.0000000000
40
0.0000000000
40
0.0422969943
40
0.1218033136
40
0.2417655106
40
0.3975877899
40
0.5819272071
40
0.7859500267
40
1.0000000000
40
1.0000000000
40
1.0000000000
40
1.0000000000
10
76.8701225259
20
58.8408930254
30
0.0000000000
10
76.9847467522
20
58.8408930254
30
0.0000000000
10
77.2504476739
20
58.5552306468
30
0.0000000000
10
77.4545664559
20
57.9569609981
30
0.0000000000
10
77.6891489369
20
57.0097447299
30
0.0000000000
10
77.8682818787
20
55.7790068162
30
0.0000000000
10
78.0109693931
20
54.3093518972
30
0.0000000000
10
78.0976338656
20
52.6791282483
30
0.0000000000
10
78.1173999935
20
51.5459652737
30
0.0000000000
10
78.1173999935
20
50.9658930254
30
0.0000000000
11
76.8701225259
21
58.8408930254
31
0.0000000000
11
77.1496401711
21
58.6405974803
31
0.0000000000
11
77.4145782241
21
58.0510055915
31
0.0000000000
11
77.6513339919
21
57.1048914049
31
0.0000000000
11
77.8481066677
21
55.8534385808
31
0.0000000000
11
77.9954536118
21
54.3620283804
31
0.0000000000
11
78.0865750478
21
52.7058367433
31
0.0000000000
11
78.1173999935
21
50.9658930254
31
0.0000000000
0
SPLINE
5
426
100
AcDbEntity
8
0
100
AcDbSpline
62
7
6
CONTINUOUS
70
0
71
3
72
14
73
10
74
8
42
0.0000001000
43
0.0000001000
44
0.0000000001
12
0.0000000000
22
-8.1299552895
32
0.0000000000
13
-8.1299552895
23
0.0000000000
33
0.0000000000
40
0.0000000000
40
0.0000000000
40
0.0000000000
40
0.0000000000
40
0.2140514283
40
0.4180741804
40
0.6024126902
40
0.7582341031
40
0.8781960323
40
0.9577026478
40
1.0000000000
40
1.0000000000
40
1.0000000000
40
1.0000000000
10
78.1173999935
20
50.9658930254
30
0.0000000000
10
78.1173999935
20
50.3858168449
30
0.0000000000
10
78.0976336713
20
49.2526501252
30
0.0000000000
10
78.0109686974
20
47.6224252417
30
0.0000000000
10
77.8682813114
20
46.1527753244
30
0.0000000000
10
77.6891490581
20
44.9220430190
30
0.0000000000
10
77.4545675207
20
43.9748286617
30
0.0000000000
10
77.2504491892
20
43.3765584441
30
0.0000000000
10
76.9847477201
20
43.0908930254
30
0.0000000000
10
76.8701225259
20
43.0908930254
30
0.0000000000
11
78.1173999935
21
50.9658930254
31
0.0000000000
11
78.0865746247
21
49.2259375162
31
0.0000000000
11
77.9954527648
21
47.5697464832
31
0.0000000000
11
77.8481061934
21
46.0783436867
31
0.0000000000
11
77.6513346222
21
44.8268978435
31
0.0000000000
11
77.4145799192
21
43.8807856520
31
0.0000000000
11
77.1496419217
21
43.2911911123
31
0.0000000000
11
76.8701225259
21
43.0908930254
31
0.0000000000
0
SPLINE
5
427
100
AcDbEntity
8
0
100
AcDbSpline
62
7
6
CONTINUOUS
70
0
71
3
72
14
73
10
74
8
42
0.0000001000
43
0.0000001000
44
0.0000000001
12
-3.5391522537
22
-5.9758513528
32
0.0000000000
13
0.0000000000
23
-6.9452428371
33
0.0000000000
40
0.0000000000
40
0.0000000000
40
0.0000000000
40
0.0000000000
40
0.0584638075
40
0.1523906125
40
0.2788919068
40
0.4332205218
40
0.6094470878
40
0.8007129614
40
1.0000000000
40
1.0000000000
40
1.0000000000
40
1.0000000000
10
101.5415626481
20
57.8581978709
30
0.0000000000
10
101.4725918761
20
57.7417408632
30
0.0000000000
10
101.3716332676
20
57.3976365976
30
0.0000000000
10
101.2492658859
20
56.7661601522
30
0.0000000000
10
101.1424334886
20
55.9034571637
30
0.0000000000
10
101.0522685588
20
54.8495058359
30
0.0000000000
10
100.9852542576
20
53.6429950942
30
0.0000000000
10
100.9436887833
20
52.3314637537
30
0.0000000000
10
100.9343928791
20
51.4272586512
30
0.0000000000
10
100.9343928791
20
50.9658930254
30
0.0000000000
11
101.5415626481
21
57.8581978709
31
0.0000000000
11
101.4001457107
21
57.4775746082
31
0.0000000000
11
101.2697095858
21
56.8384034854
31
0.0000000000
11
101.1553692838
21
55.9672932785
31
0.0000000000
11
101.0615491867
21
54.8995575505
31
0.0000000000
11
100.9918409762
21
53.6776079521
31
0.0000000000
11
100.9489168481
21
52.3499136972
31
0.0000000000
11
100.9343928791
21
50.9658930254
31
0.0000000000
0
SPLINE
5
428
100
AcDbEntity
8
0
100
AcDbSpline
62
7
6
CONTINUOUS
70
0
71
3
72
14
73
10
74
8
42
0.0000001000
43
0.0000001000
44
0.0000000001
12
0.0000000000
22
-7.1089901103
32
0.0000000000
13
7.1089901103
23
0.0000000000
33
0.0000000000
40
0.0000000000
40
0.0000000000
40
0.0000000000
40
0.0000000000
40
0.2184662310
40
0.4262769936
40
0.6132858495
40
0.7702973631
40
0.8896587503
40
0.9660793965
40
1.0000000000
40
1.0000000000
40
1.0000000000
40
1.0000000000
10
100.9343928791
20
50.9658930254
30
0.0000000000
10
100.9343928791
20
50.4482016001
30
0.0000000000
10
100.9461577677
20
49.4377464541
30
0.0000000000
10
100.9974566728
20
47.9864035340
30
0.0000000000
10
101.0822492411
20
46.6775595482
30
0.0000000000
10
101.1868687769
20
45.5949597303
30
0.0000000000
10
101.3263774712
20
44.7426771312
30
0.0000000000
10
101.4384001454
20
44.2634613980
30
0.0000000000
10
101.5897421143
20
43.9658930254
30
0.0000000000
10
101.6701225259
20
43.9658930254
30
0.0000000000
11
100.9343928791
21
50.9658930254
31
0.0000000000
11
100.9527270530
21
49.4129269715
31
0.0000000000
11
101.0068544333
21
47.9365942297
31
0.0000000000
11
101.0941898050
21
46.6100218917
31
0.0000000000
11
101.2105035029
21
45.4999054114
31
0.0000000000
11
101.3500707095
21
44.6629231561
31
0.0000000000
11
101.5059094108
21
44.1424805336
31
0.0000000000
11
101.6701225259
21
43.9658930254
31
0.0000000000
0
SPLINE
5
429
100
AcDbEntity
8
0
100
AcDbSpline
62
7
6
CONTINUOUS
70
0
71
3
72
9
73
5
74
3
42
0.0000001000
43
0.0000001000
44
0.0000000001
12
0.0885170885
22
0.1494609232
32
0.0000000000
13
0.1737061960
23
0.0000000000
33
0.0000000000
40
0.0000000000
40
0.0000000000
40
0.0000000000
40
0.0000000000
40
0.5957366386
40
1.0000000000
40
1.0000000000
40
1.0000000000
40
1.0000000000
10
101.5415626481
20
57.8581978709
30
0.0000000000
10
101.5591402724
20
57.8878776535
30
0.0000000000
10
101.5916499143
20
57.9365158495
30
0.0000000000
10
101.6476814407
20
57.9658930254
30
0.0000000000
10
101.6710891243
20
57.9658930254
30
0.0000000000
11
101.5415626481
21
57.8581978709
31
0.0000000000
11
101.6062226092
21
57.9389929870
31
0.0000000000
11
101.6710891243
21
57.9658930254
31
0.0000000000
0
SPLINE
5
42A
100
AcDbEntity
8
0
100
AcDbSpline
62
7
6
CONTINUOUS
70
0
71
3
72
14
73
10
74
8
42
0.0000001000
43
0.0000001000
44
0.0000000001
12
-8.1299554399
22
0.0000000000
32
0.0000000000
13
0.0000000000
23
-8.1299554399
33
0.0000000000
40
0.0000000000
40
0.0000000000
40
0.0000000000
40
0.0000000000
40
0.0422969943
40
0.1218033136
40
0.2417655106
40
0.3975877899
40
0.5819272071
40
0.7859500267
40
1.0000000000
40
1.0000000000
40
1.0000000000
40
1.0000000000
10
62.4701225259
20
58.8408930254
30
0.0000000000
10
62.3554982996
20
58.8408930254
30
0.0000000000
10
62.0897973779
20
58.5552306468
30
0.0000000000
10
61.8856785959
20
57.9569609981
30
0.0000000000
10
61.6510961150
20
57.0097447299
30
0.0000000000
10
61.4719631732
20
55.7790068162
30
0.0000000000
10
61.3292756588
20
54.3093518972
30
0.0000000000
10
61.2426111862
20
52.6791282483
30
0.0000000000
10
61.2228450584
20
51.5459652737
30
0.0000000000
10
61.2228450584
20
50.9658930254
30
0.0000000000
11
62.4701225259
21
58.8408930254
31
0.0000000000
11
62.1906048808
21
58.6405974803
31
0.0000000000
11
61.9256668278
21
58.0510055915
31
0.0000000000
11
61.6889110599
21
57.1048914049
31
0.0000000000
11
61.4921383841
21
55.8534385808
31
0.0000000000
11
61.3447914401
21
54.3620283804
31
0.0000000000
11
61.2536700040
21
52.7058367433
31
0.0000000000
11
61.2228450584
21
50.9658930254
31
0.0000000000
0
SPLINE
5
42B
100
AcDbEntity
8
0
100
AcDbSpline
62
7
6
CONTINUOUS
70
0
71
3
72
14
73
10
74
8
42
0.0000001000
43
0.0000001000
44
0.0000000001
12
0.0000000000
22
-8.1299552895
32
0.0000000000
13
8.1299552895
23
0.0000000000
33
0.0000000000
40
0.0000000000
40
0.0000000000
40
0.0000000000
40
0.0000000000
40
0.2140514283
40
0.4180741804
40
0.6024126902
40
0.7582341031
40
0.8781960323
40
0.9577026478
40
1.0000000000
40
1.0000000000
40
1.0000000000
40
1.0000000000
10
61.2228450584
20
50.9658930254
30
0.0000000000
10
61.2228450584
20
50.3858168449
30
0.0000000000
10
61.2426113806
20
49.2526501252
30
0.0000000000
10
61.3292763544
20
47.6224252417
30
0.0000000000
10
61.4719637404
20
46.1527753244
30
0.0000000000
10
61.6510959937
20
44.9220430190
30
0.0000000000
10
61.8856775311
20
43.9748286617
30
0.0000000000
10
62.0897958626
20
43.3765584441
30
0.0000000000
10
62.3554973318
20
43.0908930254
30
0.0000000000
10
62.4701225259
20
43.0908930254
30
0.0000000000
11
61.2228450584
21
50.9658930254
31
0.0000000000
11
61.2536704271
21
49.2259375162
31
0.0000000000
11
61.3447922870
21
47.5697464832
31
0.0000000000
11
61.4921388584
21
46.0783436867
31
0.0000000000
11
61.6889104296
21
44.8268978435
31
0.0000000000
11
61.9256651327
21
43.8807856520
31
0.0000000000
11
62.1906031301
21
43.2911911123
31
0.0000000000
11
62.4701225259
21
43.0908930254
31
0.0000000000
0
SPLINE
5
42C
100
AcDbEntity
8
0
100
AcDbSpline
62
7
6
CONTINUOUS
70
0
71
3
72
9
73
5
74
3
42
0.0000001000
43
0.0000001000
44
0.0000000001
12
0.0307300376
22
-0.5953892976
32
0.0000000000
13
-0.0000000002
23
0.0000000000
33
0.0000000000
40
0.0000000000
40
0.0000000000
40
0.0000000000
40
0.0000000000
40
0.7480447091
40
1.0000000000
40
1.0000000000
40
1.0000000000
40
1.0000000000
10
38.3123801694
20
43.2592529380
30
0.0000000000
10
38.3200426501
20
43.1107936667
30
0.0000000000
10
38.3264552917
20
42.9865497603
30
0.0000000000
10
38.3430996360
20
42.6638701482
30
0.0000000000
10
38.3430996359
20
42.6638701482
30
0.0000000000
11
38.3123801694
21
43.2592529380
31
0.0000000000
11
38.3353618983
21
42.8138748293
31
0.0000000000
11
38.3430996359
21
42.6638701482
31
0.0000000000
0
SPLINE
5
42D
100
AcDbEntity
8
0
100
AcDbSpline
62
7
6
CONTINUOUS
70
0
71
3
72
9
73
5
74
3
42
0.0000001000
43
0.0000001000
44
0.0000000001
12
0.1958527781
22
-0.7715285814
32
0.0000000000
13
0.0410295713
23
-0.7949410272
33
0.0000000000
40
0.0000000000
40
0.0000000000
40
0.0000000000
40
0.0000000000
40
0.5387927924
40
1.0000000000
40
1.0000000000
40
1.0000000000
40
1.0000000000
10
38.1818785316
20
44.0435368443
30
0.0000000000
10
38.2170532200
20
43.9049721647
30
0.0000000000
10
38.2738815368
20
43.6455117693
30
0.0000000000
10
38.3060724581
20
43.3814637818
30
0.0000000000
10
38.3123801694
20
43.2592529380
30
0.0000000000
11
38.1818785316
21
44.0435368443
31
0.0000000000
11
38.2711384164
21
43.6240496155
31
0.0000000000
11
38.3123801694
21
43.2592529380
31
0.0000000000
0
SPLINE
5
42E
100
AcDbEntity
8
0
100
AcDbSpline
62
7
6
CONTINUOUS
70
0
71
3
72
12
73
8
74
6
42
0.0000001000
43
0.0000001000
44
0.0000000001
12
0.8565420195
22
-6.8509301831
32
0.0000000000
13
0.0000000000
23
-6.9042674199
33
0.0000000000
40
0.0000000000
40
0.0000000000
40
0.0000000000
40
0.0000000000
40
0.1624589513
40
0.3494819794
40
0.5554955573
40
0.7744009033
40
1.0000000000
40
1.0000000000
40
1.0000000000
40
1.0000000000
10
38.1856554935
20
57.8581978709
30
0.0000000000
10
38.2320397995
20
57.4871995599
30
0.0000000000
10
38.3135931836
20
56.6868235367
30
0.0000000000
10
38.4053553348
20
55.4115726590
30
0.0000000000
10
38.4729993113
20
54.0047398601
30
0.0000000000
10
38.5144552480
20
52.5081109240
30
0.0000000000
10
38.5237166770
20
51.4850918565
30
0.0000000000
10
38.5237166770
20
50.9658930254
30
0.0000000000
11
38.1856554935
21
57.8581978709
31
0.0000000000
11
38.3027131799
21
56.7426626840
31
0.0000000000
11
38.3973548221
21
55.4548786960
31
0.0000000000
11
38.4668985701
21
54.0342069726
31
0.0000000000
11
38.5094047050
21
52.5234237643
31
0.0000000000
11
38.5237166770
21
50.9658930254
31
0.0000000000
0
SPLINE
5
42F
100
AcDbEntity
8
0
100
AcDbSpline
62
7
6
CONTINUOUS
70
0
71
3
72
12
73
8
74
6
42
0.0000001000
43
0.0000001000
44
0.0000000001
12
0.0000000000
22
-6.9345506714
32
0.0000000000
13
-0.8692403869
23
-6.8798556790
33
0.0000000000
40
0.0000000000
40
0.0000000000
40
0.0000000000
40
0.0000000000
40
0.2261029489
40
0.4451547373
40
0.6511741453
40
0.8379848313
40
1.0000000000
40
1.0000000000
40
1.0000000000
40
1.0000000000
10
38.5237166770
20
50.9658930254
30
0.0000000000
10
38.5237166770
20
50.4432522402
30
0.0000000000
10
38.5143402729
20
49.4142424149
30
0.0000000000
10
38.4723933151
20
47.9095393444
30
0.0000000000
10
38.4040124071
20
46.4966940592
30
0.0000000000
10
38.3112813982
20
45.2173961756
30
0.0000000000
10
38.2288219075
20
44.4150838372
30
0.0000000000
10
38.1818785316
20
44.0435368443
30
0.0000000000
11
38.5237166770
21
50.9658930254
31
0.0000000000
11
38.5092128646
21
49.3980377537
31
0.0000000000
11
38.4662101441
21
47.8796208400
31
0.0000000000
11
38.3958827117
21
46.4527008500
31
0.0000000000
11
38.3002080219
21
45.1607905166
31
0.0000000000
11
38.1818785316
21
44.0435368443
31
0.0000000000
0
SPLINE
5
430
100
AcDbEntity
8
0
100
AcDbSpline
62
7
6
CONTINUOUS
70
0
71
3
72
10
73
6
74
4
42
0.0000001000
43
0.0000001000
44
0.0000000001
12
0.9659685243
22
9.7655188969
32
0.0000000000
13
-0.0000000000
23
9.8131775952
33
0.0000000000
40
0.0000000000
40
0.0000000000
40
0.0000000000
40
0.0000000000
40
0.3145922015
40
0.6516216187
40
1.0000000000
40
1.0000000000
40
1.0000000000
40
1.0000000000
10
79.3553745490
20
41.1661867695
30
0.0000000000
10
79.4566699373
20
42.1902387992
30
0.0000000000
10
79.6220882639
20
44.3158851397
30
0.0000000000
10
79.7676972108
20
47.5841574287
30
0.0000000000
10
79.8002346719
20
49.8263267167
30
0.0000000000
10
79.8002346719
20
50.9658930254
30
0.0000000000
11
79.3553745490
21
41.1661867695
31
0.0000000000
11
79.5999518141
21
44.2436324307
31
0.0000000000
11
79.7497809562
21
47.5475664214
31
0.0000000000
11
79.8002346719
21
50.9658930254
31
0.0000000000
0
SPLINE
5
431
100
AcDbEntity
8
0
100
AcDbSpline
62
7
6
CONTINUOUS
70
0
71
3
72
18
73
14
74
12
42
0.0000001000
43
0.0000001000
44
0.0000000001
12
53.6811652347
22
7.8052123783
32
0.0000000000
13
53.6811652347
23
-7.8052123784
33
0.0000000000
40
0.0000000000
40
0.0000000000
40
0.0000000000
40
0.0000000000
40
0.0784543751
40
0.1643363932
40
0.2560199140
40
0.3519090625
40
0.4503500314
40
0.5496518740
40
0.6480926374
40
0.7439814207
40
0.8356644402
40
0.9215459414
40
1.0000000000
40
1.0000000000
40
1.0000000000
40
1.0000000000
10
42.6195383826
20
94.1329046882
30
0.0000000000
10
44.0233791406
20
94.3370223748
30
0.0000000000
10
46.9726618816
20
94.7056064307
30
0.0000000000
10
51.5823137403
20
95.1378685607
30
0.0000000000
10
56.5163167974
20
95.4690429871
30
0.0000000000
10
61.6835659797
20
95.6930853106
30
0.0000000000
10
66.9921944826
20
95.8060836685
30
0.0000000000
10
72.3481502242
20
95.8060825798
30
0.0000000000
10
77.6567683640
20
95.6930823428
30
0.0000000000
10
82.8239980948
20
95.4690389899
30
0.0000000000
10
87.7579760865
20
95.1378647628
30
0.0000000000
10
92.3676038222
20
94.7056039692
30
0.0000000000
10
95.3168715741
20
94.3370215514
30
0.0000000000
10
96.7207066692
20
94.1329046882
30
0.0000000000
11
42.6195383826
21
94.1329046882
31
0.0000000000
11
46.8415493358
21
94.6681799864
31
0.0000000000
11
51.4794428005
21
95.1082465618
31
0.0000000000
11
56.4414744652
21
95.4447805552
31
0.0000000000
11
61.6380668535
21
95.6722314914
31
0.0000000000
11
66.9768284876
21
95.7868931462
31
0.0000000000
11
72.3635199261
21
95.7868920414
31
0.0000000000
11
77.7022703733
21
95.6722284989
31
0.0000000000
11
82.8988428847
21
95.4447765424
31
0.0000000000
11
87.8608473134
21
95.1082429174
31
0.0000000000
11
92.4987127825
21
94.6681781077
31
0.0000000000
11
96.7207066692
21
94.1329046882
31
0.0000000000
0
SPLINE
5
432
100
AcDbEntity
8
0
100
AcDbSpline
62
7
6
CONTINUOUS
70
0
71
3
72
13
73
9
74
7
42
0.0000001000
43
0.0000001000
44
0.0000000001
12
0.0000000000
22
6.8606063094
32
0.0000000000
13
4.1247838815
23
-5.4821598722
33
0.0000000000
40
0.0000000000
40
0.0000000000
40
0.0000000000
40
0.0000000000
40
0.0666947455
40
0.1179422854
40
0.2197910259
40
0.3914823744
40
0.6468450562
40
1.0000000000
40
1.0000000000
40
1.0000000000
40
1.0000000000
10
29.6701225259
20
73.3222994860
30
0.0000000000
10
29.6701225259
20
73.4748216166
30
0.0000000000
10
29.6871398973
20
73.8362640264
30
0.0000000000
10
30.2993993257
20
73.8137351718
30
0.0000000000
10
30.8423295441
20
73.3031445991
30
0.0000000000
10
31.7235497600
20
72.4749690411
30
0.0000000000
10
32.8637940883
20
71.0972766354
30
0.0000000000
10
33.7197886667
20
70.0012601969
30
0.0000000000
10
34.2053512733
20
69.3559095764
30
0.0000000000
11
29.6701225259
21
73.3222994860
31
0.0000000000
11
29.7889874233
21
73.7641570865
31
0.0000000000
11
30.1393322222
21
73.7937118579
31
0.0000000000
11
30.7253681183
21
73.4131789921
31
0.0000000000
11
31.5700150197
21
72.5921820854
31
0.0000000000
11
32.7150051123
21
71.2661725255
31
0.0000000000
11
34.2053512733
21
69.3559095764
31
0.0000000000
0
SPLINE
5
433
100
AcDbEntity
8
0
100
AcDbSpline
62
7
6
CONTINUOUS
70
0
71
3
72
15
73
11
74
9
42
0.0000001000
43
0.0000001000
44
0.0000000001
12
0.6624084325
22
15.3437344217
32
0.0000000000
13
9.0314216445
23
12.4218514729
33
0.0000000000
40
0.0000000000
40
0.0000000000
40
0.0000000000
40
0.0000000000
40
0.0562526938
40
0.1294770217
40
0.2213104283
40
0.3332415989
40
0.4666023500
40
0.6223185114
40
0.8005112109
40
1.0000000000
40
1.0000000000
40
1.0000000000
40
1.0000000000
10
92.4932835745
20
33.7015284693
30
0.0000000000
10
92.5057043274
20
33.9892372672
30
0.0000000000
10
92.6225569330
20
34.6465532422
30
0.0000000000
10
92.9677083820
20
35.7268515708
30
0.0000000000
10
93.5178946849
20
37.0355305513
30
0.0000000000
10
94.2871594955
20
38.5812939592
30
0.0000000000
10
95.2913181678
20
40.3726417058
30
0.0000000000
10
96.5437981384
20
42.4112692730
30
0.0000000000
10
98.0519770127
20
44.6881719784
30
0.0000000000
10
99.1682170693
20
46.2672821564
30
0.0000000000
10
99.7687728584
20
47.0932888591
30
0.0000000000
11
92.4932835745
21
33.7015284693
31
0.0000000000
11
92.6232989446
21
34.5556195950
31
0.0000000000
11
92.9525481300
21
35.6309231535
31
0.0000000000
11
93.4902053843
21
36.9348004705
31
0.0000000000
11
94.2496123713
21
38.4770086078
31
0.0000000000
11
95.2461871869
21
40.2663630990
31
0.0000000000
11
96.4942314707
21
42.3063689183
31
0.0000000000
11
98.0025247305
21
44.5898998544
31
0.0000000000
11
99.7687728584
21
47.0932888591
31
0.0000000000
0
SPLINE
5
434
100
AcDbEntity
8
0
100
AcDbSpline
62
7
6
CONTINUOUS
70
0
71
3
72
16
73
12
74
10
42
0.0000001000
43
0.0000001000
44
0.0000000001
12
0.0000000000
22
16.9618998966
32
0.0000000000
13
-16.7853978057
23
2.4405877584
33
0.0000000000
40
0.0000000000
40
0.0000000000
40
0.0000000000
40
0.0000000000
40
0.1321981383
40
0.2638019683
40
0.3877657890
40
0.5000816179
40
0.5998399188
40
0.6977983612
40
0.7979844124
40
0.8993099485
40
1.0000000000
40
1.0000000000
40
1.0000000000
40
1.0000000000
10
105.1348937785
20
81.2929562604
30
0.0000000000
10
105.1348937785
20
82.0404001232
30
0.0000000000
10
105.0685075411
20
83.5328475006
30
0.0000000000
10
104.7627104455
20
85.7076032658
30
0.0000000000
10
104.2416589848
20
87.7268904689
30
0.0000000000
10
103.5143426970
20
89.4902299159
30
0.0000000000
10
102.5808188019
20
90.9847901651
30
0.0000000000
10
101.4181781282
20
92.2207918255
30
0.0000000000
10
100.0029767720
20
93.1763523445
30
0.0000000000
10
98.4063098206
20
93.8143102748
30
0.0000000000
10
97.2840808593
20
94.0509903858
30
0.0000000000
10
96.7207066692
20
94.1329046882
30
0.0000000000
11
105.1348937785
21
81.2929562604
31
0.0000000000
11
105.0327853943
21
83.5329618027
31
0.0000000000
11
104.7141443655
21
85.7423536598
31
0.0000000000
11
104.1765108565
21
87.7751195957
31
0.0000000000
11
103.4368010868
21
89.5307382281
31
0.0000000000
11
102.5305171717
21
90.9596605820
31
0.0000000000
11
101.3870183942
21
92.1651465745
31
0.0000000000
11
99.9805795801
21
93.1189316197
31
0.0000000000
11
98.3891433245
21
93.7679074197
31
0.0000000000
11
96.7207066692
21
94.1329046882
31
0.0000000000
0
SPLINE
5
435
100
AcDbEntity
8
0
100
AcDbSpline
62
7
6
CONTINUOUS
70
0
71
3
72
17
73
13
74
11
42
0.0000001000
43
0.0000001000
44
0.0000000001
12
21.7957078316
22
-2.7549636597
32
0.0000000000
13
8.3649585363
23
-20.3142849575
33
0.0000000000
40
0.0000000000
40
0.0000000000
40
0.0000000000
40
0.0000000000
40
0.0888373386
40
0.1828254674
40
0.2800495130
40
0.3788837400
40
0.4778567552
40
0.5764422748
40
0.6764079358
40
0.7798224928
40
0.8876206652
40
1.0000000000
40
1.0000000000
40
1.0000000000
40
1.0000000000
10
69.6701200282
20
94.1329046882
30
0.0000000000
10
70.3155442534
20
94.0513234751
30
0.0000000000
10
71.6365877006
20
93.8194223433
30
0.0000000000
10
73.6150630468
20
93.2669126946
30
0.0000000000
10
75.5951187687
20
92.4875471438
30
0.0000000000
10
77.5151555652
20
91.4882021614
30
0.0000000000
10
79.3276562093
20
90.2867979783
30
0.0000000000
10
81.0107611253
20
88.8970071864
30
0.0000000000
10
82.5620023955
20
87.3153833561
30
0.0000000000
10
83.9781087972
20
85.5243086379
30
0.0000000000
10
85.2380040404
20
83.5118218925
30
0.0000000000
10
85.9362823498
20
82.0539248705
30
0.0000000000
10
86.2496318418
20
81.2929562604
30
0.0000000000
11
69.6701200282
21
94.1329046882
31
0.0000000000
11
71.5924207922
21
93.7955456864
31
0.0000000000
11
73.5812046265
21
93.2403045513
31
0.0000000000
11
75.5687574411
21
92.4581145254
31
0.0000000000
11
77.4948593496
21
91.4557752409
31
0.0000000000
11
79.3073084480
21
90.2545962352
31
0.0000000000
11
80.9775048334
21
88.8757202434
31
0.0000000000
11
82.5154741443
21
87.3079947171
31
0.0000000000
11
83.9248771427
21
85.5260744976
31
0.0000000000
11
85.1820601803
21
83.5190831468
31
0.0000000000
11
86.2496318418
21
81.2929562604
31
0.0000000000
0
SPLINE
5
436
100
AcDbEntity
8
0
100
AcDbSpline
62
7
6
CONTINUOUS
70
0
71
3
72
9
73
5
74
3
42
0.0000001000
43
0.0000001000
44
0.0000000001
12
-0.0871180965
22
3.8719240453
32
0.0000000000
13
-0.0000000073
23
3.8729039977
33
0.0000000000
40
0.0000000000
40
0.0000000000
40
0.0000000000
40
0.0000000000
40
0.4957124626
40
1.0000000000
40
1.0000000000
40
1.0000000000
40
1.0000000000
10
99.7687728584
20
47.0932888591
30
0.0000000000
10
99.7543776830
20
47.7330758603
30
0.0000000000
10
99.7328369599
20
49.0238952572
30
0.0000000000
10
99.7256941747
20
50.3148732873
30
0.0000000000
10
99.7256941735
20
50.9658923604
30
0.0000000000
11
99.7687728584
21
47.0932888591
31
0.0000000000
11
99.7365596907
21
49.0128653654
31
0.0000000000
11
99.7256941735
21
50.9658923604
31
0.0000000000
0
SPLINE
5
437
100
AcDbEntity
8
0
100
AcDbSpline
62
7
6
CONTINUOUS
70
0
71
3
72
15
73
11
74
9
42
0.0000001000
43
0.0000001000
44
0.0000000001
12
-5.6030597698
22
-0.9081897588
32
0.0000000000
13
-1.2347340128
23
5.5402634720
33
0.0000000000
40
0.0000000000
40
0.0000000000
40
0.0000000000
40
0.0000000000
40
0.0585673138
40
0.1262373036
40
0.2121954843
40
0.3207181335
40
0.4535050731
40
0.6110891745
40
0.7934009036
40
1.0000000000
40
1.0000000000
40
1.0000000000
40
1.0000000000
10
62.4701225259
20
36.3861586708
30
0.0000000000
10
62.3607371393
20
36.3684285926
30
0.0000000000
10
62.1111887621
20
36.3950897972
30
0.0000000000
10
61.7689953234
20
36.6227774495
30
0.0000000000
10
61.4465981530
20
37.0040335610
30
0.0000000000
10
61.1326797448
20
37.5401181483
30
0.0000000000
10
60.8264224883
20
38.2310143064
30
0.0000000000
10
60.5289460295
20
39.0751500335
30
0.0000000000
10
60.2421564429
20
40.0690177592
30
0.0000000000
10
60.0699021466
20
40.7846489605
30
0.0000000000
10
59.9848705028
20
41.1661867695
30
0.0000000000
11
62.4701225259
21
36.3861586708
31
0.0000000000
11
62.1390788188
21
36.4165844872
31
0.0000000000
11
61.8098981824
21
36.6145204375
31
0.0000000000
11
61.4846292793
21
36.9781972421
31
0.0000000000
11
61.1652977054
21
37.5049579727
31
0.0000000000
11
60.8538669020
21
38.1913323366
31
0.0000000000
11
60.5521469038
21
39.0333855144
31
0.0000000000
11
60.2618984400
21
40.0266829987
31
0.0000000000
11
59.9848705028
21
41.1661867695
31
0.0000000000
0
SPLINE
5
438
100
AcDbEntity
8
0
100
AcDbSpline
62
7
6
CONTINUOUS
70
0
71
3
72
13
73
9
74
7
42
0.0000001000
43
0.0000001000
44
0.0000000001
12
4.1247897710
22
5.4821676998
32
0.0000000000
13
0.0000000000
23
-6.8606161053
33
0.0000000000
40
0.0000000000
40
0.0000000000
40
0.0000000000
40
0.0000000000
40
0.3532168915
40
0.6085947689
40
0.7802704550
40
0.8820866228
40
0.9333150162
40
1.0000000000
40
1.0000000000
40
1.0000000000
40
1.0000000000
10
105.1348937785
20
69.3559095764
30
0.0000000000
10
105.6205422522
20
70.0013743210
30
0.0000000000
10
106.4766453488
20
71.0975214069
30
0.0000000000
10
107.6170115305
20
72.4753342816
30
0.0000000000
10
108.4981856161
20
73.3033785138
30
0.0000000000
10
109.0411015843
20
73.8138924294
30
0.0000000000
10
109.6531612843
20
73.8361179181
30
0.0000000000
10
109.6701225259
20
73.4747995106
30
0.0000000000
10
109.6701225259
20
73.3222994860
30
0.0000000000
11
105.1348937785
21
69.3559095764
31
0.0000000000
11
106.6255110131
21
71.2665044703
31
0.0000000000
11
107.7705948668
21
72.5925741118
31
0.0000000000
11
108.6152072257
21
73.4134548003
31
0.0000000000
11
109.2011094931
21
73.7937849393
31
0.0000000000
11
109.5513122255
21
73.7641030961
31
0.0000000000
11
109.6701225259
21
73.3222994860
31
0.0000000000
0
SPLINE
5
439
100
AcDbEntity
8
0
100
AcDbSpline
62
7
6
CONTINUOUS
70
0
71
3
72
21
73
17
74
15
42
0.0000001000
43
0.0000001000
44
0.0000000001
12
-23.4703031074
22
-12.2520460004
32
0.0000000000
13
23.4703031074
23
12.2520460004
33
0.0000000000
40
0.0000000000
40
0.0000000000
40
0.0000000000
40
0.0000000000
40
0.1144293347
40
0.2190391463
40
0.3100566974
40
0.3849107235
40
0.4420662668
40
0.4806057693
40
0.5000000000
40
0.5193942307
40
0.5579337332
40
0.6150892765
40
0.6899433026
40
0.7809608537
40
0.8855706653
40
1.0000000000
40
1.0000000000
40
1.0000000000
40
1.0000000000
10
59.9848705028
20
41.1661867695
30
0.0000000000
10
59.0896401131
20
40.6988556121
30
0.0000000000
10
57.4312498790
20
39.6917376514
30
0.0000000000
10
55.2625797097
20
38.0254732823
30
0.0000000000
10
53.4922319111
20
36.3959303674
30
0.0000000000
10
52.1615393317
20
35.0083858611
30
0.0000000000
10
51.1036988766
20
33.7779994710
30
0.0000000000
10
50.6120424393
20
33.1821002869
30
0.0000000000
10
49.9210625124
20
32.2941352265
30
0.0000000000
10
50.6120424393
20
33.1821002869
30
0.0000000000
10
51.1036988766
20
33.7779994710
30
0.0000000000
10
52.1615393317
20
35.0083858611
30
0.0000000000
10
53.4922319111
20
36.3959303674
30
0.0000000000
10
55.2625797097
20
38.0254732823
30
0.0000000000
10
57.4312498790
20
39.6917376514
30
0.0000000000
10
59.0896401131
20
40.6988556121
30
0.0000000000
10
59.9848705028
20
41.1661867695
30
0.0000000000
11
59.9848705028
21
41.1661867695
31
0.0000000000
11
57.3913835671
21
39.6001892388
31
0.0000000000
11
55.1926405901
21
37.9160370502
31
0.0000000000
11
53.4153395110
21
36.2887220196
31
0.0000000000
11
52.0459220441
21
34.8561348730
31
0.0000000000
11
51.0541370154
21
33.7132205350
31
0.0000000000
11
50.4106864218
21
32.9213152271
31
0.0000000000
11
50.0943636498
21
32.5168411967
31
0.0000000000
11
50.4106864218
21
32.9213152271
31
0.0000000000
11
51.0541370154
21
33.7132205350
31
0.0000000000
11
52.0459220441
21
34.8561348730
31
0.0000000000
11
53.4153395110
21
36.2887220196
31
0.0000000000
11
55.1926405901
21
37.9160370502
31
0.0000000000
11
57.3913835671
21
39.6001892388
31
0.0000000000
11
59.9848705028
21
41.1661867695
31
0.0000000000
0
SPLINE
5
43A
100
AcDbEntity
8
0
100
AcDbSpline
62
7
6
CONTINUOUS
70
0
71
3
72
21
73
17
74
15
42
0.0000001000
43
0.0000001000
44
0.0000000001
12
-23.4703031074
22
-12.2520460004
32
0.0000000000
13
23.4703031074
23
12.2520460004
33
0.0000000000
40
0.0000000000
40
0.0000000000
40
0.0000000000
40
0.0000000000
40
0.1144293347
40
0.2190391463
40
0.3100566974
40
0.3849107235
40
0.4420662668
40
0.4806057693
40
0.5000000000
40
0.5193942307
40
0.5579337332
40
0.6150892765
40
0.6899433026
40
0.7809608537
40
0.8855706653
40
1.0000000000
40
1.0000000000
40
1.0000000000
40
1.0000000000
10
59.9848705028
20
41.1661867695
30
0.0000000000
10
59.0896401131
20
40.6988556121
30
0.0000000000
10
57.4312498790
20
39.6917376514
30
0.0000000000
10
55.2625797097
20
38.0254732823
30
0.0000000000
10
53.4922319111
20
36.3959303674
30
0.0000000000
10
52.1615393317
20
35.0083858611
30
0.0000000000
10
51.1036988766
20
33.7779994710
30
0.0000000000
10
50.6120424393
20
33.1821002869
30
0.0000000000
10
49.9210625124
20
32.2941352265
30
0.0000000000
10
50.6120424393
20
33.1821002869
30
0.0000000000
10
51.1036988766
20
33.7779994710
30
0.0000000000
10
52.1615393317
20
35.0083858611
30
0.0000000000
10
53.4922319111
20
36.3959303674
30
0.0000000000
10
55.2625797097
20
38.0254732823
30
0.0000000000
10
57.4312498790
20
39.6917376514
30
0.0000000000
10
59.0896401131
20
40.6988556121
30
0.0000000000
10
59.9848705028
20
41.1661867695
30
0.0000000000
11
59.9848705028
21
41.1661867695
31
0.0000000000
11
57.3913835671
21
39.6001892388
31
0.0000000000
11
55.1926405901
21
37.9160370502
31
0.0000000000
11
53.4153395110
21
36.2887220196
31
0.0000000000
11
52.0459220441
21
34.8561348730
31
0.0000000000
11
51.0541370154
21
33.7132205350
31
0.0000000000
11
50.4106864218
21
32.9213152271
31
0.0000000000
11
50.0943636498
21
32.5168411967
31
0.0000000000
11
50.4106864218
21
32.9213152271
31
0.0000000000
11
51.0541370154
21
33.7132205350
31
0.0000000000
11
52.0459220441
21
34.8561348730
31
0.0000000000
11
53.4153395110
21
36.2887220196
31
0.0000000000
11
55.1926405901
21
37.9160370502
31
0.0000000000
11
57.3913835671
21
39.6001892388
31
0.0000000000
11
59.9848705028
21
41.1661867695
31
0.0000000000
0
SPLINE
5
43B
100
AcDbEntity
8
0
100
AcDbSpline
62
7
6
CONTINUOUS
70
0
71
3
72
14
73
10
74
8
42
0.0000001000
43
0.0000001000
44
0.0000000001
12
11.7351515537
22
-6.1260230002
32
0.0000000000
13
0.0000000000
23
-0.0000000000
33
0.0000000000
40
0.0000000000
40
0.0000000000
40
0.0000000000
40
0.0000000000
40
0.2288586693
40
0.4380782926
40
0.6201133948
40
0.7698214470
40
0.8841325337
40
0.9612115387
40
1.0000000000
40
1.0000000000
40
1.0000000000
40
1.0000000000
10
79.3553745490
20
41.1661867695
30
0.0000000000
10
80.2506049387
20
40.6988556121
30
0.0000000000
10
81.9089951728
20
39.6917376514
30
0.0000000000
10
84.0776653421
20
38.0254732823
30
0.0000000000
10
85.8480131407
20
36.3959303674
30
0.0000000000
10
87.1787057201
20
35.0083858611
30
0.0000000000
10
88.2365461752
20
33.7779994710
30
0.0000000000
10
88.7282026125
20
33.1821002869
30
0.0000000000
10
89.2458814020
20
32.5168411967
30
0.0000000000
10
89.2458814020
20
32.5168411967
30
0.0000000000
11
79.3553745490
21
41.1661867695
31
0.0000000000
11
81.9488614848
21
39.6001892388
31
0.0000000000
11
84.1476044617
21
37.9160370502
31
0.0000000000
11
85.9249055408
21
36.2887220196
31
0.0000000000
11
87.2943230077
21
34.8561348730
31
0.0000000000
11
88.2861080364
21
33.7132205350
31
0.0000000000
11
88.9295586301
21
32.9213152271
31
0.0000000000
11
89.2458814020
21
32.5168411967
31
0.0000000000
0
SPLINE
5
43C
100
AcDbEntity
8
0
100
AcDbSpline
62
7
6
CONTINUOUS
70
0
71
3
72
16
73
12
74
10
42
0.0000001000
43
0.0000001000
44
0.0000000001
12
-16.7854899690
22
-2.4406011589
32
0.0000000000
13
0.0000000000
23
-16.9619930290
33
0.0000000000
40
0.0000000000
40
0.0000000000
40
0.0000000000
40
0.0000000000
40
0.1000907079
40
0.2005176388
40
0.2997591979
40
0.3969924633
40
0.4966253430
40
0.6093006071
40
0.7341945050
40
0.8669152459
40
1.0000000000
40
1.0000000000
40
1.0000000000
40
1.0000000000
10
42.6195383826
20
94.1329046882
30
0.0000000000
10
42.0595145249
20
94.0514775223
30
0.0000000000
10
40.9455688591
20
93.8169740458
30
0.0000000000
10
39.3608076250
20
93.1873213715
30
0.0000000000
10
37.9538288722
20
92.2463228696
30
0.0000000000
10
36.7907289995
20
91.0249653104
30
0.0000000000
10
35.8499305042
20
89.5381035079
30
0.0000000000
10
35.1125940182
20
87.7715614523
30
0.0000000000
10
34.5831872058
20
85.7401822140
30
0.0000000000
10
34.2726822299
20
83.5492192956
30
0.0000000000
10
34.2053512733
20
82.0454171509
30
0.0000000000
10
34.2053512733
20
81.2929562604
30
0.0000000000
11
42.6195383826
21
94.1329046882
31
0.0000000000
11
40.9608547894
21
93.7708512685
31
0.0000000000
11
39.3822166792
21
93.1308414054
31
0.0000000000
11
37.9849609921
21
92.1920698509
31
0.0000000000
11
36.8428303029
21
91.0022677976
31
0.0000000000
11
35.9294395282
21
89.5803946093
31
0.0000000000
11
35.1797616426
21
87.8223680985
31
0.0000000000
11
34.6328244052
21
85.7757397441
31
0.0000000000
11
34.3088519670
21
83.5479649371
31
0.0000000000
11
34.2053512733
21
81.2929562604
31
0.0000000000
0
SPLINE
5
43D
100
AcDbEntity
8
0
100
AcDbSpline
62
7
6
CONTINUOUS
70
0
71
3
72
17
73
13
74
11
42
0.0000001000
43
0.0000001000
44
0.0000000001
12
-21.7957078316
22
-2.7549636597
32
0.0000000000
13
-8.3649585363
23
-20.3142849575
33
0.0000000000
40
0.0000000000
40
0.0000000000
40
0.0000000000
40
0.0000000000
40
0.0888373386
40
0.1828254674
40
0.2800495130
40
0.3788837400
40
0.4778567552
40
0.5764422748
40
0.6764079358
40
0.7798224928
40
0.8876206652
40
1.0000000000
40
1.0000000000
40
1.0000000000
40
1.0000000000
10
69.6701250237
20
94.1329046882
30
0.0000000000
10
69.0247007985
20
94.0513234751
30
0.0000000000
10
67.7036573512
20
93.8194223433
30
0.0000000000
10
65.7251820051
20
93.2669126946
30
0.0000000000
10
63.7451262832
20
92.4875471438
30
0.0000000000
10
61.8250894867
20
91.4882021614
30
0.0000000000
10
60.0125888425
20
90.2867979783
30
0.0000000000
10
58.3294839265
20
88.8970071864
30
0.0000000000
10
56.7782426564
20
87.3153833561
30
0.0000000000
10
55.3621362546
20
85.5243086379
30
0.0000000000
10
54.1022410114
20
83.5118218925
30
0.0000000000
10
53.4039627020
20
82.0539248705
30
0.0000000000
10
53.0906132101
20
81.2929562604
30
0.0000000000
11
69.6701250237
21
94.1329046882
31
0.0000000000
11
67.7478242596
21
93.7955456864
31
0.0000000000
11
65.7590404254
21
93.2403045513
31
0.0000000000
11
63.7714876108
21
92.4581145254
31
0.0000000000
11
61.8453857022
21
91.4557752409
31
0.0000000000
11
60.0329366039
21
90.2545962352
31
0.0000000000
11
58.3627402184
21
88.8757202434
31
0.0000000000
11
56.8247709076
21
87.3079947171
31
0.0000000000
11
55.4153679091
21
85.5260744976
31
0.0000000000
11
54.1581848716
21
83.5190831468
31
0.0000000000
11
53.0906132101
21
81.2929562604
31
0.0000000000
0
SPLINE
5
43E
100
AcDbEntity
8
0
100
AcDbSpline
62
7
6
CONTINUOUS
70
0
71
3
72
15
73
11
74
9
42
0.0000001000
43
0.0000001000
44
0.0000000001
12
5.6030597698
22
-0.9081897588
32
0.0000000000
13
1.2347340128
23
5.5402634720
33
0.0000000000
40
0.0000000000
40
0.0000000000
40
0.0000000000
40
0.0000000000
40
0.0585673138
40
0.1262373036
40
0.2121954843
40
0.3207181335
40
0.4535050731
40
0.6110891745
40
0.7934009036
40
1.0000000000
40
1.0000000000
40
1.0000000000
40
1.0000000000
10
76.8701225259
20
36.3861586708
30
0.0000000000
10
76.9795079125
20
36.3684285926
30
0.0000000000
10
77.2290562897
20
36.3950897972
30
0.0000000000
10
77.5712497284
20
36.6227774495
30
0.0000000000
10
77.8936468988
20
37.0040335610
30
0.0000000000
10
78.2075653070
20
37.5401181483
30
0.0000000000
10
78.5138225636
20
38.2310143064
30
0.0000000000
10
78.8112990223
20
39.0751500335
30
0.0000000000
10
79.0980886089
20
40.0690177592
30
0.0000000000
10
79.2703429053
20
40.7846489605
30
0.0000000000
10
79.3553745490
20
41.1661867695
30
0.0000000000
11
76.8701225259
21
36.3861586708
31
0.0000000000
11
77.2011662330
21
36.4165844872
31
0.0000000000
11
77.5303468695
21
36.6145204375
31
0.0000000000
11
77.8556157726
21
36.9781972421
31
0.0000000000
11
78.1749473465
21
37.5049579727
31
0.0000000000
11
78.4863781498
21
38.1913323366
31
0.0000000000
11
78.7880981480
21
39.0333855144
31
0.0000000000
11
79.0783466119
21
40.0266829987
31
0.0000000000
11
79.3553745490
21
41.1661867695
31
0.0000000000
0
SPLINE
5
43F
100
AcDbEntity
8
0
100
AcDbSpline
62
7
6
CONTINUOUS
70
0
71
3
72
10
73
6
74
4
42
0.0000001000
43
0.0000001000
44
0.0000000001
12
-0.2863519217
22
-0.3412609314
32
0.0000000000
13
-0.1847109731
23
0.4053866090
33
0.0000000000
40
0.0000000000
40
0.0000000000
40
0.0000000000
40
0.0000000000
40
0.2833309781
40
0.5501993217
40
1.0000000000
40
1.0000000000
40
1.0000000000
40
1.0000000000
10
101.6701225259
20
43.4658930254
30
0.0000000000
10
101.6430784026
20
43.4336630943
30
0.0000000000
10
101.5664373393
20
43.3700213357
30
0.0000000000
10
101.4213450244
20
43.4636993904
30
0.0000000000
10
101.3785847041
20
43.5602222839
30
0.0000000000
10
101.3508903304
20
43.6210033411
30
0.0000000000
11
101.6701225259
21
43.4658930254
31
0.0000000000
11
101.5632985703
21
43.3986619305
31
0.0000000000
11
101.4563763709
21
43.4506374628
31
0.0000000000
11
101.3508903304
21
43.6210033411
31
0.0000000000
0
SPLINE
5
440
100
AcDbEntity
8
0
100
AcDbSpline
62
7
6
CONTINUOUS
70
0
71
3
72
11
73
7
74
5
42
0.0000001000
43
0.0000001000
44
0.0000000001
12
-0.1066875684
22
-2.4712634011
32
0.0000000000
13
0.1066875684
23
2.4712634011
33
0.0000000000
40
0.0000000000
40
0.0000000000
40
0.0000000000
40
0.0000000000
40
0.3739475096
40
0.5000000000
40
0.6260524904
40
1.0000000000
40
1.0000000000
40
1.0000000000
40
1.0000000000
10
92.4932835745
20
33.7015284693
30
0.0000000000
10
92.4799850577
20
33.3934875379
30
0.0000000000
10
92.4688531601
20
33.1356307636
30
0.0000000000
10
92.4327592593
20
32.2970488058
30
0.0000000000
10
92.4688531601
20
33.1356307636
30
0.0000000000
10
92.4799850577
20
33.3934875379
30
0.0000000000
10
92.4932835745
20
33.7015284693
30
0.0000000000
11
92.4932835745
21
33.7015284693
31
0.0000000000
11
92.4534366110
21
32.7774035787
31
0.0000000000
11
92.4400265830
21
32.4658930254
31
0.0000000000
11
92.4534366110
21
32.7774035787
31
0.0000000000
11
92.4932835745
21
33.7015284693
31
0.0000000000
0
SPLINE
5
441
100
AcDbEntity
8
0
100
AcDbSpline
62
7
6
CONTINUOUS
70
0
71
3
72
10
73
6
74
4
42
0.0000001000
43
0.0000001000
44
0.0000000001
12
-0.9659685243
22
9.7655188969
32
0.0000000000
13
-0.0000000000
23
9.8131775952
33
0.0000000000
40
0.0000000000
40
0.0000000000
40
0.0000000000
40
0.0000000000
40
0.3145922015
40
0.6516216187
40
1.0000000000
40
1.0000000000
40
1.0000000000
40
1.0000000000
10
59.9848705028
20
41.1661867695
30
0.0000000000
10
59.8835751146
20
42.1902387992
30
0.0000000000
10
59.7181567879
20
44.3158851397
30
0.0000000000
10
59.5725478410
20
47.5841574287
30
0.0000000000
10
59.5400103799
20
49.8263267167
30
0.0000000000
10
59.5400103799
20
50.9658930254
30
0.0000000000
11
59.9848705028
21
41.1661867695
31
0.0000000000
11
59.7402932378
21
44.2436324307
31
0.0000000000
11
59.5904640956
21
47.5475664214
31
0.0000000000
11
59.5400103799
21
50.9658930254
31
0.0000000000
0
SPLINE
5
442
100
AcDbEntity
8
0
100
AcDbSpline
62
7
6
CONTINUOUS
70
0
71
3
72
11
73
7
74
5
42
0.0000001000
43
0.0000001000
44
0.0000000001
12
0.1066875684
22
-2.4712634011
32
0.0000000000
13
-0.1066875684
23
2.4712634011
33
0.0000000000
40
0.0000000000
40
0.0000000000
40
0.0000000000
40
0.0000000000
40
0.3739475096
40
0.5000000000
40
0.6260524904
40
1.0000000000
40
1.0000000000
40
1.0000000000
40
1.0000000000
10
46.8469614773
20
33.7015284693
30
0.0000000000
10
46.8602599942
20
33.3934875379
30
0.0000000000
10
46.8713918917
20
33.1356307636
30
0.0000000000
10
46.9074857926
20
32.2970488058
30
0.0000000000
10
46.8713918917
20
33.1356307636
30
0.0000000000
10
46.8602599942
20
33.3934875379
30
0.0000000000
10
46.8469614773
20
33.7015284693
30
0.0000000000
11
46.8469614773
21
33.7015284693
31
0.0000000000
11
46.8868084409
21
32.7774035787
31
0.0000000000
11
46.9002184689
21
32.4658930254
31
0.0000000000
11
46.8868084409
21
32.7774035787
31
0.0000000000
11
46.8469614773
21
33.7015284693
31
0.0000000000
0
SPLINE
5
443
100
AcDbEntity
8
0
100
AcDbSpline
62
7
6
CONTINUOUS
70
0
71
3
72
15
73
11
74
9
42
0.0000001000
43
0.0000001000
44
0.0000000001
12
-0.6624084325
22
15.3437344217
32
0.0000000000
13
-9.0314216445
23
12.4218514729
33
0.0000000000
40
0.0000000000
40
0.0000000000
40
0.0000000000
40
0.0000000000
40
0.0562526938
40
0.1294770217
40
0.2213104283
40
0.3332415989
40
0.4666023500
40
0.6223185114
40
0.8005112109
40
1.0000000000
40
1.0000000000
40
1.0000000000
40
1.0000000000
10
46.8469614773
20
33.7015284693
30
0.0000000000
10
46.8345407244
20
33.9892372672
30
0.0000000000
10
46.7176881188
20
34.6465532422
30
0.0000000000
10
46.3725366698
20
35.7268515708
30
0.0000000000
10
45.8223503669
20
37.0355305513
30
0.0000000000
10
45.0530855564
20
38.5812939592
30
0.0000000000
10
44.0489268840
20
40.3726417058
30
0.0000000000
10
42.7964469134
20
42.4112692730
30
0.0000000000
10
41.2882680391
20
44.6881719784
30
0.0000000000
10
40.1720279825
20
46.2672821564
30
0.0000000000
10
39.5714721934
20
47.0932888591
30
0.0000000000
11
46.8469614773
21
33.7015284693
31
0.0000000000
11
46.7169461072
21
34.5556195950
31
0.0000000000
11
46.3876969218
21
35.6309231535
31
0.0000000000
11
45.8500396676
21
36.9348004705
31
0.0000000000
11
45.0906326806
21
38.4770086078
31
0.0000000000
11
44.0940578649
21
40.2663630990
31
0.0000000000
11
42.8460135811
21
42.3063689183
31
0.0000000000
11
41.3377203213
21
44.5898998544
31
0.0000000000
11
39.5714721934
21
47.0932888591
31
0.0000000000
0
SPLINE
5
444
100
AcDbEntity
8
0
100
AcDbSpline
62
7
6
CONTINUOUS
70
0
71
3
72
9
73
5
74
3
42
0.0000001000
43
0.0000001000
44
0.0000000001
12
0.0871180965
22
3.8719240453
32
0.0000000000
13
0.0000000073
23
3.8729039977
33
0.0000000000
40
0.0000000000
40
0.0000000000
40
0.0000000000
40
0.0000000000
40
0.4957124626
40
1.0000000000
40
1.0000000000
40
1.0000000000
40
1.0000000000
10
39.5714721934
20
47.0932888591
30
0.0000000000
10
39.5858673688
20
47.7330758603
30
0.0000000000
10
39.6074080919
20
49.0238952572
30
0.0000000000
10
39.6145508771
20
50.3148732873
30
0.0000000000
10
39.6145508783
20
50.9658923604
30
0.0000000000
11
39.5714721934
21
47.0932888591
31
0.0000000000
11
39.6036853611
21
49.0128653654
31
0.0000000000
11
39.6145508783
21
50.9658923604
31
0.0000000000
0
SPLINE
5
445
100
AcDbEntity
8
0
100
AcDbSpline
62
7
6
CONTINUOUS
70
0
71
3
72
11
73
7
74
5
42
0.0000001000
43
0.0000001000
44
0.0000000001
12
-2.3315976597
22
2.3315976597
32
0.0000000000
13
-0.3986559190
23
3.2731893852
33
0.0000000000
40
0.0000000000
40
0.0000000000
40
0.0000000000
40
0.0000000000
40
0.1703538169
40
0.3944419302
40
0.6701104588
40
1.0000000000
40
1.0000000000
40
1.0000000000
40
1.0000000000
10
102.4558880435
20
186.6051275079
30
0.0000000000
10
102.3234891899
20
186.7375263615
30
0.0000000000
10
102.0504213577
20
187.0771817553
30
0.0000000000
10
101.6699059527
20
187.7102635167
30
0.0000000000
10
101.3244251204
20
188.5585290758
30
0.0000000000
10
101.1832066616
20
189.2136578652
30
0.0000000000
10
101.1393691889
20
189.5735881800
30
0.0000000000
11
102.4558880435
21
186.6051275079
31
0.0000000000
11
102.0967771729
21
187.0370645386
31
0.0000000000
11
101.7144100632
21
187.6693406127
31
0.0000000000
11
101.3699960396
21
188.5105476090
31
0.0000000000
11
101.1393691889
21
189.5735881800
31
0.0000000000
0
SPLINE
5
446
100
AcDbEntity
8
0
100
AcDbSpline
62
7
6
CONTINUOUS
70
0
71
3
72
14
73
10
74
8
42
0.0000001000
43
0.0000001000
44
0.0000000001
12
-8.1299554399
22
0.0000000000
32
0.0000000000
13
-0.0000000000
23
8.1299554399
33
0.0000000000
40
0.0000000000
40
0.0000000000
40
0.0000000000
40
0.0000000000
40
0.0422969943
40
0.1218033136
40
0.2417655106
40
0.3975877899
40
0.5819272071
40
0.7859500267
40
1.0000000000
40
1.0000000000
40
1.0000000000
40
1.0000000000
10
62.4701225259
20
188.5908930254
30
0.0000000000
10
62.3554982996
20
188.5908930254
30
0.0000000000
10
62.0897973779
20
188.8765554041
30
0.0000000000
10
61.8856785959
20
189.4748250528
30
0.0000000000
10
61.6510961150
20
190.4220413210
30
0.0000000000
10
61.4719631732
20
191.6527792347
30
0.0000000000
10
61.3292756588
20
193.1224341537
30
0.0000000000
10
61.2426111862
20
194.7526578026
30
0.0000000000
10
61.2228450584
20
195.8858207772
30
0.0000000000
10
61.2228450584
20
196.4658930254
30
0.0000000000
11
62.4701225259
21
188.5908930254
31
0.0000000000
11
62.1906048808
21
188.7911885706
31
0.0000000000
11
61.9256668278
21
189.3807804594
31
0.0000000000
11
61.6889110599
21
190.3268946460
31
0.0000000000
11
61.4921383841
21
191.5783474701
31
0.0000000000
11
61.3447914401
21
193.0697576705
31
0.0000000000
11
61.2536700040
21
194.7259493076
31
0.0000000000
11
61.2228450584
21
196.4658930254
31
0.0000000000
0
SPLINE
5
447
100
AcDbEntity
8
0
100
AcDbSpline
62
7
6
CONTINUOUS
70
0
71
3
72
14
73
10
74
8
42
0.0000001000
43
0.0000001000
44
0.0000000001
12
0.0000000000
22
8.1299552895
32
0.0000000000
13
8.1299552895
23
0.0000000000
33
0.0000000000
40
0.0000000000
40
0.0000000000
40
0.0000000000
40
0.0000000000
40
0.2140514283
40
0.4180741804
40
0.6024126902
40
0.7582341031
40
0.8781960323
40
0.9577026478
40
1.0000000000
40
1.0000000000
40
1.0000000000
40
1.0000000000
10
61.2228450584
20
196.4658930254
30
0.0000000000
10
61.2228450584
20
197.0459692060
30
0.0000000000
10
61.2426113806
20
198.1791359257
30
0.0000000000
10
61.3292763544
20
199.8093608092
30
0.0000000000
10
61.4719637404
20
201.2790107265
30
0.0000000000
10
61.6510959937
20
202.5097430319
30
0.0000000000
10
61.8856775311
20
203.4569573892
30
0.0000000000
10
62.0897958626
20
204.0552276068
30
0.0000000000
10
62.3554973318
20
204.3408930254
30
0.0000000000
10
62.4701225259
20
204.3408930254
30
0.0000000000
11
61.2228450584
21
196.4658930254
31
0.0000000000
11
61.2536704271
21
198.2058485347
31
0.0000000000
11
61.3447922870
21
199.8620395677
31
0.0000000000
11
61.4921388584
21
201.3534423642
31
0.0000000000
11
61.6889104296
21
202.6048882074
31
0.0000000000
11
61.9256651327
21
203.5510003989
31
0.0000000000
11
62.1906031301
21
204.1405949386
31
0.0000000000
11
62.4701225259
21
204.3408930254
31
0.0000000000
0
SPLINE
5
448
100
AcDbEntity
8
0
100
AcDbSpline
62
7
6
CONTINUOUS
70
0
71
3
72
14
73
10
74
8
42
0.0000001000
43
0.0000001000
44
0.0000000001
12
3.5391522537
22
5.9758513528
32
0.0000000000
13
0.0000000000
23
6.9452428371
33
0.0000000000
40
0.0000000000
40
0.0000000000
40
0.0000000000
40
0.0000000000
40
0.0584638075
40
0.1523906125
40
0.2788919068
40
0.4332205218
40
0.6094470878
40
0.8007129614
40
1.0000000000
40
1.0000000000
40
1.0000000000
40
1.0000000000
10
37.7986824037
20
189.5735881800
30
0.0000000000
10
37.8676531757
20
189.6900451877
30
0.0000000000
10
37.9686117842
20
190.0341494533
30
0.0000000000
10
38.0909791660
20
190.6656258987
30
0.0000000000
10
38.1978115633
20
191.5283288872
30
0.0000000000
10
38.2879764931
20
192.5822802150
30
0.0000000000
10
38.3549907943
20
193.7887909567
30
0.0000000000
10
38.3965562686
20
195.1003222972
30
0.0000000000
10
38.4058521728
20
196.0045273997
30
0.0000000000
10
38.4058521728
20
196.4658930254
30
0.0000000000
11
37.7986824037
21
189.5735881800
31
0.0000000000
11
37.9400993411
21
189.9542114427
31
0.0000000000
11
38.0705354660
21
190.5933825655
31
0.0000000000
11
38.1848757680
21
191.4644927724
31
0.0000000000
11
38.2786958651
21
192.5322285004
31
0.0000000000
11
38.3484040756
21
193.7541780988
31
0.0000000000
11
38.3913282038
21
195.0818723537
31
0.0000000000
11
38.4058521728
21
196.4658930254
31
0.0000000000
0
SPLINE
5
449
100
AcDbEntity
8
0
100
AcDbSpline
62
7
6
CONTINUOUS
70
0
71
3
72
14
73
10
74
8
42
0.0000001000
43
0.0000001000
44
0.0000000001
12
0.0000000000
22
7.1089901103
32
0.0000000000
13
-7.1089901103
23
0.0000000000
33
0.0000000000
40
0.0000000000
40
0.0000000000
40
0.0000000000
40
0.0000000000
40
0.2184662310
40
0.4262769936
40
0.6132858495
40
0.7702973631
40
0.8896587503
40
0.9660793965
40
1.0000000000
40
1.0000000000
40
1.0000000000
40
1.0000000000
10
38.4058521728
20
196.4658930254
30
0.0000000000
10
38.4058521728
20
196.9835844508
30
0.0000000000
10
38.3940872841
20
197.9940395968
30
0.0000000000
10
38.3427883790
20
199.4453825169
30
0.0000000000
10
38.2579958108
20
200.7542265027
30
0.0000000000
10
38.1533762749
20
201.8368263206
30
0.0000000000
10
38.0138675806
20
202.6891089197
30
0.0000000000
10
37.9018449065
20
203.1683246529
30
0.0000000000
10
37.7505029376
20
203.4658930254
30
0.0000000000
10
37.6701225259
20
203.4658930254
30
0.0000000000
11
38.4058521728
21
196.4658930254
31
0.0000000000
11
38.3875179988
21
198.0188590794
31
0.0000000000
11
38.3333906186
21
199.4951918212
31
0.0000000000
11
38.2460552468
21
200.8217641592
31
0.0000000000
11
38.1297415490
21
201.9318806395
31
0.0000000000
11
37.9901743423
21
202.7688628948
31
0.0000000000
11
37.8343356410
21
203.2893055173
31
0.0000000000
11
37.6701225259
21
203.4658930254
31
0.0000000000
0
SPLINE
5
44A
100
AcDbEntity
8
0
100
AcDbSpline
62
7
6
CONTINUOUS
70
0
71
3
72
9
73
5
74
3
42
0.0000001000
43
0.0000001000
44
0.0000000001
12
-0.0885170885
22
-0.1494609232
32
0.0000000000
13
-0.1737061960
23
-0.0000000000
33
0.0000000000
40
0.0000000000
40
0.0000000000
40
0.0000000000
40
0.0000000000
40
0.5957366386
40
1.0000000000
40
1.0000000000
40
1.0000000000
40
1.0000000000
10
37.7986824037
20
189.5735881800
30
0.0000000000
10
37.7811047795
20
189.5439083974
30
0.0000000000
10
37.7485951375
20
189.4952702014
30
0.0000000000
10
37.6925636111
20
189.4658930254
30
0.0000000000
10
37.6691559275
20
189.4658930254
30
0.0000000000
11
37.7986824037
21
189.5735881800
31
0.0000000000
11
37.7340224426
21
189.4927930639
31
0.0000000000
11
37.6691559275
21
189.4658930254
31
0.0000000000
0
SPLINE
5
44B
100
AcDbEntity
8
0
100
AcDbSpline
62
7
6
CONTINUOUS
70
0
71
3
72
14
73
10
74
8
42
0.0000001000
43
0.0000001000
44
0.0000000001
12
8.1299554399
22
0.0000000000
32
0.0000000000
13
-0.0000000000
23
8.1299554399
33
0.0000000000
40
0.0000000000
40
0.0000000000
40
0.0000000000
40
0.0000000000
40
0.0422969943
40
0.1218033136
40
0.2417655106
40
0.3975877899
40
0.5819272071
40
0.7859500267
40
1.0000000000
40
1.0000000000
40
1.0000000000
40
1.0000000000
10
76.8701225259
20
188.5908930254
30
0.0000000000
10
76.9847467522
20
188.5908930254
30
0.0000000000
10
77.2504476739
20
188.8765554041
30
0.0000000000
10
77.4545664559
20
189.4748250528
30
0.0000000000
10
77.6891489369
20
190.4220413210
30
0.0000000000
10
77.8682818787
20
191.6527792347
30
0.0000000000
10
78.0109693931
20
193.1224341537
30
0.0000000000
10
78.0976338656
20
194.7526578026
30
0.0000000000
10
78.1173999935
20
195.8858207772
30
0.0000000000
10
78.1173999935
20
196.4658930254
30
0.0000000000
11
76.8701225259
21
188.5908930254
31
0.0000000000
11
77.1496401711
21
188.7911885706
31
0.0000000000
11
77.4145782241
21
189.3807804594
31
0.0000000000
11
77.6513339919
21
190.3268946460
31
0.0000000000
11
77.8481066677
21
191.5783474701
31
0.0000000000
11
77.9954536118
21
193.0697576705
31
0.0000000000
11
78.0865750478
21
194.7259493076
31
0.0000000000
11
78.1173999935
21
196.4658930254
31
0.0000000000
0
SPLINE
5
44C
100
AcDbEntity
8
0
100
AcDbSpline
62
7
6
CONTINUOUS
70
0
71
3
72
14
73
10
74
8
42
0.0000001000
43
0.0000001000
44
0.0000000001
12
0.0000000000
22
8.1299552895
32
0.0000000000
13
-8.1299552895
23
0.0000000000
33
0.0000000000
40
0.0000000000
40
0.0000000000
40
0.0000000000
40
0.0000000000
40
0.2140514283
40
0.4180741804
40
0.6024126902
40
0.7582341031
40
0.8781960323
40
0.9577026478
40
1.0000000000
40
1.0000000000
40
1.0000000000
40
1.0000000000
10
78.1173999935
20
196.4658930254
30
0.0000000000
10
78.1173999935
20
197.0459692060
30
0.0000000000
10
78.0976336713
20
198.1791359257
30
0.0000000000
10
78.0109686974
20
199.8093608092
30
0.0000000000
10
77.8682813114
20
201.2790107265
30
0.0000000000
10
77.6891490581
20
202.5097430319
30
0.0000000000
10
77.4545675207
20
203.4569573892
30
0.0000000000
10
77.2504491892
20
204.0552276068
30
0.0000000000
10
76.9847477201
20
204.3408930254
30
0.0000000000
10
76.8701225259
20
204.3408930254
30
0.0000000000
11
78.1173999935
21
196.4658930254
31
0.0000000000
11
78.0865746247
21
198.2058485347
31
0.0000000000
11
77.9954527648
21
199.8620395677
31
0.0000000000
11
77.8481061934
21
201.3534423642
31
0.0000000000
11
77.6513346222
21
202.6048882074
31
0.0000000000
11
77.4145799192
21
203.5510003989
31
0.0000000000
11
77.1496419217
21
204.1405949386
31
0.0000000000
11
76.8701225259
21
204.3408930254
31
0.0000000000
0
SPLINE
5
44D
100
AcDbEntity
8
0
100
AcDbSpline
62
7
6
CONTINUOUS
70
0
71
3
72
9
73
5
74
3
42
0.0000001000
43
0.0000001000
44
0.0000000001
12
-0.0307091783
22
0.5986451979
32
0.0000000000
13
0.0000000002
23
-0.0000000000
33
0.0000000000
40
0.0000000000
40
0.0000000000
40
0.0000000000
40
0.0000000000
40
0.7480442079
40
1.0000000000
40
1.0000000000
40
1.0000000000
40
1.0000000000
10
100.9822185351
20
204.2236516382
30
0.0000000000
10
100.9745612608
20
204.3729226625
30
0.0000000000
10
100.9681529735
20
204.4978459706
30
0.0000000000
10
100.9515198490
20
204.8222903360
30
0.0000000000
10
100.9515198491
20
204.8222903360
30
0.0000000000
11
100.9822185351
21
204.2236516382
31
0.0000000000
11
100.9592523829
21
204.6714650020
31
0.0000000000
11
100.9515198491
21
204.8222903360
31
0.0000000000
0
SPLINE
5
44E
100
AcDbEntity
8
0
100
AcDbSpline
62
7
6
CONTINUOUS
70
0
71
3
72
9
73
5
74
3
42
0.0000001000
43
0.0000001000
44
0.0000000001
12
-0.2327681620
22
0.8653335701
32
0.0000000000
13
-0.0459072480
23
0.8949166047
33
0.0000000000
40
0.0000000000
40
0.0000000000
40
0.0000000000
40
0.0000000000
40
0.5424272128
40
1.0000000000
40
1.0000000000
40
1.0000000000
40
1.0000000000
10
101.1374409794
20
203.3423237592
30
0.0000000000
10
101.0953543842
20
203.4987839181
30
0.0000000000
10
101.0275612983
20
203.7900298612
30
0.0000000000
10
100.9892205042
20
204.0871551432
30
0.0000000000
10
100.9822185351
20
204.2236516382
30
0.0000000000
11
101.1374409794
21
203.3423237592
31
0.0000000000
11
101.0304744227
21
203.8164732303
31
0.0000000000
11
100.9822185351
21
204.2236516382
31
0.0000000000
0
SPLINE
5
44F
100
AcDbEntity
8
0
100
AcDbSpline
62
7
6
CONTINUOUS
70
0
71
3
72
12
73
8
74
6
42
0.0000001000
43
0.0000001000
44
0.0000000001
12
-0.8346792962
22
6.8531866258
32
0.0000000000
13
0.0000000000
23
6.9038291155
33
0.0000000000
40
0.0000000000
40
0.0000000000
40
0.0000000000
40
0.0000000000
40
0.1636569308
40
0.3511209692
40
0.5569626771
40
0.7752747633
40
1.0000000000
40
1.0000000000
40
1.0000000000
40
1.0000000000
10
101.1393691889
20
189.5735881800
30
0.0000000000
10
101.0938355049
20
189.9474453431
30
0.0000000000
10
101.0136542927
20
190.7516843553
30
0.0000000000
10
100.9233384348
20
192.0303376477
30
0.0000000000
10
100.8568335714
20
193.4363831784
30
0.0000000000
10
100.8161122669
20
194.9291612367
30
0.0000000000
10
100.8070175765
20
195.9487381480
30
0.0000000000
10
100.8070175765
20
196.4658930254
30
0.0000000000
11
101.1393691889
21
189.5735881800
31
0.0000000000
11
101.0241405811
21
190.6975565162
31
0.0000000000
11
100.9310918819
21
191.9884269732
31
0.0000000000
11
100.8627826775
21
193.4078802576
31
0.0000000000
11
100.8210574878
21
194.9144919212
31
0.0000000000
11
100.8070175765
21
196.4658930254
31
0.0000000000
0
SPLINE
5
450
100
AcDbEntity
8
0
100
AcDbSpline
62
7
6
CONTINUOUS
70
0
71
3
72
12
73
8
74
6
42
0.0000001000
43
0.0000001000
44
0.0000000001
12
0.0000000000
22
6.8878404624
32
0.0000000000
13
0.8283661325
23
6.8378473064
33
0.0000000000
40
0.0000000000
40
0.0000000000
40
0.0000000000
40
0.0000000000
40
0.2248160322
40
0.4428239494
40
0.6485110937
40
0.8360085428
40
1.0000000000
40
1.0000000000
40
1.0000000000
40
1.0000000000
10
100.8070175765
20
196.4658930254
30
0.0000000000
10
100.8070175765
20
196.9820586798
30
0.0000000000
10
100.8160696519
20
197.9987843645
30
0.0000000000
10
100.8565688736
20
199.4872629364
30
0.0000000000
10
100.9226539903
20
200.8890859232
30
0.0000000000
10
101.0124432498
20
202.1652903959
30
0.0000000000
10
101.0921593230
20
202.9685409113
30
0.0000000000
10
101.1374409794
20
203.3423237592
30
0.0000000000
11
100.8070175765
21
196.4658930254
31
0.0000000000
11
100.8210034372
21
198.0143268278
31
0.0000000000
11
100.8624618727
21
199.5153581498
31
0.0000000000
11
100.9303263900
21
200.9304720328
31
0.0000000000
11
101.0227969314
21
202.2186097590
31
0.0000000000
11
101.1374409794
21
203.3423237592
31
0.0000000000
0
SPLINE
5
451
100
AcDbEntity
8
0
100
AcDbSpline
62
7
6
CONTINUOUS
70
0
71
3
72
10
73
6
74
4
42
0.0000001000
43
0.0000001000
44
0.0000000001
12
0.9659685243
22
-9.7655188969
32
0.0000000000
13
0.0000000000
23
-9.8131775952
33
0.0000000000
40
0.0000000000
40
0.0000000000
40
0.0000000000
40
0.0000000000
40
0.3145922015
40
0.6516216187
40
1.0000000000
40
1.0000000000
40
1.0000000000
40
1.0000000000
10
79.3553745490
20
206.2655992814
30
0.0000000000
10
79.4566699373
20
205.2415472517
30
0.0000000000
10
79.6220882639
20
203.1159009112
30
0.0000000000
10
79.7676972108
20
199.8476286222
30
0.0000000000
10
79.8002346719
20
197.6054593342
30
0.0000000000
10
79.8002346719
20
196.4658930254
30
0.0000000000
11
79.3553745490
21
206.2655992814
31
0.0000000000
11
79.5999518141
21
203.1881536202
31
0.0000000000
11
79.7497809562
21
199.8842196295
31
0.0000000000
11
79.8002346719
21
196.4658930254
31
0.0000000000
0
SPLINE
5
452
100
AcDbEntity
8
0
100
AcDbSpline
62
7
6
CONTINUOUS
70
0
71
3
72
21
73
17
74
15
42
0.0000001000
43
0.0000001000
44
0.0000000001
12
23.4703031074
22
12.2520460004
32
0.0000000000
13
-23.4703031074
23
-12.2520460004
33
0.0000000000
40
0.0000000000
40
0.0000000000
40
0.0000000000
40
0.0000000000
40
0.1144293347
40
0.2190391463
40
0.3100566974
40
0.3849107235
40
0.4420662668
40
0.4806057693
40
0.5000000000
40
0.5193942307
40
0.5579337332
40
0.6150892765
40
0.6899433026
40
0.7809608537
40
0.8855706653
40
1.0000000000
40
1.0000000000
40
1.0000000000
40
1.0000000000
10
79.3553745490
20
206.2655992814
30
0.0000000000
10
80.2506049387
20
206.7329304388
30
0.0000000000
10
81.9089951728
20
207.7400483995
30
0.0000000000
10
84.0776653421
20
209.4063127686
30
0.0000000000
10
85.8480131407
20
211.0358556835
30
0.0000000000
10
87.1787057201
20
212.4234001898
30
0.0000000000
10
88.2365461752
20
213.6537865799
30
0.0000000000
10
88.7282026125
20
214.2496857640
30
0.0000000000
10
89.4191825395
20
215.1376508244
30
0.0000000000
10
88.7282026125
20
214.2496857640
30
0.0000000000
10
88.2365461752
20
213.6537865799
30
0.0000000000
10
87.1787057201
20
212.4234001898
30
0.0000000000
10
85.8480131407
20
211.0358556835
30
0.0000000000
10
84.0776653421
20
209.4063127686
30
0.0000000000
10
81.9089951728
20
207.7400483995
30
0.0000000000
10
80.2506049387
20
206.7329304388
30
0.0000000000
10
79.3553745490
20
206.2655992814
30
0.0000000000
11
79.3553745490
21
206.2655992814
31
0.0000000000
11
81.9488614848
21
207.8315968121
31
0.0000000000
11
84.1476044617
21
209.5157490007
31
0.0000000000
11
85.9249055408
21
211.1430640313
31
0.0000000000
11
87.2943230077
21
212.5756511779
31
0.0000000000
11
88.2861080364
21
213.7185655159
31
0.0000000000
11
88.9295586301
21
214.5104708238
31
0.0000000000
11
89.2458814020
21
214.9149448542
31
0.0000000000
11
88.9295586301
21
214.5104708238
31
0.0000000000
11
88.2861080364
21
213.7185655159
31
0.0000000000
11
87.2943230077
21
212.5756511779
31
0.0000000000
11
85.9249055408
21
211.1430640313
31
0.0000000000
11
84.1476044617
21
209.5157490007
31
0.0000000000
11
81.9488614848
21
207.8315968121
31
0.0000000000
11
79.3553745490
21
206.2655992814
31
0.0000000000
0
SPLINE
5
453
100
AcDbEntity
8
0
100
AcDbSpline
62
7
6
CONTINUOUS
70
0
71
3
72
21
73
17
74
15
42
0.0000001000
43
0.0000001000
44
0.0000000001
12
23.4703031074
22
12.2520460004
32
0.0000000000
13
-23.4703031074
23
-12.2520460004
33
0.0000000000
40
0.0000000000
40
0.0000000000
40
0.0000000000
40
0.0000000000
40
0.1144293347
40
0.2190391463
40
0.3100566974
40
0.3849107235
40
0.4420662668
40
0.4806057693
40
0.5000000000
40
0.5193942307
40
0.5579337332
40
0.6150892765
40
0.6899433026
40
0.7809608537
40
0.8855706653
40
1.0000000000
40
1.0000000000
40
1.0000000000
40
1.0000000000
10
79.3553745490
20
206.2655992814
30
0.0000000000
10
80.2506049387
20
206.7329304388
30
0.0000000000
10
81.9089951728
20
207.7400483995
30
0.0000000000
10
84.0776653421
20
209.4063127686
30
0.0000000000
10
85.8480131407
20
211.0358556835
30
0.0000000000
10
87.1787057201
20
212.4234001898
30
0.0000000000
10
88.2365461752
20
213.6537865799
30
0.0000000000
10
88.7282026125
20
214.2496857640
30
0.0000000000
10
89.4191825395
20
215.1376508244
30
0.0000000000
10
88.7282026125
20
214.2496857640
30
0.0000000000
10
88.2365461752
20
213.6537865799
30
0.0000000000
10
87.1787057201
20
212.4234001898
30
0.0000000000
10
85.8480131407
20
211.0358556835
30
0.0000000000
10
84.0776653421
20
209.4063127686
30
0.0000000000
10
81.9089951728
20
207.7400483995
30
0.0000000000
10
80.2506049387
20
206.7329304388
30
0.0000000000
10
79.3553745490
20
206.2655992814
30
0.0000000000
11
79.3553745490
21
206.2655992814
31
0.0000000000
11
81.9488614848
21
207.8315968121
31
0.0000000000
11
84.1476044617
21
209.5157490007
31
0.0000000000
11
85.9249055408
21
211.1430640313
31
0.0000000000
11
87.2943230077
21
212.5756511779
31
0.0000000000
11
88.2861080364
21
213.7185655159
31
0.0000000000
11
88.9295586301
21
214.5104708238
31
0.0000000000
11
89.2458814020
21
214.9149448542
31
0.0000000000
11
88.9295586301
21
214.5104708238
31
0.0000000000
11
88.2861080364
21
213.7185655159
31
0.0000000000
11
87.2943230077
21
212.5756511779
31
0.0000000000
11
85.9249055408
21
211.1430640313
31
0.0000000000
11
84.1476044617
21
209.5157490007
31
0.0000000000
11
81.9488614848
21
207.8315968121
31
0.0000000000
11
79.3553745490
21
206.2655992814
31
0.0000000000
0
SPLINE
5
454
100
AcDbEntity
8
0
100
AcDbSpline
62
7
6
CONTINUOUS
70
0
71
3
72
11
73
7
74
5
42
0.0000001000
43
0.0000001000
44
0.0000000001
12
-0.1066875684
22
2.4712634011
32
0.0000000000
13
0.1066875684
23
-2.4712634011
33
0.0000000000
40
0.0000000000
40
0.0000000000
40
0.0000000000
40
0.0000000000
40
0.3739475096
40
0.5000000000
40
0.6260524904
40
1.0000000000
40
1.0000000000
40
1.0000000000
40
1.0000000000
10
92.4932835745
20
213.7302575816
30
0.0000000000
10
92.4799850577
20
214.0382985130
30
0.0000000000
10
92.4688531601
20
214.2961552873
30
0.0000000000
10
92.4327592593
20
215.1347372451
30
0.0000000000
10
92.4688531601
20
214.2961552873
30
0.0000000000
10
92.4799850577
20
214.0382985130
30
0.0000000000
10
92.4932835745
20
213.7302575816
30
0.0000000000
11
92.4932835745
21
213.7302575816
31
0.0000000000
11
92.4534366110
21
214.6543824722
31
0.0000000000
11
92.4400265830
21
214.9658930254
31
0.0000000000
11
92.4534366110
21
214.6543824722
31
0.0000000000
11
92.4932835745
21
213.7302575816
31
0.0000000000
0
SPLINE
5
455
100
AcDbEntity
8
0
100
AcDbSpline
62
7
6
CONTINUOUS
70
0
71
3
72
15
73
11
74
9
42
0.0000001000
43
0.0000001000
44
0.0000000001
12
0.6624084325
22
-15.3437344217
32
0.0000000000
13
9.0314216445
23
-12.4218514729
33
0.0000000000
40
0.0000000000
40
0.0000000000
40
0.0000000000
40
0.0000000000
40
0.0562526938
40
0.1294770217
40
0.2213104283
40
0.3332415989
40
0.4666023500
40
0.6223185114
40
0.8005112109
40
1.0000000000
40
1.0000000000
40
1.0000000000
40
1.0000000000
10
92.4932835745
20
213.7302575816
30
0.0000000000
10
92.5057043274
20
213.4425487837
30
0.0000000000
10
92.6225569330
20
212.7852328087
30
0.0000000000
10
92.9677083820
20
211.7049344801
30
0.0000000000
10
93.5178946849
20
210.3962554996
30
0.0000000000
10
94.2871594955
20
208.8504920916
30
0.0000000000
10
95.2913181678
20
207.0591443451
30
0.0000000000
10
96.5437981384
20
205.0205167779
30
0.0000000000
10
98.0519770127
20
202.7436140725
30
0.0000000000
10
99.1682170693
20
201.1645038945
30
0.0000000000
10
99.7687728584
20
200.3384971918
30
0.0000000000
11
92.4932835745
21
213.7302575816
31
0.0000000000
11
92.6232989446
21
212.8761664559
31
0.0000000000
11
92.9525481300
21
211.8008628974
31
0.0000000000
11
93.4902053843
21
210.4969855804
31
0.0000000000
11
94.2496123713
21
208.9547774431
31
0.0000000000
11
95.2461871869
21
207.1654229519
31
0.0000000000
11
96.4942314707
21
205.1254171326
31
0.0000000000
11
98.0025247305
21
202.8418861965
31
0.0000000000
11
99.7687728584
21
200.3384971918
31
0.0000000000
0
SPLINE
5
456
100
AcDbEntity
8
0
100
AcDbSpline
62
7
6
CONTINUOUS
70
0
71
3
72
9
73
5
74
3
42
0.0000001000
43
0.0000001000
44
0.0000000001
12
-0.0871180965
22
-3.8719240453
32
0.0000000000
13
-0.0000000073
23
-3.8729039977
33
0.0000000000
40
0.0000000000
40
0.0000000000
40
0.0000000000
40
0.0000000000
40
0.4957124626
40
1.0000000000
40
1.0000000000
40
1.0000000000
40
1.0000000000
10
99.7687728584
20
200.3384971918
30
0.0000000000
10
99.7543776830
20
199.6987101906
30
0.0000000000
10
99.7328369599
20
198.4078907937
30
0.0000000000
10
99.7256941747
20
197.1169127636
30
0.0000000000
10
99.7256941735
20
196.4658936905
30
0.0000000000
11
99.7687728584
21
200.3384971918
31
0.0000000000
11
99.7365596907
21
198.4189206855
31
0.0000000000
11
99.7256941735
21
196.4658936905
31
0.0000000000
0
SPLINE
5
457
100
AcDbEntity
8
0
100
AcDbSpline
62
7
6
CONTINUOUS
70
0
71
3
72
13
73
9
74
7
42
0.0000001000
43
0.0000001000
44
0.0000000001
12
0.0000000000
22
-6.8606114943
32
0.0000000000
13
-4.1247869987
23
5.4821640153
33
0.0000000000
40
0.0000000000
40
0.0000000000
40
0.0000000000
40
0.0000000000
40
0.0667382636
40
0.1179946988
40
0.2198567981
40
0.3915567406
40
0.6468021464
40
1.0000000000
40
1.0000000000
40
1.0000000000
40
1.0000000000
10
109.6701225259
20
174.1094865649
30
0.0000000000
10
109.6701225259
20
173.9568647987
30
0.0000000000
10
109.6529093954
20
173.5951275188
30
0.0000000000
10
109.0404935133
20
173.6184159727
30
0.0000000000
10
108.4976126157
20
174.1288348870
30
0.0000000000
10
107.6165550617
20
174.9570479366
30
0.0000000000
10
106.4764109258
20
176.3345388583
30
0.0000000000
10
105.6205157500
20
177.4304469534
30
0.0000000000
10
105.1348937785
20
178.0758764745
30
0.0000000000
11
109.6701225259
21
174.1094865649
31
0.0000000000
11
109.5510112460
21
173.6673857453
31
0.0000000000
11
109.2005739870
21
173.6382002428
31
0.0000000000
11
108.6145329178
21
174.0188943780
31
0.0000000000
11
107.7698843491
21
174.8399754356
31
0.0000000000
11
106.6254273480
21
176.1653840324
31
0.0000000000
11
105.1348937785
21
178.0758764745
31
0.0000000000
0
SPLINE
5
458
100
AcDbEntity
8
0
100
AcDbSpline
62
7
6
CONTINUOUS
70
0
71
3
72
13
73
9
74
7
42
0.0000001000
43
0.0000001000
44
0.0000000001
12
-27.1229408907
22
0.0000000000
32
0.0000000000
13
-26.8407050676
23
3.9026239934
33
0.0000000000
40
0.0000000000
40
0.0000000000
40
0.0000000000
40
0.0000000000
40
0.1817304232
40
0.3608019568
40
0.5346646477
40
0.7007812744
40
0.8567170157
40
1.0000000000
40
1.0000000000
40
1.0000000000
40
1.0000000000
10
69.6701225259
20
151.6305154125
30
0.0000000000
10
68.0271013503
20
151.6305154125
30
0.0000000000
10
64.7650061005
20
151.6622325225
30
0.0000000000
10
59.9328991490
20
151.8046140055
30
0.0000000000
10
55.2457024192
20
152.0396278415
30
0.0000000000
10
50.7734591572
20
152.3638685467
30
0.0000000000
10
46.5858059075
20
152.7723993133
30
0.0000000000
10
43.9014771565
20
153.1124881587
30
0.0000000000
10
42.6195383826
20
153.2988813627
30
0.0000000000
11
69.6701225259
21
151.6305154125
31
0.0000000000
11
64.7412954555
21
151.6787954574
31
0.0000000000
11
59.8864883812
21
151.8229437727
31
0.0000000000
11
55.1768340334
21
152.0610105563
31
0.0000000000
11
50.6832698110
21
152.3897272194
31
0.0000000000
11
46.4742237653
21
152.8045276233
31
0.0000000000
11
42.6195383826
21
153.2988813627
31
0.0000000000
0
SPLINE
5
459
100
AcDbEntity
8
0
100
AcDbSpline
62
7
6
CONTINUOUS
70
0
71
3
72
13
73
9
74
7
42
0.0000001000
43
0.0000001000
44
0.0000000001
12
-26.8407050674
22
-3.9026239933
32
0.0000000000
13
-27.1229408905
23
0.0000000000
33
0.0000000000
40
0.0000000000
40
0.0000000000
40
0.0000000000
40
0.0000000000
40
0.1432830708
40
0.2992189655
40
0.4653356849
40
0.6391983842
40
0.8182698117
40
1.0000000000
40
1.0000000000
40
1.0000000000
40
1.0000000000
10
96.7207066692
20
153.2988813627
30
0.0000000000
10
95.4387671213
20
153.1124880461
30
0.0000000000
10
92.7544362135
20
152.7723989570
30
0.0000000000
10
88.5667799579
20
152.3638680205
30
0.0000000000
10
84.0945343877
20
152.0396273311
30
0.0000000000
10
79.4073376940
20
151.8046136912
30
0.0000000000
10
74.5752337444
20
151.6622324519
30
0.0000000000
10
71.3131415780
20
151.6305154125
30
0.0000000000
10
69.6701225259
20
151.6305154125
30
0.0000000000
11
96.7207066692
21
153.2988813627
31
0.0000000000
11
92.8660189544
21
152.8045273604
31
0.0000000000
11
88.6569687559
21
152.3897266655
31
0.0000000000
11
84.1634020134
21
152.0610100019
31
0.0000000000
11
79.4537474287
21
151.8229434035
31
0.0000000000
11
74.5989432265
21
151.6787953321
31
0.0000000000
11
69.6701225259
21
151.6305154125
31
0.0000000000
0
SPLINE
5
45A
100
AcDbEntity
8
0
100
AcDbSpline
62
7
6
CONTINUOUS
70
0
71
3
72
19
73
15
74
13
42
0.0000001000
43
0.0000001000
44
0.0000000001
12
0.0000000000
22
-16.9699614676
32
0.0000000000
13
16.7933754896
23
-2.4417477093
33
0.0000000000
40
0.0000000000
40
0.0000000000
40
0.0000000000
40
0.0000000000
40
0.1241300166
40
0.2492342057
40
0.3663855635
40
0.4706844438
40
0.5581340058
40
0.6320915172
40
0.6973196110
40
0.7578153053
40
0.8171605010
40
0.8770076662
40
0.9378670555
40
1.0000000000
40
1.0000000000
40
1.0000000000
40
1.0000000000
10
34.2053512733
20
166.1388297905
30
0.0000000000
10
34.2053512733
20
165.4366692576
30
0.0000000000
10
34.2643788053
20
164.0260843599
30
0.0000000000
10
34.5359697702
20
161.9683025426
30
0.0000000000
10
34.9942688003
20
160.0579144958
30
0.0000000000
10
35.6098731241
20
158.4169919254
30
0.0000000000
10
36.3318102135
20
157.0927399308
30
0.0000000000
10
37.1062527569
20
156.0653646925
30
0.0000000000
10
37.9124508750
20
155.2688160953
30
0.0000000000
10
38.7547696122
20
154.6418548408
30
0.0000000000
10
39.6450661275
20
154.1458317708
30
0.0000000000
10
40.5904873656
20
153.7609268564
30
0.0000000000
10
41.5867265850
20
153.4767500439
30
0.0000000000
10
42.2717310937
20
153.3494523543
30
0.0000000000
10
42.6195383826
20
153.2988813627
30
0.0000000000
11
34.2053512733
21
166.1388297905
31
0.0000000000
11
34.2953334977
21
164.0342709471
31
0.0000000000
11
34.5794120304
21
161.9303496731
31
0.0000000000
11
35.0528167324
21
159.9994828205
31
0.0000000000
11
35.6845349720
21
158.3461081154
31
0.0000000000
11
36.4016384576
21
157.0468524889
31
0.0000000000
11
37.1604585278
21
156.0471735584
31
0.0000000000
11
37.9489506083
21
155.2702898968
31
0.0000000000
11
38.7723220717
21
154.6571123491
31
0.0000000000
11
39.6513296283
21
154.1656173930
31
0.0000000000
11
40.5910439243
21
153.7804048471
31
0.0000000000
11
41.5834246104
21
153.4943660678
31
0.0000000000
11
42.6195383826
21
153.2988813627
31
0.0000000000
0
SPLINE
5
45B
100
AcDbEntity
8
0
100
AcDbSpline
62
7
6
CONTINUOUS
70
0
71
3
72
15
73
11
74
9
42
0.0000001000
43
0.0000001000
44
0.0000000001
12
-5.6030597698
22
0.9081897588
32
0.0000000000
13
-1.2347340128
23
-5.5402634720
33
0.0000000000
40
0.0000000000
40
0.0000000000
40
0.0000000000
40
0.0000000000
40
0.0585673138
40
0.1262373036
40
0.2121954843
40
0.3207181335
40
0.4535050731
40
0.6110891745
40
0.7934009036
40
1.0000000000
40
1.0000000000
40
1.0000000000
40
1.0000000000
10
62.4701225259
20
211.0456273801
30
0.0000000000
10
62.3607371393
20
211.0633574583
30
0.0000000000
10
62.1111887621
20
211.0366962537
30
0.0000000000
10
61.7689953234
20
210.8090086014
30
0.0000000000
10
61.4465981530
20
210.4277524899
30
0.0000000000
10
61.1326797448
20
209.8916679026
30
0.0000000000
10
60.8264224883
20
209.2007717445
30
0.0000000000
10
60.5289460295
20
208.3566360174
30
0.0000000000
10
60.2421564429
20
207.3627682917
30
0.0000000000
10
60.0699021466
20
206.6471370904
30
0.0000000000
10
59.9848705028
20
206.2655992814
30
0.0000000000
11
62.4701225259
21
211.0456273801
31
0.0000000000
11
62.1390788188
21
211.0152015637
31
0.0000000000
11
61.8098981824
21
210.8172656133
31
0.0000000000
11
61.4846292793
21
210.4535888088
31
0.0000000000
11
61.1652977054
21
209.9268280782
31
0.0000000000
11
60.8538669020
21
209.2404537143
31
0.0000000000
11
60.5521469038
21
208.3984005365
31
0.0000000000
11
60.2618984400
21
207.4051030521
31
0.0000000000
11
59.9848705028
21
206.2655992814
31
0.0000000000
0
SPLINE
5
45C
100
AcDbEntity
8
0
100
AcDbSpline
62
7
6
CONTINUOUS
70
0
71
3
72
17
73
13
74
11
42
0.0000001000
43
0.0000001000
44
0.0000000001
12
-21.7957078316
22
2.7549636597
32
0.0000000000
13
-8.3649585363
23
20.3142849575
33
0.0000000000
40
0.0000000000
40
0.0000000000
40
0.0000000000
40
0.0000000000
40
0.0888373386
40
0.1828254674
40
0.2800495130
40
0.3788837400
40
0.4778567552
40
0.5764422748
40
0.6764079358
40
0.7798224928
40
0.8876206652
40
1.0000000000
40
1.0000000000
40
1.0000000000
40
1.0000000000
10
69.6701250237
20
153.2988813627
30
0.0000000000
10
69.0247007985
20
153.3804625758
30
0.0000000000
10
67.7036573512
20
153.6123637076
30
0.0000000000
10
65.7251820051
20
154.1648733563
30
0.0000000000
10
63.7451262832
20
154.9442389071
30
0.0000000000
10
61.8250894867
20
155.9435838895
30
0.0000000000
10
60.0125888425
20
157.1449880726
30
0.0000000000
10
58.3294839265
20
158.5347788645
30
0.0000000000
10
56.7782426564
20
160.1164026948
30
0.0000000000
10
55.3621362546
20
161.9074774130
30
0.0000000000
10
54.1022410114
20
163.9199641584
30
0.0000000000
10
53.4039627020
20
165.3778611804
30
0.0000000000
10
53.0906132101
20
166.1388297905
30
0.0000000000
11
69.6701250237
21
153.2988813627
31
0.0000000000
11
67.7478242596
21
153.6362403645
31
0.0000000000
11
65.7590404254
21
154.1914814996
31
0.0000000000
11
63.7714876108
21
154.9736715255
31
0.0000000000
11
61.8453857022
21
155.9760108100
31
0.0000000000
11
60.0329366039
21
157.1771898157
31
0.0000000000
11
58.3627402184
21
158.5560658075
31
0.0000000000
11
56.8247709076
21
160.1237913338
31
0.0000000000
11
55.4153679091
21
161.9057115533
31
0.0000000000
11
54.1581848716
21
163.9127029041
31
0.0000000000
11
53.0906132101
21
166.1388297905
31
0.0000000000
0
SPLINE
5
45D
100
AcDbEntity
8
0
100
AcDbSpline
62
7
6
CONTINUOUS
70
0
71
3
72
10
73
6
74
4
42
0.0000001000
43
0.0000001000
44
0.0000000001
12
0.2863519217
22
0.3412609314
32
0.0000000000
13
0.1847109731
23
-0.4053866090
33
0.0000000000
40
0.0000000000
40
0.0000000000
40
0.0000000000
40
0.0000000000
40
0.2833309781
40
0.5501993217
40
1.0000000000
40
1.0000000000
40
1.0000000000
40
1.0000000000
10
37.6701225259
20
203.9658930254
30
0.0000000000
10
37.6971666493
20
203.9981229566
30
0.0000000000
10
37.7738077125
20
204.0617647152
30
0.0000000000
10
37.9189000274
20
203.9680866605
30
0.0000000000
10
37.9616603477
20
203.8715637670
30
0.0000000000
10
37.9893547214
20
203.8107827098
30
0.0000000000
11
37.6701225259
21
203.9658930254
31
0.0000000000
11
37.7769464816
21
204.0331241204
31
0.0000000000
11
37.8838686809
21
203.9811485881
31
0.0000000000
11
37.9893547214
21
203.8107827098
31
0.0000000000
0
SPLINE
5
45E
100
AcDbEntity
8
0
100
AcDbSpline
62
7
6
CONTINUOUS
70
0
71
3
72
11
73
7
74
5
42
0.0000001000
43
0.0000001000
44
0.0000000001
12
0.1066875684
22
2.4712634011
32
0.0000000000
13
-0.1066875684
23
-2.4712634011
33
0.0000000000
40
0.0000000000
40
0.0000000000
40
0.0000000000
40
0.0000000000
40
0.3739475096
40
0.5000000000
40
0.6260524904
40
1.0000000000
40
1.0000000000
40
1.0000000000
40
1.0000000000
10
46.8469614773
20
213.7302575816
30
0.0000000000
10
46.8602599942
20
214.0382985130
30
0.0000000000
10
46.8713918917
20
214.2961552873
30
0.0000000000
10
46.9074857926
20
215.1347372451
30
0.0000000000
10
46.8713918917
20
214.2961552873
30
0.0000000000
10
46.8602599942
20
214.0382985130
30
0.0000000000
10
46.8469614773
20
213.7302575816
30
0.0000000000
11
46.8469614773
21
213.7302575816
31
0.0000000000
11
46.8868084409
21
214.6543824722
31
0.0000000000
11
46.9002184689
21
214.9658930254
31
0.0000000000
11
46.8868084409
21
214.6543824722
31
0.0000000000
11
46.8469614773
21
213.7302575816
31
0.0000000000
0
SPLINE
5
45F
100
AcDbEntity
8
0
100
AcDbSpline
62
7
6
CONTINUOUS
70
0
71
3
72
15
73
11
74
9
42
0.0000001000
43
0.0000001000
44
0.0000000001
12
5.6030597698
22
0.9081897588
32
0.0000000000
13
1.2347340128
23
-5.5402634720
33
0.0000000000
40
0.0000000000
40
0.0000000000
40
0.0000000000
40
0.0000000000
40
0.0585673138
40
0.1262373036
40
0.2121954843
40
0.3207181335
40
0.4535050731
40
0.6110891745
40
0.7934009036
40
1.0000000000
40
1.0000000000
40
1.0000000000
40
1.0000000000
10
76.8701225259
20
211.0456273801
30
0.0000000000
10
76.9795079125
20
211.0633574583
30
0.0000000000
10
77.2290562897
20
211.0366962537
30
0.0000000000
10
77.5712497284
20
210.8090086014
30
0.0000000000
10
77.8936468988
20
210.4277524899
30
0.0000000000
10
78.2075653070
20
209.8916679026
30
0.0000000000
10
78.5138225636
20
209.2007717445
30
0.0000000000
10
78.8112990223
20
208.3566360174
30
0.0000000000
10
79.0980886089
20
207.3627682917
30
0.0000000000
10
79.2703429053
20
206.6471370904
30
0.0000000000
10
79.3553745490
20
206.2655992814
30
0.0000000000
11
76.8701225259
21
211.0456273801
31
0.0000000000
11
77.2011662330
21
211.0152015637
31
0.0000000000
11
77.5303468695
21
210.8172656133
31
0.0000000000
11
77.8556157726
21
210.4535888088
31
0.0000000000
11
78.1749473465
21
209.9268280782
31
0.0000000000
11
78.4863781498
21
209.2404537143
31
0.0000000000
11
78.7880981480
21
208.3984005365
31
0.0000000000
11
79.0783466119
21
207.4051030521
31
0.0000000000
11
79.3553745490
21
206.2655992814
31
0.0000000000
0
SPLINE
5
460
100
AcDbEntity
8
0
100
AcDbSpline
62
7
6
CONTINUOUS
70
0
71
3
72
10
73
6
74
4
42
0.0000001000
43
0.0000001000
44
0.0000000001
12
-0.9659685243
22
-9.7655188969
32
0.0000000000
13
0.0000000000
23
-9.8131775952
33
0.0000000000
40
0.0000000000
40
0.0000000000
40
0.0000000000
40
0.0000000000
40
0.3145922015
40
0.6516216187
40
1.0000000000
40
1.0000000000
40
1.0000000000
40
1.0000000000
10
59.9848705028
20
206.2655992814
30
0.0000000000
10
59.8835751146
20
205.2415472517
30
0.0000000000
10
59.7181567879
20
203.1159009112
30
0.0000000000
10
59.5725478410
20
199.8476286222
30
0.0000000000
10
59.5400103799
20
197.6054593342
30
0.0000000000
10
59.5400103799
20
196.4658930254
30
0.0000000000
11
59.9848705028
21
206.2655992814
31
0.0000000000
11
59.7402932378
21
203.1881536202
31
0.0000000000
11
59.5904640956
21
199.8842196295
31
0.0000000000
11
59.5400103799
21
196.4658930254
31
0.0000000000
0
SPLINE
5
461
100
AcDbEntity
8
0
100
AcDbSpline
62
7
6
CONTINUOUS
70
0
71
3
72
15
73
11
74
9
42
0.0000001000
43
0.0000001000
44
0.0000000001
12
-0.6624084325
22
-15.3437344217
32
0.0000000000
13
-9.0314216445
23
-12.4218514729
33
0.0000000000
40
0.0000000000
40
0.0000000000
40
0.0000000000
40
0.0000000000
40
0.0562526938
40
0.1294770217
40
0.2213104283
40
0.3332415989
40
0.4666023500
40
0.6223185114
40
0.8005112109
40
1.0000000000
40
1.0000000000
40
1.0000000000
40
1.0000000000
10
46.8469614773
20
213.7302575816
30
0.0000000000
10
46.8345407244
20
213.4425487837
30
0.0000000000
10
46.7176881188
20
212.7852328087
30
0.0000000000
10
46.3725366698
20
211.7049344801
30
0.0000000000
10
45.8223503669
20
210.3962554996
30
0.0000000000
10
45.0530855564
20
208.8504920916
30
0.0000000000
10
44.0489268840
20
207.0591443451
30
0.0000000000
10
42.7964469134
20
205.0205167779
30
0.0000000000
10
41.2882680391
20
202.7436140725
30
0.0000000000
10
40.1720279825
20
201.1645038945
30
0.0000000000
10
39.5714721934
20
200.3384971918
30
0.0000000000
11
46.8469614773
21
213.7302575816
31
0.0000000000
11
46.7169461072
21
212.8761664559
31
0.0000000000
11
46.3876969218
21
211.8008628974
31
0.0000000000
11
45.8500396676
21
210.4969855804
31
0.0000000000
11
45.0906326806
21
208.9547774431
31
0.0000000000
11
44.0940578649
21
207.1654229519
31
0.0000000000
11
42.8460135811
21
205.1254171326
31
0.0000000000
11
41.3377203213
21
202.8418861965
31
0.0000000000
11
39.5714721934
21
200.3384971918
31
0.0000000000
0
SPLINE
5
462
100
AcDbEntity
8
0
100
AcDbSpline
62
7
6
CONTINUOUS
70
0
71
3
72
9
73
5
74
3
42
0.0000001000
43
0.0000001000
44
0.0000000001
12
0.0871180965
22
-3.8719240453
32
0.0000000000
13
0.0000000073
23
-3.8729039977
33
0.0000000000
40
0.0000000000
40
0.0000000000
40
0.0000000000
40
0.0000000000
40
0.4957124626
40
1.0000000000
40
1.0000000000
40
1.0000000000
40
1.0000000000
10
39.5714721934
20
200.3384971918
30
0.0000000000
10
39.5858673688
20
199.6987101906
30
0.0000000000
10
39.6074080919
20
198.4078907937
30
0.0000000000
10
39.6145508771
20
197.1169127636
30
0.0000000000
10
39.6145508783
20
196.4658936905
30
0.0000000000
11
39.5714721934
21
200.3384971918
31
0.0000000000
11
39.6036853611
21
198.4189206855
31
0.0000000000
11
39.6145508783
21
196.4658936905
31
0.0000000000
0
SPLINE
5
463
100
AcDbEntity
8
0
100
AcDbSpline
62
7
6
CONTINUOUS
70
0
71
3
72
13
73
9
74
7
42
0.0000001000
43
0.0000001000
44
0.0000000001
12
-4.1247916934
22
-5.4821702549
32
0.0000000000
13
-0.0000000000
23
6.8606193028
33
0.0000000000
40
0.0000000000
40
0.0000000000
40
0.0000000000
40
0.0000000000
40
0.3532331207
40
0.6084957850
40
0.7801919125
40
0.8820310294
40
0.9332712244
40
1.0000000000
40
1.0000000000
40
1.0000000000
40
1.0000000000
10
34.2053512733
20
178.0758764745
30
0.0000000000
10
33.7196802592
20
177.4303817720
30
0.0000000000
10
32.8637119735
20
176.3343864551
30
0.0000000000
10
31.7234740928
20
174.9567932673
30
0.0000000000
10
30.8424291832
20
174.1286638920
30
0.0000000000
10
30.2995396271
20
173.6182745628
30
0.0000000000
10
29.6872827326
20
173.5952613732
30
0.0000000000
10
29.6701225259
20
173.9568863228
30
0.0000000000
10
29.6701225259
20
174.1094865649
30
0.0000000000
11
34.2053512733
21
178.0758764745
31
0.0000000000
11
32.7146628805
21
176.1651944445
31
0.0000000000
11
31.5701118263
21
174.8397079914
31
0.0000000000
11
30.7254504063
21
174.0186757803
31
0.0000000000
11
30.1394965896
21
173.6381353167
31
0.0000000000
11
29.7891805378
21
173.6674382704
31
0.0000000000
11
29.6701225259
21
174.1094865649
31
0.0000000000
0
SPLINE
5
464
100
AcDbEntity
8
0
100
AcDbSpline
62
7
6
CONTINUOUS
70
0
71
3
72
14
73
10
74
8
42
0.0000001000
43
0.0000001000
44
0.0000000001
12
-11.7351515537
22
6.1260230002
32
0.0000000000
13
0.0000000000
23
0.0000000000
33
0.0000000000
40
0.0000000000
40
0.0000000000
40
0.0000000000
40
0.0000000000
40
0.2288586693
40
0.4380782926
40
0.6201133948
40
0.7698214470
40
0.8841325337
40
0.9612115387
40
1.0000000000
40
1.0000000000
40
1.0000000000
40
1.0000000000
10
59.9848705028
20
206.2655992814
30
0.0000000000
10
59.0896401131
20
206.7329304388
30
0.0000000000
10
57.4312498790
20
207.7400483995
30
0.0000000000
10
55.2625797097
20
209.4063127686
30
0.0000000000
10
53.4922319111
20
211.0358556835
30
0.0000000000
10
52.1615393317
20
212.4234001898
30
0.0000000000
10
51.1036988766
20
213.6537865799
30
0.0000000000
10
50.6120424393
20
214.2496857640
30
0.0000000000
10
50.0943636498
20
214.9149448542
30
0.0000000000
10
50.0943636498
20
214.9149448542
30
0.0000000000
11
59.9848705028
21
206.2655992814
31
0.0000000000
11
57.3913835671
21
207.8315968121
31
0.0000000000
11
55.1926405901
21
209.5157490007
31
0.0000000000
11
53.4153395110
21
211.1430640313
31
0.0000000000
11
52.0459220441
21
212.5756511779
31
0.0000000000
11
51.0541370154
21
213.7185655159
31
0.0000000000
11
50.4106864218
21
214.5104708238
31
0.0000000000
11
50.0943636498
21
214.9149448542
31
0.0000000000
0
SPLINE
5
465
100
AcDbEntity
8
0
100
AcDbSpline
62
7
6
CONTINUOUS
70
0
71
3
72
16
73
12
74
10
42
0.0000001000
43
0.0000001000
44
0.0000000001
12
5.2700721925
22
0.0000000000
32
0.0000000000
13
0.0000000639
23
-5.2700721925
33
0.0000000000
40
0.0000000000
40
0.0000000000
40
0.0000000000
40
0.0000000000
40
0.1418141734
40
0.2683800448
40
0.3825521349
40
0.4898272389
40
0.5924342233
40
0.6938339365
40
0.7959397184
40
0.8982296161
40
1.0000000000
40
1.0000000000
40
1.0000000000
40
1.0000000000
10
92.6701225259
20
199.6838685806
30
0.0000000000
10
92.9192461698
20
199.6838685806
30
0.0000000000
10
93.3921193668
20
199.6370849039
30
0.0000000000
10
94.0398562936
20
199.4456984051
30
0.0000000000
10
94.5902045228
20
199.1729740497
30
0.0000000000
10
95.0540828581
20
198.8387340714
30
0.0000000000
10
95.4421452652
20
198.4501073901
30
0.0000000000
10
95.7563827496
20
198.0106879517
30
0.0000000000
10
95.9914341552
20
197.5245826381
30
0.0000000000
10
96.1372299345
20
197.0039909662
30
0.0000000000
10
96.1701225032
20
196.6446723400
30
0.0000000000
10
96.1701225054
20
196.4658932499
30
0.0000000000
11
92.6701225259
21
199.6838685806
31
0.0000000000
11
93.4138339941
21
199.6100000394
31
0.0000000000
11
94.0534022916
21
199.4206420709
31
0.0000000000
11
94.5922867007
21
199.1529843500
31
0.0000000000
11
95.0506311740
21
198.8220188114
31
0.0000000000
11
95.4322907260
21
198.4389490320
31
0.0000000000
11
95.7426284829
21
198.0039127906
31
0.0000000000
11
95.9763752850
21
197.5192280954
31
0.0000000000
11
96.1213252454
21
197.0000060611
31
0.0000000000
11
96.1701225054
21
196.4658932499
31
0.0000000000
0
SPLINE
5
466
100
AcDbEntity
8
0
100
AcDbSpline
62
7
6
CONTINUOUS
70
0
71
3
72
16
73
12
74
10
42
0.0000001000
43
0.0000001000
44
0.0000000001
12
-0.0000003637
22
5.2699357092
32
0.0000000000
13
5.2699357092
23
0.0000000000
33
0.0000000000
40
0.0000000000
40
0.0000000000
40
0.0000000000
40
0.0000000000
40
0.0990920924
40
0.1989175588
40
0.2983062292
40
0.3965538321
40
0.4961751601
40
0.6017973747
40
0.7169270625
40
0.8482598236
40
1.0000000000
40
1.0000000000
40
1.0000000000
40
1.0000000000
10
89.1701225457
20
196.4658932477
30
0.0000000000
10
89.1701225337
20
196.6399628998
30
0.0000000000
10
89.2013287679
20
196.9901733018
30
0.0000000000
10
89.3398161197
20
197.4982437683
30
0.0000000000
10
89.5630949428
20
197.9735006701
30
0.0000000000
10
89.8614576911
20
198.4048035690
30
0.0000000000
10
90.2321304057
20
198.7910426916
30
0.0000000000
10
90.6831172534
20
199.1317050624
30
0.0000000000
10
91.2336938018
20
199.4199518563
30
0.0000000000
10
91.9045779529
20
199.6310237978
30
0.0000000000
10
92.4035688679
20
199.6838685806
30
0.0000000000
10
92.6701225259
20
199.6838685806
30
0.0000000000
11
89.1701225457
21
196.4658932477
31
0.0000000000
11
89.2163863082
21
196.9860488575
31
0.0000000000
11
89.3543436493
21
197.4937115454
31
0.0000000000
11
89.5766019089
21
197.9679881237
31
0.0000000000
11
89.8706961678
21
198.3941130859
31
0.0000000000
11
90.2338109817
21
198.7732839255
31
0.0000000000
11
90.6776208953
21
199.1092320225
31
0.0000000000
11
91.2148645045
21
199.3911642971
31
0.0000000000
11
91.8749476551
21
199.5992837212
31
0.0000000000
11
92.6701225259
21
199.6838685806
31
0.0000000000
0
SPLINE
5
467
100
AcDbEntity
8
0
100
AcDbSpline
62
7
6
CONTINUOUS
70
0
71
3
72
19
73
15
74
13
42
0.0000001000
43
0.0000001000
44
0.0000000001
12
16.7933757319
22
2.4417477446
32
0.0000000000
13
-0.0000000000
23
16.9699617124
33
0.0000000000
40
0.0000000000
40
0.0000000000
40
0.0000000000
40
0.0000000000
40
0.0621360713
40
0.1229996633
40
0.1828506310
40
0.2421980223
40
0.3026940529
40
0.3679212228
40
0.4418772797
40
0.5293256362
40
0.6336231262
40
0.7507723791
40
0.8758737212
40
1.0000000000
40
1.0000000000
40
1.0000000000
40
1.0000000000
10
96.7207066692
20
153.2988813627
30
0.0000000000
10
97.0685314663
20
153.3494549000
30
0.0000000000
10
97.7535766561
20
153.4767615464
30
0.0000000000
10
98.7498744298
20
153.7609641459
30
0.0000000000
10
99.6953428245
20
154.1459076724
30
0.0000000000
10
100.5856580516
20
154.6419716094
30
0.0000000000
10
101.4279652433
20
155.2689637649
30
0.0000000000
10
102.2341320560
20
156.0655272806
30
0.0000000000
10
103.0085379094
20
157.0929042218
30
0.0000000000
10
103.7304407804
20
158.4171482286
30
0.0000000000
10
104.3460162562
20
160.0580527386
30
0.0000000000
10
104.8042930120
20
161.9684088796
30
0.0000000000
10
105.0758695463
20
164.0261427927
30
0.0000000000
10
105.1348937785
20
165.4366903908
30
0.0000000000
10
105.1348937785
20
166.1388297905
30
0.0000000000
11
96.7207066692
21
153.2988813627
31
0.0000000000
11
97.7568721566
21
153.4943782469
31
0.0000000000
11
98.7493188649
21
153.7804455311
31
0.0000000000
11
99.6890860100
21
154.1656993183
31
0.0000000000
11
100.5681133354
21
154.6572352931
31
0.0000000000
11
101.3914710970
21
155.2704408203
31
0.0000000000
11
102.1799298826
21
156.0473359588
31
0.0000000000
11
102.9387115057
21
157.0470131047
31
0.0000000000
11
103.6557822811
21
158.3462634434
31
0.0000000000
11
104.2874720463
21
159.9996237992
31
0.0000000000
11
104.7608535969
21
161.9304595800
31
0.0000000000
11
105.0449170286
21
164.0343341709
31
0.0000000000
11
105.1348937785
21
166.1388297905
31
0.0000000000
0
SPLINE
5
468
100
AcDbEntity
8
0
100
AcDbSpline
62
7
6
CONTINUOUS
70
0
71
3
72
17
73
13
74
11
42
0.0000001000
43
0.0000001000
44
0.0000000001
12
21.7957078316
22
2.7549636597
32
0.0000000000
13
8.3649585363
23
20.3142849575
33
0.0000000000
40
0.0000000000
40
0.0000000000
40
0.0000000000
40
0.0000000000
40
0.0888373386
40
0.1828254674
40
0.2800495130
40
0.3788837400
40
0.4778567552
40
0.5764422748
40
0.6764079358
40
0.7798224928
40
0.8876206652
40
1.0000000000
40
1.0000000000
40
1.0000000000
40
1.0000000000
10
69.6701200282
20
153.2988813627
30
0.0000000000
10
70.3155442534
20
153.3804625758
30
0.0000000000
10
71.6365877006
20
153.6123637076
30
0.0000000000
10
73.6150630468
20
154.1648733563
30
0.0000000000
10
75.5951187687
20
154.9442389071
30
0.0000000000
10
77.5151555652
20
155.9435838895
30
0.0000000000
10
79.3276562093
20
157.1449880726
30
0.0000000000
10
81.0107611253
20
158.5347788645
30
0.0000000000
10
82.5620023955
20
160.1164026948
30
0.0000000000
10
83.9781087972
20
161.9074774130
30
0.0000000000
10
85.2380040404
20
163.9199641584
30
0.0000000000
10
85.9362823498
20
165.3778611804
30
0.0000000000
10
86.2496318418
20
166.1388297905
30
0.0000000000
11
69.6701200282
21
153.2988813627
31
0.0000000000
11
71.5924207922
21
153.6362403645
31
0.0000000000
11
73.5812046265
21
154.1914814996
31
0.0000000000
11
75.5687574411
21
154.9736715255
31
0.0000000000
11
77.4948593496
21
155.9760108100
31
0.0000000000
11
79.3073084480
21
157.1771898157
31
0.0000000000
11
80.9775048334
21
158.5560658075
31
0.0000000000
11
82.5154741443
21
160.1237913338
31
0.0000000000
11
83.9248771427
21
161.9057115533
31
0.0000000000
11
85.1820601803
21
163.9127029041
31
0.0000000000
11
86.2496318418
21
166.1388297905
31
0.0000000000
0
SPLINE
5
469
100
AcDbEntity
8
0
100
AcDbSpline
62
7
6
CONTINUOUS
70
0
71
3
72
15
73
11
74
9
42
0.0000001000
43
0.0000001000
44
0.0000000001
12
-9.4235096980
22
0.0000000000
32
0.0000000000
13
9.4235096980
23
0.0000000000
33
0.0000000000
40
0.0000000000
40
0.0000000000
40
0.0000000000
40
0.0000000000
40
0.1250000000
40
0.2500000000
40
0.3750000000
40
0.5000000000
40
0.6250000000
40
0.7500000000
40
0.8750000000
40
1.0000000000
40
1.0000000000
40
1.0000000000
40
1.0000000000
10
216.1609200254
20
197.9658930254
30
0.0000000000
10
215.7682737880
20
197.9658930254
30
0.0000000000
10
214.9829813131
20
197.8877908328
30
0.0000000000
10
213.9843730918
20
197.5541664922
30
0.0000000000
10
213.3171244106
20
197.0548623816
30
0.0000000000
10
213.0828178327
20
196.4658930254
30
0.0000000000
10
213.3171244106
20
195.8769236693
30
0.0000000000
10
213.9843730918
20
195.3776195587
30
0.0000000000
10
214.9829813131
20
195.0439952181
30
0.0000000000
10
215.7682737880
20
194.9658930254
30
0.0000000000
10
216.1609200254
20
194.9658930254
30
0.0000000000
11
216.1609200254
21
197.9658930254
31
0.0000000000
11
215.0128697283
21
197.8517123242
31
0.0000000000
11
214.0395996818
21
197.5265531972
31
0.0000000000
11
213.3892814278
21
197.0399181740
31
0.0000000000
11
213.1609200254
21
196.4658930254
31
0.0000000000
11
213.3892814278
21
195.8918678769
31
0.0000000000
11
214.0395996818
21
195.4052328537
31
0.0000000000
11
215.0128697283
21
195.0800737267
31
0.0000000000
11
216.1609200254
21
194.9658930254
31
0.0000000000
0
SPLINE
5
46A
100
AcDbEntity
8
0
100
AcDbSpline
62
7
6
CONTINUOUS
70
0
71
3
72
15
73
11
74
9
42
0.0000001000
43
0.0000001000
44
0.0000000001
12
9.4235096980
22
0.0000000000
32
0.0000000000
13
-9.4235096980
23
0.0000000000
33
0.0000000000
40
0.0000000000
40
0.0000000000
40
0.0000000000
40
0.0000000000
40
0.1250000000
40
0.2500000000
40
0.3750000000
40
0.5000000000
40
0.6250000000
40
0.7500000000
40
0.8750000000
40
1.0000000000
40
1.0000000000
40
1.0000000000
40
1.0000000000
10
216.1609200254
20
194.9658930254
30
0.0000000000
10
216.5535662628
20
194.9658930254
30
0.0000000000
10
217.3388587376
20
195.0439952181
30
0.0000000000
10
218.3374669590
20
195.3776195587
30
0.0000000000
10
219.0047156401
20
195.8769236693
30
0.0000000000
10
219.2390222180
20
196.4658930254
30
0.0000000000
10
219.0047156401
20
197.0548623816
30
0.0000000000
10
218.3374669590
20
197.5541664922
30
0.0000000000
10
217.3388587376
20
197.8877908328
30
0.0000000000
10
216.5535662628
20
197.9658930254
30
0.0000000000
10
216.1609200254
20
197.9658930254
30
0.0000000000
11
216.1609200254
21
194.9658930254
31
0.0000000000
11
217.3089703225
21
195.0800737267
31
0.0000000000
11
218.2822403689
21
195.4052328537
31
0.0000000000
11
218.9325586229
21
195.8918678769
31
0.0000000000
11
219.1609200254
21
196.4658930254
31
0.0000000000
11
218.9325586229
21
197.0399181740
31
0.0000000000
11
218.2822403689
21
197.5265531972
31
0.0000000000
11
217.3089703225
21
197.8517123242
31
0.0000000000
11
216.1609200254
21
197.9658930254
31
0.0000000000
0
SPLINE
5
46B
100
AcDbEntity
8
0
100
AcDbSpline
62
7
6
CONTINUOUS
70
0
71
3
72
15
73
11
74
9
42
0.0000001000
43
0.0000001000
44
0.0000000001
12
8.8580991161
22
0.0000000000
32
0.0000000000
13
-8.8580991161
23
0.0000000000
33
0.0000000000
40
0.0000000000
40
0.0000000000
40
0.0000000000
40
0.0000000000
40
0.1250000000
40
0.2500000000
40
0.3750000000
40
0.5000000000
40
0.6250000000
40
0.7500000000
40
0.8750000000
40
1.0000000000
40
1.0000000000
40
1.0000000000
40
1.0000000000
10
216.1609200254
20
195.1458930254
30
0.0000000000
10
216.5300074885
20
195.1458930254
30
0.0000000000
10
217.2681824149
20
195.2146229550
30
0.0000000000
10
218.2068741429
20
195.5082123747
30
0.0000000000
10
218.8340879032
20
195.9475999921
30
0.0000000000
10
219.0543360864
20
196.4658930254
30
0.0000000000
10
218.8340879032
20
196.9841860588
30
0.0000000000
10
218.2068741429
20
197.4235736762
30
0.0000000000
10
217.2681824149
20
197.7171630959
30
0.0000000000
10
216.5300074885
20
197.7858930254
30
0.0000000000
10
216.1609200254
20
197.7858930254
30
0.0000000000
11
216.1609200254
21
195.1458930254
31
0.0000000000
11
217.2400873046
21
195.2463720425
31
0.0000000000
11
218.1549611483
21
195.5325120743
31
0.0000000000
11
218.7662603071
21
195.9607508947
31
0.0000000000
11
218.9809200254
21
196.4658930254
31
0.0000000000
11
218.7662603071
21
196.9710351562
31
0.0000000000
11
218.1549611483
21
197.3992739766
31
0.0000000000
11
217.2400873046
21
197.6854140084
31
0.0000000000
11
216.1609200254
21
197.7858930254
31
0.0000000000
0
SPLINE
5
46C
100
AcDbEntity
8
0
100
AcDbSpline
62
7
6
CONTINUOUS
70
0
71
3
72
15
73
11
74
9
42
0.0000001000
43
0.0000001000
44
0.0000000001
12
-8.8580991161
22
0.0000000000
32
0.0000000000
13
8.8580991161
23
0.0000000000
33
0.0000000000
40
0.0000000000
40
0.0000000000
40
0.0000000000
40
0.0000000000
40
0.1250000000
40
0.2500000000
40
0.3750000000
40
0.5000000000
40
0.6250000000
40
0.7500000000
40
0.8750000000
40
1.0000000000
40
1.0000000000
40
1.0000000000
40
1.0000000000
10
216.1609200254
20
197.7858930254
30
0.0000000000
10
215.7918325622
20
197.7858930254
30
0.0000000000
10
215.0536576359
20
197.7171630959
30
0.0000000000
10
214.1149659078
20
197.4235736762
30
0.0000000000
10
213.4877521475
20
196.9841860588
30
0.0000000000
10
213.2675039643
20
196.4658930254
30
0.0000000000
10
213.4877521475
20
195.9475999921
30
0.0000000000
10
214.1149659078
20
195.5082123747
30
0.0000000000
10
215.0536576359
20
195.2146229550
30
0.0000000000
10
215.7918325622
20
195.1458930254
30
0.0000000000
10
216.1609200254
20
195.1458930254
30
0.0000000000
11
216.1609200254
21
197.7858930254
31
0.0000000000
11
215.0817527461
21
197.6854140084
31
0.0000000000
11
214.1668789024
21
197.3992739766
31
0.0000000000
11
213.5555797437
21
196.9710351562
31
0.0000000000
11
213.3409200254
21
196.4658930254
31
0.0000000000
11
213.5555797437
21
195.9607508947
31
0.0000000000
11
214.1668789024
21
195.5325120743
31
0.0000000000
11
215.0817527461
21
195.2463720425
31
0.0000000000
11
216.1609200254
21
195.1458930254
31
0.0000000000
0
SPLINE
5
46D
100
AcDbEntity
8
0
100
AcDbSpline
62
7
6
CONTINUOUS
70
0
71
3
72
8
73
4
74
2
42
0.0000001000
43
0.0000001000
44
0.0000000001
12
-0.3171804428
22
-0.1154442401
32
0.0000000000
13
0.0000000000
23
-0.2190222493
33
0.0000000000
40
0.0000000000
40
0.0000000000
40
0.0000000000
40
0.0000000000
40
1.0000000000
40
1.0000000000
40
1.0000000000
40
1.0000000000
10
214.3413164392
20
197.3217621867
30
0.0000000000
10
214.2355896249
20
197.2832807733
30
0.0000000000
10
214.1827260747
20
197.2275362240
30
0.0000000000
10
214.1827260747
20
197.1545288076
30
0.0000000000
11
214.3413164392
21
197.3217621867
31
0.0000000000
11
214.1827260747
21
197.1545288076
31
0.0000000000
0
SPLINE
5
46E
100
AcDbEntity
8
0
100
AcDbSpline
62
7
6
CONTINUOUS
70
0
71
3
72
8
73
4
74
2
42
0.0000001000
43
0.0000001000
44
0.0000000001
12
0.0000000000
22
-0.3224492168
32
0.0000000000
13
0.9415019752
23
-0.2623995603
33
0.0000000000
40
0.0000000000
40
0.0000000000
40
0.0000000000
40
0.0000000000
40
1.0000000000
40
1.0000000000
40
1.0000000000
40
1.0000000000
10
214.1827260747
20
197.1545288076
30
0.0000000000
10
214.1827260747
20
197.0470457353
30
0.0000000000
10
214.3395543351
20
196.9489860205
30
0.0000000000
10
214.6533883269
20
196.8615195004
30
0.0000000000
11
214.1827260747
21
197.1545288076
31
0.0000000000
11
214.6533883269
21
196.8615195004
31
0.0000000000
0
SPLINE
5
46F
100
AcDbEntity
8
0
100
AcDbSpline
62
7
6
CONTINUOUS
70
0
71
3
72
8
73
4
74
2
42
0.0000001000
43
0.0000001000
44
0.0000000001
12
0.5968242882
22
-0.1663368054
32
0.0000000000
13
0.7295153618
23
-0.0934308009
33
0.0000000000
40
0.0000000000
40
0.0000000000
40
0.0000000000
40
0.0000000000
40
1.0000000000
40
1.0000000000
40
1.0000000000
40
1.0000000000
10
214.6533883269
20
196.8615195004
30
0.0000000000
10
214.8523297563
20
196.8060738986
30
0.0000000000
10
215.0725940480
20
196.7625365470
30
0.0000000000
10
215.3157658353
20
196.7313929467
30
0.0000000000
11
214.6533883269
21
196.8615195004
31
0.0000000000
11
215.3157658353
21
196.7313929467
31
0.0000000000
0
SPLINE
5
470
100
AcDbEntity
8
0
100
AcDbSpline
62
7
6
CONTINUOUS
70
0
71
3
72
8
73
4
74
2
42
0.0000001000
43
0.0000001000
44
0.0000000001
12
0.1480175972
22
-0.3385406786
32
0.0000000000
13
0.1162995100
23
-0.2284059262
33
0.0000000000
40
0.0000000000
40
0.0000000000
40
0.0000000000
40
0.0000000000
40
1.0000000000
40
1.0000000000
40
1.0000000000
40
1.0000000000
10
215.3157658353
20
196.7313929467
30
0.0000000000
10
215.3651050344
20
196.6185460538
30
0.0000000000
10
215.4109200254
20
196.5246963195
30
0.0000000000
10
215.4496865287
20
196.4485610107
30
0.0000000000
11
215.3157658353
21
196.7313929467
31
0.0000000000
11
215.4496865287
21
196.4485610107
31
0.0000000000
0
SPLINE
5
471
100
AcDbEntity
8
0
100
AcDbSpline
62
7
6
CONTINUOUS
70
0
71
3
72
8
73
4
74
2
42
0.0000001000
43
0.0000001000
44
0.0000000001
12
-0.7982378483
22
0.0075787593
32
0.0000000000
13
-0.1196977643
23
0.0065881061
33
0.0000000000
40
0.0000000000
40
0.0000000000
40
0.0000000000
40
0.0000000000
40
1.0000000000
40
1.0000000000
40
1.0000000000
40
1.0000000000
10
215.0584970727
20
196.4511803760
30
0.0000000000
10
214.7924177900
20
196.4537066291
30
0.0000000000
10
214.6391138807
20
196.4567200306
30
0.0000000000
10
214.5992146259
20
196.4589160660
30
0.0000000000
11
215.0584970727
21
196.4511803760
31
0.0000000000
11
214.5992146259
21
196.4589160660
31
0.0000000000
0
SPLINE
5
472
100
AcDbEntity
8
0
100
AcDbSpline
62
7
6
CONTINUOUS
70
0
71
3
72
8
73
4
74
2
42
0.0000001000
43
0.0000001000
44
0.0000000001
12
-0.4247958156
22
0.0233805527
32
0.0000000000
13
-0.2854625702
23
0.1090384605
33
0.0000000000
40
0.0000000000
40
0.0000000000
40
0.0000000000
40
0.0000000000
40
1.0000000000
40
1.0000000000
40
1.0000000000
40
1.0000000000
10
214.5992146259
20
196.4589160660
30
0.0000000000
10
214.4576160207
20
196.4667095836
30
0.0000000000
10
214.3395543351
20
196.4886340157
30
0.0000000000
10
214.2444001451
20
196.5249801692
30
0.0000000000
11
214.5992146259
21
196.4589160660
31
0.0000000000
11
214.2444001451
21
196.5249801692
31
0.0000000000
0
SPLINE
5
473
100
AcDbEntity
8
0
100
AcDbSpline
62
7
6
CONTINUOUS
70
0
71
3
72
8
73
4
74
2
42
0.0000001000
43
0.0000001000
44
0.0000000001
12
0.2431716442
22
-0.0909690987
32
0.0000000000
13
0.7150138738
23
-0.2379936162
33
0.0000000000
40
0.0000000000
40
0.0000000000
40
0.0000000000
40
0.0000000000
40
1.0000000000
40
1.0000000000
40
1.0000000000
40
1.0000000000
10
214.2761183038
20
196.4908949791
30
0.0000000000
10
214.3571755185
20
196.4605719462
30
0.0000000000
10
214.5175279870
20
196.4063824742
30
0.0000000000
10
214.7558659449
20
196.3270512688
30
0.0000000000
11
214.2761183038
21
196.4908949791
31
0.0000000000
11
214.7558659449
21
196.3270512688
31
0.0000000000
0
SPLINE
5
474
100
AcDbEntity
8
0
100
AcDbSpline
62
7
6
CONTINUOUS
70
0
71
3
72
8
73
4
74
2
42
0.0000001000
43
0.0000001000
44
0.0000000001
12
0.6382901786
22
-0.2124560003
32
0.0000000000
13
0.0000000000
23
-0.2433576432
33
0.0000000000
40
0.0000000000
40
0.0000000000
40
0.0000000000
40
0.0000000000
40
1.0000000000
40
1.0000000000
40
1.0000000000
40
1.0000000000
10
214.7558659449
20
196.3270512688
30
0.0000000000
10
214.9686293378
20
196.2562326020
30
0.0000000000
10
215.0743561521
20
196.1811470329
30
0.0000000000
10
215.0743561521
20
196.1000278185
30
0.0000000000
11
214.7558659449
21
196.3270512688
31
0.0000000000
11
215.0743561521
21
196.1000278185
31
0.0000000000
0
SPLINE
5
475
100
AcDbEntity
8
0
100
AcDbSpline
62
7
6
CONTINUOUS
70
0
71
3
72
8
73
4
74
2
42
0.0000001000
43
0.0000001000
44
0.0000000001
12
0.0000000000
22
-0.1125530798
32
0.0000000000
13
-0.1797358990
23
-0.0654185173
33
0.0000000000
40
0.0000000000
40
0.0000000000
40
0.0000000000
40
0.0000000000
40
1.0000000000
40
1.0000000000
40
1.0000000000
40
1.0000000000
10
215.0743561521
20
196.1000278185
30
0.0000000000
10
215.0743561521
20
196.0625101253
30
0.0000000000
10
215.0461623445
20
196.0339966056
30
0.0000000000
10
214.9862503782
20
196.0121904331
30
0.0000000000
11
215.0743561521
21
196.1000278185
31
0.0000000000
11
214.9862503782
21
196.0121904331
31
0.0000000000
0
SPLINE
5
476
100
AcDbEntity
8
0
100
AcDbSpline
62
7
6
CONTINUOUS
70
0
71
3
72
8
73
4
74
2
42
0.0000001000
43
0.0000001000
44
0.0000000001
12
-0.0898677349
22
-0.0327091805
32
0.0000000000
13
-0.1268723488
23
0.0207457477
33
0.0000000000
40
0.0000000000
40
0.0000000000
40
0.0000000000
40
0.0000000000
40
1.0000000000
40
1.0000000000
40
1.0000000000
40
1.0000000000
10
214.9862503782
20
196.0121904331
30
0.0000000000
10
214.9562944665
20
196.0012873730
30
0.0000000000
10
214.9192901387
20
195.9989727345
30
0.0000000000
10
214.8769993558
20
196.0058879837
30
0.0000000000
11
214.9862503782
21
196.0121904331
31
0.0000000000
11
214.8769993558
21
196.0058879837
31
0.0000000000
0
SPLINE
5
477
100
AcDbEntity
8
0
100
AcDbSpline
62
7
6
CONTINUOUS
70
0
71
3
72
8
73
4
74
2
42
0.0000001000
43
0.0000001000
44
0.0000000001
12
-0.1268723488
22
0.0207457477
32
0.0000000000
13
-0.1306943343
23
0.0167208419
33
0.0000000000
40
0.0000000000
40
0.0000000000
40
0.0000000000
40
0.0000000000
40
1.0000000000
40
1.0000000000
40
1.0000000000
40
1.0000000000
10
214.8769993558
20
196.0058879837
30
0.0000000000
10
214.8347085729
20
196.0128032330
30
0.0000000000
10
214.7941798940
20
196.0193457683
30
0.0000000000
10
214.7506151159
20
196.0249193823
30
0.0000000000
11
214.8769993558
21
196.0058879837
31
0.0000000000
11
214.7506151159
21
196.0249193823
31
0.0000000000
0
SPLINE
5
478
100
AcDbEntity
8
0
100
AcDbSpline
62
7
6
CONTINUOUS
70
0
71
3
72
8
73
4
74
2
42
0.0000001000
43
0.0000001000
44
0.0000000001
12
-0.1970587327
22
0.0252114059
32
0.0000000000
13
-0.1797354698
23
-0.0654183611
33
0.0000000000
40
0.0000000000
40
0.0000000000
40
0.0000000000
40
0.0000000000
40
1.0000000000
40
1.0000000000
40
1.0000000000
40
1.0000000000
10
214.7506151159
20
196.0249193823
30
0.0000000000
10
214.6849288717
20
196.0333231842
30
0.0000000000
10
214.6214926973
20
196.0264582302
30
0.0000000000
10
214.5615808740
20
196.0046521098
30
0.0000000000
11
214.7506151159
21
196.0249193823
31
0.0000000000
11
214.5615808740
21
196.0046521098
31
0.0000000000
0
SPLINE
5
479
100
AcDbEntity
8
0
100
AcDbSpline
62
7
6
CONTINUOUS
70
0
71
3
72
8
73
4
74
2
42
0.0000001000
43
0.0000001000
44
0.0000000001
12
-0.1903085232
22
-0.0692666378
32
0.0000000000
13
-0.1097220420
23
-0.1196102878
33
0.0000000000
40
0.0000000000
40
0.0000000000
40
0.0000000000
40
0.0000000000
40
1.0000000000
40
1.0000000000
40
1.0000000000
40
1.0000000000
10
214.5615808740
20
196.0046521098
30
0.0000000000
10
214.4981446996
20
195.9815632306
30
0.0000000000
10
214.4488055005
20
195.9494092756
30
0.0000000000
10
214.4122314865
20
195.9095391796
30
0.0000000000
11
214.5615808740
21
196.0046521098
31
0.0000000000
11
214.4122314865
21
195.9095391796
31
0.0000000000
0
SPLINE
5
47A
100
AcDbEntity
8
0
100
AcDbSpline
62
7
6
CONTINUOUS
70
0
71
3
72
8
73
4
74
2
42
0.0000001000
43
0.0000001000
44
0.0000000001
12
-0.1123043538
22
-0.1224253199
32
0.0000000000
13
0.0000000000
23
-0.1277628553
33
0.0000000000
40
0.0000000000
40
0.0000000000
40
0.0000000000
40
0.0000000000
40
1.0000000000
40
1.0000000000
40
1.0000000000
40
1.0000000000
10
214.4122314865
20
195.9095391796
30
0.0000000000
10
214.3747967019
20
195.8687307397
30
0.0000000000
10
214.3554134145
20
195.8272001442
30
0.0000000000
10
214.3554134145
20
195.7846125258
30
0.0000000000
11
214.4122314865
21
195.9095391796
31
0.0000000000
11
214.3554134145
21
195.7846125258
31
0.0000000000
0
SPLINE
5
47B
100
AcDbEntity
8
0
100
AcDbSpline
62
7
6
CONTINUOUS
70
0
71
3
72
8
73
4
74
2
42
0.0000001000
43
0.0000001000
44
0.0000000001
12
0.0000000000
22
-0.1612246084
32
0.0000000000
13
0.2643171717
23
-0.1623643805
33
0.0000000000
40
0.0000000000
40
0.0000000000
40
0.0000000000
40
0.0000000000
40
1.0000000000
40
1.0000000000
40
1.0000000000
40
1.0000000000
10
214.3554134145
20
195.7846125258
30
0.0000000000
10
214.3554134145
20
195.7308709896
30
0.0000000000
10
214.3994663015
20
195.6769395502
30
0.0000000000
10
214.4875720254
20
195.6228180901
30
0.0000000000
11
214.3554134145
21
195.7846125258
31
0.0000000000
11
214.4875720254
21
195.6228180901
31
0.0000000000
0
SPLINE
5
47C
100
AcDbEntity
8
0
100
AcDbSpline
62
7
6
CONTINUOUS
70
0
71
3
72
8
73
4
74
2
42
0.0000001000
43
0.0000001000
44
0.0000000001
12
0.2114534925
22
-0.1298913540
32
0.0000000000
13
0.2563240515
23
-0.0604547998
33
0.0000000000
40
0.0000000000
40
0.0000000000
40
0.0000000000
40
0.0000000000
40
1.0000000000
40
1.0000000000
40
1.0000000000
40
1.0000000000
10
214.4875720254
20
195.6228180901
30
0.0000000000
10
214.5580565229
20
195.5795209721
30
0.0000000000
10
214.6338275686
20
195.5452459609
30
0.0000000000
10
214.7192689191
20
195.5250943610
30
0.0000000000
11
214.4875720254
21
195.6228180901
31
0.0000000000
11
214.7192689191
21
195.5250943610
31
0.0000000000
0
SPLINE
5
47D
100
AcDbEntity
8
0
100
AcDbSpline
62
7
6
CONTINUOUS
70
0
71
3
72
8
73
4
74
2
42
0.0000001000
43
0.0000001000
44
0.0000000001
12
0.3674642099
22
-0.0866675411
32
0.0000000000
13
0.1819933805
23
-0.0235252498
33
0.0000000000
40
0.0000000000
40
0.0000000000
40
0.0000000000
40
0.0000000000
40
1.0000000000
40
1.0000000000
40
1.0000000000
40
1.0000000000
10
214.7192689191
20
195.5250943610
30
0.0000000000
10
214.8417569890
20
195.4962051806
30
0.0000000000
10
214.9326344772
20
195.4780843922
30
0.0000000000
10
214.9932989373
20
195.4702426423
30
0.0000000000
11
214.7192689191
21
195.5250943610
31
0.0000000000
11
214.9932989373
21
195.4702426423
31
0.0000000000
0
SPLINE
5
47E
100
AcDbEntity
8
0
100
AcDbSpline
62
7
6
CONTINUOUS
70
0
71
3
72
8
73
4
74
2
42
0.0000001000
43
0.0000001000
44
0.0000000001
12
-0.3911892414
22
0.0705568523
32
0.0000000000
13
-0.2128920661
23
0.0983698756
33
0.0000000000
40
0.0000000000
40
0.0000000000
40
0.0000000000
40
0.0000000000
40
1.0000000000
40
1.0000000000
40
1.0000000000
40
1.0000000000
10
214.9104794755
20
195.4978962997
30
0.0000000000
10
214.7800830617
20
195.5214152504
30
0.0000000000
10
214.6778803125
20
195.5480979606
30
0.0000000000
10
214.6069162904
20
195.5808879192
30
0.0000000000
11
214.9104794755
21
195.4978962997
31
0.0000000000
11
214.6069162904
21
195.5808879192
31
0.0000000000
0
SPLINE
5
47F
100
AcDbEntity
8
0
100
AcDbSpline
62
7
6
CONTINUOUS
70
0
71
3
72
8
73
4
74
2
42
0.0000001000
43
0.0000001000
44
0.0000000001
12
-0.4426144971
22
0.2045164661
32
0.0000000000
13
0.0000000000
23
0.2220642044
33
0.0000000000
40
0.0000000000
40
0.0000000000
40
0.0000000000
40
0.0000000000
40
1.0000000000
40
1.0000000000
40
1.0000000000
40
1.0000000000
10
214.6069162904
20
195.5808879192
30
0.0000000000
10
214.4593781247
20
195.6490600746
30
0.0000000000
10
214.3836072221
20
195.7188248610
30
0.0000000000
10
214.3836072221
20
195.7928462625
30
0.0000000000
11
214.6069162904
21
195.5808879192
31
0.0000000000
11
214.3836072221
21
195.7928462625
31
0.0000000000
0
SPLINE
5
480
100
AcDbEntity
8
0
100
AcDbSpline
62
7
6
CONTINUOUS
70
0
71
3
72
8
73
4
74
2
42
0.0000001000
43
0.0000001000
44
0.0000000001
12
0.0000000000
22
0.1673085186
32
0.0000000000
13
0.2008807182
23
0.0731146021
33
0.0000000000
40
0.0000000000
40
0.0000000000
40
0.0000000000
40
0.0000000000
40
1.0000000000
40
1.0000000000
40
1.0000000000
40
1.0000000000
10
214.3836072221
20
195.7928462625
30
0.0000000000
10
214.3836072221
20
195.8486157687
30
0.0000000000
10
214.4188495889
20
195.8898346868
30
0.0000000000
10
214.4858098283
20
195.9142062208
30
0.0000000000
11
214.3836072221
21
195.7928462625
31
0.0000000000
11
214.4858098283
21
195.9142062208
31
0.0000000000
0
SPLINE
5
481
100
AcDbEntity
8
0
100
AcDbSpline
62
7
6
CONTINUOUS
70
0
71
3
72
8
73
4
74
2
42
0.0000001000
43
0.0000001000
44
0.0000000001
12
0.1162997246
22
0.0423296380
32
0.0000000000
13
0.2538858932
23
-0.0352626425
33
0.0000000000
40
0.0000000000
40
0.0000000000
40
0.0000000000
40
0.0000000000
40
1.0000000000
40
1.0000000000
40
1.0000000000
40
1.0000000000
10
214.4858098283
20
195.9142062208
30
0.0000000000
10
214.5245764032
20
195.9283161001
30
0.0000000000
10
214.5844883695
20
195.9288284222
30
0.0000000000
10
214.6691170005
20
195.9170742080
30
0.0000000000
11
214.4858098283
21
195.9142062208
31
0.0000000000
11
214.6691170005
21
195.9170742080
31
0.0000000000
0
SPLINE
5
482
100
AcDbEntity
8
0
100
AcDbSpline
62
7
6
CONTINUOUS
70
0
71
3
72
8
73
4
74
2
42
0.0000001000
43
0.0000001000
44
0.0000000001
12
0.3328981835
22
-0.0462367936
32
0.0000000000
13
0.1797358990
23
0.0654185173
33
0.0000000000
40
0.0000000000
40
0.0000000000
40
0.0000000000
40
0.0000000000
40
1.0000000000
40
1.0000000000
40
1.0000000000
40
1.0000000000
10
214.6691170005
20
195.9170742080
30
0.0000000000
10
214.7800830617
20
195.9016619435
30
0.0000000000
10
214.8664265886
20
195.9057106566
30
0.0000000000
10
214.9263385549
20
195.9275168290
30
0.0000000000
11
214.6691170005
21
195.9170742080
31
0.0000000000
11
214.9263385549
21
195.9275168290
31
0.0000000000
0
SPLINE
5
483
100
AcDbEntity
8
0
100
AcDbSpline
62
7
6
CONTINUOUS
70
0
71
3
72
8
73
4
74
2
42
0.0000001000
43
0.0000001000
44
0.0000000001
12
0.3541850567
22
0.1289128181
32
0.0000000000
13
0.0000000000
23
0.2342317779
33
0.0000000000
40
0.0000000000
40
0.0000000000
40
0.0000000000
40
0.0000000000
40
1.0000000000
40
1.0000000000
40
1.0000000000
40
1.0000000000
10
214.9263385549
20
195.9275168290
30
0.0000000000
10
215.0444002404
20
195.9704877684
30
0.0000000000
10
215.1025499597
20
196.0301842136
30
0.0000000000
10
215.1025499597
20
196.1082614729
30
0.0000000000
11
214.9263385549
21
195.9275168290
31
0.0000000000
11
215.1025499597
21
196.1082614729
31
0.0000000000
0
SPLINE
5
484
100
AcDbEntity
8
0
100
AcDbSpline
62
7
6
CONTINUOUS
70
0
71
3
72
8
73
4
74
2
42
0.0000001000
43
0.0000001000
44
0.0000000001
12
0.0000000000
22
0.2372739799
32
0.0000000000
13
-0.7295153618
23
0.2637812746
33
0.0000000000
40
0.0000000000
40
0.0000000000
40
0.0000000000
40
0.0000000000
40
1.0000000000
40
1.0000000000
40
1.0000000000
40
1.0000000000
10
215.1025499597
20
196.1082614729
30
0.0000000000
10
215.1025499597
20
196.1873527995
30
0.0000000000
10
214.9809640660
20
196.2718760760
30
0.0000000000
10
214.7377922788
20
196.3598031675
30
0.0000000000
11
215.1025499597
21
196.1082614729
31
0.0000000000
11
214.7377922788
21
196.3598031675
31
0.0000000000
0
SPLINE
5
485
100
AcDbEntity
8
0
100
AcDbSpline
62
7
6
CONTINUOUS
70
0
71
3
72
8
73
4
74
2
42
0.0000001000
43
0.0000001000
44
0.0000000001
12
0.9938326836
22
-0.0519828492
32
0.0000000000
13
0.5392072678
23
-0.0227663598
33
0.0000000000
40
0.0000000000
40
0.0000000000
40
0.0000000000
40
0.0000000000
40
1.0000000000
40
1.0000000000
40
1.0000000000
40
1.0000000000
10
214.7377922788
20
196.3598031675
30
0.0000000000
10
215.0690698400
20
196.3424755511
30
0.0000000000
10
215.3263384595
20
196.3306585687
30
0.0000000000
10
215.5060742154
20
196.3230697821
30
0.0000000000
11
214.7377922788
21
196.3598031675
31
0.0000000000
11
215.5060742154
21
196.3230697821
31
0.0000000000
0
SPLINE
5
486
100
AcDbEntity
8
0
100
AcDbSpline
62
7
6
CONTINUOUS
70
0
71
3
72
8
73
4
74
2
42
0.0000001000
43
0.0000001000
44
0.0000000001
12
0.7506606102
22
-1.1078376491
32
0.0000000000
13
0.8088105798
23
0.2943829762
33
0.0000000000
40
0.0000000000
40
0.0000000000
40
0.0000000000
40
0.0000000000
40
1.0000000000
40
1.0000000000
40
1.0000000000
40
1.0000000000
10
215.5977041974
20
196.1911397372
30
0.0000000000
10
215.8479244008
20
195.8218605208
30
0.0000000000
10
216.1069552674
20
195.6869780699
30
0.0000000000
10
216.3765587940
20
195.7851057286
30
0.0000000000
11
215.5977041974
21
196.1911397372
31
0.0000000000
11
216.3765587940
21
195.7851057286
31
0.0000000000
0
SPLINE
5
487
100
AcDbEntity
8
0
100
AcDbSpline
62
7
6
CONTINUOUS
70
0
71
3
72
8
73
4
74
2
42
0.0000001000
43
0.0000001000
44
0.0000000001
12
0.4704845667
22
0.1712423780
32
0.0000000000
13
0.0000000000
23
0.3528688913
33
0.0000000000
40
0.0000000000
40
0.0000000000
40
0.0000000000
40
0.0000000000
40
1.0000000000
40
1.0000000000
40
1.0000000000
40
1.0000000000
10
216.3765587940
20
195.7851057286
30
0.0000000000
10
216.5333869829
20
195.8421865212
30
0.0000000000
10
216.6109200254
20
195.9292177022
30
0.0000000000
10
216.6109200254
20
196.0468406659
30
0.0000000000
11
216.3765587940
21
195.7851057286
31
0.0000000000
11
216.6109200254
21
196.0468406659
31
0.0000000000
0
SPLINE
5
488
100
AcDbEntity
8
0
100
AcDbSpline
62
7
6
CONTINUOUS
70
0
71
3
72
8
73
4
74
2
42
0.0000001000
43
0.0000001000
44
0.0000000001
12
0.0000000000
22
0.7696193338
32
0.0000000000
13
-2.2678413033
23
0.0324100422
33
0.0000000000
40
0.0000000000
40
0.0000000000
40
0.0000000000
40
0.0000000000
40
1.0000000000
40
1.0000000000
40
1.0000000000
40
1.0000000000
10
216.6109200254
20
196.0468406659
30
0.0000000000
10
216.6109200254
20
196.3033804439
30
0.0000000000
10
216.2338275089
20
196.4368655607
30
0.0000000000
10
215.4778804078
20
196.4476689081
30
0.0000000000
11
216.6109200254
21
196.0468406659
31
0.0000000000
11
215.4778804078
21
196.4476689081
31
0.0000000000
0
SPLINE
5
489
100
AcDbEntity
8
0
100
AcDbSpline
62
7
6
CONTINUOUS
70
0
71
3
72
8
73
4
74
2
42
0.0000001000
43
0.0000001000
44
0.0000000001
12
-0.1480178118
22
0.2929107800
32
0.0000000000
13
-0.1057266712
23
0.2626736759
33
0.0000000000
40
0.0000000000
40
0.0000000000
40
0.0000000000
40
0.0000000000
40
1.0000000000
40
1.0000000000
40
1.0000000000
40
1.0000000000
10
215.4778804078
20
196.4476689081
30
0.0000000000
10
215.4285411372
20
196.5453058348
30
0.0000000000
10
215.3862504258
20
196.6384103320
30
0.0000000000
10
215.3510082021
20
196.7259682239
30
0.0000000000
11
215.4778804078
21
196.4476689081
31
0.0000000000
11
215.3510082021
21
196.7259682239
31
0.0000000000
0
SPLINE
5
48A
100
AcDbEntity
8
0
100
AcDbSpline
62
7
6
CONTINUOUS
70
0
71
3
72
8
73
4
74
2
42
0.0000001000
43
0.0000001000
44
0.0000000001
12
0.8088102579
22
-0.0371922231
32
0.0000000000
13
0.0841016786
23
-0.0002416136
33
0.0000000000
40
0.0000000000
40
0.0000000000
40
0.0000000000
40
0.0000000000
40
1.0000000000
40
1.0000000000
40
1.0000000000
40
1.0000000000
10
215.3510082021
20
196.7259682239
30
0.0000000000
10
215.6206116214
20
196.7135708162
30
0.0000000000
10
215.7703913942
20
196.7082607489
30
0.0000000000
10
215.7984252870
20
196.7081802110
30
0.0000000000
11
215.3510082021
21
196.7259682239
31
0.0000000000
11
215.7984252870
21
196.7081802110
31
0.0000000000
0
SPLINE
5
48B
100
AcDbEntity
8
0
100
AcDbSpline
62
7
6
CONTINUOUS
70
0
71
3
72
8
73
4
74
2
42
0.0000001000
43
0.0000001000
44
0.0000000001
12
0.7617133005
22
-0.0021883067
32
0.0000000000
13
0.3700440466
23
0.1346850183
33
0.0000000000
40
0.0000000000
40
0.0000000000
40
0.0000000000
40
0.0000000000
40
1.0000000000
40
1.0000000000
40
1.0000000000
40
1.0000000000
10
215.7984252870
20
196.7081802110
30
0.0000000000
10
216.0523297205
20
196.7074507754
30
0.0000000000
10
216.2391138568
20
196.7298051501
30
0.0000000000
10
216.3624618724
20
196.7747001562
30
0.0000000000
11
215.7984252870
21
196.7081802110
31
0.0000000000
11
216.3624618724
21
196.7747001562
31
0.0000000000
0
SPLINE
5
48C
100
AcDbEntity
8
0
100
AcDbSpline
62
7
6
CONTINUOUS
70
0
71
3
72
8
73
4
74
2
42
0.0000001000
43
0.0000001000
44
0.0000000001
12
0.4969163150
22
0.1808627476
32
0.0000000000
13
0.0000000000
23
0.2524837555
33
0.0000000000
40
0.0000000000
40
0.0000000000
40
0.0000000000
40
0.0000000000
40
1.0000000000
40
1.0000000000
40
1.0000000000
40
1.0000000000
10
216.3624618724
20
196.7747001562
30
0.0000000000
10
216.5281006440
20
196.8349877387
30
0.0000000000
10
216.6109200254
20
196.9067050794
30
0.0000000000
10
216.6109200254
20
196.9908663312
30
0.0000000000
11
216.3624618724
21
196.7747001562
31
0.0000000000
11
216.6109200254
21
196.9908663312
31
0.0000000000
0
SPLINE
5
48D
100
AcDbEntity
8
0
100
AcDbSpline
62
7
6
CONTINUOUS
70
0
71
3
72
8
73
4
74
2
42
0.0000001000
43
0.0000001000
44
0.0000000001
12
0.0000000000
22
0.1095113716
32
0.0000000000
13
-0.1935970654
23
0.1248741333
33
0.0000000000
40
0.0000000000
40
0.0000000000
40
0.0000000000
40
0.0000000000
40
1.0000000000
40
1.0000000000
40
1.0000000000
40
1.0000000000
10
216.6109200254
20
196.9908663312
30
0.0000000000
10
216.6109200254
20
197.0273701218
30
0.0000000000
10
216.5792019628
20
197.0675390925
30
0.0000000000
10
216.5146696076
20
197.1091638036
30
0.0000000000
11
216.6109200254
21
196.9908663312
31
0.0000000000
11
216.5146696076
21
197.1091638036
31
0.0000000000
0
SPLINE
5
48E
100
AcDbEntity
8
0
100
AcDbSpline
62
7
6
CONTINUOUS
70
0
71
3
72
8
73
4
74
2
42
0.0000001000
43
0.0000001000
44
0.0000000001
12
-0.1923059913
22
0.1240413637
32
0.0000000000
13
-0.2643171608
23
0.0528532090
33
0.0000000000
40
0.0000000000
40
0.0000000000
40
0.0000000000
40
0.0000000000
40
1.0000000000
40
1.0000000000
40
1.0000000000
40
1.0000000000
10
216.5146696076
20
197.1091638036
30
0.0000000000
10
216.4505676105
20
197.1505109249
30
0.0000000000
10
216.3747966721
20
197.1797160499
30
0.0000000000
10
216.2866909518
20
197.1973337863
30
0.0000000000
11
216.5146696076
21
197.1091638036
31
0.0000000000
11
216.2866909518
21
197.1973337863
31
0.0000000000
0
SPLINE
5
48F
100
AcDbEntity
8
0
100
AcDbSpline
62
7
6
CONTINUOUS
70
0
71
3
72
8
73
4
74
2
42
0.0000001000
43
0.0000001000
44
0.0000000001
12
0.1374449730
22
-0.0351493578
32
0.0000000000
13
0.1664482990
23
-0.1028090573
33
0.0000000000
40
0.0000000000
40
0.0000000000
40
0.0000000000
40
0.0000000000
40
1.0000000000
40
1.0000000000
40
1.0000000000
40
1.0000000000
10
216.3360301509
20
197.1656061901
30
0.0000000000
10
216.3818451419
20
197.1538897375
30
0.0000000000
10
216.4311843410
20
197.1312881713
30
0.0000000000
10
216.4866671073
20
197.0970184855
30
0.0000000000
11
216.3360301509
21
197.1656061901
31
0.0000000000
11
216.4866671073
21
197.0970184855
31
0.0000000000
0
SPLINE
5
490
100
AcDbEntity
8
0
100
AcDbSpline
62
7
6
CONTINUOUS
70
0
71
3
72
8
73
4
74
2
42
0.0000001000
43
0.0000001000
44
0.0000000001
12
0.1930230697
22
-0.1192233261
32
0.0000000000
13
0.0000000000
23
-0.0821332818
33
0.0000000000
40
0.0000000000
40
0.0000000000
40
0.0000000000
40
0.0000000000
40
1.0000000000
40
1.0000000000
40
1.0000000000
40
1.0000000000
10
216.4866671073
20
197.0970184855
30
0.0000000000
10
216.5510081306
20
197.0572773768
30
0.0000000000
10
216.5827261932
20
197.0231923163
30
0.0000000000
10
216.5827261932
20
196.9958145557
30
0.0000000000
11
216.4866671073
21
197.0970184855
31
0.0000000000
11
216.5827261932
21
196.9958145557
31
0.0000000000
0
SPLINE
5
491
100
AcDbEntity
8
0
100
AcDbSpline
62
7
6
CONTINUOUS
70
0
71
3
72
8
73
4
74
2
42
0.0000001000
43
0.0000001000
44
0.0000000001
12
0.0000000000
22
-0.1338470124
32
0.0000000000
13
-0.2696035266
23
-0.0981276587
33
0.0000000000
40
0.0000000000
40
0.0000000000
40
0.0000000000
40
0.0000000000
40
1.0000000000
40
1.0000000000
40
1.0000000000
40
1.0000000000
10
216.5827261932
20
196.9958145557
30
0.0000000000
10
216.5827261932
20
196.9511988849
30
0.0000000000
10
216.5386733308
20
196.9128571188
30
0.0000000000
10
216.4488054886
20
196.8801478993
30
0.0000000000
11
216.5827261932
21
196.9958145557
31
0.0000000000
11
216.4488054886
21
196.8801478993
31
0.0000000000
0
SPLINE
5
492
100
AcDbEntity
8
0
100
AcDbSpline
62
7
6
CONTINUOUS
70
0
71
3
72
8
73
4
74
2
42
0.0000001000
43
0.0000001000
44
0.0000000001
12
-0.4969163418
22
-0.1808627573
32
0.0000000000
13
-1.8237886190
23
0.1453602262
33
0.0000000000
40
0.0000000000
40
0.0000000000
40
0.0000000000
40
0.0000000000
40
1.0000000000
40
1.0000000000
40
1.0000000000
40
1.0000000000
10
216.4488054886
20
196.8801478993
30
0.0000000000
10
216.2831667080
20
196.8198603135
30
0.0000000000
10
215.8972636714
20
196.8132499427
30
0.0000000000
10
215.2893341317
20
196.8617033514
30
0.0000000000
11
216.4488054886
21
196.8801478993
31
0.0000000000
11
215.2893341317
21
196.8617033514
31
0.0000000000
0
SPLINE
5
493
100
AcDbEntity
8
0
100
AcDbSpline
62
7
6
CONTINUOUS
70
0
71
3
72
8
73
4
74
2
42
0.0000001000
43
0.0000001000
44
0.0000000001
12
-0.3541850567
22
0.6863360892
32
0.0000000000
13
-0.6654297332
23
0.2204919620
33
0.0000000000
40
0.0000000000
40
0.0000000000
40
0.0000000000
40
0.0000000000
40
1.0000000000
40
1.0000000000
40
1.0000000000
40
1.0000000000
10
215.2893341317
20
196.8617033514
30
0.0000000000
10
215.1712724462
20
197.0904820478
30
0.0000000000
10
215.0003473535
20
197.2412085762
30
0.0000000000
10
214.7785374424
20
197.3147058969
30
0.0000000000
11
215.2893341317
21
196.8617033514
31
0.0000000000
11
214.7785374424
21
197.3147058969
31
0.0000000000
0
SPLINE
5
494
100
AcDbEntity
8
0
100
AcDbSpline
62
7
6
CONTINUOUS
70
0
71
3
72
8
73
4
74
2
42
0.0000001000
43
0.0000001000
44
0.0000000001
12
-0.4764205476
22
0.1578632514
32
0.0000000000
13
-0.3964759827
23
-0.1443054563
33
0.0000000000
40
0.0000000000
40
0.0000000000
40
0.0000000000
40
0.0000000000
40
1.0000000000
40
1.0000000000
40
1.0000000000
40
1.0000000000
10
214.7785374424
20
197.3147058969
30
0.0000000000
10
214.6197305932
20
197.3673269807
30
0.0000000000
10
214.4734751001
20
197.3698640054
30
0.0000000000
10
214.3413164392
20
197.3217621867
30
0.0000000000
11
214.7785374424
21
197.3147058969
31
0.0000000000
11
214.3413164392
21
197.3217621867
31
0.0000000000
0
SPLINE
5
495
100
AcDbEntity
8
0
100
AcDbSpline
62
7
6
CONTINUOUS
70
0
71
3
72
8
73
4
74
2
42
0.0000001000
43
0.0000001000
44
0.0000000001
12
0.3806170464
22
0.1385332755
32
0.0000000000
13
0.4556602576
23
-0.1561168699
33
0.0000000000
40
0.0000000000
40
0.0000000000
40
0.0000000000
40
0.0000000000
40
1.0000000000
40
1.0000000000
40
1.0000000000
40
1.0000000000
10
214.3413164392
20
197.3055380969
30
0.0000000000
10
214.4681887880
20
197.3517158554
30
0.0000000000
10
214.6073958650
20
197.3476277313
30
0.0000000000
10
214.7592826175
20
197.2955887746
30
0.0000000000
11
214.3413164392
21
197.3055380969
31
0.0000000000
11
214.7592826175
21
197.2955887746
31
0.0000000000
0
SPLINE
5
496
100
AcDbEntity
8
0
100
AcDbSpline
62
7
6
CONTINUOUS
70
0
71
3
72
8
73
4
74
2
42
0.0000001000
43
0.0000001000
44
0.0000000001
12
0.6809032819
22
-0.2332889193
32
0.0000000000
13
0.3013215065
23
-0.6295274765
33
0.0000000000
40
0.0000000000
40
0.0000000000
40
0.0000000000
40
0.0000000000
40
1.0000000000
40
1.0000000000
40
1.0000000000
40
1.0000000000
10
214.7592826175
20
197.2955887746
30
0.0000000000
10
214.9862503782
20
197.2178258016
30
0.0000000000
10
215.1501270547
20
197.0736598894
30
0.0000000000
10
215.2505675569
20
196.8638173972
30
0.0000000000
11
214.7592826175
21
197.2955887746
31
0.0000000000
11
215.2505675569
21
196.8638173972
31
0.0000000000
0
SPLINE
5
497
100
AcDbEntity
8
0
100
AcDbSpline
62
7
6
CONTINUOUS
70
0
71
3
72
8
73
4
74
2
42
0.0000001000
43
0.0000001000
44
0.0000000001
12
-2.0616737366
22
0.2565051939
32
0.0000000000
13
0.0000000000
23
0.3802468577
33
0.0000000000
40
0.0000000000
40
0.0000000000
40
0.0000000000
40
0.0000000000
40
1.0000000000
40
1.0000000000
40
1.0000000000
40
1.0000000000
10
215.2505675569
20
196.8638173972
30
0.0000000000
10
214.5633429780
20
196.9493191285
30
0.0000000000
10
214.2179684415
20
197.0548029827
30
0.0000000000
10
214.2179684415
20
197.1815519352
30
0.0000000000
11
215.2505675569
21
196.8638173972
31
0.0000000000
11
214.2179684415
21
197.1815519352
31
0.0000000000
0
SPLINE
5
498
100
AcDbEntity
8
0
100
AcDbSpline
62
7
6
CONTINUOUS
70
0
71
3
72
8
73
4
74
2
42
0.0000001000
43
0.0000001000
44
0.0000000001
12
0.0000000000
22
0.1581826533
32
0.0000000000
13
0.2431716442
23
0.0885072403
33
0.0000000000
40
0.0000000000
40
0.0000000000
40
0.0000000000
40
0.0000000000
40
1.0000000000
40
1.0000000000
40
1.0000000000
40
1.0000000000
10
214.2179684415
20
197.1815519352
30
0.0000000000
10
214.2179684415
20
197.2342794863
30
0.0000000000
10
214.2602592244
20
197.2760356834
30
0.0000000000
10
214.3413164392
20
197.3055380969
30
0.0000000000
11
214.2179684415
21
197.1815519352
31
0.0000000000
11
214.3413164392
21
197.3055380969
31
0.0000000000
0
SPLINE
5
499
100
AcDbEntity
8
0
100
AcDbSpline
62
7
6
CONTINUOUS
70
0
71
3
72
8
73
4
74
2
42
0.0000001000
43
0.0000001000
44
0.0000000001
12
1.6493392467
22
-0.0385038844
32
0.0000000000
13
0.0000000000
23
-0.5384292640
33
0.0000000000
40
0.0000000000
40
0.0000000000
40
0.0000000000
40
0.0000000000
40
1.0000000000
40
1.0000000000
40
1.0000000000
40
1.0000000000
10
215.7598186984
20
196.3160540290
30
0.0000000000
10
216.3095984473
20
196.3032194009
30
0.0000000000
10
216.5827261932
20
196.2069295063
30
0.0000000000
10
216.5827261932
20
196.0274530849
30
0.0000000000
11
215.7598186984
21
196.3160540290
31
0.0000000000
11
216.5827261932
21
196.0274530849
31
0.0000000000
0
SPLINE
5
49A
100
AcDbEntity
8
0
100
AcDbSpline
62
7
6
CONTINUOUS
70
0
71
3
72
8
73
4
74
2
42
0.0000001000
43
0.0000001000
44
0.0000000001
12
0.0000000000
22
-0.2281481146
32
0.0000000000
13
-0.3277533084
23
-0.1192924484
33
0.0000000000
40
0.0000000000
40
0.0000000000
40
0.0000000000
40
0.0000000000
40
1.0000000000
40
1.0000000000
40
1.0000000000
40
1.0000000000
10
216.5827261932
20
196.0274530849
30
0.0000000000
10
216.5827261932
20
195.9514037134
30
0.0000000000
10
216.5281006440
20
195.8940039874
30
0.0000000000
10
216.4188495412
20
195.8542398379
30
0.0000000000
11
216.5827261932
21
196.0274530849
31
0.0000000000
11
216.4188495412
21
195.8542398379
31
0.0000000000
0
SPLINE
5
49B
100
AcDbEntity
8
0
100
AcDbSpline
62
7
6
CONTINUOUS
70
0
71
3
72
8
73
4
74
2
42
0.0000001000
43
0.0000001000
44
0.0000000001
12
-0.4334801674
22
-0.1577738781
32
0.0000000000
13
-0.4797663548
23
0.2486969801
33
0.0000000000
40
0.0000000000
40
0.0000000000
40
0.0000000000
40
0.0000000000
40
1.0000000000
40
1.0000000000
40
1.0000000000
40
1.0000000000
10
216.4188495412
20
195.8542398379
30
0.0000000000
10
216.2743561521
20
195.8016485452
30
0.0000000000
10
216.1210521713
20
195.8158158384
30
0.0000000000
10
215.9611300530
20
195.8987148318
30
0.0000000000
11
216.4188495412
21
195.8542398379
31
0.0000000000
11
215.9611300530
21
195.8987148318
31
0.0000000000
0
SPLINE
5
49C
100
AcDbEntity
8
0
100
AcDbSpline
62
7
6
CONTINUOUS
70
0
71
3
72
8
73
4
74
2
42
0.0000001000
43
0.0000001000
44
0.0000000001
12
-0.3924802921
22
0.2034504138
32
0.0000000000
13
-0.2535772511
23
0.3640321938
33
0.0000000000
40
0.0000000000
40
0.0000000000
40
0.0000000000
40
0.0000000000
40
1.0000000000
40
1.0000000000
40
1.0000000000
40
1.0000000000
10
215.9611300530
20
195.8987148318
30
0.0000000000
10
215.8303032890
20
195.9665316363
30
0.0000000000
10
215.7209964511
20
196.0605837878
30
0.0000000000
10
215.6364707008
20
196.1819278524
30
0.0000000000
11
215.9611300530
21
195.8987148318
31
0.0000000000
11
215.6364707008
21
196.1819278524
31
0.0000000000
0
SPLINE
5
49D
100
AcDbEntity
8
0
100
AcDbSpline
62
7
6
CONTINUOUS
70
0
71
3
72
18
73
14
74
12
42
0.0000001000
43
0.0000001000
44
0.0000000001
12
-6.0745026490
22
0.0000000000
32
0.0000000000
13
6.0745026490
23
0.0000000000
33
0.0000000000
40
0.0000000000
40
0.0000000000
40
0.0000000000
40
0.0000000000
40
0.0881793934
40
0.1772416276
40
0.2677698208
40
0.3598666992
40
0.4531435423
40
0.5468564577
40
0.6401333008
40
0.7322301792
40
0.8227583724
40
0.9118206066
40
1.0000000000
40
1.0000000000
40
1.0000000000
40
1.0000000000
10
188.8004307378
20
109.4658930254
30
0.0000000000
10
188.6218820849
20
109.4658930254
30
0.0000000000
10
188.2606764509
20
109.4104654427
30
0.0000000000
10
187.7666860182
20
109.1688703232
30
0.0000000000
10
187.3575401824
20
108.7896865136
30
0.0000000000
10
187.0661400716
20
108.3046424776
30
0.0000000000
10
186.9146880170
20
107.7530417296
30
0.0000000000
10
186.9146880170
20
107.1787443213
30
0.0000000000
10
187.0661400716
20
106.6271435733
30
0.0000000000
10
187.3575401824
20
106.1420995373
30
0.0000000000
10
187.7666860182
20
105.7629157277
30
0.0000000000
10
188.2606764509
20
105.5213206082
30
0.0000000000
10
188.6218820849
20
105.4658930254
30
0.0000000000
10
188.8004307378
20
105.4658930254
30
0.0000000000
11
188.8004307378
21
109.4658930254
31
0.0000000000
11
188.2709467284
21
109.3848789727
31
0.0000000000
11
187.7843583645
21
109.1484000911
31
0.0000000000
11
187.3800861414
21
108.7756144933
31
0.0000000000
11
187.0908817905
21
108.2967230515
31
0.0000000000
11
186.9401749281
21
107.7505227020
31
0.0000000000
11
186.9401749281
21
107.1812633489
31
0.0000000000
11
187.0908817905
21
106.6350629994
31
0.0000000000
11
187.3800861414
21
106.1561715576
31
0.0000000000
11
187.7843583645
21
105.7833859598
31
0.0000000000
11
188.2709467284
21
105.5469070782
31
0.0000000000
11
188.8004307378
21
105.4658930254
31
0.0000000000
0
SPLINE
5
49E
100
AcDbEntity
8
0
100
AcDbSpline
62
7
6
CONTINUOUS
70
0
71
3
72
11
73
7
74
5
42
0.0000001000
43
0.0000001000
44
0.0000000001
12
5.5040765376
22
-1.3439767123
32
0.0000000000
13
4.3369070406
23
-3.6458701644
33
0.0000000000
40
0.0000000000
40
0.0000000000
40
0.0000000000
40
0.0000000000
40
0.2124873568
40
0.4465439008
40
0.7072512492
40
1.0000000000
40
1.0000000000
40
1.0000000000
40
1.0000000000
10
217.7899480890
20
60.6082245122
30
0.0000000000
10
218.1797969808
20
60.5130318258
30
0.0000000000
10
218.9807084382
20
60.2367231281
30
0.0000000000
10
220.1811276254
20
59.6457960626
30
0.0000000000
10
221.4426481003
20
58.8533867289
30
0.0000000000
10
222.2717085909
20
58.2139725162
30
0.0000000000
10
222.6949166304
20
57.8581978709
30
0.0000000000
11
217.7899480890
21
60.6082245122
31
0.0000000000
11
218.9322877687
21
60.2281530585
31
0.0000000000
11
220.1253303408
21
59.6491637819
31
0.0000000000
11
221.3785568266
21
58.8673176128
31
0.0000000000
11
222.6949166304
21
57.8581978709
31
0.0000000000
0
SPLINE
5
49F
100
AcDbEntity
8
0
100
AcDbSpline
62
7
6
CONTINUOUS
70
0
71
3
72
11
73
7
74
5
42
0.0000001000
43
0.0000001000
44
0.0000000001
12
4.3369078272
22
3.6458708257
32
0.0000000000
13
5.5040775358
23
1.3439769561
33
0.0000000000
40
0.0000000000
40
0.0000000000
40
0.0000000000
40
0.0000000000
40
0.2933283668
40
0.5538448272
40
0.7876863029
40
1.0000000000
40
1.0000000000
40
1.0000000000
40
1.0000000000
10
212.8849795477
20
57.8581978709
30
0.0000000000
10
213.3090255776
20
58.2146769824
30
0.0000000000
10
214.1387289839
20
58.8544769284
30
0.0000000000
10
215.4006722156
20
59.6468256145
30
0.0000000000
10
216.6001883161
20
60.2371006422
30
0.0000000000
10
217.4004177389
20
60.5131096068
30
0.0000000000
10
217.7899480890
20
60.6082245122
30
0.0000000000
11
212.8849795477
21
57.8581978709
31
0.0000000000
11
214.2040420039
21
58.8691903381
31
0.0000000000
11
215.4564951723
21
59.6502332270
31
0.0000000000
11
216.6485199114
21
60.2285294163
31
0.0000000000
11
217.7899480890
21
60.6082245122
31
0.0000000000
0
SPLINE
5
4A0
100
AcDbEntity
8
0
100
AcDbSpline
62
7
6
CONTINUOUS
70
0
71
3
72
11
73
7
74
5
42
0.0000001000
43
0.0000001000
44
0.0000000001
12
-6.0351457292
22
-2.3504704991
32
0.0000000000
13
-6.0351457292
23
2.3504704991
33
0.0000000000
40
0.0000000000
40
0.0000000000
40
0.0000000000
40
0.0000000000
40
0.2501196320
40
0.5000721037
40
0.7499216760
40
1.0000000000
40
1.0000000000
40
1.0000000000
40
1.0000000000
10
220.9589059213
20
43.2592529380
30
0.0000000000
10
220.4557364450
20
43.0632866659
30
0.0000000000
10
219.4107221398
20
42.7643192357
30
0.0000000000
10
217.7896981907
20
42.6136396583
30
0.0000000000
10
216.1687833914
20
42.7644225405
30
0.0000000000
10
215.1240766330
20
43.0633190304
30
0.0000000000
10
214.6209902568
20
43.2592529380
30
0.0000000000
11
220.9589059213
21
43.2592529380
31
0.0000000000
11
219.4013825487
21
42.8138748293
31
0.0000000000
11
217.7894790750
21
42.6638701487
31
0.0000000000
11
216.1782495483
21
42.8139244272
31
0.0000000000
11
214.6209902568
21
43.2592529380
31
0.0000000000
0
SPLINE
5
4A1
100
AcDbEntity
8
0
100
AcDbSpline
62
7
6
CONTINUOUS
70
0
71
3
72
9
73
5
74
3
42
0.0000001000
43
0.0000001000
44
0.0000000001
12
-1.6503838280
22
-0.8858992440
32
0.0000000000
13
-1.7454188525
23
-0.6797773750
33
0.0000000000
40
0.0000000000
40
0.0000000000
40
0.0000000000
40
0.0000000000
40
0.5019803634
40
1.0000000000
40
1.0000000000
40
1.0000000000
40
1.0000000000
10
222.6589812384
20
44.0435368443
30
0.0000000000
10
222.3828278138
20
43.8953021695
30
0.0000000000
10
221.8236930168
20
43.6164699192
30
0.0000000000
10
221.2486568755
20
43.3721004318
30
0.0000000000
10
220.9589059213
20
43.2592529380
30
0.0000000000
11
222.6589812384
21
44.0435368443
31
0.0000000000
11
221.8174715477
21
43.6240496155
31
0.0000000000
11
220.9589059213
21
43.2592529380
31
0.0000000000
0
SPLINE
5
4A2
100
AcDbEntity
8
0
100
AcDbSpline
62
7
6
CONTINUOUS
70
0
71
3
72
12
73
8
74
6
42
0.0000001000
43
0.0000001000
44
0.0000000001
12
6.0029659625
22
-5.0464615210
32
0.0000000000
13
-0.0000000000
23
-7.8423449445
33
0.0000000000
40
0.0000000000
40
0.0000000000
40
0.0000000000
40
0.0000000000
40
0.2010022129
40
0.4013722617
40
0.6012101361
40
0.8006372053
40
1.0000000000
40
1.0000000000
40
1.0000000000
40
1.0000000000
10
222.6949166304
20
57.8581978709
30
0.0000000000
10
223.0971197778
20
57.5200812265
30
0.0000000000
10
223.8430127002
20
56.7732181046
30
0.0000000000
10
224.7479971889
20
55.4790287348
30
0.0000000000
10
225.4133283471
20
54.0507249044
30
0.0000000000
10
225.8200778163
20
52.5318172994
30
0.0000000000
10
225.9113539380
20
51.4870502938
30
0.0000000000
10
225.9113539380
20
50.9658930254
30
0.0000000000
11
222.6949166304
21
57.8581978709
31
0.0000000000
11
223.8086461217
21
56.7426626840
31
0.0000000000
11
224.7091011980
21
55.4548786960
31
0.0000000000
11
225.3707657621
21
54.0342069726
31
0.0000000000
11
225.7751846203
21
52.5234237643
31
0.0000000000
11
225.9113539380
21
50.9658930254
31
0.0000000000
0
SPLINE
5
4A3
100
AcDbEntity
8
0
100
AcDbSpline
62
7
6
CONTINUOUS
70
0
71
3
72
12
73
8
74
6
42
0.0000001000
43
0.0000001000
44
0.0000000001
12
0.0000000000
22
-7.8890115725
32
0.0000000000
13
-6.0648451122
23
-5.0452113291
33
0.0000000000
40
0.0000000000
40
0.0000000000
40
0.0000000000
40
0.0000000000
40
0.1995074196
40
0.3988446611
40
0.5986181058
40
0.7989467779
40
1.0000000000
40
1.0000000000
40
1.0000000000
40
1.0000000000
10
225.9113539380
20
50.9658930254
30
0.0000000000
10
225.9113539380
20
50.4412542449
30
0.0000000000
10
225.8189015455
20
49.3900934836
30
0.0000000000
10
225.4071980063
20
47.8627702196
30
0.0000000000
10
224.7343317694
20
46.4281066949
30
0.0000000000
10
223.8193136977
20
45.1295500562
30
0.0000000000
10
223.0654334554
20
44.3816555089
30
0.0000000000
10
222.6589812384
20
44.0435368443
30
0.0000000000
11
225.9113539380
21
50.9658930254
31
0.0000000000
11
225.7733593814
21
49.3980377537
31
0.0000000000
11
225.3642158257
21
47.8796208400
31
0.0000000000
11
224.6950950028
21
46.4527008500
31
0.0000000000
11
223.7848111351
21
45.1607905166
31
0.0000000000
11
222.6589812384
21
44.0435368443
31
0.0000000000
0
SPLINE
5
4A4
100
AcDbEntity
8
0
100
AcDbSpline
62
7
6
CONTINUOUS
70
0
71
3
72
13
73
9
74
7
42
0.0000001000
43
0.0000001000
44
0.0000000001
12
19.0452095764
22
4.0034643760
32
0.0000000000
13
15.9935686499
23
-11.0884397758
33
0.0000000000
40
0.0000000000
40
0.0000000000
40
0.0000000000
40
0.0000000000
40
0.1599534505
40
0.3155159803
40
0.4718444096
40
0.6343409959
40
0.8088333705
40
1.0000000000
40
1.0000000000
40
1.0000000000
40
1.0000000000
10
217.7899480890
20
73.3222994860
30
0.0000000000
10
218.8053970847
20
73.5357554663
30
0.0000000000
10
220.8379121025
20
73.8302448139
30
0.0000000000
10
223.9074785269
20
73.8622465363
30
0.0000000000
10
226.9702644017
20
73.4757166982
30
0.0000000000
10
230.0698309357
20
72.6389373105
30
0.0000000000
10
233.2312044381
20
71.2907608770
30
0.0000000000
10
235.2708025513
20
70.0624894627
30
0.0000000000
10
236.2899480890
20
69.3559095764
30
0.0000000000
11
217.7899480890
21
73.3222994860
31
0.0000000000
11
220.8713540872
21
73.7641570865
31
0.0000000000
11
223.8986810153
21
73.7937118579
31
0.0000000000
11
226.9171658542
21
73.4131789921
31
0.0000000000
11
229.9711552547
21
72.5921820854
31
0.0000000000
11
233.0974396193
21
71.2661725255
31
0.0000000000
11
236.2899480890
21
69.3559095764
31
0.0000000000
0
SPLINE
5
4A5
100
AcDbEntity
8
0
100
AcDbSpline
62
7
6
CONTINUOUS
70
0
71
3
72
13
73
9
74
7
42
0.0000001000
43
0.0000001000
44
0.0000000001
12
15.9935682619
22
11.0884395068
32
0.0000000000
13
19.0452091145
23
-4.0034642789
33
0.0000000000
40
0.0000000000
40
0.0000000000
40
0.0000000000
40
0.0000000000
40
0.1912042482
40
0.3657208577
40
0.5282292091
40
0.6845493731
40
0.8400828847
40
1.0000000000
40
1.0000000000
40
1.0000000000
40
1.0000000000
10
199.2899480890
20
69.3559095764
30
0.0000000000
10
200.3092941542
20
70.0626284896
30
0.0000000000
10
202.3492560232
20
71.2910837826
30
0.0000000000
10
205.5111263227
20
72.6393251710
30
0.0000000000
10
208.6109173075
20
73.4759732000
30
0.0000000000
10
211.6735609150
20
73.8622954617
30
0.0000000000
10
214.7426433354
20
73.8301642098
30
0.0000000000
10
216.7747297887
20
73.5357069722
30
0.0000000000
10
217.7899480890
20
73.3222994860
30
0.0000000000
11
199.2899480890
21
69.3559095764
31
0.0000000000
11
202.4831109971
21
71.2665044703
31
0.0000000000
11
205.6098821041
21
72.5925741118
31
0.0000000000
11
208.6641397561
21
73.4134548003
31
0.0000000000
11
211.6824879462
21
73.7937849393
31
0.0000000000
11
214.7092487945
21
73.7641030961
31
0.0000000000
11
217.7899480890
21
73.3222994860
31
0.0000000000
0
SPLINE
5
4A6
100
AcDbEntity
8
0
100
AcDbSpline
62
7
6
CONTINUOUS
70
0
71
3
72
12
73
8
74
6
42
0.0000001000
43
0.0000001000
44
0.0000000001
12
-6.0648451112
22
5.0452113282
32
0.0000000000
13
0.0000000000
23
7.8890115711
33
0.0000000000
40
0.0000000000
40
0.0000000000
40
0.0000000000
40
0.0000000000
40
0.2010600487
40
0.4013927507
40
0.6011666886
40
0.8005004657
40
1.0000000000
40
1.0000000000
40
1.0000000000
40
1.0000000000
10
212.9209149397
20
44.0435368443
30
0.0000000000
10
212.5144489218
20
44.3816669895
30
0.0000000000
10
211.7605501936
20
45.1295843286
30
0.0000000000
10
210.8455247603
20
46.4281728452
30
0.0000000000
10
210.1726713344
20
47.8628455151
30
0.0000000000
10
209.7609883021
20
49.3901443406
30
0.0000000000
10
209.6685422401
20
50.4412749806
30
0.0000000000
10
209.6685422401
20
50.9658930254
30
0.0000000000
11
212.9209149397
21
44.0435368443
31
0.0000000000
11
211.7950501549
21
45.1608318166
31
0.0000000000
11
210.8847580010
21
46.4527752014
31
0.0000000000
11
210.2156494642
21
47.8797052500
31
0.0000000000
11
209.8065258896
21
49.3980992414
31
0.0000000000
11
209.6685422401
21
50.9658930254
31
0.0000000000
0
SPLINE
5
4A7
100
AcDbEntity
8
0
100
AcDbSpline
62
7
6
CONTINUOUS
70
0
71
3
72
12
73
8
74
6
42
0.0000001000
43
0.0000001000
44
0.0000000001
12
0.0000000000
22
7.8423449458
32
0.0000000000
13
6.0029659634
23
5.0464615218
33
0.0000000000
40
0.0000000000
40
0.0000000000
40
0.0000000000
40
0.0000000000
40
0.1993692208
40
0.3987991490
40
0.5986366097
40
0.7990033056
40
1.0000000000
40
1.0000000000
40
1.0000000000
40
1.0000000000
10
209.6685422401
20
50.9658930254
30
0.0000000000
10
209.6685422401
20
51.4870670926
30
0.0000000000
10
209.7598234654
20
52.5318585905
30
0.0000000000
10
210.1665894921
20
54.0507860921
30
0.0000000000
10
210.8319309714
20
55.4790824462
30
0.0000000000
10
211.7369094736
20
56.7732459331
30
0.0000000000
10
212.4827874427
20
57.5200905094
30
0.0000000000
10
212.8849795477
20
57.8581978709
30
0.0000000000
11
209.6685422401
21
50.9658930254
31
0.0000000000
11
209.8047203356
21
52.5234735853
31
0.0000000000
11
210.2091553893
21
54.0342756689
31
0.0000000000
11
210.8708298626
21
55.4549391983
31
0.0000000000
11
211.7712779548
21
56.7426959852
31
0.0000000000
11
212.8849795477
21
57.8581978709
31
0.0000000000
0
SPLINE
5
4A8
100
AcDbEntity
8
0
100
AcDbSpline
62
7
6
CONTINUOUS
70
0
71
3
72
9
73
5
74
3
42
0.0000001000
43
0.0000001000
44
0.0000000001
12
-1.7454188525
22
0.6797773749
32
0.0000000000
13
-1.6503838279
23
0.8858992440
33
0.0000000000
40
0.0000000000
40
0.0000000000
40
0.0000000000
40
0.0000000000
40
0.4979911464
40
1.0000000000
40
1.0000000000
40
1.0000000000
40
1.0000000000
10
214.6209902568
20
43.2592529380
30
0.0000000000
10
214.3312558783
20
43.3720939761
30
0.0000000000
10
213.7562193701
20
43.6164624333
30
0.0000000000
10
213.1970840375
20
43.8952937563
30
0.0000000000
10
212.9209149397
20
44.0435368443
30
0.0000000000
11
214.6209902568
21
43.2592529380
31
0.0000000000
11
213.7624731134
21
43.6240272571
31
0.0000000000
11
212.9209149397
21
44.0435368443
31
0.0000000000
0
SPLINE
5
4A9
100
AcDbEntity
8
0
100
AcDbSpline
62
7
6
CONTINUOUS
70
0
71
3
72
10
73
6
74
4
42
0.0000001000
43
0.0000001000
44
0.0000000001
12
3.0315075042
22
0.3797216279
32
0.0000000000
13
2.9770193700
23
-0.6867182345
33
0.0000000000
40
0.0000000000
40
0.0000000000
40
0.0000000000
40
0.0000000000
40
0.3333936829
40
0.6668005966
40
1.0000000000
40
1.0000000000
40
1.0000000000
40
1.0000000000
10
217.7899480890
20
203.9658930254
30
0.0000000000
10
218.1268432396
20
204.0080919561
30
0.0000000000
10
218.8062891717
20
204.0530407611
30
0.0000000000
10
219.8254600058
20
204.0009751931
30
0.0000000000
10
220.4965925164
20
203.8870540785
30
0.0000000000
10
220.8272395424
20
203.8107827098
30
0.0000000000
11
217.7899480890
21
203.9658930254
31
0.0000000000
11
218.8063101357
21
204.0331241204
31
0.0000000000
11
219.8236069081
21
203.9811485881
31
0.0000000000
11
220.8272395424
21
203.8107827098
31
0.0000000000
0
SPLINE
5
4AA
100
AcDbEntity
8
0
100
AcDbSpline
62
7
6
CONTINUOUS
70
0
71
3
72
13
73
9
74
7
42
0.0000001000
43
0.0000001000
44
0.0000000001
12
-15.9935687185
22
-11.0884398234
32
0.0000000000
13
-19.0452096582
23
4.0034643932
33
0.0000000000
40
0.0000000000
40
0.0000000000
40
0.0000000000
40
0.0000000000
40
0.1912141168
40
0.3656425872
40
0.5281372461
40
0.6844294027
40
0.8399180837
40
1.0000000000
40
1.0000000000
40
1.0000000000
40
1.0000000000
10
236.2899480890
20
178.0758764745
30
0.0000000000
10
235.2705493832
20
177.3691210652
30
0.0000000000
10
233.2310175872
20
176.1409345477
30
0.0000000000
10
230.0697447851
20
174.7928515180
30
0.0000000000
10
226.9708316860
20
173.9561989745
30
0.0000000000
10
223.9087855150
20
173.5696638975
30
0.0000000000
10
220.8391082266
20
173.6014214294
30
0.0000000000
10
218.8062126421
20
173.8958591476
30
0.0000000000
10
217.7899480890
20
174.1094865649
30
0.0000000000
11
236.2899480890
21
178.0758764745
31
0.0000000000
11
233.0966133821
21
176.1651944445
31
0.0000000000
11
229.9714580400
21
174.8397079914
31
0.0000000000
11
226.9175169599
21
174.0186757803
31
0.0000000000
11
223.8997445734
21
173.6381353167
31
0.0000000000
11
220.8738524556
21
173.6674382704
31
0.0000000000
11
217.7899480890
21
174.1094865649
31
0.0000000000
0
SPLINE
5
4AB
100
AcDbEntity
8
0
100
AcDbSpline
62
7
6
CONTINUOUS
70
0
71
3
72
13
73
9
74
7
42
0.0000001000
43
0.0000001000
44
0.0000000001
12
-19.0452099960
22
-4.0034644642
32
0.0000000000
13
-15.9935690022
23
11.0884400201
33
0.0000000000
40
0.0000000000
40
0.0000000000
40
0.0000000000
40
0.0000000000
40
0.1601173306
40
0.3156285568
40
0.4719210813
40
0.6343996039
40
0.8088073701
40
1.0000000000
40
1.0000000000
40
1.0000000000
40
1.0000000000
10
217.7899480890
20
174.1094865649
30
0.0000000000
10
216.7734586941
20
173.8958118839
30
0.0000000000
10
214.7401823107
20
173.6013482700
30
0.0000000000
10
211.6701214556
20
173.5697105028
30
0.0000000000
10
208.6080511968
20
173.9564072431
30
0.0000000000
10
205.5094053668
20
174.7931297489
30
0.0000000000
10
202.3485181034
20
176.1411420019
30
0.0000000000
10
200.3092322620
20
177.3692004716
30
0.0000000000
10
199.2899480890
20
178.0758764745
30
0.0000000000
11
217.7899480890
21
174.1094865649
31
0.0000000000
11
214.7053549393
21
173.6673857453
31
0.0000000000
11
211.6790228496
21
173.6382002428
31
0.0000000000
11
208.6612625743
21
174.0188943780
31
0.0000000000
11
205.6076597566
21
174.8399754356
31
0.0000000000
11
202.4829090055
21
176.1653840324
31
0.0000000000
11
199.2899480890
21
178.0758764745
31
0.0000000000
0
SPLINE
5
4AC
100
AcDbEntity
8
0
100
AcDbSpline
62
7
6
CONTINUOUS
70
0
71
3
72
10
73
6
74
4
42
0.0000001000
43
0.0000001000
44
0.0000000001
12
-3.0315075042
22
0.3797216279
32
0.0000000000
13
-2.9770193700
23
-0.6867182345
33
0.0000000000
40
0.0000000000
40
0.0000000000
40
0.0000000000
40
0.0000000000
40
0.3333936829
40
0.6668005966
40
1.0000000000
40
1.0000000000
40
1.0000000000
40
1.0000000000
10
217.7899480890
20
203.9658930254
30
0.0000000000
10
217.4530529385
20
204.0080919561
30
0.0000000000
10
216.7736070064
20
204.0530407611
30
0.0000000000
10
215.7544361723
20
204.0009751931
30
0.0000000000
10
215.0833036617
20
203.8870540785
30
0.0000000000
10
214.7526566357
20
203.8107827098
30
0.0000000000
11
217.7899480890
21
203.9658930254
31
0.0000000000
11
216.7735860424
21
204.0331241204
31
0.0000000000
11
215.7562892700
21
203.9811485881
31
0.0000000000
11
214.7526566357
21
203.8107827098
31
0.0000000000
0
ENDSEC
0
SECTION
2
OBJECTS
0
DICTIONARY
5
4AD
100
AcDbDictionary
3
ACAD_GROUP
350
4AE
3
ACAD_MLINESTYLE
350
4AF
0
DICTIONARY
5
4AE
102
{ACAD_REACTORS
330
4AD
102
}
100
AcDbDictionary
0
DICTIONARY
5
4AF
102
{ACAD_REACTORS
330
4AD
102
}
100
AcDbDictionary
3
STANDARD
350
4B0
0
MLINESTYLE
5
4B0
102
{ACAD_REACTORS
330
4AF
102
}
100
AcDbMlineStyle
2
STANDARD
70
0
3

62
256
51
90.0
52
90.0
71
2
49
0.5
62
256
6
BYLAYER
49
-0.5
62
256
6
BYLAYER
0
ENDSEC
0
EOF
