999
DXF file: D:\CAD-ICE-neu\2-uwpp-10.dxf
999
Pro/ENGINEER 2005030 by Parametric Technology Corporation
0
SECTION
2
HEADER
9
$ACADVER
1
AC1014
9
$HANDSEED
5
       4E0
9
$EXTMAX
10
420.0000000000
20
297.0000000000
9
$EXTMIN
10
0.0000000000
20
0.0000000000
9
$LIMMIN
10
0.0000000000
20
0.0000000000
9
$LIMMAX
10
420.0000000000
20
297.0000000000
9
$VIEWCTR
10
210.0000000000
20
148.5000000000
9
$VIEWSIZE
40
297.0000000000
9
$CLAYER
8
0
9
$LTSCALE
40
23.1000000000
9
$CELTYPE
6
BYLAYER
9
$DIMSCALE
40
1
9
$DIMASZ
40
3.5000000000
9
$DIMEXO
40
2.6250000000
9
$DIMDLI
40
15.9600000000
9
$DIMEXE
40
7.5600000000
9
$DIMCEN
40
3.7800000000
9
$DIMLFAC
40
1.0000000000
9
$DIMTXT
40
3.5000000000
9
$DIMTOL
70
1
9
$DIMLIM
70
0
9
$DIMTFAC
40
1.0000000000
9
$DIMTP
40
0.0050000000
9
$DIMTM
40
0.0050000000
9
$MEASUREMENT
70
1
0
ENDSEC
0
SECTION
2
CLASSES
0
ENDSEC
0
SECTION
2
TABLES
0
TABLE
2
VPORT
5
8
100
AcDbSymbolTable
70
2
0
VPORT
5
1F4
100
AcDbSymbolTableRecord
100
AcDbViewportTableRecord
2
*ACTIVE
70
0
10
0.0
20
0.0
11
1.0
21
1.0
12
210.0000000000
22
148.5000000000
13
0.0
23
0.0
14
1.0
24
1.0
15
0.0
25
0.0
16
0.0
26
0.0
36
1.0
17
0.0
27
0.0
37
0.0
40
297.0000000000
41
1.4141414141
42
50.0
43
0.0
44
0.0
50
0.0
51
0.0
71
0
72
100
73
1
74
1
75
0
76
0
77
0
78
0
0
ENDTAB
0
TABLE
2
LTYPE
5
5
100
AcDbSymbolTable
70
6
0
LTYPE
5
14
100
AcDbSymbolTableRecord
100
AcDbLinetypeTableRecord
2
BYBLOCK
70
0
3

72
65
73
0
40
0.0
0
LTYPE
5
15
100
AcDbSymbolTableRecord
100
AcDbLinetypeTableRecord
2
BYLAYER
70
0
3

72
65
73
0
40
0.0
0
LTYPE
5
16
100
AcDbSymbolTableRecord
100
AcDbLinetypeTableRecord
2
CONTINUOUS
70
64
3
Solid line
72
65
73
0
40
0
0
LTYPE
5
1F5
100
AcDbSymbolTableRecord
100
AcDbLinetypeTableRecord
2
CENTER
70
64
3
____ _ ____ _ ____ _ ____ _ ____ _ ____ _ ____
72
65
73
4
40
0.6
49
0.375
74
0
49
-0.075
74
0
49
0.075
74
0
49
-0.075
74
0
0
LTYPE
5
1F6
100
AcDbSymbolTableRecord
100
AcDbLinetypeTableRecord
2
HIDDEN
70
64
3
- - - - - - - - - - - - - - - - - - - -
72
65
73
2
40
0.2
49
0.1
74
0
49
-0.1
74
0
0
LTYPE
5
1F7
100
AcDbSymbolTableRecord
100
AcDbLinetypeTableRecord
2
PHANTOM
70
64
3
_____ _ _ _____ _ _ _____ _ _ _____
72
65
73
6
40
0.8
49
0.45
74
0
49
-0.05
74
0
49
0.1
74
0
49
-0.05
74
0
49
0.1
74
0
49
-0.05
74
0
0
LTYPE
5
1F8
100
AcDbSymbolTableRecord
100
AcDbLinetypeTableRecord
2
DOT
70
64
3
. . . . . . . . . . . . . . . . . . . .
72
65
73
2
40
0.2
49
0.1
74
0
49
-0.1
74
0
0
LTYPE
5
1F9
100
AcDbSymbolTableRecord
100
AcDbLinetypeTableRecord
2
DASHED
70
64
3
- - - - - - - - - - - - - - - - - - - -
72
65
73
2
40
0.2
49
0.1
74
0
49
-0.1
74
0
0
ENDTAB
0
TABLE
2
LAYER
5
2
100
AcDbSymbolTable
70
36
0
LAYER
5
10
100
AcDbSymbolTableRecord
100
AcDbLayerTableRecord
2
0
70
0
62
7
6
CONTINUOUS
0
LAYER
5
1FA
100
AcDbSymbolTableRecord
100
AcDbLayerTableRecord
2
DEFAULT_1
70
0
62
7
6
CENTER
0
LAYER
5
1FB
100
AcDbSymbolTableRecord
100
AcDbLayerTableRecord
2
DEFAULT_2
70
0
62
8
6
HIDDEN
0
LAYER
5
1FC
100
AcDbSymbolTableRecord
100
AcDbLayerTableRecord
2
DEFAULT_3
70
0
62
7
6
PHANTOM
0
LAYER
5
1FD
100
AcDbSymbolTableRecord
100
AcDbLayerTableRecord
2
AUSFORMSCHRAEGEN
70
0
62
7
6
CONTINUOUS
0
LAYER
5
1FE
100
AcDbSymbolTableRecord
100
AcDbLayerTableRecord
2
BEZUGSACHSEN
70
0
62
7
6
CONTINUOUS
0
LAYER
5
1FF
100
AcDbSymbolTableRecord
100
AcDbLayerTableRecord
2
BEZUGSEBENEN
70
0
62
7
6
CONTINUOUS
0
LAYER
5
200
100
AcDbSymbolTableRecord
100
AcDbLayerTableRecord
2
BG_STARTBEZUEGE
70
0
62
7
6
CONTINUOUS
0
LAYER
5
201
100
AcDbSymbolTableRecord
100
AcDbLayerTableRecord
2
BOHRUNGEN
70
0
62
7
6
CONTINUOUS
0
LAYER
5
202
100
AcDbSymbolTableRecord
100
AcDbLayerTableRecord
2
FASEN
70
0
62
7
6
CONTINUOUS
0
LAYER
5
203
100
AcDbSymbolTableRecord
100
AcDbLayerTableRecord
2
FLAECHENVERBUND
70
0
62
7
6
CONTINUOUS
0
LAYER
5
204
100
AcDbSymbolTableRecord
100
AcDbLayerTableRecord
2
GEWINDE
70
0
62
7
6
CONTINUOUS
0
LAYER
5
205
100
AcDbSymbolTableRecord
100
AcDbLayerTableRecord
2
HILFEN
70
0
62
7
6
CONTINUOUS
0
LAYER
5
206
100
AcDbSymbolTableRecord
100
AcDbLayerTableRecord
2
KONSTRUKTIONSELEMENTE
70
0
62
7
6
CONTINUOUS
0
LAYER
5
207
100
AcDbSymbolTableRecord
100
AcDbLayerTableRecord
2
PLATZIERUNG
70
0
62
7
6
CONTINUOUS
0
LAYER
5
208
100
AcDbSymbolTableRecord
100
AcDbLayerTableRecord
2
PLAZIERUNG
70
0
62
7
6
CONTINUOUS
0
LAYER
5
209
100
AcDbSymbolTableRecord
100
AcDbLayerTableRecord
2
RUNDUNGEN
70
0
62
7
6
CONTINUOUS
0
LAYER
5
20A
100
AcDbSymbolTableRecord
100
AcDbLayerTableRecord
2
TEIL_STARTBEZUEGE
70
0
62
7
6
CONTINUOUS
0
LAYER
5
20B
100
AcDbSymbolTableRecord
100
AcDbLayerTableRecord
2
XSEC_DATUMS
70
0
62
7
6
CONTINUOUS
0
ENDTAB
0
TABLE
2
STYLE
5
3
100
AcDbSymbolTable
70
1
0
STYLE
5
11
100
AcDbSymbolTableRecord
100
AcDbTextStyleTableRecord
2
STANDARD
70
0
40
0.0
41
0.7000000000
50
0.0
71
0
42
0.2
3
txt
4

0
ENDTAB
0
TABLE
2
VIEW
5
6
100
AcDbSymbolTable
70
0
0
ENDTAB
0
TABLE
2
UCS
5
7
100
AcDbSymbolTable
70
0
0
ENDTAB
0
TABLE
2
APPID
5
9
100
AcDbSymbolTable
70
1
0
APPID
5
20C
100
AcDbSymbolTableRecord
100
AcDbRegAppTableRecord
2
ACAD
70
0
0
ENDTAB
0
TABLE
2
DIMSTYLE
5
A
100
AcDbSymbolTable
70
1
0
DIMSTYLE
105
20D
100
AcDbSymbolTableRecord
100
AcDbDimStyleTableRecord
2
STANDARD
70
0
3

4

5

6

7

40
1.0
41
3.5000000000
42
0.0625
43
0.38
44
0.18
45
0.0
46
0.0
47
0.0050000000
48
0.0050000000
140
3.5000000000
141
0.09
142
0.0
143
25.4
144
1.0000000000
145
0.0
146
1.0000000000
147
0.09
71
1
72
0
73
0
74
0
75
0
76
0
77
1
78
8
170
0
171
2
172
0
173
0
174
0
175
0
176
0
177
0
178
5
270
2
271
3
272
3
273
2
274
2
340
11
275
0
280
0
281
0
282
0
283
1
284
8
285
0
286
0
287
3
288
0
0
ENDTAB
0
TABLE
2
BLOCK_RECORD
5
1
100
AcDbSymbolTable
70
0
0
BLOCK_RECORD
5
1B
100
AcDbSymbolTableRecord
100
AcDbBlockTableRecord
2
*MODEL_SPACE
0
BLOCK_RECORD
5
1C
100
AcDbSymbolTableRecord
100
AcDbBlockTableRecord
2
*PAPER_SPACE
0
ENDTAB
0
ENDSEC
0
SECTION
2
BLOCKS
0
BLOCK
5
1E
100
AcDbEntity
8
0
100
AcDbBlockBegin
2
*MODEL_SPACE
70
0
10
0.0
20
0.0
30
0.0
3
*MODEL_SPACE
1

0
ENDBLK
5
1F
100
AcDbEntity
8
0
100
AcDbBlockEnd
0
BLOCK
5
20
100
AcDbEntity
8
0
100
AcDbBlockBegin
2
*PAPER_SPACE
70
0
10
0.0
20
0.0
30
0.0
3
*PAPER_SPACE
1

0
ENDBLK
5
21
100
AcDbEntity
8
0
100
AcDbBlockEnd
0
ENDSEC
0
SECTION
2
ENTITIES
0
LINE
5
20E
100
AcDbEntity
8
0
100
AcDbLine
62
7
6
CONTINUOUS
10
0.0000000000
20
0.0000000000
11
0.0000000000
21
297.0000000000
0
LINE
5
20F
100
AcDbEntity
8
0
100
AcDbLine
62
7
6
CONTINUOUS
10
0.0000000000
20
0.0000000000
11
420.0000000000
21
0.0000000000
0
LINE
5
210
100
AcDbEntity
8
0
100
AcDbLine
62
7
6
CONTINUOUS
10
0.0000000000
20
297.0000000000
11
420.0000000000
21
297.0000000000
0
LINE
5
211
100
AcDbEntity
8
0
100
AcDbLine
62
7
6
CONTINUOUS
10
420.0000000000
20
0.0000000000
11
420.0000000000
21
297.0000000000
0
LINE
5
212
100
AcDbEntity
8
0
100
AcDbLine
62
7
6
CONTINUOUS
10
91.6991870291
20
26.6100160919
11
81.4119231390
21
26.6100160919
0
LINE
5
213
100
AcDbEntity
8
0
100
AcDbLine
62
7
6
CONTINUOUS
10
56.4701818342
20
26.6100160919
11
46.1829179441
21
26.6100160919
0
LINE
5
214
100
AcDbEntity
8
0
100
AcDbLine
62
7
6
CONTINUOUS
10
40.9410524866
20
168.3600160919
11
46.1862118179
21
174.6109535686
0
LINE
5
215
100
AcDbEntity
8
0
100
AcDbLine
62
9
6
CONTINUOUS
10
41.4931426972
20
167.3617740546
11
46.2227874163
21
171.9789827822
0
LINE
5
216
100
AcDbEntity
8
0
100
AcDbLine
62
7
6
CONTINUOUS
10
45.3346694014
20
162.8630185348
11
44.9516907236
21
162.5913550498
0
LINE
5
217
100
AcDbEntity
8
0
100
AcDbLine
62
7
6
CONTINUOUS
10
45.4623289606
20
162.3196915647
11
46.2282866737
21
162.6819102356
0
LINE
5
218
100
AcDbEntity
8
0
100
AcDbLine
62
7
6
CONTINUOUS
10
45.8453076384
20
163.0441268339
11
45.3346694014
21
162.8630185348
0
LINE
5
219
100
AcDbEntity
8
0
100
AcDbLine
62
7
6
CONTINUOUS
10
63.2707675637
20
35.5600160919
11
74.6113374095
21
35.5600160919
0
LINE
5
21A
100
AcDbEntity
8
0
100
AcDbLine
62
9
6
CONTINUOUS
10
41.4931426972
20
33.8582581291
11
46.0660660278
21
29.3940451139
0
LINE
5
21B
100
AcDbEntity
8
0
100
AcDbLine
62
7
6
CONTINUOUS
10
46.1829179441
20
26.6130041010
11
40.9410524866
21
32.8600160919
0
LINE
5
21C
100
AcDbEntity
8
0
100
AcDbLine
62
7
6
CONTINUOUS
10
45.2070098421
20
162.0480280797
11
45.4623289606
21
162.3196915647
0
LINE
5
21D
100
AcDbEntity
8
0
100
AcDbLine
62
7
6
CONTINUOUS
10
49.5474354825
20
160.3274919837
11
49.9304142049
21
160.5991554687
0
LINE
5
21E
100
AcDbEntity
8
0
100
AcDbLine
62
7
6
CONTINUOUS
10
49.4197759232
20
160.8708189537
11
48.6538184783
21
160.5086023554
0
LINE
5
21F
100
AcDbEntity
8
0
100
AcDbLine
62
7
6
CONTINUOUS
10
49.0367971561
20
160.1463836845
11
49.5474354825
21
160.3274919837
0
LINE
5
220
100
AcDbEntity
8
0
100
AcDbLine
62
9
6
CONTINUOUS
10
59.0541925200
20
40.6100160919
11
54.0694796114
21
40.6100160919
0
LINE
5
221
100
AcDbEntity
8
0
100
AcDbLine
62
9
6
CONTINUOUS
10
48.4126253619
20
40.6100160919
11
42.4125117803
21
40.6100160919
0
LINE
5
222
100
AcDbEntity
8
0
100
AcDbLine
62
9
6
CONTINUOUS
10
78.8279124533
20
40.6100160919
11
95.4695931929
21
40.6100160919
0
LINE
5
223
100
AcDbEntity
8
DEFAULT_1
100
AcDbLine
62
2
6
CENTER
10
51.2410524866
20
41.6100160919
11
47.4910524866
21
41.6100160919
0
LINE
5
224
100
AcDbEntity
8
DEFAULT_1
100
AcDbLine
62
2
6
CENTER
10
37.9410524866
20
41.6100160919
11
47.4910524866
21
41.6100160919
0
LINE
5
225
100
AcDbEntity
8
DEFAULT_1
100
AcDbLine
62
2
6
CENTER
10
54.9910524866
20
41.6100160919
11
91.1863452936
21
41.6100160919
0
LINE
5
226
100
AcDbEntity
8
DEFAULT_1
100
AcDbLine
62
2
6
CENTER
10
51.2410524866
20
41.6100160919
11
54.9910524866
21
41.6100160919
0
LINE
5
227
100
AcDbEntity
8
0
100
AcDbLine
62
7
6
CONTINUOUS
10
53.6987321746
20
41.1766608529
11
52.7182641161
21
41.3495438254
0
LINE
5
228
100
AcDbEntity
8
0
100
AcDbLine
62
7
6
CONTINUOUS
10
43.5247311645
20
164.1925917868
11
42.4125117803
21
162.5744655109
0
LINE
5
229
100
AcDbEntity
8
0
100
AcDbLine
62
7
6
CONTINUOUS
10
44.9516907236
20
162.5913550498
11
44.5687120459
21
162.1385832656
0
LINE
5
22A
100
AcDbEntity
8
0
100
AcDbLine
62
7
6
CONTINUOUS
10
49.6750950417
20
161.1424824387
11
49.4197759232
21
160.8708189537
0
LINE
5
22B
100
AcDbEntity
8
0
100
AcDbLine
62
7
6
CONTINUOUS
10
44.9516907236
20
152.7209144029
11
44.5687120459
21
152.3586978046
0
LINE
5
22C
100
AcDbEntity
8
0
100
AcDbLine
62
7
6
CONTINUOUS
10
45.2070098421
20
152.2681426187
11
45.4623289606
21
152.4492509178
0
LINE
5
22D
100
AcDbEntity
8
0
100
AcDbLine
62
7
6
CONTINUOUS
10
45.4623289606
20
152.9925778879
11
44.9516907236
21
152.7209144029
0
LINE
5
22E
100
AcDbEntity
8
0
100
AcDbLine
62
7
6
CONTINUOUS
10
45.4623289606
20
148.9176266488
11
44.9516907236
21
148.6459631638
0
LINE
5
22F
100
AcDbEntity
8
0
100
AcDbLine
62
7
6
CONTINUOUS
10
53.6987321746
20
42.0433713308
11
52.7182641161
21
41.8704883584
0
LINE
5
230
100
AcDbEntity
8
0
100
AcDbLine
62
7
6
CONTINUOUS
10
40.1372049093
20
148.2177112465
11
36.7804621600
21
142.4036622567
0
LINE
5
231
100
AcDbEntity
8
0
100
AcDbLine
62
7
6
CONTINUOUS
10
49.9304142049
20
160.5991554687
11
50.3133929162
21
161.0519293255
0
LINE
5
232
100
AcDbEntity
8
0
100
AcDbLine
62
7
6
CONTINUOUS
10
44.9516907236
20
148.6459631638
11
44.5687120459
21
148.2837444928
0
LINE
5
233
100
AcDbEntity
8
0
100
AcDbLine
62
7
6
CONTINUOUS
10
45.2070098421
20
148.1931903433
11
45.4623289606
21
148.3742996787
0
LINE
5
234
100
AcDbEntity
8
0
100
AcDbLine
62
7
6
CONTINUOUS
10
63.2567156829
20
47.6600160919
11
74.6253892903
21
47.6600160919
0
LINE
5
235
100
AcDbEntity
8
0
100
AcDbLine
62
9
6
CONTINUOUS
10
96.9410524866
20
50.0023209373
11
95.4695931929
21
50.0023209373
0
LINE
5
236
100
AcDbEntity
8
0
100
AcDbLine
62
9
6
CONTINUOUS
10
40.9410524866
20
50.0023209373
11
42.4125117803
21
50.0023209373
0
LINE
5
237
100
AcDbEntity
8
0
100
AcDbLine
62
7
6
CONTINUOUS
10
40.1372049093
20
53.0023209373
11
35.9410524866
21
60.2702701297
0
LINE
5
238
100
AcDbEntity
8
0
100
AcDbLine
62
7
6
CONTINUOUS
10
45.0793502829
20
151.9964791337
11
45.2070098421
21
152.2681426187
0
LINE
5
239
100
AcDbEntity
8
0
100
AcDbLine
62
7
6
CONTINUOUS
10
40.3177219651
20
145.5874573713
11
41.4115260383
21
147.4819815996
0
LINE
5
23A
100
AcDbEntity
8
0
100
AcDbLine
62
7
6
CONTINUOUS
10
59.0541925200
20
152.2437843661
11
58.1807383662
21
151.3703302123
0
LINE
5
23B
100
AcDbEntity
8
0
100
AcDbLine
62
7
6
CONTINUOUS
10
75.7336279269
20
154.0301946805
11
74.6253892903
21
153.5711472069
0
LINE
5
23C
100
AcDbEntity
8
0
100
AcDbLine
62
7
6
CONTINUOUS
10
75.7336279269
20
47.1898375033
11
74.6253892903
21
47.6488849769
0
LINE
5
23D
100
AcDbEntity
8
0
100
AcDbLine
62
7
6
CONTINUOUS
10
59.0541925200
20
48.9762478176
11
58.1807383662
21
49.8497019714
0
LINE
5
23E
100
AcDbEntity
8
0
100
AcDbLine
62
7
6
CONTINUOUS
10
39.1732184362
20
57.6149130740
11
41.4115260383
21
53.7380505841
0
LINE
5
23F
100
AcDbEntity
8
0
100
AcDbLine
62
7
6
CONTINUOUS
10
44.5687120459
20
162.1385832656
11
44.4410524866
21
161.5952562955
0
LINE
5
240
100
AcDbEntity
8
0
100
AcDbLine
62
7
6
CONTINUOUS
10
45.0793502829
20
161.5952562955
11
45.2070098421
21
162.0480280797
0
LINE
5
241
100
AcDbEntity
8
0
100
AcDbLine
62
7
6
CONTINUOUS
10
44.5687120459
20
152.3586978046
11
44.4410524866
21
151.9059249841
0
LINE
5
242
100
AcDbEntity
8
0
100
AcDbLine
62
7
6
CONTINUOUS
10
45.0793502829
20
147.9215268582
11
45.2070098421
21
148.1931903433
0
LINE
5
243
100
AcDbEntity
8
0
100
AcDbLine
62
7
6
CONTINUOUS
10
49.5474354825
20
135.6966700320
11
49.2921162746
21
135.4250065470
0
LINE
5
244
100
AcDbEntity
8
0
100
AcDbLine
62
7
6
CONTINUOUS
10
59.7486643312
20
149.8024042473
11
63.4062761758
21
153.4600160919
0
LINE
5
245
100
AcDbEntity
8
0
100
AcDbLine
62
7
6
CONTINUOUS
10
49.5474354825
20
134.8816795769
11
50.0580737642
21
135.2438975353
0
LINE
5
246
100
AcDbEntity
8
0
100
AcDbLine
62
7
6
CONTINUOUS
10
49.2921162746
20
135.4250065470
11
48.9091375968
21
135.2438975353
0
LINE
5
247
100
AcDbEntity
8
0
100
AcDbLine
62
7
6
CONTINUOUS
10
49.0367971561
20
134.7005705896
11
49.5474354825
21
134.8816795769
0
LINE
5
248
100
AcDbEntity
8
0
100
AcDbLine
62
7
6
CONTINUOUS
10
59.7486643312
20
51.4176279364
11
63.4062761758
21
47.7600160919
0
LINE
5
249
100
AcDbEntity
8
0
100
AcDbLine
62
7
6
CONTINUOUS
10
35.9410524866
20
139.2749148418
11
35.9410524866
21
87.6100160919
0
LINE
5
24A
100
AcDbEntity
8
0
100
AcDbLine
62
7
6
CONTINUOUS
10
35.9410524866
20
83.1100160919
11
35.9410524866
21
60.2702701297
0
LINE
5
24B
100
AcDbEntity
8
0
100
AcDbLine
62
7
6
CONTINUOUS
10
50.3133929162
20
161.0519293255
11
50.4410524866
21
161.5952562955
0
LINE
5
24C
100
AcDbEntity
8
0
100
AcDbLine
62
7
6
CONTINUOUS
10
44.5687120459
20
148.2837444928
11
44.4410524866
21
147.8309727087
0
LINE
5
24D
100
AcDbEntity
8
0
100
AcDbLine
62
7
6
CONTINUOUS
10
49.8027546010
20
161.5952562955
11
49.6750950417
21
161.1424824387
0
LINE
5
24E
100
AcDbEntity
8
0
100
AcDbLine
62
7
6
CONTINUOUS
10
50.0580737642
20
135.2438975353
11
50.3133929162
21
135.6061155586
0
LINE
5
24F
100
AcDbEntity
8
0
100
AcDbLine
62
9
6
CONTINUOUS
10
55.2665483979
20
67.2865914018
11
39.0579468916
21
67.2865914018
0
LINE
5
250
100
AcDbEntity
8
0
100
AcDbLine
62
9
6
CONTINUOUS
10
82.6155565754
20
67.2865914018
11
98.8241580816
21
67.2865914018
0
LINE
5
251
100
AcDbEntity
8
0
100
AcDbLine
62
7
6
CONTINUOUS
10
39.0579468916
20
67.2865914018
11
39.0579468916
21
57.8197243020
0
LINE
5
252
100
AcDbEntity
8
0
100
AcDbLine
62
7
6
CONTINUOUS
10
39.0579468916
20
133.9334407820
11
39.0579468916
21
141.2852458736
0
LINE
5
253
100
AcDbEntity
8
0
100
AcDbLine
62
7
6
CONTINUOUS
10
40.1910524866
20
83.6100160919
11
40.1910524866
21
87.1100160919
0
LINE
5
254
100
AcDbEntity
8
0
100
AcDbLine
62
7
6
CONTINUOUS
10
40.9410524866
20
168.3600160919
11
40.9410524866
21
165.1100160919
0
LINE
5
255
100
AcDbEntity
8
0
100
AcDbLine
62
7
6
CONTINUOUS
10
40.9410524866
20
154.1100160919
11
40.9410524866
21
151.2177112465
0
LINE
5
256
100
AcDbEntity
8
0
100
AcDbLine
62
7
6
CONTINUOUS
10
40.9410524866
20
32.8600160919
11
40.9410524866
21
34.4600160919
0
LINE
5
257
100
AcDbEntity
8
0
100
AcDbLine
62
7
6
CONTINUOUS
10
40.9410524866
20
48.7600160919
11
40.9410524866
21
50.0023209373
0
LINE
5
258
100
AcDbEntity
8
0
100
AcDbLine
62
7
6
CONTINUOUS
10
42.4125117803
20
162.5744655109
11
42.4125117803
21
151.2177112465
0
LINE
5
259
100
AcDbEntity
8
0
100
AcDbLine
62
7
6
CONTINUOUS
10
42.4125117803
20
40.6100160919
11
42.4125117803
21
50.0023209373
0
LINE
5
25A
100
AcDbEntity
8
0
100
AcDbLine
62
7
6
CONTINUOUS
10
50.3133929162
20
135.6061155586
11
50.4410524866
21
136.0588880552
0
LINE
5
25B
100
AcDbEntity
8
0
100
AcDbLine
62
7
6
CONTINUOUS
10
49.6750950417
20
136.0588880552
11
49.5474354825
21
135.6966700320
0
LINE
5
25C
100
AcDbEntity
8
0
100
AcDbLine
62
9
6
CONTINUOUS
10
79.7013666071
20
151.3703302123
11
78.1334406420
21
149.8024042473
0
LINE
5
25D
100
AcDbEntity
8
0
100
AcDbLine
62
9
6
CONTINUOUS
10
97.7449000639
20
148.2177112465
11
96.4705789349
21
147.4819815996
0
LINE
5
25E
100
AcDbEntity
8
0
100
AcDbLine
62
9
6
CONTINUOUS
10
97.7449000639
20
53.0023209373
11
96.4705789349
21
53.7380505841
0
LINE
5
25F
100
AcDbEntity
8
0
100
AcDbLine
62
9
6
CONTINUOUS
10
79.7013666071
20
49.8497019714
11
78.1334406420
21
51.4176279364
0
LINE
5
260
100
AcDbEntity
8
0
100
AcDbLine
62
7
6
CONTINUOUS
10
44.4410524866
20
159.2408380435
11
44.4410524866
21
158.6975110735
0
LINE
5
261
100
AcDbEntity
8
0
100
AcDbLine
62
7
6
CONTINUOUS
10
44.4410524866
20
151.9059249841
11
44.4410524866
21
149.7326171039
0
LINE
5
262
100
AcDbEntity
8
0
100
AcDbLine
62
7
6
CONTINUOUS
10
44.4410524866
20
147.8309727087
11
44.4410524866
21
145.6576648284
0
LINE
5
263
100
AcDbEntity
8
0
100
AcDbLine
62
7
6
CONTINUOUS
10
44.4410524866
20
142.9410294600
11
44.4410524866
21
142.3977024900
0
LINE
5
264
100
AcDbEntity
8
0
100
AcDbLine
62
7
6
CONTINUOUS
10
44.4410524866
20
141.1299397325
11
44.4410524866
21
140.4055039452
0
LINE
5
265
100
AcDbEntity
8
0
100
AcDbLine
62
7
6
CONTINUOUS
10
44.4410524866
20
139.1377406696
11
44.4410524866
21
138.5944139586
0
LINE
5
266
100
AcDbEntity
8
0
100
AcDbLine
62
7
6
CONTINUOUS
10
44.4410524866
20
137.8699779122
11
44.4410524866
21
137.3266509421
0
LINE
5
267
100
AcDbEntity
8
0
100
AcDbLine
62
7
6
CONTINUOUS
10
44.4410524866
20
135.1533430619
11
44.4410524866
21
134.6100160919
0
LINE
5
268
100
AcDbEntity
8
0
100
AcDbLine
62
7
6
CONTINUOUS
10
45.0793502829
20
146.2009917985
11
45.0793502829
21
147.9215268582
0
LINE
5
269
100
AcDbEntity
8
0
100
AcDbLine
62
7
6
CONTINUOUS
10
45.0793502829
20
150.2759440739
11
45.0793502829
21
151.9964791337
0
LINE
5
26A
100
AcDbEntity
8
0
100
AcDbLine
62
7
6
CONTINUOUS
10
45.5910524866
20
87.6100160919
11
45.5910524866
21
87.1100160919
0
LINE
5
26B
100
AcDbEntity
8
0
100
AcDbLine
62
7
6
CONTINUOUS
10
46.9942440292
20
151.9964791337
11
46.9942440292
21
150.2759440739
0
LINE
5
26C
100
AcDbEntity
8
0
100
AcDbLine
62
7
6
CONTINUOUS
10
46.9942440292
20
147.9215268582
11
46.9942440292
21
146.2009917985
0
LINE
5
26D
100
AcDbEntity
8
0
100
AcDbLine
62
7
6
CONTINUOUS
10
47.6325418255
20
144.9332285229
11
47.6325418255
21
143.6654652474
0
LINE
5
26E
100
AcDbEntity
8
0
100
AcDbLine
62
7
6
CONTINUOUS
10
47.7602013847
20
146.2009917985
11
47.7602013847
21
147.8309727087
0
LINE
5
26F
100
AcDbEntity
8
0
100
AcDbLine
62
7
6
CONTINUOUS
10
47.7602013847
20
150.2759440739
11
47.7602013847
21
151.9059249841
0
LINE
5
270
100
AcDbEntity
8
0
100
AcDbLine
62
9
6
CONTINUOUS
10
44.7410242008
20
77.1634748077
11
93.1410807724
21
77.1634748077
0
LINE
5
271
100
AcDbEntity
8
0
100
AcDbLine
62
7
6
CONTINUOUS
10
48.2708398006
20
143.6654652474
11
48.2708398006
21
144.9332285229
0
LINE
5
272
100
AcDbEntity
8
0
100
AcDbLine
62
7
6
CONTINUOUS
10
49.6750950417
20
136.4211059489
11
49.6750950417
21
136.0588880552
0
LINE
5
273
100
AcDbEntity
8
0
100
AcDbLine
62
7
6
CONTINUOUS
10
50.4410524866
20
136.0588880552
11
50.4410524866
21
136.4211059489
0
LINE
5
274
100
AcDbEntity
8
0
100
AcDbLine
62
7
6
CONTINUOUS
10
50.4410524866
20
139.3188500051
11
50.4410524866
21
140.0432857924
0
LINE
5
275
100
AcDbEntity
8
0
100
AcDbLine
62
7
6
CONTINUOUS
10
50.4410524866
20
141.4921578853
11
50.4410524866
21
142.2165936727
0
LINE
5
276
100
AcDbEntity
8
0
100
AcDbLine
62
7
6
CONTINUOUS
10
50.4410524866
20
145.6576648284
11
50.4410524866
21
146.2009917985
0
LINE
5
277
100
AcDbEntity
8
0
100
AcDbLine
62
7
6
CONTINUOUS
10
50.4410524866
20
149.7326171039
11
50.4410524866
21
150.2759440739
0
LINE
5
278
100
AcDbEntity
8
0
100
AcDbLine
62
7
6
CONTINUOUS
10
50.4410524866
20
158.6975110735
11
50.4410524866
21
159.2408380435
0
LINE
5
279
100
AcDbEntity
8
DEFAULT_1
100
AcDbLine
62
2
6
CENTER
10
51.2410524866
20
41.6100160919
11
51.2410524866
21
37.8600160919
0
LINE
5
27A
100
AcDbEntity
8
DEFAULT_1
100
AcDbLine
62
2
6
CENTER
10
51.2410524866
20
41.6100160919
11
51.2410524866
21
45.3600160919
0
LINE
5
27B
100
AcDbEntity
8
0
100
AcDbLine
62
7
6
CONTINUOUS
10
101.9410524866
20
83.1100160919
11
35.9410524866
21
83.1100160919
0
LINE
5
27C
100
AcDbEntity
8
0
100
AcDbLine
62
7
6
CONTINUOUS
10
101.4410524866
20
83.6100160919
11
36.4410524866
21
83.6100160919
0
LINE
5
27D
100
AcDbEntity
8
0
100
AcDbLine
62
7
6
CONTINUOUS
10
41.4931426972
20
33.8582581291
11
42.3967013891
21
38.5632393222
0
LINE
5
27E
100
AcDbEntity
8
0
100
AcDbLine
62
7
6
CONTINUOUS
10
36.4410524866
20
83.6100160919
11
35.9410524866
21
83.1100160919
0
LINE
5
27F
100
AcDbEntity
8
0
100
AcDbLine
62
7
6
CONTINUOUS
10
40.1913061495
20
87.1100160919
11
97.6908100717
21
87.1100160919
0
LINE
5
280
100
AcDbEntity
8
0
100
AcDbLine
62
7
6
CONTINUOUS
10
35.9410524866
20
87.6100160919
11
101.9410524866
21
87.6100160919
0
LINE
5
281
100
AcDbEntity
8
0
100
AcDbLine
62
7
6
CONTINUOUS
10
41.4931426972
20
167.3617740546
11
42.4125117803
21
162.5744655109
0
LINE
5
282
100
AcDbEntity
8
0
100
AcDbLine
62
7
6
CONTINUOUS
10
59.0541925200
20
48.9762478176
11
59.0541925200
21
40.6100160919
0
LINE
5
283
100
AcDbEntity
8
0
100
AcDbLine
62
7
6
CONTINUOUS
10
59.0541925200
20
152.2437843661
11
59.0541925200
21
163.0012009734
0
LINE
5
284
100
AcDbEntity
8
0
100
AcDbLine
62
7
6
CONTINUOUS
10
62.1484770463
20
47.1898375033
11
62.1484770463
21
31.1256540273
0
LINE
5
285
100
AcDbEntity
8
0
100
AcDbLine
62
7
6
CONTINUOUS
10
62.1484770463
20
154.0301946805
11
62.1484770463
21
169.0943781564
0
LINE
5
286
100
AcDbEntity
8
0
100
AcDbLine
62
7
6
CONTINUOUS
10
63.4410524866
20
35.4600160919
11
63.4410524866
21
28.4198506071
0
LINE
5
287
100
AcDbEntity
8
0
100
AcDbLine
62
7
6
CONTINUOUS
10
63.4410524866
20
165.7600160919
11
63.4410524866
21
171.8001815766
0
LINE
5
288
100
AcDbEntity
8
0
100
AcDbLine
62
7
6
CONTINUOUS
10
49.5474354825
20
136.7833239721
11
49.6750950417
21
136.4211059489
0
LINE
5
289
100
AcDbEntity
8
0
100
AcDbLine
62
7
6
CONTINUOUS
10
50.4410524866
20
136.4211059489
11
50.3133929162
21
136.8738783807
0
LINE
5
28A
100
AcDbEntity
8
0
100
AcDbLine
62
7
6
CONTINUOUS
10
47.7602013847
20
147.8309727087
11
47.6325418255
21
148.2837444928
0
LINE
5
28B
100
AcDbEntity
8
0
100
AcDbLine
62
7
6
CONTINUOUS
10
47.7602013847
20
151.9059249841
11
47.6325418255
21
152.3586978046
0
LINE
5
28C
100
AcDbEntity
8
0
100
AcDbLine
62
7
6
CONTINUOUS
10
45.2070098421
20
161.1424824387
11
45.0793502829
21
161.5952562955
0
LINE
5
28D
100
AcDbEntity
8
0
100
AcDbLine
62
7
6
CONTINUOUS
10
44.4410524866
20
161.5952562955
11
44.5687120459
21
161.0519293255
0
LINE
5
28E
100
AcDbEntity
8
DEFAULT_1
100
AcDbLine
62
2
6
CENTER
10
68.9410524866
20
29.1733535037
11
68.9410524866
21
174.0958587101
0
LINE
5
28F
100
AcDbEntity
8
0
100
AcDbLine
62
7
6
CONTINUOUS
10
46.8665844700
20
148.1931903433
11
46.9942440292
21
147.9215268582
0
LINE
5
290
100
AcDbEntity
8
0
100
AcDbLine
62
7
6
CONTINUOUS
10
49.6750950417
20
162.0480280797
11
49.8027546010
21
161.5952562955
0
LINE
5
291
100
AcDbEntity
8
0
100
AcDbLine
62
7
6
CONTINUOUS
10
50.4410524866
20
161.5952562955
11
50.3133929162
21
162.1385832656
0
LINE
5
292
100
AcDbEntity
8
0
100
AcDbLine
62
7
6
CONTINUOUS
10
74.4410524866
20
35.4600160919
11
74.4410524866
21
28.4198506071
0
LINE
5
293
100
AcDbEntity
8
0
100
AcDbLine
62
7
6
CONTINUOUS
10
74.4410524866
20
165.7600160919
11
74.4410524866
21
171.8001815766
0
LINE
5
294
100
AcDbEntity
8
0
100
AcDbLine
62
7
6
CONTINUOUS
10
50.3133929162
20
136.8738783807
11
50.0580737642
21
137.2360965335
0
LINE
5
295
100
AcDbEntity
8
0
100
AcDbLine
62
7
6
CONTINUOUS
10
46.8665844700
20
152.2681426187
11
46.9942440292
21
151.9964791337
0
LINE
5
296
100
AcDbEntity
8
0
100
AcDbLine
62
7
6
CONTINUOUS
10
75.7336279269
20
47.1898375033
11
75.7336279269
21
31.1256540273
0
LINE
5
297
100
AcDbEntity
8
0
100
AcDbLine
62
7
6
CONTINUOUS
10
75.7336279269
20
154.0301946805
11
75.7336279269
21
169.0943781564
0
LINE
5
298
100
AcDbEntity
8
0
100
AcDbLine
62
7
6
CONTINUOUS
10
78.8279124533
20
48.9762478176
11
78.8279124533
21
40.6100160919
0
LINE
5
299
100
AcDbEntity
8
0
100
AcDbLine
62
7
6
CONTINUOUS
10
78.8279124533
20
152.2437843661
11
78.8279124533
21
163.0012009734
0
LINE
5
29A
100
AcDbEntity
8
0
100
AcDbLine
62
7
6
CONTINUOUS
10
101.4410524866
20
83.6100160919
11
101.9410524866
21
83.1100160919
0
LINE
5
29B
100
AcDbEntity
8
0
100
AcDbLine
62
7
6
CONTINUOUS
10
49.2921162746
20
137.0549874571
11
49.5474354825
21
136.7833239721
0
LINE
5
29C
100
AcDbEntity
8
0
100
AcDbLine
62
7
6
CONTINUOUS
10
96.3889622760
20
167.3617740546
11
95.4695931929
21
162.5744655109
0
LINE
5
29D
100
AcDbEntity
8
0
100
AcDbLine
62
7
6
CONTINUOUS
10
96.3889622760
20
33.8582581291
11
95.4854035841
21
38.5632393222
0
LINE
5
29E
100
AcDbEntity
8
DEFAULT_1
100
AcDbLine
62
2
6
CENTER
10
86.6410524866
20
159.6100160919
11
86.6410524866
21
154.1100160919
0
LINE
5
29F
100
AcDbEntity
8
DEFAULT_1
100
AcDbLine
62
2
6
CENTER
10
86.6410524866
20
159.6100160919
11
86.6410524866
21
165.1100160919
0
LINE
5
2A0
100
AcDbEntity
8
0
100
AcDbLine
62
7
6
CONTINUOUS
10
50.0580737642
20
137.2360965335
11
49.5474354825
21
137.5983144272
0
LINE
5
2A1
100
AcDbEntity
8
0
100
AcDbLine
62
7
6
CONTINUOUS
10
47.6325418255
20
148.2837444928
11
47.2495631477
21
148.6459631638
0
LINE
5
2A2
100
AcDbEntity
8
0
100
AcDbLine
62
7
6
CONTINUOUS
10
44.5687120459
20
161.0519293255
11
44.9516907236
21
160.5991554687
0
LINE
5
2A3
100
AcDbEntity
8
0
100
AcDbLine
62
7
6
CONTINUOUS
10
92.2910524866
20
87.6100160919
11
92.2910524866
21
87.1100160919
0
LINE
5
2A4
100
AcDbEntity
8
0
100
AcDbLine
62
7
6
CONTINUOUS
10
95.4695931929
20
162.5744655109
11
95.4695931929
21
151.2177112465
0
LINE
5
2A5
100
AcDbEntity
8
0
100
AcDbLine
62
7
6
CONTINUOUS
10
95.4695931929
20
40.6100160919
11
95.4695931929
21
50.0023209373
0
LINE
5
2A6
100
AcDbEntity
8
0
100
AcDbLine
62
9
6
CONTINUOUS
10
40.1372049093
20
53.0023209373
11
41.4115260383
21
53.7380505841
0
LINE
5
2A7
100
AcDbEntity
8
0
100
AcDbLine
62
9
6
CONTINUOUS
10
44.7410237300
20
124.0565574547
11
93.1410812433
21
124.0565574547
0
LINE
5
2A8
100
AcDbEntity
8
0
100
AcDbLine
62
7
6
CONTINUOUS
10
48.9091375968
20
137.2360965335
11
49.2921162746
21
137.0549874571
0
LINE
5
2A9
100
AcDbEntity
8
0
100
AcDbLine
62
9
6
CONTINUOUS
10
40.1372049093
20
148.2177112465
11
41.4115260383
21
147.4819815996
0
LINE
5
2AA
100
AcDbEntity
8
0
100
AcDbLine
62
7
6
CONTINUOUS
10
46.6112653515
20
148.3742996787
11
46.8665844700
21
148.1931903433
0
LINE
5
2AB
100
AcDbEntity
8
0
100
AcDbLine
62
7
6
CONTINUOUS
10
47.6325418255
20
152.3586978046
11
47.2495631477
21
152.7209144029
0
LINE
5
2AC
100
AcDbEntity
8
0
100
AcDbLine
62
7
6
CONTINUOUS
10
45.4623289606
20
160.8708189537
11
45.2070098421
21
161.1424824387
0
LINE
5
2AD
100
AcDbEntity
8
0
100
AcDbLine
62
7
6
CONTINUOUS
10
50.3133929162
20
162.1385832656
11
49.9304142049
21
162.5913550498
0
LINE
5
2AE
100
AcDbEntity
8
0
100
AcDbLine
62
7
6
CONTINUOUS
10
96.9410524866
20
168.3600160919
11
96.9410524866
21
165.7600160919
0
LINE
5
2AF
100
AcDbEntity
8
0
100
AcDbLine
62
7
6
CONTINUOUS
10
96.9410524866
20
153.4600160919
11
96.9410524866
21
151.2177112465
0
LINE
5
2B0
100
AcDbEntity
8
0
100
AcDbLine
62
7
6
CONTINUOUS
10
96.9410524866
20
32.8600160919
11
96.9410524866
21
36.1100160919
0
LINE
5
2B1
100
AcDbEntity
8
0
100
AcDbLine
62
7
6
CONTINUOUS
10
96.9410524866
20
47.1100160919
11
96.9410524866
21
50.0023209373
0
LINE
5
2B2
100
AcDbEntity
8
0
100
AcDbLine
62
7
6
CONTINUOUS
10
97.6910524866
20
83.6100160919
11
97.6910524866
21
87.1100160919
0
LINE
5
2B3
100
AcDbEntity
8
0
100
AcDbLine
62
7
6
CONTINUOUS
10
98.8241580816
20
67.2865914018
11
98.8241580816
21
57.8197243020
0
LINE
5
2B4
100
AcDbEntity
8
0
100
AcDbLine
62
7
6
CONTINUOUS
10
98.8241580816
20
133.9334407820
11
98.8241580816
21
141.2852458736
0
LINE
5
2B5
100
AcDbEntity
8
0
100
AcDbLine
62
7
6
CONTINUOUS
10
101.9410524866
20
83.1100160919
11
101.9410524866
21
60.2702701297
0
LINE
5
2B6
100
AcDbEntity
8
0
100
AcDbLine
62
7
6
CONTINUOUS
10
101.9410524866
20
87.6100160919
11
101.9410524866
21
139.2749148418
0
LINE
5
2B7
100
AcDbEntity
8
0
100
AcDbLine
62
9
6
CONTINUOUS
10
58.1807383662
20
49.8497019714
11
59.7486643312
21
51.4176279364
0
LINE
5
2B8
100
AcDbEntity
8
0
100
AcDbLine
62
7
6
CONTINUOUS
10
48.3984993598
20
137.3266509421
11
48.9091375968
21
137.2360965335
0
LINE
5
2B9
100
AcDbEntity
8
0
100
AcDbLine
62
7
6
CONTINUOUS
10
49.5474354825
20
137.5983144272
11
49.0367971561
21
137.7794235036
0
LINE
5
2BA
100
AcDbEntity
8
0
100
AcDbLine
62
7
6
CONTINUOUS
10
47.2495631477
20
148.6459631638
11
46.7389249107
21
148.9176266488
0
LINE
5
2BB
100
AcDbEntity
8
0
100
AcDbLine
62
7
6
CONTINUOUS
10
46.6112653515
20
152.4492509178
11
46.8665844700
21
152.2681426187
0
LINE
5
2BC
100
AcDbEntity
8
0
100
AcDbLine
62
9
6
CONTINUOUS
10
58.1807383662
20
151.3703302123
11
59.7486643312
21
149.8024042473
0
LINE
5
2BD
100
AcDbEntity
8
0
100
AcDbLine
62
7
6
CONTINUOUS
10
49.4197759232
20
162.3196915647
11
49.6750950417
21
162.0480280797
0
LINE
5
2BE
100
AcDbEntity
8
0
100
AcDbLine
62
7
6
CONTINUOUS
10
48.9091375968
20
135.2438975353
11
48.3984993598
21
135.1533430619
0
LINE
5
2BF
100
AcDbEntity
8
0
100
AcDbLine
62
7
6
CONTINUOUS
10
48.3984993598
20
134.6100160919
11
49.0367971561
21
134.7005705896
0
LINE
5
2C0
100
AcDbEntity
8
0
100
AcDbLine
62
9
6
CONTINUOUS
10
55.2665483979
20
133.9334407820
11
39.0579468916
21
133.9334407820
0
LINE
5
2C1
100
AcDbEntity
8
0
100
AcDbLine
62
9
6
CONTINUOUS
10
82.6155565754
20
133.9334407820
11
98.8241580816
21
133.9334407820
0
LINE
5
2C2
100
AcDbEntity
8
0
100
AcDbLine
62
7
6
CONTINUOUS
10
44.4410524866
20
134.6100160919
11
48.3984993598
21
134.6100160919
0
LINE
5
2C3
100
AcDbEntity
8
0
100
AcDbLine
62
7
6
CONTINUOUS
10
48.3984993598
20
135.1533430619
11
44.4410524866
21
135.1533430619
0
LINE
5
2C4
100
AcDbEntity
8
0
100
AcDbLine
62
7
6
CONTINUOUS
10
44.4410524866
20
137.3266509421
11
48.3984993598
21
137.3266509421
0
LINE
5
2C5
100
AcDbEntity
8
0
100
AcDbLine
62
7
6
CONTINUOUS
10
48.3984993598
20
137.8699779122
11
44.4410524866
21
137.8699779122
0
LINE
5
2C6
100
AcDbEntity
8
0
100
AcDbLine
62
7
6
CONTINUOUS
10
49.0367971561
20
137.7794235036
11
48.3984993598
21
137.8699779122
0
LINE
5
2C7
100
AcDbEntity
8
0
100
AcDbLine
62
7
6
CONTINUOUS
10
50.4410524866
20
140.0432857924
11
45.5899885199
21
140.7677215798
0
LINE
5
2C8
100
AcDbEntity
8
0
100
AcDbLine
62
7
6
CONTINUOUS
10
44.4410524866
20
140.4055039452
11
49.0367971561
21
139.6810676397
0
LINE
5
2C9
100
AcDbEntity
8
0
100
AcDbLine
62
7
6
CONTINUOUS
10
47.2495631477
20
152.7209144029
11
46.7389249107
21
152.9925778879
0
LINE
5
2CA
100
AcDbEntity
8
0
100
AcDbLine
62
7
6
CONTINUOUS
10
44.4410524866
20
158.6975110735
11
45.3346694014
21
158.1541841034
0
LINE
5
2CB
100
AcDbEntity
8
0
100
AcDbLine
62
7
6
CONTINUOUS
10
46.3559462330
20
158.1541841034
11
45.4623289606
21
158.6975110735
0
LINE
5
2CC
100
AcDbEntity
8
0
100
AcDbLine
62
7
6
CONTINUOUS
10
44.9516907236
20
160.5991554687
11
45.3346694014
21
160.3274919837
0
LINE
5
2CD
100
AcDbEntity
8
0
100
AcDbLine
62
7
6
CONTINUOUS
10
78.1334406420
20
51.4176279364
11
74.4758287975
21
47.7600160919
0
LINE
5
2CE
100
AcDbEntity
8
0
100
AcDbLine
62
7
6
CONTINUOUS
10
78.8279124533
20
48.9762478176
11
79.7013666071
21
49.8497019714
0
LINE
5
2CF
100
AcDbEntity
8
0
100
AcDbLine
62
7
6
CONTINUOUS
10
49.0367971561
20
141.8543755199
11
44.4410524866
21
141.1299397325
0
LINE
5
2D0
100
AcDbEntity
8
0
100
AcDbLine
62
7
6
CONTINUOUS
10
45.5899885199
20
140.7677215798
11
50.4410524866
21
141.4921578853
0
LINE
5
2D1
100
AcDbEntity
8
0
100
AcDbLine
62
7
6
CONTINUOUS
10
44.4410524866
20
138.5944139586
11
50.4410524866
21
139.3188500051
0
LINE
5
2D2
100
AcDbEntity
8
0
100
AcDbLine
62
7
6
CONTINUOUS
10
49.0367971561
20
139.6810676397
11
44.4410524866
21
139.1377406696
0
LINE
5
2D3
100
AcDbEntity
8
0
100
AcDbLine
62
7
6
CONTINUOUS
10
47.6325418255
20
143.6654652474
11
48.2708398006
21
143.6654652474
0
LINE
5
2D4
100
AcDbEntity
8
0
100
AcDbLine
62
7
6
CONTINUOUS
10
44.4410524866
20
142.3977024900
11
49.0367971561
21
141.8543755199
0
LINE
5
2D5
100
AcDbEntity
8
0
100
AcDbLine
62
7
6
CONTINUOUS
10
50.4410524866
20
142.2165936727
11
44.4410524866
21
142.9410294600
0
LINE
5
2D6
100
AcDbEntity
8
0
100
AcDbLine
62
7
6
CONTINUOUS
10
46.2282866737
20
148.4648538283
11
46.6112653515
21
148.3742996787
0
LINE
5
2D7
100
AcDbEntity
8
0
100
AcDbLine
62
7
6
CONTINUOUS
10
46.7389249107
20
148.9176266488
11
46.3559462330
21
149.0081807984
0
LINE
5
2D8
100
AcDbEntity
8
0
100
AcDbLine
62
7
6
CONTINUOUS
10
49.9304142049
20
162.5913550498
11
49.5474354825
21
162.8630185348
0
LINE
5
2D9
100
AcDbEntity
8
0
100
AcDbLine
62
7
6
CONTINUOUS
10
78.1334406420
20
149.8024042473
11
74.4758287975
21
153.4600160919
0
LINE
5
2DA
100
AcDbEntity
8
0
100
AcDbLine
62
7
6
CONTINUOUS
10
78.8279124533
20
152.2437843661
11
79.7013666071
21
151.3703302123
0
LINE
5
2DB
100
AcDbEntity
8
0
100
AcDbLine
62
7
6
CONTINUOUS
10
98.7088865371
20
57.6149130740
11
96.4705789349
21
53.7380505841
0
LINE
5
2DC
100
AcDbEntity
8
0
100
AcDbLine
62
7
6
CONTINUOUS
10
97.7449000639
20
53.0023209373
11
101.9410524866
21
60.2702701297
0
LINE
5
2DD
100
AcDbEntity
8
0
100
AcDbLine
62
7
6
CONTINUOUS
10
62.1484770463
20
47.1898375033
11
63.2567156829
21
47.6488849769
0
LINE
5
2DE
100
AcDbEntity
8
0
100
AcDbLine
62
7
6
CONTINUOUS
10
48.2708398006
20
144.9332285229
11
47.6325418255
21
144.9332285229
0
LINE
5
2DF
100
AcDbEntity
8
0
100
AcDbLine
62
7
6
CONTINUOUS
10
44.4410524866
20
145.6576648284
11
50.4410524866
21
145.6576648284
0
LINE
5
2E0
100
AcDbEntity
8
0
100
AcDbLine
62
7
6
CONTINUOUS
10
50.4410524866
20
146.2009917985
11
47.7602013847
21
146.2009917985
0
LINE
5
2E1
100
AcDbEntity
8
0
100
AcDbLine
62
7
6
CONTINUOUS
10
46.9942440292
20
146.2009917985
11
45.0793502829
21
146.2009917985
0
LINE
5
2E2
100
AcDbEntity
8
0
100
AcDbLine
62
7
6
CONTINUOUS
10
45.8453076384
20
148.4648538283
11
46.2282866737
21
148.4648538283
0
LINE
5
2E3
100
AcDbEntity
8
0
100
AcDbLine
62
7
6
CONTINUOUS
10
46.3559462330
20
149.0081807984
11
45.8453076384
21
149.0081807984
0
LINE
5
2E4
100
AcDbEntity
8
0
100
AcDbLine
62
7
6
CONTINUOUS
10
44.4410524866
20
149.7326171039
11
50.4410524866
21
149.7326171039
0
LINE
5
2E5
100
AcDbEntity
8
0
100
AcDbLine
62
7
6
CONTINUOUS
10
46.2282866737
20
152.5398061037
11
46.6112653515
21
152.4492509178
0
LINE
5
2E6
100
AcDbEntity
8
0
100
AcDbLine
62
7
6
CONTINUOUS
10
46.7389249107
20
152.9925778879
11
46.3559462330
21
153.0831330738
0
LINE
5
2E7
100
AcDbEntity
8
0
100
AcDbLine
62
7
6
CONTINUOUS
10
45.3346694014
20
160.3274919837
11
45.8453076384
21
160.1463836845
0
LINE
5
2E8
100
AcDbEntity
8
0
100
AcDbLine
62
7
6
CONTINUOUS
10
62.1484770463
20
154.0301946805
11
63.2567156829
21
153.5711472069
0
LINE
5
2E9
100
AcDbEntity
8
0
100
AcDbLine
62
7
6
CONTINUOUS
10
46.2282866737
20
160.5086023554
11
45.4623289606
21
160.8708189537
0
LINE
5
2EA
100
AcDbEntity
8
0
100
AcDbLine
62
7
6
CONTINUOUS
10
48.6538184783
20
162.6819102356
11
49.4197759232
21
162.3196915647
0
LINE
5
2EB
100
AcDbEntity
8
0
100
AcDbLine
62
7
6
CONTINUOUS
10
97.5643830081
20
145.5874573713
11
96.4705789349
21
147.4819815996
0
LINE
5
2EC
100
AcDbEntity
8
0
100
AcDbLine
62
7
6
CONTINUOUS
10
97.7449000639
20
148.2177112465
11
101.1016428132
21
142.4036622567
0
LINE
5
2ED
100
AcDbEntity
8
0
100
AcDbLine
62
7
6
CONTINUOUS
10
45.4623289606
20
148.3742996787
11
45.8453076384
21
148.4648538283
0
LINE
5
2EE
100
AcDbEntity
8
0
100
AcDbLine
62
7
6
CONTINUOUS
10
45.8453076384
20
149.0081807984
11
45.4623289606
21
148.9176266488
0
LINE
5
2EF
100
AcDbEntity
8
0
100
AcDbLine
62
7
6
CONTINUOUS
10
50.4410524866
20
150.2759440739
11
47.7602013847
21
150.2759440739
0
LINE
5
2F0
100
AcDbEntity
8
0
100
AcDbLine
62
7
6
CONTINUOUS
10
46.9942440292
20
150.2759440739
11
45.0793502829
21
150.2759440739
0
LINE
5
2F1
100
AcDbEntity
8
0
100
AcDbLine
62
9
6
CONTINUOUS
10
96.9410524866
20
151.2177112465
11
95.4695931929
21
151.2177112465
0
LINE
5
2F2
100
AcDbEntity
8
0
100
AcDbLine
62
9
6
CONTINUOUS
10
40.9410524866
20
151.2177112465
11
42.4125117803
21
151.2177112465
0
LINE
5
2F3
100
AcDbEntity
8
0
100
AcDbLine
62
7
6
CONTINUOUS
10
45.8453076384
20
152.5398061037
11
46.2282866737
21
152.5398061037
0
LINE
5
2F4
100
AcDbEntity
8
0
100
AcDbLine
62
7
6
CONTINUOUS
10
46.3559462330
20
153.0831330738
11
45.8453076384
21
153.0831330738
0
LINE
5
2F5
100
AcDbEntity
8
0
100
AcDbLine
62
7
6
CONTINUOUS
10
63.2567156829
20
153.5600160919
11
74.6253892903
21
153.5600160919
0
LINE
5
2F6
100
AcDbEntity
8
0
100
AcDbLine
62
7
6
CONTINUOUS
10
45.8453076384
20
160.1463836845
11
46.2282866737
21
160.0558284986
0
LINE
5
2F7
100
AcDbEntity
8
0
100
AcDbLine
62
7
6
CONTINUOUS
10
49.5474354825
20
162.8630185348
11
49.0367971561
21
163.0441268339
0
LINE
5
2F8
100
AcDbEntity
8
0
100
AcDbLine
62
7
6
CONTINUOUS
10
45.4623289606
20
152.4492509178
11
45.8453076384
21
152.5398061037
0
LINE
5
2F9
100
AcDbEntity
8
0
100
AcDbLine
62
7
6
CONTINUOUS
10
45.8453076384
20
153.0831330738
11
45.4623289606
21
152.9925778879
0
LINE
5
2FA
100
AcDbEntity
8
0
100
AcDbLine
62
7
6
CONTINUOUS
10
89.0983248276
20
160.0432995045
11
88.1182641161
21
159.8704883584
0
LINE
5
2FB
100
AcDbEntity
8
0
100
AcDbLine
62
7
6
CONTINUOUS
10
45.3346694014
20
158.1541841034
11
46.3559462330
21
158.1541841034
0
LINE
5
2FC
100
AcDbEntity
8
0
100
AcDbLine
62
7
6
CONTINUOUS
10
45.4623289606
20
158.6975110735
11
50.4410524866
21
158.6975110735
0
LINE
5
2FD
100
AcDbEntity
8
0
100
AcDbLine
62
7
6
CONTINUOUS
10
50.4410524866
20
159.2408380435
11
44.4410524866
21
159.2408380435
0
LINE
5
2FE
100
AcDbEntity
8
DEFAULT_1
100
AcDbLine
62
2
6
CENTER
10
86.6410524866
20
159.6100160919
11
38.2007049929
21
159.6100160919
0
LINE
5
2FF
100
AcDbEntity
8
DEFAULT_1
100
AcDbLine
62
2
6
CENTER
10
86.6410524866
20
159.6100160919
11
99.2460056934
21
159.6100160919
0
LINE
5
300
100
AcDbEntity
8
0
100
AcDbLine
62
7
6
CONTINUOUS
10
46.8665844700
20
159.9652753854
11
48.0155205032
21
159.9652753854
0
LINE
5
301
100
AcDbEntity
8
0
100
AcDbLine
62
7
6
CONTINUOUS
10
47.8878609440
20
160.4180471695
11
46.9942440292
21
160.4180471695
0
LINE
5
302
100
AcDbEntity
8
0
100
AcDbLine
62
7
6
CONTINUOUS
10
46.9942440292
20
160.4180471695
11
46.2282866737
21
160.5086023554
0
LINE
5
303
100
AcDbEntity
8
0
100
AcDbLine
62
7
6
CONTINUOUS
10
47.8878609440
20
162.7724633489
11
48.6538184783
21
162.6819102356
0
LINE
5
304
100
AcDbEntity
8
0
100
AcDbLine
62
7
6
CONTINUOUS
10
46.2282866737
20
160.0558284986
11
46.8665844700
21
159.9652753854
0
LINE
5
305
100
AcDbEntity
8
0
100
AcDbLine
62
7
6
CONTINUOUS
10
48.6538184783
20
163.1346820198
11
48.0155205032
21
163.2252372057
0
LINE
5
306
100
AcDbEntity
8
0
100
AcDbLine
62
7
6
CONTINUOUS
10
49.0367971561
20
163.0441268339
11
48.6538184783
21
163.1346820198
0
LINE
5
307
100
AcDbEntity
8
0
100
AcDbLine
62
7
6
CONTINUOUS
10
94.3573738087
20
164.1925917868
11
95.4695931929
21
162.5744655109
0
LINE
5
308
100
AcDbEntity
8
0
100
AcDbLine
62
7
6
CONTINUOUS
10
96.9410524866
20
32.8600160919
11
91.6991870291
21
26.6130041010
0
LINE
5
309
100
AcDbEntity
8
0
100
AcDbLine
62
7
6
CONTINUOUS
10
48.6538184783
20
160.0558284986
11
49.0367971561
21
160.1463836845
0
LINE
5
30A
100
AcDbEntity
8
0
100
AcDbLine
62
7
6
CONTINUOUS
10
48.0155205032
20
159.9652753854
11
48.6538184783
21
160.0558284986
0
LINE
5
30B
100
AcDbEntity
8
0
100
AcDbLine
62
7
6
CONTINUOUS
10
46.8665844700
20
163.2252372057
11
46.2282866737
21
163.1346820198
0
LINE
5
30C
100
AcDbEntity
8
0
100
AcDbLine
62
7
6
CONTINUOUS
10
48.6538184783
20
160.5086023554
11
47.8878609440
21
160.4180471695
0
LINE
5
30D
100
AcDbEntity
8
0
100
AcDbLine
62
7
6
CONTINUOUS
10
46.2282866737
20
162.6819102356
11
46.9942440292
21
162.7724633489
0
LINE
5
30E
100
AcDbEntity
8
0
100
AcDbLine
62
7
6
CONTINUOUS
10
46.9942440292
20
162.7724633489
11
47.8878609440
21
162.7724633489
0
LINE
5
30F
100
AcDbEntity
8
0
100
AcDbLine
62
7
6
CONTINUOUS
10
48.0155205032
20
163.2252372057
11
46.8665844700
21
163.2252372057
0
LINE
5
310
100
AcDbEntity
8
0
100
AcDbLine
62
9
6
CONTINUOUS
10
57.4038852702
20
164.1925917868
11
43.5247311645
21
164.1925917868
0
LINE
5
311
100
AcDbEntity
8
0
100
AcDbLine
62
9
6
CONTINUOUS
10
80.4782197030
20
164.1925917868
11
94.3573738087
21
164.1925917868
0
LINE
5
312
100
AcDbEntity
8
0
100
AcDbLine
62
7
6
CONTINUOUS
10
63.2734612901
20
165.6600160919
11
74.6086436832
21
165.6600160919
0
LINE
5
313
100
AcDbEntity
8
0
100
AcDbLine
62
9
6
CONTINUOUS
10
55.9610899547
20
165.8589828565
11
44.4951116420
21
165.8589828351
0
LINE
5
314
100
AcDbEntity
8
0
100
AcDbLine
62
9
6
CONTINUOUS
10
81.9210150185
20
165.8589828565
11
93.3869933312
21
165.8589828351
0
LINE
5
315
100
AcDbEntity
8
0
100
AcDbLine
62
7
6
CONTINUOUS
10
89.0983248276
20
159.1767326792
11
88.1182641161
21
159.3495438254
0
LINE
5
316
100
AcDbEntity
8
0
100
AcDbLine
62
7
6
CONTINUOUS
10
91.6958931554
20
174.6109535686
11
96.9410524866
21
168.3600160919
0
LINE
5
317
100
AcDbEntity
8
0
100
AcDbLine
62
9
6
CONTINUOUS
10
96.3889622760
20
33.8582581291
11
91.8160389455
21
29.3940451139
0
LINE
5
318
100
AcDbEntity
8
0
100
AcDbLine
62
7
6
CONTINUOUS
10
46.2282866737
20
163.1346820198
11
45.8453076384
21
163.0441268339
0
LINE
5
319
100
AcDbEntity
8
0
100
AcDbLine
62
9
6
CONTINUOUS
10
96.3889622760
20
167.3617740546
11
91.6593175569
21
171.9789827822
0
LINE
5
31A
100
AcDbEntity
8
0
100
AcDbLine
62
7
6
CONTINUOUS
10
46.1862118179
20
174.6100160919
11
54.0427275453
21
174.6100160919
0
LINE
5
31B
100
AcDbEntity
8
0
100
AcDbLine
62
7
6
CONTINUOUS
10
83.8393774280
20
174.6100160919
11
91.6958931554
21
174.6100160919
0
LINE
5
31C
100
AcDbEntity
8
0
100
AcDbLine
62
7
6
CONTINUOUS
10
163.3373796535
20
167.3617740546
11
154.5901671289
21
162.5744655109
0
LINE
5
31D
100
AcDbEntity
8
0
100
AcDbLine
62
7
6
CONTINUOUS
10
169.5001670812
20
37.6658110535
11
169.2501671766
21
37.6147472298
0
LINE
5
31E
100
AcDbEntity
8
0
100
AcDbLine
62
7
6
CONTINUOUS
10
169.2501671766
20
37.3594280755
11
169.5501671766
21
37.4104919037
0
LINE
5
31F
100
AcDbEntity
8
0
100
AcDbLine
62
7
6
CONTINUOUS
10
167.6501671289
20
37.3594280755
11
167.9501671289
21
37.3594280755
0
LINE
5
320
100
AcDbEntity
8
0
100
AcDbLine
62
7
6
CONTINUOUS
10
162.9794612424
20
39.1100160919
11
174.2091086010
21
39.1100160919
0
LINE
5
321
100
AcDbEntity
8
DEFAULT_1
100
AcDbLine
62
2
6
CENTER
10
168.5901671289
20
41.6100160919
11
152.6005598490
21
41.6100160919
0
LINE
5
322
100
AcDbEntity
8
DEFAULT_1
100
AcDbLine
62
2
6
CENTER
10
168.5901671289
20
41.6100160919
11
184.0845535174
21
41.6100160919
0
LINE
5
323
100
AcDbEntity
8
0
100
AcDbLine
62
7
6
CONTINUOUS
10
168.9501671766
20
37.4104919037
11
169.2501671766
21
37.3594280755
0
LINE
5
324
100
AcDbEntity
8
0
100
AcDbLine
62
7
6
CONTINUOUS
10
169.2501671766
20
37.6147472298
11
169.0001671289
21
37.6658110535
0
LINE
5
325
100
AcDbEntity
8
0
100
AcDbLine
62
7
6
CONTINUOUS
10
163.3373796535
20
33.8582581291
11
154.7405929529
21
38.5632393222
0
LINE
5
326
100
AcDbEntity
8
0
100
AcDbLine
62
7
6
CONTINUOUS
10
167.5897334066
20
44.3696609158
11
167.6026465726
21
44.3731851239
0
LINE
5
327
100
AcDbEntity
8
0
100
AcDbLine
62
7
6
CONTINUOUS
10
162.9712257990
20
44.1100160919
11
174.2008730153
21
44.1100160919
0
LINE
5
328
100
AcDbEntity
8
0
100
AcDbLine
62
7
6
CONTINUOUS
10
168.7001671289
20
37.5636833882
11
168.9501671766
21
37.4104919037
0
LINE
5
329
100
AcDbEntity
8
0
100
AcDbLine
62
7
6
CONTINUOUS
10
168.3062019558
20
161.7634934802
11
168.4453337234
21
161.8604097742
0
LINE
5
32A
100
AcDbEntity
8
0
100
AcDbLine
62
7
6
CONTINUOUS
10
168.4473438855
20
161.8938899655
11
168.3154138406
21
161.8022599835
0
LINE
5
32B
100
AcDbEntity
8
0
100
AcDbLine
62
7
6
CONTINUOUS
10
168.9501671766
20
157.7083642518
11
168.7001671289
21
157.5551727807
0
LINE
5
32C
100
AcDbEntity
8
0
100
AcDbLine
62
9
6
CONTINUOUS
10
154.5901671289
20
50.0023209373
11
182.5901671289
21
50.0023209373
0
LINE
5
32D
100
AcDbEntity
8
0
100
AcDbLine
62
7
6
CONTINUOUS
10
169.0001671289
20
37.6658110535
11
168.8501671289
21
37.7679387009
0
LINE
5
32E
100
AcDbEntity
8
0
100
AcDbLine
62
7
6
CONTINUOUS
10
168.8501671289
20
157.3509174859
11
169.0001671289
21
157.4530451333
0
LINE
5
32F
100
AcDbEntity
8
0
100
AcDbLine
62
7
6
CONTINUOUS
10
169.6501670812
20
155.7679387009
11
169.5001670812
21
155.6658110535
0
LINE
5
330
100
AcDbEntity
8
0
100
AcDbLine
62
7
6
CONTINUOUS
10
169.5501671766
20
155.4104919037
11
169.8001672242
21
155.5636833882
0
LINE
5
331
100
AcDbEntity
8
0
100
AcDbLine
62
9
6
CONTINUOUS
10
168.5901671289
20
53.0023209373
11
182.5901671289
21
53.7380505841
0
LINE
5
332
100
AcDbEntity
8
0
100
AcDbLine
62
9
6
CONTINUOUS
10
168.5901671289
20
53.0023209373
11
154.5901671289
21
53.7380505841
0
LINE
5
333
100
AcDbEntity
8
0
100
AcDbLine
62
7
6
CONTINUOUS
10
168.5501671289
20
37.7168748772
11
168.7001671289
21
37.5636833882
0
LINE
5
334
100
AcDbEntity
8
0
100
AcDbLine
62
7
6
CONTINUOUS
10
168.5976671289
20
160.4890441555
11
168.4101671289
21
160.2656399269
0
LINE
5
335
100
AcDbEntity
8
0
100
AcDbLine
62
7
6
CONTINUOUS
10
168.4101671289
20
160.0103207189
11
168.5976671289
21
160.2337250370
0
LINE
5
336
100
AcDbEntity
8
0
100
AcDbLine
62
7
6
CONTINUOUS
10
167.6501671289
20
157.7594280755
11
167.3501671289
21
157.4019813096
0
LINE
5
337
100
AcDbEntity
8
0
100
AcDbLine
62
7
6
CONTINUOUS
10
167.3501671289
20
156.9934705770
11
167.6501671289
21
157.3509174859
0
LINE
5
338
100
AcDbEntity
8
0
100
AcDbLine
62
7
6
CONTINUOUS
10
168.7001671289
20
157.5551727807
11
168.5501671289
21
157.4019813096
0
LINE
5
339
100
AcDbEntity
8
0
100
AcDbLine
62
7
6
CONTINUOUS
10
169.8001672242
20
155.5636833882
11
169.9501672242
21
155.7168748772
0
LINE
5
33A
100
AcDbEntity
8
0
100
AcDbLine
62
7
6
CONTINUOUS
10
135.5901671289
20
122.3978724772
11
135.5901671289
21
87.6100160919
0
LINE
5
33B
100
AcDbEntity
8
0
100
AcDbLine
62
7
6
CONTINUOUS
10
135.5901671289
20
83.1100160919
11
135.5901671289
21
78.8262816976
0
LINE
5
33C
100
AcDbEntity
8
0
100
AcDbLine
62
9
6
CONTINUOUS
10
173.8429546042
20
167.3617740546
11
177.0759589607
21
171.9789827822
0
LINE
5
33D
100
AcDbEntity
8
0
100
AcDbLine
62
9
6
CONTINUOUS
10
173.8429546042
20
33.8582581291
11
176.9688302096
21
29.3940451139
0
LINE
5
33E
100
AcDbEntity
8
0
100
AcDbLine
62
7
6
CONTINUOUS
10
168.8501671289
20
37.7679387009
11
168.6501671766
21
38.0743216789
0
LINE
5
33F
100
AcDbEntity
8
0
100
AcDbLine
62
7
6
CONTINUOUS
10
169.8074220657
20
39.1100160919
11
169.8501670335
21
39.0445344007
0
LINE
5
340
100
AcDbEntity
8
0
100
AcDbLine
62
7
6
CONTINUOUS
10
139.9490690354
20
83.6100160919
11
139.9490690354
21
87.1100160919
0
LINE
5
341
100
AcDbEntity
8
0
100
AcDbLine
62
7
6
CONTINUOUS
10
168.6501671766
20
157.0445344007
11
168.8501671289
21
157.3509174859
0
LINE
5
342
100
AcDbEntity
8
0
100
AcDbLine
62
7
6
CONTINUOUS
10
169.8501670335
20
156.0743216789
11
169.6501670812
21
155.7679387009
0
LINE
5
343
100
AcDbEntity
8
0
100
AcDbLine
62
7
6
CONTINUOUS
10
201.5899888910
20
78.8366743925
11
191.0258224785
21
77.1634748077
0
LINE
5
344
100
AcDbEntity
8
0
100
AcDbLine
62
7
6
CONTINUOUS
10
146.1545117793
20
77.1634748077
11
135.5903453667
21
78.8366743925
0
LINE
5
345
100
AcDbEntity
8
0
100
AcDbLine
62
7
6
CONTINUOUS
10
168.4501671527
20
37.9211302078
11
168.5501671289
21
37.7168748772
0
LINE
5
346
100
AcDbEntity
8
0
100
AcDbLine
62
7
6
CONTINUOUS
10
145.2401671289
20
87.6100160919
11
145.2401671289
21
87.1100160919
0
LINE
5
347
100
AcDbEntity
8
0
100
AcDbLine
62
7
6
CONTINUOUS
10
168.6390964757
20
163.1890441555
11
168.6151690825
21
163.1238458771
0
LINE
5
348
100
AcDbEntity
8
0
100
AcDbLine
62
7
6
CONTINUOUS
10
168.5501671289
20
157.4019813096
11
168.4501671527
21
157.1977260148
0
LINE
5
349
100
AcDbEntity
8
0
100
AcDbLine
62
7
6
CONTINUOUS
10
169.9501672242
20
155.7168748772
11
170.0501671289
21
155.9211302078
0
LINE
5
34A
100
AcDbEntity
8
0
100
AcDbLine
62
7
6
CONTINUOUS
10
169.3147607566
20
161.1432291765
11
169.2898802935
21
161.0639340300
0
LINE
5
34B
100
AcDbEntity
8
0
100
AcDbLine
62
7
6
CONTINUOUS
10
168.4501671527
20
157.1977260148
11
168.4001671289
21
157.0445344007
0
LINE
5
34C
100
AcDbEntity
8
0
100
AcDbLine
62
7
6
CONTINUOUS
10
170.0501671289
20
155.9211302078
11
170.1001672242
21
156.0743216789
0
LINE
5
34D
100
AcDbEntity
8
0
100
AcDbLine
62
7
6
CONTINUOUS
10
201.5901671289
20
83.1100160919
11
135.5901671289
21
83.1100160919
0
LINE
5
34E
100
AcDbEntity
8
0
100
AcDbLine
62
7
6
CONTINUOUS
10
201.0901671289
20
83.6100160919
11
136.0901671289
21
83.6100160919
0
LINE
5
34F
100
AcDbEntity
8
0
100
AcDbLine
62
7
6
CONTINUOUS
10
168.4001671289
20
38.0743216789
11
168.4501671527
21
37.9211302078
0
LINE
5
350
100
AcDbEntity
8
0
100
AcDbLine
62
7
6
CONTINUOUS
10
170.1001672242
20
39.0445344007
11
170.0787947045
21
39.1100160919
0
LINE
5
351
100
AcDbEntity
8
0
100
AcDbLine
62
7
6
CONTINUOUS
10
168.6492542727
20
45.1555640358
11
168.6390964757
21
45.1890441555
0
LINE
5
352
100
AcDbEntity
8
0
100
AcDbLine
62
7
6
CONTINUOUS
10
154.5901671289
20
40.6100160919
11
154.5901671289
21
67.2865914018
0
LINE
5
353
100
AcDbEntity
8
0
100
AcDbLine
62
7
6
CONTINUOUS
10
154.5901671289
20
133.9334407820
11
154.5901671289
21
164.1925917868
0
LINE
5
354
100
AcDbEntity
8
0
100
AcDbLine
62
7
6
CONTINUOUS
10
167.6026465726
20
162.3731851239
11
167.6221704031
21
162.4894847054
0
LINE
5
355
100
AcDbEntity
8
0
100
AcDbLine
62
7
6
CONTINUOUS
10
168.4001671289
20
157.0445344007
11
168.3501671050
21
156.7892152822
0
LINE
5
356
100
AcDbEntity
8
0
100
AcDbLine
62
7
6
CONTINUOUS
10
136.0901671289
20
83.6100160919
11
135.5901671289
21
83.1100160919
0
LINE
5
357
100
AcDbEntity
8
0
100
AcDbLine
62
7
6
CONTINUOUS
10
139.9490690354
20
87.1100160919
11
197.3401671229
21
87.1100160919
0
LINE
5
358
100
AcDbEntity
8
0
100
AcDbLine
62
7
6
CONTINUOUS
10
135.5901671289
20
87.6100160919
11
201.5901671289
21
87.6100160919
0
LINE
5
359
100
AcDbEntity
8
0
100
AcDbLine
62
7
6
CONTINUOUS
10
168.3501671050
20
38.3296408689
11
168.4001671289
21
38.0743216789
0
LINE
5
35A
100
AcDbEntity
8
0
100
AcDbLine
62
7
6
CONTINUOUS
10
170.1501670335
20
38.7892152822
11
170.1001672242
21
39.0445344007
0
LINE
5
35B
100
AcDbEntity
8
0
100
AcDbLine
62
7
6
CONTINUOUS
10
167.5945167457
20
162.4066652436
11
167.5897334066
21
162.3696609158
0
LINE
5
35C
100
AcDbEntity
8
0
100
AcDbLine
62
7
6
CONTINUOUS
10
168.6001670812
20
156.7381514585
11
168.6501671766
21
157.0445344007
0
LINE
5
35D
100
AcDbEntity
8
0
100
AcDbLine
62
7
6
CONTINUOUS
10
169.9001671289
20
156.3807046926
11
169.8501670335
21
156.0743216789
0
LINE
5
35E
100
AcDbEntity
8
0
100
AcDbLine
62
7
6
CONTINUOUS
10
170.1001672242
20
156.0743216789
11
170.1501670335
21
156.3296408689
0
LINE
5
35F
100
AcDbEntity
8
0
100
AcDbLine
62
7
6
CONTINUOUS
10
168.6501671766
20
38.0743216789
11
168.6001670812
21
38.3807046926
0
LINE
5
360
100
AcDbEntity
8
0
100
AcDbLine
62
7
6
CONTINUOUS
10
169.8501670335
20
39.0445344007
11
169.9001671289
21
38.7381514585
0
LINE
5
361
100
AcDbEntity
8
0
100
AcDbLine
62
7
6
CONTINUOUS
10
167.3501671289
20
157.4019813096
11
167.3501671289
21
156.9934705770
0
LINE
5
362
100
AcDbEntity
8
0
100
AcDbLine
62
7
6
CONTINUOUS
10
167.3501671289
20
39.1100160919
11
167.3501671289
21
38.9934705770
0
LINE
5
363
100
AcDbEntity
8
0
100
AcDbLine
62
7
6
CONTINUOUS
10
167.6501671289
20
157.3509174859
11
167.6501671289
21
155.3594280755
0
LINE
5
364
100
AcDbEntity
8
0
100
AcDbLine
62
7
6
CONTINUOUS
10
167.6501671289
20
39.1100160919
11
167.6501671289
21
37.3594280755
0
LINE
5
365
100
AcDbEntity
8
0
100
AcDbLine
62
7
6
CONTINUOUS
10
167.9501671289
20
37.3594280755
11
167.9501671289
21
39.1100160919
0
LINE
5
366
100
AcDbEntity
8
0
100
AcDbLine
62
7
6
CONTINUOUS
10
167.9501671289
20
155.3594280755
11
167.9501671289
21
157.7594280755
0
LINE
5
367
100
AcDbEntity
8
0
100
AcDbLine
62
7
6
CONTINUOUS
10
168.3501671050
20
156.7892152822
11
168.3501671050
21
156.3296408689
0
LINE
5
368
100
AcDbEntity
8
0
100
AcDbLine
62
7
6
CONTINUOUS
10
168.3501671050
20
38.7892152822
11
168.3501671050
21
38.3296408689
0
LINE
5
369
100
AcDbEntity
8
0
100
AcDbLine
62
7
6
CONTINUOUS
10
168.4101671289
20
160.2656399269
11
168.4101671289
21
160.0103207189
0
LINE
5
36A
100
AcDbEntity
8
0
100
AcDbLine
62
7
6
CONTINUOUS
10
168.5901671289
20
168.3600160919
11
168.5901671289
21
165.1100160919
0
LINE
5
36B
100
AcDbEntity
8
DEFAULT_1
100
AcDbLine
62
2
6
CENTER
10
168.5901671289
20
159.6100160919
11
168.5901671289
21
154.1100160919
0
LINE
5
36C
100
AcDbEntity
8
DEFAULT_1
100
AcDbLine
62
2
6
CENTER
10
168.5901671289
20
142.4036622567
11
168.5901671289
21
84.4505942955
0
LINE
5
36D
100
AcDbEntity
8
0
100
AcDbLine
62
7
6
CONTINUOUS
10
168.5901671289
20
154.1100160919
11
168.5901671289
21
142.4036622567
0
LINE
5
36E
100
AcDbEntity
8
DEFAULT_1
100
AcDbLine
62
2
6
CENTER
10
168.5901671289
20
41.6100160919
11
168.5901671289
21
34.4600160919
0
LINE
5
36F
100
AcDbEntity
8
0
100
AcDbLine
62
7
6
CONTINUOUS
10
168.5901671289
20
32.8600160919
11
168.5901671289
21
34.4600160919
0
LINE
5
370
100
AcDbEntity
8
DEFAULT_1
100
AcDbLine
62
2
6
CENTER
10
168.5901671289
20
41.6100160919
11
168.5901671289
21
48.7600160919
0
LINE
5
371
100
AcDbEntity
8
0
100
AcDbLine
62
7
6
CONTINUOUS
10
168.5901671289
20
48.7600160919
11
168.5901671289
21
60.2702701297
0
LINE
5
372
100
AcDbEntity
8
DEFAULT_1
100
AcDbLine
62
2
6
CENTER
10
168.5901671289
20
24.3666369131
11
168.5901671289
21
32.8600160919
0
LINE
5
373
100
AcDbEntity
8
DEFAULT_1
100
AcDbLine
62
2
6
CENTER
10
168.5901671289
20
60.2702701297
11
168.5901671289
21
84.4505942955
0
LINE
5
374
100
AcDbEntity
8
DEFAULT_1
100
AcDbLine
62
2
6
CENTER
10
168.5901671289
20
159.6100160919
11
168.5901671289
21
165.1100160919
0
LINE
5
375
100
AcDbEntity
8
DEFAULT_1
100
AcDbLine
62
2
6
CENTER
10
168.5901671289
20
168.3600160919
11
168.5901671289
21
177.7008961530
0
LINE
5
376
100
AcDbEntity
8
0
100
AcDbLine
62
7
6
CONTINUOUS
10
168.5976671289
20
160.2337250370
11
168.5976671289
21
158.9890441555
0
LINE
5
377
100
AcDbEntity
8
0
100
AcDbLine
62
7
6
CONTINUOUS
10
168.6001670812
20
38.3807046926
11
168.6001670812
21
38.7381514585
0
LINE
5
378
100
AcDbEntity
8
0
100
AcDbLine
62
7
6
CONTINUOUS
10
168.6001670812
20
156.3807046926
11
168.6001670812
21
156.7381514585
0
LINE
5
379
100
AcDbEntity
8
0
100
AcDbLine
62
7
6
CONTINUOUS
10
168.7851671289
20
158.9890441555
11
168.7851671289
21
160.4890441555
0
LINE
5
37A
100
AcDbEntity
8
0
100
AcDbLine
62
7
6
CONTINUOUS
10
168.5728351142
20
161.9502776522
11
168.5754544794
21
162.3414671082
0
LINE
5
37B
100
AcDbEntity
8
0
100
AcDbLine
62
7
6
CONTINUOUS
10
168.5739047067
20
44.1100160919
11
168.5754544794
21
44.3414671082
0
LINE
5
37C
100
AcDbEntity
8
0
100
AcDbLine
62
7
6
CONTINUOUS
10
168.4453337234
20
161.8604097742
11
168.4403281324
21
161.6401454825
0
LINE
5
37D
100
AcDbEntity
8
0
100
AcDbLine
62
7
6
CONTINUOUS
10
169.9001671289
20
156.7381514585
11
169.9001671289
21
156.3807046926
0
LINE
5
37E
100
AcDbEntity
8
0
100
AcDbLine
62
7
6
CONTINUOUS
10
169.9001671289
20
38.7381514585
11
169.9001671289
21
38.3807046926
0
LINE
5
37F
100
AcDbEntity
8
0
100
AcDbLine
62
7
6
CONTINUOUS
10
170.1501670335
20
38.3296408689
11
170.1501670335
21
38.7892152822
0
LINE
5
380
100
AcDbEntity
8
0
100
AcDbLine
62
7
6
CONTINUOUS
10
170.1501670335
20
156.3296408689
11
170.1501670335
21
156.7892152822
0
LINE
5
381
100
AcDbEntity
8
0
100
AcDbLine
62
7
6
CONTINUOUS
10
167.5945167457
20
44.4066652436
11
167.5897334066
21
44.3696609158
0
LINE
5
382
100
AcDbEntity
8
0
100
AcDbLine
62
7
6
CONTINUOUS
10
168.6001670812
20
38.7381514585
11
168.6501671766
21
39.0445344007
0
LINE
5
383
100
AcDbEntity
8
0
100
AcDbLine
62
7
6
CONTINUOUS
10
169.9001671289
20
38.3807046926
11
169.8501670335
21
38.0743216789
0
LINE
5
384
100
AcDbEntity
8
0
100
AcDbLine
62
7
6
CONTINUOUS
10
167.6026465726
20
44.3731851239
11
167.6221704031
21
44.4894847054
0
LINE
5
385
100
AcDbEntity
8
0
100
AcDbLine
62
7
6
CONTINUOUS
10
201.0901671289
20
83.6100160919
11
201.5901671289
21
83.1100160919
0
LINE
5
386
100
AcDbEntity
8
0
100
AcDbLine
62
7
6
CONTINUOUS
10
168.3501671050
20
156.3296408689
11
168.4001671289
21
156.0743216789
0
LINE
5
387
100
AcDbEntity
8
0
100
AcDbLine
62
7
6
CONTINUOUS
10
168.6501671766
20
156.0743216789
11
168.6001670812
21
156.3807046926
0
LINE
5
388
100
AcDbEntity
8
0
100
AcDbLine
62
7
6
CONTINUOUS
10
169.8501670335
20
157.0445344007
11
169.9001671289
21
156.7381514585
0
LINE
5
389
100
AcDbEntity
8
0
100
AcDbLine
62
7
6
CONTINUOUS
10
182.5901671289
20
40.6100160919
11
182.5901671289
21
67.2865914018
0
LINE
5
38A
100
AcDbEntity
8
0
100
AcDbLine
62
7
6
CONTINUOUS
10
182.5901671289
20
133.9334407820
11
182.5901671289
21
164.1925917868
0
LINE
5
38B
100
AcDbEntity
8
0
100
AcDbLine
62
7
6
CONTINUOUS
10
182.8401671289
20
163.2252372057
11
182.8401671289
21
159.9652753854
0
LINE
5
38C
100
AcDbEntity
8
0
100
AcDbLine
62
7
6
CONTINUOUS
10
182.8401671289
20
159.2408380435
11
182.8401671289
21
158.1541841034
0
LINE
5
38D
100
AcDbEntity
8
0
100
AcDbLine
62
7
6
CONTINUOUS
10
182.8401671289
20
153.0831330738
11
182.8401671289
21
149.7326171039
0
LINE
5
38E
100
AcDbEntity
8
0
100
AcDbLine
62
7
6
CONTINUOUS
10
182.8401671289
20
149.0081807984
11
182.8401671289
21
145.6576648284
0
LINE
5
38F
100
AcDbEntity
8
0
100
AcDbLine
62
7
6
CONTINUOUS
10
182.8401671289
20
144.9332285229
11
182.8401671289
21
143.6654652474
0
LINE
5
390
100
AcDbEntity
8
0
100
AcDbLine
62
7
6
CONTINUOUS
10
182.8401671289
20
142.9410294600
11
182.8401671289
21
138.5944139586
0
LINE
5
391
100
AcDbEntity
8
0
100
AcDbLine
62
7
6
CONTINUOUS
10
182.8401671289
20
137.8699779122
11
182.8401671289
21
134.6100160919
0
LINE
5
392
100
AcDbEntity
8
0
100
AcDbLine
62
7
6
CONTINUOUS
10
168.4001671289
20
39.0445344007
11
168.3501671050
21
38.7892152822
0
LINE
5
393
100
AcDbEntity
8
0
100
AcDbLine
62
7
6
CONTINUOUS
10
170.1001672242
20
38.0743216789
11
170.1501670335
21
38.3296408689
0
LINE
5
394
100
AcDbEntity
8
0
100
AcDbLine
62
7
6
CONTINUOUS
10
169.3216078897
20
161.1132732291
11
169.3147607566
21
161.1432291765
0
LINE
5
395
100
AcDbEntity
8
0
100
AcDbLine
62
7
6
CONTINUOUS
10
170.1501670335
20
156.7892152822
11
170.1001672242
21
157.0445344007
0
LINE
5
396
100
AcDbEntity
8
0
100
AcDbLine
62
7
6
CONTINUOUS
10
168.4215396181
20
39.1100160919
11
168.4001671289
21
39.0445344007
0
LINE
5
397
100
AcDbEntity
8
0
100
AcDbLine
62
7
6
CONTINUOUS
10
170.0501671289
20
37.9211302078
11
170.1001672242
21
38.0743216789
0
LINE
5
398
100
AcDbEntity
8
0
100
AcDbLine
62
7
6
CONTINUOUS
10
168.6390964757
20
45.1890441555
11
168.6151690825
21
45.1238458771
0
LINE
5
399
100
AcDbEntity
8
0
100
AcDbLine
62
7
6
CONTINUOUS
10
168.4001671289
20
156.0743216789
11
168.4501671527
21
155.9211302078
0
LINE
5
39A
100
AcDbEntity
8
0
100
AcDbLine
62
7
6
CONTINUOUS
10
170.1001672242
20
157.0445344007
11
170.0501671289
21
157.1977260148
0
LINE
5
39B
100
AcDbEntity
8
0
100
AcDbLine
62
7
6
CONTINUOUS
10
168.6492542727
20
163.1555640358
11
168.6390964757
21
163.1890441555
0
LINE
5
39C
100
AcDbEntity
8
0
100
AcDbLine
62
7
6
CONTINUOUS
10
191.9401671289
20
87.6100160919
11
191.9401671289
21
87.1100160919
0
LINE
5
39D
100
AcDbEntity
8
0
100
AcDbLine
62
7
6
CONTINUOUS
10
135.5905039026
20
122.3833829009
11
146.1545122759
21
124.0565574547
0
LINE
5
39E
100
AcDbEntity
8
0
100
AcDbLine
62
7
6
CONTINUOUS
10
201.5898303551
20
122.3833829009
11
191.0258219818
21
124.0565574547
0
LINE
5
39F
100
AcDbEntity
8
0
100
AcDbLine
62
7
6
CONTINUOUS
10
168.4501671527
20
155.9211302078
11
168.5501671289
21
155.7168748772
0
LINE
5
3A0
100
AcDbEntity
8
0
100
AcDbLine
62
7
6
CONTINUOUS
10
170.0501671289
20
157.1977260148
11
169.9501672242
21
157.4019813096
0
LINE
5
3A1
100
AcDbEntity
8
0
100
AcDbLine
62
7
6
CONTINUOUS
10
197.3401671289
20
83.6100160919
11
197.3401671289
21
87.1100160919
0
LINE
5
3A2
100
AcDbEntity
8
0
100
AcDbLine
62
7
6
CONTINUOUS
10
201.5901671289
20
83.1100160919
11
201.5901671289
21
78.8262816976
0
LINE
5
3A3
100
AcDbEntity
8
0
100
AcDbLine
62
7
6
CONTINUOUS
10
201.5901671289
20
87.6100160919
11
201.5901671289
21
122.3978724772
0
LINE
5
3A4
100
AcDbEntity
8
0
100
AcDbLine
62
7
6
CONTINUOUS
10
169.9501672242
20
37.7168748772
11
170.0501671289
21
37.9211302078
0
LINE
5
3A5
100
AcDbEntity
8
0
100
AcDbLine
62
7
6
CONTINUOUS
10
168.8501671289
20
155.7679387009
11
168.6501671766
21
156.0743216789
0
LINE
5
3A6
100
AcDbEntity
8
0
100
AcDbLine
62
7
6
CONTINUOUS
10
169.6501670812
20
157.3509174859
11
169.8501670335
21
157.0445344007
0
LINE
5
3A7
100
AcDbEntity
8
0
100
AcDbLine
62
7
6
CONTINUOUS
10
168.6501671766
20
39.0445344007
11
168.6929121444
21
39.1100160919
0
LINE
5
3A8
100
AcDbEntity
8
0
100
AcDbLine
62
7
6
CONTINUOUS
10
169.8501670335
20
38.0743216789
11
169.6501670812
21
37.7679387009
0
LINE
5
3A9
100
AcDbEntity
8
0
100
AcDbLine
62
9
6
CONTINUOUS
10
163.3373796535
20
33.8582581291
11
160.2115040481
21
29.3940451139
0
LINE
5
3AA
100
AcDbEntity
8
0
100
AcDbLine
62
7
6
CONTINUOUS
10
182.5901671289
20
134.6100160919
11
182.8401671289
21
134.6100160919
0
LINE
5
3AB
100
AcDbEntity
8
0
100
AcDbLine
62
7
6
CONTINUOUS
10
182.5901671289
20
135.1533430619
11
182.8401671289
21
135.1533430619
0
LINE
5
3AC
100
AcDbEntity
8
0
100
AcDbLine
62
7
6
CONTINUOUS
10
182.5901671289
20
135.2438975353
11
182.8401671289
21
135.2438975353
0
LINE
5
3AD
100
AcDbEntity
8
0
100
AcDbLine
62
7
6
CONTINUOUS
10
182.5901671289
20
135.4250065470
11
182.8401671289
21
135.4250065470
0
LINE
5
3AE
100
AcDbEntity
8
0
100
AcDbLine
62
7
6
CONTINUOUS
10
182.5901671289
20
135.6966700320
11
182.8401671289
21
135.6966700320
0
LINE
5
3AF
100
AcDbEntity
8
0
100
AcDbLine
62
7
6
CONTINUOUS
10
182.5901671289
20
136.0588880552
11
182.8401671289
21
136.0588880552
0
LINE
5
3B0
100
AcDbEntity
8
0
100
AcDbLine
62
7
6
CONTINUOUS
10
182.5901671289
20
136.4211059489
11
182.8401671289
21
136.4211059489
0
LINE
5
3B1
100
AcDbEntity
8
0
100
AcDbLine
62
7
6
CONTINUOUS
10
182.5901671289
20
136.7833239721
11
182.8401671289
21
136.7833239721
0
LINE
5
3B2
100
AcDbEntity
8
0
100
AcDbLine
62
7
6
CONTINUOUS
10
182.5901671289
20
137.0549874571
11
182.8401671289
21
137.0549874571
0
LINE
5
3B3
100
AcDbEntity
8
0
100
AcDbLine
62
7
6
CONTINUOUS
10
182.5901671289
20
137.2360965335
11
182.8401671289
21
137.2360965335
0
LINE
5
3B4
100
AcDbEntity
8
0
100
AcDbLine
62
7
6
CONTINUOUS
10
182.5901671289
20
137.3266509421
11
182.8401671289
21
137.3266509421
0
LINE
5
3B5
100
AcDbEntity
8
0
100
AcDbLine
62
7
6
CONTINUOUS
10
182.5901671289
20
137.8699779122
11
182.8401671289
21
137.8699779122
0
LINE
5
3B6
100
AcDbEntity
8
0
100
AcDbLine
62
7
6
CONTINUOUS
10
182.5901671289
20
138.5944139586
11
182.8401671289
21
138.5944139586
0
LINE
5
3B7
100
AcDbEntity
8
0
100
AcDbLine
62
7
6
CONTINUOUS
10
182.5901671289
20
139.1377406696
11
182.8401671289
21
139.1377406696
0
LINE
5
3B8
100
AcDbEntity
8
0
100
AcDbLine
62
7
6
CONTINUOUS
10
168.5501671289
20
155.7168748772
11
168.7001671289
21
155.5636833882
0
LINE
5
3B9
100
AcDbEntity
8
0
100
AcDbLine
62
9
6
CONTINUOUS
10
163.3373796535
20
167.3617740546
11
160.1043752970
21
171.9789827822
0
LINE
5
3BA
100
AcDbEntity
8
0
100
AcDbLine
62
7
6
CONTINUOUS
10
167.3501671289
20
38.9934705770
11
167.4479820871
21
39.1100160919
0
LINE
5
3BB
100
AcDbEntity
8
0
100
AcDbLine
62
7
6
CONTINUOUS
10
182.5901671289
20
139.6810676397
11
182.8401671289
21
139.6810676397
0
LINE
5
3BC
100
AcDbEntity
8
0
100
AcDbLine
62
7
6
CONTINUOUS
10
182.5901671289
20
140.4055039452
11
182.8401671289
21
140.4055039452
0
LINE
5
3BD
100
AcDbEntity
8
0
100
AcDbLine
62
7
6
CONTINUOUS
10
182.5901671289
20
141.1299397325
11
182.8401671289
21
141.1299397325
0
LINE
5
3BE
100
AcDbEntity
8
0
100
AcDbLine
62
7
6
CONTINUOUS
10
182.5901671289
20
141.8543755199
11
182.8401671289
21
141.8543755199
0
LINE
5
3BF
100
AcDbEntity
8
0
100
AcDbLine
62
7
6
CONTINUOUS
10
182.5901671289
20
142.3977024900
11
182.8401671289
21
142.3977024900
0
LINE
5
3C0
100
AcDbEntity
8
0
100
AcDbLine
62
7
6
CONTINUOUS
10
182.5901671289
20
142.9410294600
11
182.8401671289
21
142.9410294600
0
LINE
5
3C1
100
AcDbEntity
8
0
100
AcDbLine
62
7
6
CONTINUOUS
10
182.5901671289
20
143.6654652474
11
182.8401671289
21
143.6654652474
0
LINE
5
3C2
100
AcDbEntity
8
0
100
AcDbLine
62
7
6
CONTINUOUS
10
169.9501672242
20
157.4019813096
11
169.8001672242
21
157.5551727807
0
LINE
5
3C3
100
AcDbEntity
8
0
100
AcDbLine
62
7
6
CONTINUOUS
10
169.8001672242
20
37.5636833882
11
169.9501672242
21
37.7168748772
0
LINE
5
3C4
100
AcDbEntity
8
0
100
AcDbLine
62
9
6
CONTINUOUS
10
168.5901671289
20
148.2177112465
11
154.5901671289
21
147.4819815996
0
LINE
5
3C5
100
AcDbEntity
8
0
100
AcDbLine
62
7
6
CONTINUOUS
10
182.5901671289
20
144.9332285229
11
182.8401671289
21
144.9332285229
0
LINE
5
3C6
100
AcDbEntity
8
0
100
AcDbLine
62
7
6
CONTINUOUS
10
182.5901671289
20
145.6576648284
11
182.8401671289
21
145.6576648284
0
LINE
5
3C7
100
AcDbEntity
8
0
100
AcDbLine
62
7
6
CONTINUOUS
10
182.5901671289
20
147.8309727087
11
182.8401671289
21
147.8309727087
0
LINE
5
3C8
100
AcDbEntity
8
0
100
AcDbLine
62
7
6
CONTINUOUS
10
182.5901671289
20
148.2837444928
11
182.8401671289
21
148.2837444928
0
LINE
5
3C9
100
AcDbEntity
8
0
100
AcDbLine
62
7
6
CONTINUOUS
10
182.5901671289
20
148.6459631638
11
182.8401671289
21
148.6459631638
0
LINE
5
3CA
100
AcDbEntity
8
0
100
AcDbLine
62
7
6
CONTINUOUS
10
182.5901671289
20
148.9176266488
11
182.8401671289
21
148.9176266488
0
LINE
5
3CB
100
AcDbEntity
8
0
100
AcDbLine
62
7
6
CONTINUOUS
10
182.5901671289
20
149.0081807984
11
182.8401671289
21
149.0081807984
0
LINE
5
3CC
100
AcDbEntity
8
0
100
AcDbLine
62
7
6
CONTINUOUS
10
182.5901671289
20
149.7326171039
11
182.8401671289
21
149.7326171039
0
LINE
5
3CD
100
AcDbEntity
8
0
100
AcDbLine
62
9
6
CONTINUOUS
10
168.5901671289
20
148.2177112465
11
182.5901671289
21
147.4819815996
0
LINE
5
3CE
100
AcDbEntity
8
0
100
AcDbLine
62
7
6
CONTINUOUS
10
168.7001671289
20
155.5636833882
11
168.9501671766
21
155.4104919037
0
LINE
5
3CF
100
AcDbEntity
8
0
100
AcDbLine
62
7
6
CONTINUOUS
10
169.8001672242
20
157.5551727807
11
169.5501671766
21
157.7083642518
0
LINE
5
3D0
100
AcDbEntity
8
0
100
AcDbLine
62
7
6
CONTINUOUS
10
169.0001671289
20
155.6658110535
11
168.8501671289
21
155.7679387009
0
LINE
5
3D1
100
AcDbEntity
8
0
100
AcDbLine
62
7
6
CONTINUOUS
10
169.5001670812
20
157.4530451333
11
169.6501670812
21
157.3509174859
0
LINE
5
3D2
100
AcDbEntity
8
0
100
AcDbLine
62
7
6
CONTINUOUS
10
169.6501670812
20
37.7679387009
11
169.5001670812
21
37.6658110535
0
LINE
5
3D3
100
AcDbEntity
8
0
100
AcDbLine
62
7
6
CONTINUOUS
10
169.5501671766
20
37.4104919037
11
169.8001672242
21
37.5636833882
0
LINE
5
3D4
100
AcDbEntity
8
0
100
AcDbLine
62
7
6
CONTINUOUS
10
169.5001670812
20
155.6658110535
11
169.2501671766
21
155.6147472298
0
LINE
5
3D5
100
AcDbEntity
8
0
100
AcDbLine
62
7
6
CONTINUOUS
10
169.2501671766
20
155.3594280755
11
169.5501671766
21
155.4104919037
0
LINE
5
3D6
100
AcDbEntity
8
0
100
AcDbLine
62
9
6
CONTINUOUS
10
154.5901671289
20
151.2177112465
11
182.5901671289
21
151.2177112465
0
LINE
5
3D7
100
AcDbEntity
8
0
100
AcDbLine
62
7
6
CONTINUOUS
10
182.5901671289
20
151.9059249841
11
182.8401671289
21
151.9059249841
0
LINE
5
3D8
100
AcDbEntity
8
0
100
AcDbLine
62
7
6
CONTINUOUS
10
182.5901671289
20
152.3586978046
11
182.8401671289
21
152.3586978046
0
LINE
5
3D9
100
AcDbEntity
8
0
100
AcDbLine
62
7
6
CONTINUOUS
10
182.5901671289
20
152.7209144029
11
182.8401671289
21
152.7209144029
0
LINE
5
3DA
100
AcDbEntity
8
0
100
AcDbLine
62
7
6
CONTINUOUS
10
182.5901671289
20
152.9925778879
11
182.8401671289
21
152.9925778879
0
LINE
5
3DB
100
AcDbEntity
8
0
100
AcDbLine
62
7
6
CONTINUOUS
10
182.5901671289
20
153.0831330738
11
182.8401671289
21
153.0831330738
0
LINE
5
3DC
100
AcDbEntity
8
0
100
AcDbLine
62
7
6
CONTINUOUS
10
168.9501671766
20
155.4104919037
11
169.2501671766
21
155.3594280755
0
LINE
5
3DD
100
AcDbEntity
8
0
100
AcDbLine
62
7
6
CONTINUOUS
10
169.2501671766
20
155.6147472298
11
169.0001671289
21
155.6658110535
0
LINE
5
3DE
100
AcDbEntity
8
0
100
AcDbLine
62
7
6
CONTINUOUS
10
167.5897334066
20
162.3696609158
11
167.6026465726
21
162.3731851239
0
LINE
5
3DF
100
AcDbEntity
8
0
100
AcDbLine
62
7
6
CONTINUOUS
10
169.0001671289
20
157.4530451333
11
169.2501671766
21
157.5041089570
0
LINE
5
3E0
100
AcDbEntity
8
0
100
AcDbLine
62
7
6
CONTINUOUS
10
169.2501671766
20
157.7594280755
11
168.9501671766
21
157.7083642518
0
LINE
5
3E1
100
AcDbEntity
8
0
100
AcDbLine
62
7
6
CONTINUOUS
10
167.6501671289
20
155.3594280755
11
167.9501671289
21
155.3594280755
0
LINE
5
3E2
100
AcDbEntity
8
0
100
AcDbLine
62
7
6
CONTINUOUS
10
167.9501671289
20
157.7594280755
11
167.6501671289
21
157.7594280755
0
LINE
5
3E3
100
AcDbEntity
8
0
100
AcDbLine
62
7
6
CONTINUOUS
10
182.5901671289
20
158.1541841034
11
182.8401671289
21
158.1541841034
0
LINE
5
3E4
100
AcDbEntity
8
0
100
AcDbLine
62
7
6
CONTINUOUS
10
182.5901671289
20
158.6975110735
11
182.8401671289
21
158.6975110735
0
LINE
5
3E5
100
AcDbEntity
8
0
100
AcDbLine
62
7
6
CONTINUOUS
10
168.5976671289
20
158.9890441555
11
168.7851671289
21
158.9890441555
0
LINE
5
3E6
100
AcDbEntity
8
0
100
AcDbLine
62
7
6
CONTINUOUS
10
182.5901671289
20
159.2408380435
11
182.8401671289
21
159.2408380435
0
LINE
5
3E7
100
AcDbEntity
8
DEFAULT_1
100
AcDbLine
62
2
6
CENTER
10
168.5901671289
20
159.6100160919
11
152.8408956785
21
159.6100160919
0
LINE
5
3E8
100
AcDbEntity
8
DEFAULT_1
100
AcDbLine
62
2
6
CENTER
10
168.5901671289
20
159.6100160919
11
185.5265684946
21
159.6100160919
0
LINE
5
3E9
100
AcDbEntity
8
0
100
AcDbLine
62
7
6
CONTINUOUS
10
182.5901671289
20
159.9652753854
11
182.8401671289
21
159.9652753854
0
LINE
5
3EA
100
AcDbEntity
8
0
100
AcDbLine
62
7
6
CONTINUOUS
10
182.5901671289
20
160.0558284986
11
182.8401671289
21
160.0558284986
0
LINE
5
3EB
100
AcDbEntity
8
0
100
AcDbLine
62
7
6
CONTINUOUS
10
182.5901671289
20
160.1463836845
11
182.8401671289
21
160.1463836845
0
LINE
5
3EC
100
AcDbEntity
8
0
100
AcDbLine
62
7
6
CONTINUOUS
10
182.5901671289
20
160.3274919837
11
182.8401671289
21
160.3274919837
0
LINE
5
3ED
100
AcDbEntity
8
0
100
AcDbLine
62
7
6
CONTINUOUS
10
168.7851671289
20
160.4890441555
11
168.5976671289
21
160.4890441555
0
LINE
5
3EE
100
AcDbEntity
8
0
100
AcDbLine
62
7
6
CONTINUOUS
10
182.5901671289
20
160.5991554687
11
182.8401671289
21
160.5991554687
0
LINE
5
3EF
100
AcDbEntity
8
0
100
AcDbLine
62
7
6
CONTINUOUS
10
169.5501671766
20
157.7083642518
11
169.2501671766
21
157.7594280755
0
LINE
5
3F0
100
AcDbEntity
8
0
100
AcDbLine
62
7
6
CONTINUOUS
10
169.2501671766
20
157.5041089570
11
169.5001670812
21
157.4530451333
0
LINE
5
3F1
100
AcDbEntity
8
0
100
AcDbLine
62
7
6
CONTINUOUS
10
173.8429546042
20
33.8582581291
11
182.4397413048
21
38.5632393222
0
LINE
5
3F2
100
AcDbEntity
8
0
100
AcDbLine
62
7
6
CONTINUOUS
10
182.5901671289
20
161.0519293255
11
182.8401671289
21
161.0519293255
0
LINE
5
3F3
100
AcDbEntity
8
0
100
AcDbLine
62
7
6
CONTINUOUS
10
182.5901671289
20
161.5952562955
11
182.8401671289
21
161.5952562955
0
LINE
5
3F4
100
AcDbEntity
8
0
100
AcDbLine
62
7
6
CONTINUOUS
10
182.5901671289
20
162.1385832656
11
182.8401671289
21
162.1385832656
0
LINE
5
3F5
100
AcDbEntity
8
0
100
AcDbLine
62
7
6
CONTINUOUS
10
182.5901671289
20
162.5913550498
11
182.8401671289
21
162.5913550498
0
LINE
5
3F6
100
AcDbEntity
8
0
100
AcDbLine
62
7
6
CONTINUOUS
10
182.5901671289
20
162.8630185348
11
182.8401671289
21
162.8630185348
0
LINE
5
3F7
100
AcDbEntity
8
0
100
AcDbLine
62
7
6
CONTINUOUS
10
182.5901671289
20
163.0441268339
11
182.8401671289
21
163.0441268339
0
LINE
5
3F8
100
AcDbEntity
8
0
100
AcDbLine
62
7
6
CONTINUOUS
10
182.5901671289
20
163.1346820198
11
182.8401671289
21
163.1346820198
0
LINE
5
3F9
100
AcDbEntity
8
0
100
AcDbLine
62
7
6
CONTINUOUS
10
182.5901671289
20
163.2252372057
11
182.8401671289
21
163.2252372057
0
LINE
5
3FA
100
AcDbEntity
8
0
100
AcDbLine
62
7
6
CONTINUOUS
10
173.8429546042
20
167.3617740546
11
182.5901671289
21
162.5744655109
0
ARC
5
3FB
100
AcDbEntity
8
0
100
AcDbCircle
62
7
6
CONTINUOUS
10
51.2410524866
20
41.6100160919
40
1.5000000000
100
AcDbArc
50
10.0000000000
51
350.0000000000
0
ARC
5
3FC
100
AcDbEntity
8
0
100
AcDbCircle
62
7
6
CONTINUOUS
10
51.2410524866
20
41.6100160919
40
2.2320508076
100
AcDbArc
50
10.0000000000
51
350.0000000000
0
ARC
5
3FD
100
AcDbEntity
8
0
100
AcDbCircle
62
7
6
CONTINUOUS
10
86.6410524866
20
159.6100160919
40
1.5000000000
100
AcDbArc
50
10.0000000000
51
350.0000000000
0
ARC
5
3FE
100
AcDbEntity
8
0
100
AcDbCircle
62
7
6
CONTINUOUS
10
86.6410524866
20
159.6100160919
40
2.2320508076
100
AcDbArc
50
10.0000000000
51
350.0000000000
0
ARC
5
3FF
100
AcDbEntity
8
0
100
AcDbCircle
62
7
6
CONTINUOUS
10
34.9410524866
20
50.0023209373
40
6.0000000000
100
AcDbArc
50
0.0000000000
51
30.0000000000
0
ARC
5
400
100
AcDbEntity
8
0
100
AcDbCircle
62
7
6
CONTINUOUS
10
102.9410524866
20
50.0023209373
40
6.0000000000
100
AcDbArc
50
150.0000000000
51
180.0000000000
0
CIRCLE
5
401
100
AcDbEntity
8
0
100
AcDbCircle
62
7
6
CONTINUOUS
10
51.2410524866
20
41.6100160919
40
2.5000000000
0
ARC
5
402
100
AcDbEntity
8
0
100
AcDbCircle
62
7
6
CONTINUOUS
10
68.9410524866
20
60.6100160919
40
13.0000000000
100
AcDbArc
50
315.0000000000
51
225.0000000000
0
ARC
5
403
100
AcDbEntity
8
0
100
AcDbCircle
62
7
6
CONTINUOUS
10
102.9410524866
20
50.0023209373
40
7.4714592937
100
AcDbArc
50
150.0000000000
51
180.0000000000
0
ARC
5
404
100
AcDbEntity
8
0
100
AcDbCircle
62
7
6
CONTINUOUS
10
68.9410524866
20
60.6100160919
40
15.2173821645
100
AcDbArc
50
315.0000000000
51
26.0239392195
0
ARC
5
405
100
AcDbEntity
8
0
100
AcDbCircle
62
7
6
CONTINUOUS
10
68.9410524866
20
60.6100160919
40
15.2173821645
100
AcDbArc
50
153.9760607805
51
225.0000000000
0
ARC
5
406
100
AcDbEntity
8
0
100
AcDbCircle
62
7
6
CONTINUOUS
10
51.2410524866
20
41.6100160919
40
3.0000000000
100
AcDbArc
50
340.5287793655
51
199.4712206345
0
ARC
5
407
100
AcDbEntity
8
0
100
AcDbCircle
62
7
6
CONTINUOUS
10
34.9410524866
20
50.0023209373
40
7.4714592937
100
AcDbArc
50
0.0000000000
51
30.0000000000
0
CIRCLE
5
408
100
AcDbEntity
8
0
100
AcDbCircle
62
7
6
CONTINUOUS
10
86.6410524866
20
159.6100160919
40
2.5000000000
0
ARC
5
409
100
AcDbEntity
8
0
100
AcDbCircle
62
7
6
CONTINUOUS
10
102.9410524866
20
151.2177112465
40
6.0000000000
100
AcDbArc
50
180.0000000000
51
210.0000000000
0
ARC
5
40A
100
AcDbEntity
8
0
100
AcDbCircle
62
7
6
CONTINUOUS
10
34.9410524866
20
151.2177112465
40
6.0000000000
100
AcDbArc
50
330.0000000000
51
360.0000000000
0
ARC
5
40B
100
AcDbEntity
8
0
100
AcDbCircle
62
7
6
CONTINUOUS
10
68.9410524866
20
140.6100160919
40
13.0000000000
100
AcDbArc
50
135.0000000000
51
45.0000000000
0
ARC
5
40C
100
AcDbEntity
8
0
100
AcDbCircle
62
7
6
CONTINUOUS
10
68.9410524866
20
140.6100160919
40
15.2173821645
100
AcDbArc
50
333.9760607805
51
45.0000000000
0
ARC
5
40D
100
AcDbEntity
8
0
100
AcDbCircle
62
7
6
CONTINUOUS
10
102.9410524866
20
151.2177112465
40
7.4714592937
100
AcDbArc
50
180.0000000000
51
210.0000000000
0
ARC
5
40E
100
AcDbEntity
8
0
100
AcDbCircle
62
7
6
CONTINUOUS
10
34.9410524866
20
151.2177112465
40
7.4714592937
100
AcDbArc
50
330.0000000000
51
360.0000000000
0
ARC
5
40F
100
AcDbEntity
8
0
100
AcDbCircle
62
7
6
CONTINUOUS
10
68.9410524866
20
140.6100160919
40
15.2173821645
100
AcDbArc
50
135.0000000000
51
206.0239392195
0
ARC
5
410
100
AcDbEntity
8
0
100
AcDbCircle
62
7
6
CONTINUOUS
10
168.5901671289
20
41.6100160919
40
6.0500000000
100
AcDbArc
50
24.4691497438
51
155.5308502562
0
ARC
5
411
100
AcDbEntity
8
0
100
AcDbCircle
62
7
6
CONTINUOUS
10
168.5901671289
20
41.6100160919
40
6.0500000000
100
AcDbArc
50
204.4691497438
51
335.5308502562
0
ARC
5
412
100
AcDbEntity
8
0
100
AcDbCircle
62
7
6
CONTINUOUS
10
168.5901671289
20
41.6100160919
40
5.5500000000
100
AcDbArc
50
26.7846902046
51
153.2153097954
0
ARC
5
413
100
AcDbEntity
8
0
100
AcDbCircle
62
7
6
CONTINUOUS
10
168.5901671289
20
41.6100160919
40
5.5500000000
100
AcDbArc
50
206.7846902046
51
333.2153097954
0
ARC
5
414
100
AcDbEntity
8
0
100
AcDbCircle
62
7
6
CONTINUOUS
10
192.5901671289
20
67.2865914018
40
10.0000000000
100
AcDbArc
50
99.0000000000
51
180.0000000000
0
ARC
5
415
100
AcDbEntity
8
0
100
AcDbCircle
62
7
6
CONTINUOUS
10
144.5901671289
20
67.2865914018
40
10.0000000000
100
AcDbArc
50
0.0000000000
51
81.0000000000
0
CIRCLE
5
416
100
AcDbEntity
8
0
100
AcDbCircle
62
7
6
CONTINUOUS
10
168.5901671289
20
41.6100160919
40
6.1500000000
0
ARC
5
417
100
AcDbEntity
8
0
100
AcDbCircle
62
7
6
CONTINUOUS
10
168.5901671289
20
40.6100160919
40
14.0000000000
100
AcDbArc
50
180.0000000000
51
360.0000000000
0
ARC
5
418
100
AcDbEntity
8
0
100
AcDbCircle
62
7
6
CONTINUOUS
10
192.5901671289
20
133.9334407820
40
10.0000000000
100
AcDbArc
50
180.0000000000
51
260.9999971189
0
ARC
5
419
100
AcDbEntity
8
0
100
AcDbCircle
62
7
6
CONTINUOUS
10
178.5901671289
20
164.1925917868
40
4.0000000000
100
AcDbArc
50
0.0000000000
51
24.6199755396
0
CIRCLE
5
41A
100
AcDbEntity
8
0
100
AcDbCircle
62
7
6
CONTINUOUS
10
168.5901671289
20
159.6100160919
40
5.5000000000
0
ARC
5
41B
100
AcDbEntity
8
0
100
AcDbCircle
62
7
6
CONTINUOUS
10
168.5901671289
20
159.6100160919
40
15.0000000000
100
AcDbArc
50
24.6199768516
51
155.3800231484
0
ARC
5
41C
100
AcDbEntity
8
0
100
AcDbCircle
62
7
6
CONTINUOUS
10
158.5901671289
20
164.1925917868
40
4.0000000000
100
AcDbArc
50
155.3800244604
51
180.0000000000
0
ARC
5
41D
100
AcDbEntity
8
0
100
AcDbCircle
62
7
6
CONTINUOUS
10
144.5901671289
20
133.9334407820
40
10.0000000000
100
AcDbArc
50
279.0000028811
51
360.0000000000
0
SPLINE
5
41E
100
AcDbEntity
8
0
100
AcDbSpline
62
7
6
CONTINUOUS
70
0
71
3
72
15
73
11
74
9
42
0.0000001000
43
0.0000001000
44
0.0000000001
12
6.3519714540
22
0.0000000000
32
0.0000000000
13
0.0000000000
23
6.3519714540
33
0.0000000000
40
0.0000000000
40
0.0000000000
40
0.0000000000
40
0.0000000000
40
0.0355555935
40
0.0984150141
40
0.1925947966
40
0.3159061139
40
0.4640592776
40
0.6316174866
40
0.8124422659
40
1.0000000000
40
1.0000000000
40
1.0000000000
40
1.0000000000
10
74.4410524866
20
35.4600160919
30
0.0000000000
10
74.5163351916
20
35.4600160919
30
0.0000000000
10
74.6956176216
20
35.6207616782
30
0.0000000000
10
74.8451328919
20
35.9914756251
30
0.0000000000
10
75.0112048849
20
36.5669082282
30
0.0000000000
10
75.1476568576
20
37.3281759765
30
0.0000000000
10
75.2644917278
20
38.2511445513
30
0.0000000000
10
75.3501524540
20
39.2991156917
30
0.0000000000
10
75.4032870413
20
40.4328603786
30
0.0000000000
10
75.4151167946
20
41.2128956343
30
0.0000000000
10
75.4151167946
20
41.6100160919
30
0.0000000000
11
74.4410524866
21
35.4600160919
31
0.0000000000
11
74.6324497902
21
35.5799095577
31
0.0000000000
11
74.8161898967
21
35.9344022742
31
0.0000000000
11
74.9850090269
21
36.5083151526
31
0.0000000000
11
75.1323896574
21
37.2775945503
31
0.0000000000
11
75.2528195848
21
38.2109215772
31
0.0000000000
11
75.3419506357
21
39.2715078669
31
0.0000000000
11
75.3966699440
21
40.4187975417
31
0.0000000000
11
75.4151167946
21
41.6100160919
31
0.0000000000
0
SPLINE
5
41F
100
AcDbEntity
8
0
100
AcDbSpline
62
7
6
CONTINUOUS
70
0
71
3
72
14
73
10
74
8
42
0.0000001000
43
0.0000001000
44
0.0000000001
12
0.0000000000
22
6.1372417280
32
0.0000000000
13
-3.8966138325
23
4.7415331558
33
0.0000000000
40
0.0000000000
40
0.0000000000
40
0.0000000000
40
0.0000000000
40
0.1951395646
40
0.3832016585
40
0.5573154570
40
0.7110344328
40
0.8386588760
40
0.9357153099
40
1.0000000000
40
1.0000000000
40
1.0000000000
40
1.0000000000
10
75.4151167946
20
41.6100160919
30
0.0000000000
10
75.4151167946
20
42.0092223181
30
0.0000000000
10
75.4031383238
20
42.7932243402
30
0.0000000000
10
75.3495808736
20
43.9322463116
30
0.0000000000
10
75.2626958997
20
44.9844668587
30
0.0000000000
10
75.1459501262
20
45.9087905955
30
0.0000000000
10
75.0050336844
20
46.6718428728
30
0.0000000000
10
74.8460458127
20
47.2393476783
30
0.0000000000
10
74.7088868278
20
47.5472823138
30
0.0000000000
10
74.6253892903
20
47.6488849769
30
0.0000000000
11
75.4151167946
21
41.6100160919
31
0.0000000000
11
75.3964738140
21
42.8074896567
31
0.0000000000
11
75.3411785209
21
43.9603468651
31
0.0000000000
11
75.2511317545
21
45.0251245539
31
0.0000000000
11
75.1295125309
21
45.9606629869
31
0.0000000000
11
74.9807610220
21
46.7296704255
31
0.0000000000
11
74.8105039102
21
47.3004785521
31
0.0000000000
11
74.6253892903
21
47.6488849769
31
0.0000000000
0
SPLINE
5
420
100
AcDbEntity
8
0
100
AcDbSpline
62
7
6
CONTINUOUS
70
0
71
3
72
9
73
5
74
3
42
0.0000001000
43
0.0000001000
44
0.0000000001
12
-0.0323703973
22
0.1995619847
32
0.0000000000
13
-0.2021702954
23
-0.0000000000
33
0.0000000000
40
0.0000000000
40
0.0000000000
40
0.0000000000
40
0.0000000000
40
0.4686507079
40
1.0000000000
40
1.0000000000
40
1.0000000000
40
1.0000000000
10
74.6253892903
20
47.6488849769
30
0.0000000000
10
74.6203324871
20
47.6800599320
30
0.0000000000
10
74.5862184937
20
47.7486089274
30
0.0000000000
10
74.5116364786
20
47.7600160919
30
0.0000000000
10
74.4758287975
20
47.7600160919
30
0.0000000000
11
74.6253892903
21
47.6488849769
31
0.0000000000
11
74.5794692601
21
47.7317607429
31
0.0000000000
11
74.4758287975
21
47.7600160919
31
0.0000000000
0
SPLINE
5
421
100
AcDbEntity
8
0
100
AcDbSpline
62
7
6
CONTINUOUS
70
0
71
3
72
15
73
11
74
9
42
0.0000001000
43
0.0000001000
44
0.0000000001
12
0.0000000000
22
-5.5875838796
32
0.0000000000
13
5.5875838796
23
0.0000000000
33
0.0000000000
40
0.0000000000
40
0.0000000000
40
0.0000000000
40
0.0000000000
40
0.1914706896
40
0.3757738835
40
0.5460329737
40
0.6958368936
40
0.8195485407
40
0.9126286868
40
0.9722148009
40
1.0000000000
40
1.0000000000
40
1.0000000000
40
1.0000000000
10
96.3629791927
20
41.6100160919
30
0.0000000000
10
96.3629791927
20
41.2533965791
30
0.0000000000
10
96.3700381691
20
40.5535252405
30
0.0000000000
10
96.4018275532
20
39.5367657994
30
0.0000000000
10
96.4527282895
20
38.5992269507
30
0.0000000000
10
96.5226987360
20
37.7736930076
30
0.0000000000
10
96.6020873575
20
37.1004761851
30
0.0000000000
10
96.7029101763
20
36.5819889240
30
0.0000000000
10
96.7817891642
20
36.2812825594
30
0.0000000000
10
96.8893017764
20
36.1100160919
30
0.0000000000
10
96.9410524866
20
36.1100160919
30
0.0000000000
11
96.3629791927
21
41.6100160919
31
0.0000000000
11
96.3740200116
21
40.5402145250
31
0.0000000000
11
96.4067360502
21
39.5109247788
31
0.0000000000
11
96.4599325694
21
38.5610763074
31
0.0000000000
11
96.5316441064
21
37.7271118530
31
0.0000000000
11
96.6191862113
21
37.0414283667
31
0.0000000000
11
96.7192330093
21
36.5310486103
31
0.0000000000
11
96.8279315615
21
36.2163499079
31
0.0000000000
11
96.9410524866
21
36.1100160919
31
0.0000000000
0
SPLINE
5
422
100
AcDbEntity
8
0
100
AcDbSpline
62
7
6
CONTINUOUS
70
0
71
3
72
10
73
6
74
4
42
0.0000001000
43
0.0000001000
44
0.0000000001
12
7.1277025098
22
-1.1042137283
32
0.0000000000
13
6.7647580778
23
-2.5022947817
33
0.0000000000
40
0.0000000000
40
0.0000000000
40
0.0000000000
40
0.0000000000
40
0.3332348695
40
0.6665333929
40
1.0000000000
40
1.0000000000
40
1.0000000000
40
1.0000000000
10
74.4410524866
20
28.4198506071
30
0.0000000000
10
75.2327854918
20
28.2971964346
30
0.0000000000
10
76.8087222433
20
27.9987821021
30
0.0000000000
10
79.1373784263
20
27.3942134379
30
0.0000000000
10
80.6599828311
20
26.8881600088
30
0.0000000000
10
81.4119231390
20
26.6100160919
30
0.0000000000
11
74.4410524866
21
28.4198506071
31
0.0000000000
11
76.8026204670
21
27.9726778751
31
0.0000000000
11
79.1294752213
21
27.3685909991
31
0.0000000000
11
81.4119231390
21
26.6100160919
31
0.0000000000
0
SPLINE
5
423
100
AcDbEntity
8
0
100
AcDbSpline
62
7
6
CONTINUOUS
70
0
71
3
72
15
73
11
74
9
42
0.0000001000
43
0.0000001000
44
0.0000000001
12
-6.3519714540
22
0.0000000000
32
0.0000000000
13
0.0000000000
23
6.3519714540
33
0.0000000000
40
0.0000000000
40
0.0000000000
40
0.0000000000
40
0.0000000000
40
0.0355555935
40
0.0984150141
40
0.1925947966
40
0.3159061139
40
0.4640592776
40
0.6316174866
40
0.8124422659
40
1.0000000000
40
1.0000000000
40
1.0000000000
40
1.0000000000
10
63.4410524866
20
35.4600160919
30
0.0000000000
10
63.3657697817
20
35.4600160919
30
0.0000000000
10
63.1864873517
20
35.6207616782
30
0.0000000000
10
63.0369720813
20
35.9914756251
30
0.0000000000
10
62.8709000884
20
36.5669082282
30
0.0000000000
10
62.7344481156
20
37.3281759765
30
0.0000000000
10
62.6176132455
20
38.2511445513
30
0.0000000000
10
62.5319525192
20
39.2991156917
30
0.0000000000
10
62.4788179320
20
40.4328603786
30
0.0000000000
10
62.4669881786
20
41.2128956343
30
0.0000000000
10
62.4669881786
20
41.6100160919
30
0.0000000000
11
63.4410524866
21
35.4600160919
31
0.0000000000
11
63.2496551830
21
35.5799095577
31
0.0000000000
11
63.0659150765
21
35.9344022742
31
0.0000000000
11
62.8970959464
21
36.5083151526
31
0.0000000000
11
62.7497153159
21
37.2775945503
31
0.0000000000
11
62.6292853885
21
38.2109215772
31
0.0000000000
11
62.5401543375
21
39.2715078669
31
0.0000000000
11
62.4854350293
21
40.4187975417
31
0.0000000000
11
62.4669881786
21
41.6100160919
31
0.0000000000
0
SPLINE
5
424
100
AcDbEntity
8
0
100
AcDbSpline
62
7
6
CONTINUOUS
70
0
71
3
72
14
73
10
74
8
42
0.0000001000
43
0.0000001000
44
0.0000000001
12
0.0000000000
22
6.1372417280
32
0.0000000000
13
3.8966138325
23
4.7415331558
33
0.0000000000
40
0.0000000000
40
0.0000000000
40
0.0000000000
40
0.0000000000
40
0.1951395646
40
0.3832016585
40
0.5573154570
40
0.7110344328
40
0.8386588760
40
0.9357153099
40
1.0000000000
40
1.0000000000
40
1.0000000000
40
1.0000000000
10
62.4669881786
20
41.6100160919
30
0.0000000000
10
62.4669881786
20
42.0092223181
30
0.0000000000
10
62.4789666494
20
42.7932243402
30
0.0000000000
10
62.5325240996
20
43.9322463116
30
0.0000000000
10
62.6194090736
20
44.9844668587
30
0.0000000000
10
62.7361548471
20
45.9087905955
30
0.0000000000
10
62.8770712888
20
46.6718428728
30
0.0000000000
10
63.0360591605
20
47.2393476783
30
0.0000000000
10
63.1732181454
20
47.5472823138
30
0.0000000000
10
63.2567156829
20
47.6488849769
30
0.0000000000
11
62.4669881786
21
41.6100160919
31
0.0000000000
11
62.4856311593
21
42.8074896567
31
0.0000000000
11
62.5409264524
21
43.9603468651
31
0.0000000000
11
62.6309732187
21
45.0251245539
31
0.0000000000
11
62.7525924423
21
45.9606629869
31
0.0000000000
11
62.9013439512
21
46.7296704255
31
0.0000000000
11
63.0716010630
21
47.3004785521
31
0.0000000000
11
63.2567156829
21
47.6488849769
31
0.0000000000
0
SPLINE
5
425
100
AcDbEntity
8
0
100
AcDbSpline
62
7
6
CONTINUOUS
70
0
71
3
72
9
73
5
74
3
42
0.0000001000
43
0.0000001000
44
0.0000000001
12
0.0323703973
22
0.1995619847
32
0.0000000000
13
0.2021702954
23
0.0000000000
33
0.0000000000
40
0.0000000000
40
0.0000000000
40
0.0000000000
40
0.0000000000
40
0.4686507079
40
1.0000000000
40
1.0000000000
40
1.0000000000
40
1.0000000000
10
63.2567156829
20
47.6488849769
30
0.0000000000
10
63.2617724861
20
47.6800599320
30
0.0000000000
10
63.2958864795
20
47.7486089274
30
0.0000000000
10
63.3704684946
20
47.7600160919
30
0.0000000000
10
63.4062761758
20
47.7600160919
30
0.0000000000
11
63.2567156829
21
47.6488849769
31
0.0000000000
11
63.3026357131
21
47.7317607429
31
0.0000000000
11
63.4062761758
21
47.7600160919
31
0.0000000000
0
SPLINE
5
426
100
AcDbEntity
8
0
100
AcDbSpline
62
7
6
CONTINUOUS
70
0
71
3
72
14
73
10
74
8
42
0.0000001000
43
0.0000001000
44
0.0000000001
12
0.0000000000
22
7.2209991571
32
0.0000000000
13
-5.1060174709
23
5.1060174709
33
0.0000000000
40
0.0000000000
40
0.0000000000
40
0.0000000000
40
0.0000000000
40
0.2057232512
40
0.4028826756
40
0.5831849951
40
0.7389101576
40
0.8633092330
40
0.9511485018
40
1.0000000000
40
1.0000000000
40
1.0000000000
40
1.0000000000
10
41.6210745679
20
41.6100160919
30
0.0000000000
10
41.6210745679
20
42.1051918996
30
0.0000000000
10
41.6106184134
20
43.0750185650
30
0.0000000000
10
41.5637483681
20
44.4778701301
30
0.0000000000
10
41.4884787243
20
45.7598983746
30
0.0000000000
10
41.3869880638
20
46.8617251946
30
0.0000000000
10
41.2693466812
20
47.7452469623
30
0.0000000000
10
41.1333214731
20
48.3485297069
30
0.0000000000
10
41.0241980210
20
48.6768705575
30
0.0000000000
10
40.9410524866
20
48.7600160919
30
0.0000000000
11
41.6210745679
21
41.6100160919
31
0.0000000000
11
41.6046798840
21
43.0954530443
31
0.0000000000
11
41.5561322344
21
44.5183131056
31
0.0000000000
11
41.4773413680
21
45.8178897229
31
0.0000000000
11
41.3714881094
21
46.9373876896
31
0.0000000000
11
41.2429820055
21
47.8264339393
31
0.0000000000
11
41.0973546853
21
48.4437774786
31
0.0000000000
11
40.9410524866
21
48.7600160919
31
0.0000000000
0
SPLINE
5
427
100
AcDbEntity
8
0
100
AcDbSpline
62
7
6
CONTINUOUS
70
0
71
3
72
10
73
6
74
4
42
0.0000001000
43
0.0000001000
44
0.0000000001
12
-7.1277025098
22
-1.1042137283
32
0.0000000000
13
-6.7647580778
23
-2.5022947817
33
0.0000000000
40
0.0000000000
40
0.0000000000
40
0.0000000000
40
0.0000000000
40
0.3332497751
40
0.6666095452
40
1.0000000000
40
1.0000000000
40
1.0000000000
40
1.0000000000
10
63.4410524866
20
28.4198506071
30
0.0000000000
10
62.6492840672
20
28.2971909483
30
0.0000000000
10
61.0731676633
20
27.9987401658
30
0.0000000000
10
58.7445161776
20
27.3941499915
30
0.0000000000
10
57.2219504249
20
26.8880964903
30
0.0000000000
10
56.4701818342
20
26.6100160919
30
0.0000000000
11
63.4410524866
21
28.4198506071
31
0.0000000000
11
61.0793795426
21
27.9726543396
31
0.0000000000
11
58.7521027269
21
27.3684351952
31
0.0000000000
11
56.4701818342
21
26.6100160919
31
0.0000000000
0
SPLINE
5
428
100
AcDbEntity
8
0
100
AcDbSpline
62
7
6
CONTINUOUS
70
0
71
3
72
15
73
11
74
9
42
0.0000001000
43
0.0000001000
44
0.0000000001
12
-5.5875839094
22
0.0000000000
32
0.0000000000
13
0.0000000000
23
-5.5875839094
33
0.0000000000
40
0.0000000000
40
0.0000000000
40
0.0000000000
40
0.0000000000
40
0.0277850936
40
0.0873710810
40
0.1804512413
40
0.3041630967
40
0.4539673345
40
0.6242266642
40
0.8085298035
40
1.0000000000
40
1.0000000000
40
1.0000000000
40
1.0000000000
10
96.9410524866
20
47.1100160919
30
0.0000000000
10
96.8893019727
20
47.1100160919
30
0.0000000000
10
96.7817894090
20
46.9387503712
30
0.0000000000
10
96.7029104285
20
46.6380442491
30
0.0000000000
10
96.6020874526
20
46.1195568867
30
0.0000000000
10
96.5226987118
20
45.4463390455
30
0.0000000000
10
96.4527281689
20
44.6208036786
30
0.0000000000
10
96.4018274456
20
43.6832638841
30
0.0000000000
10
96.3700381410
20
42.6665050106
30
0.0000000000
10
96.3629791927
20
41.9666346883
30
0.0000000000
10
96.3629791927
20
41.6100160919
30
0.0000000000
11
96.9410524866
21
47.1100160919
31
0.0000000000
11
96.8279318518
21
47.0036828269
31
0.0000000000
11
96.7192333345
21
46.6889848594
31
0.0000000000
11
96.6191864038
21
46.1786050451
31
0.0000000000
11
96.5316441143
21
45.4929204055
31
0.0000000000
11
96.4599324502
21
44.6589541745
31
0.0000000000
11
96.4067359180
21
43.7091043585
31
0.0000000000
11
96.3740199544
21
42.6798149100
31
0.0000000000
11
96.3629791927
21
41.6100160919
31
0.0000000000
0
SPLINE
5
429
100
AcDbEntity
8
0
100
AcDbSpline
62
7
6
CONTINUOUS
70
0
71
3
72
14
73
10
74
8
42
0.0000001000
43
0.0000001000
44
0.0000000001
12
5.1060174523
22
5.1060174523
32
0.0000000000
13
0.0000000000
23
7.2209991307
33
0.0000000000
40
0.0000000000
40
0.0000000000
40
0.0000000000
40
0.0000000000
40
0.0488513513
40
0.1366946169
40
0.2610988588
40
0.4168285892
40
0.5971320500
40
0.7942872063
40
1.0000000000
40
1.0000000000
40
1.0000000000
40
1.0000000000
10
40.9410524866
20
34.4600160919
30
0.0000000000
10
41.0241977707
20
34.5431613759
30
0.0000000000
10
41.1333245230
20
34.8715112209
30
0.0000000000
10
41.2693522763
20
35.4748152284
30
0.0000000000
10
41.3869954401
20
36.3583703202
30
0.0000000000
10
41.4884853973
20
37.4602234473
30
0.0000000000
10
41.5637524488
20
38.7422552992
30
0.0000000000
10
41.6106193132
20
40.1450742500
30
0.0000000000
10
41.6210745679
20
41.1148654571
30
0.0000000000
10
41.6210745679
20
41.6100160919
30
0.0000000000
11
40.9410524866
21
34.4600160919
31
0.0000000000
11
41.0973543552
21
34.7762536838
31
0.0000000000
11
41.2429869845
21
35.3936256211
31
0.0000000000
11
41.3714956538
21
36.2827091912
31
0.0000000000
11
41.4773488310
21
37.4022402934
31
0.0000000000
11
41.5561372005
21
38.7018253142
31
0.0000000000
11
41.6046815690
21
40.1246546444
31
0.0000000000
11
41.6210745679
21
41.6100160919
31
0.0000000000
0
SPLINE
5
42A
100
AcDbEntity
8
0
100
AcDbSpline
62
7
6
CONTINUOUS
70
0
71
3
72
14
73
10
74
8
42
0.0000001000
43
0.0000001000
44
0.0000000001
12
-0.4287916583
22
9.9530219128
32
0.0000000000
13
-5.2263448935
23
8.4812632631
33
0.0000000000
40
0.0000000000
40
0.0000000000
40
0.0000000000
40
0.0000000000
40
0.0939366241
40
0.2022589133
40
0.3263122871
40
0.4673154921
40
0.6262852654
40
0.8038473649
40
1.0000000000
40
1.0000000000
40
1.0000000000
40
1.0000000000
10
46.0660660278
20
29.3940451139
30
0.0000000000
10
46.0526396142
20
29.7056962066
30
0.0000000000
10
45.9744790282
20
30.3747835017
30
0.0000000000
10
45.7370870881
20
31.4334161524
30
0.0000000000
10
45.3659514965
20
32.6177484175
30
0.0000000000
10
44.8531944365
20
33.9301352475
30
0.0000000000
10
44.1897862662
20
35.3713698801
30
0.0000000000
10
43.3671183754
20
36.9381234986
30
0.0000000000
10
42.7384218302
20
38.0086986094
30
0.0000000000
10
42.3967013891
20
38.5632393222
30
0.0000000000
11
46.0660660278
21
29.3940451139
31
0.0000000000
11
45.9651584976
21
30.3244094082
31
0.0000000000
11
45.7350749945
21
31.3787301114
31
0.0000000000
11
45.3703011288
21
32.5595215007
31
0.0000000000
11
44.8629919589
21
33.8694249032
31
0.0000000000
11
44.2039648434
21
35.3094875203
31
0.0000000000
11
43.3841946207
21
36.8769856416
31
0.0000000000
11
42.3967013891
21
38.5632393222
31
0.0000000000
0
SPLINE
5
42B
100
AcDbEntity
8
0
100
AcDbSpline
62
7
6
CONTINUOUS
70
0
71
3
72
12
73
8
74
6
42
0.0000001000
43
0.0000001000
44
0.0000000001
12
0.0000000000
22
3.4123949451
32
0.0000000000
13
-2.1785245197
23
-2.6264938946
33
0.0000000000
40
0.0000000000
40
0.0000000000
40
0.0000000000
40
0.0000000000
40
0.1085309092
40
0.1890318820
40
0.3453101393
40
0.6086515251
40
1.0000000000
40
1.0000000000
40
1.0000000000
40
1.0000000000
10
101.9410524866
20
60.2702701297
30
0.0000000000
10
101.9410524866
20
60.3937202384
30
0.0000000000
10
101.9327882965
20
60.6776116255
30
0.0000000000
10
101.4585042018
20
60.6931008873
30
0.0000000000
10
101.0290526614
20
60.3035459940
30
0.0000000000
10
100.3521340048
20
59.6845640585
30
0.0000000000
10
99.8721917152
20
59.1097902469
30
0.0000000000
10
99.5880042990
20
58.7671654536
30
0.0000000000
11
101.9410524866
21
60.2702701297
31
0.0000000000
11
101.8487013877
21
60.6289212673
31
0.0000000000
11
101.5766741503
21
60.6671558498
31
0.0000000000
11
101.1223837010
21
60.3878511952
31
0.0000000000
11
100.4697463893
21
59.7701205945
31
0.0000000000
11
99.5880042990
21
58.7671654536
31
0.0000000000
0
SPLINE
5
42C
100
AcDbEntity
8
0
100
AcDbSpline
62
7
6
CONTINUOUS
70
0
71
3
72
11
73
7
74
5
42
0.0000001000
43
0.0000001000
44
0.0000000001
12
2.9824148257
22
0.7614917603
32
0.0000000000
13
0.6937149522
23
2.9989043763
33
0.0000000000
40
0.0000000000
40
0.0000000000
40
0.0000000000
40
0.0000000000
40
0.1364420762
40
0.3433422081
40
0.6310745104
40
1.0000000000
40
1.0000000000
40
1.0000000000
40
1.0000000000
10
74.4410524866
20
28.4198506071
30
0.0000000000
10
74.5766947769
20
28.4544837794
30
0.0000000000
10
74.8620619641
20
28.7020806242
30
0.0000000000
10
75.1707776236
20
29.2694266010
30
0.0000000000
10
75.4791324351
20
30.1045165922
30
0.0000000000
10
75.6483182174
20
30.7568632723
30
0.0000000000
10
75.7336279269
20
31.1256540273
30
0.0000000000
11
74.4410524866
21
28.4198506071
31
0.0000000000
11
74.7849598968
21
28.6609154969
31
0.0000000000
11
75.1198014232
21
29.2026438029
31
0.0000000000
11
75.4376047358
21
30.0293285381
31
0.0000000000
11
75.7336279269
21
31.1256540273
31
0.0000000000
0
SPLINE
5
42D
100
AcDbEntity
8
0
100
AcDbSpline
62
7
6
CONTINUOUS
70
0
71
3
72
9
73
5
74
3
42
0.0000001000
43
0.0000001000
44
0.0000000001
12
0.0317898582
22
2.0466063408
32
0.0000000000
13
0.0000000000
23
2.0468532213
33
0.0000000000
40
0.0000000000
40
0.0000000000
40
0.0000000000
40
0.0000000000
40
0.4967609962
40
1.0000000000
40
1.0000000000
40
1.0000000000
40
1.0000000000
10
42.3967013891
20
38.5632393222
30
0.0000000000
10
42.4019653763
20
38.9021307237
30
0.0000000000
10
42.4098772025
20
39.5843769834
30
0.0000000000
10
42.4125117803
20
40.2666639665
30
0.0000000000
10
42.4125117803
20
40.6100160919
30
0.0000000000
11
42.3967013891
21
38.5632393222
31
0.0000000000
11
42.4085236752
21
39.5799674363
31
0.0000000000
11
42.4125117803
21
40.6100160919
31
0.0000000000
0
SPLINE
5
42E
100
AcDbEntity
8
0
100
AcDbSpline
62
7
6
CONTINUOUS
70
0
71
3
72
20
73
16
74
14
42
0.0000001000
43
0.0000001000
44
0.0000000001
12
-47.8721650625
22
8.1784819082
32
0.0000000000
13
-47.8721650625
23
-8.1784819082
33
0.0000000000
40
0.0000000000
40
0.0000000000
40
0.0000000000
40
0.0000000000
40
0.0632425954
40
0.1332345393
40
0.2088096313
40
0.2888027765
40
0.3719912403
40
0.4571142818
40
0.5428875954
40
0.6280104796
40
0.7111986568
40
0.7911914228
40
0.8667660696
40
0.9367576203
40
1.0000000000
40
1.0000000000
40
1.0000000000
40
1.0000000000
10
93.1410807724
20
77.1634748077
30
0.0000000000
10
92.1318941174
20
77.3358842818
30
0.0000000000
10
89.9977388364
20
77.6523148389
30
0.0000000000
10
86.6390177029
20
78.0378584290
30
0.0000000000
10
83.0007957373
20
78.3538521072
30
0.0000000000
10
79.1428709867
20
78.5951760182
30
0.0000000000
10
75.1261723741
20
78.7581077921
30
0.0000000000
10
71.0134391859
20
78.8401894867
30
0.0000000000
10
66.8685771589
20
78.8401885851
30
0.0000000000
10
62.7558511912
20
78.7581052784
30
0.0000000000
10
58.7391659608
20
78.5951724286
30
0.0000000000
10
54.8812592509
20
78.3538482542
30
0.0000000000
10
51.2430570198
20
78.0378552299
30
0.0000000000
10
47.8843529163
20
77.6523129594
30
0.0000000000
10
45.7502074145
20
77.3358836939
30
0.0000000000
10
44.7410242008
20
77.1634748077
30
0.0000000000
11
93.1410807724
21
77.1634748077
31
0.0000000000
11
90.1038372029
21
77.6204169072
31
0.0000000000
11
86.7273211576
21
78.0125584025
31
0.0000000000
11
83.0710048561
21
78.3333376508
31
0.0000000000
11
79.1937924356
21
78.5780422359
31
0.0000000000
11
75.1570573726
21
78.7431414071
31
0.0000000000
11
71.0238294158
21
78.8262821542
31
0.0000000000
11
66.8581843887
21
78.8262812410
31
0.0000000000
11
62.7249641048
21
78.7431388707
31
0.0000000000
11
58.6882430161
21
78.5780386368
31
0.0000000000
11
54.8110490658
21
78.3333338197
31
0.0000000000
11
51.1547543927
21
78.0125554206
31
0.0000000000
11
47.7782573857
21
77.6204155325
31
0.0000000000
11
44.7410242008
21
77.1634748077
31
0.0000000000
0
SPLINE
5
42F
100
AcDbEntity
8
0
100
AcDbSpline
62
7
6
CONTINUOUS
70
0
71
3
72
20
73
16
74
14
42
0.0000001000
43
0.0000001000
44
0.0000000001
12
0.0000000000
22
12.4797754603
32
0.0000000000
13
-12.3015481317
23
2.1015967986
33
0.0000000000
40
0.0000000000
40
0.0000000000
40
0.0000000000
40
0.0000000000
40
0.1341847108
40
0.2483639201
40
0.3450749546
40
0.4293488595
40
0.5045363846
40
0.5740195237
40
0.6398656173
40
0.7023890969
40
0.7624109103
40
0.8207807042
40
0.8789124192
40
0.9381846677
40
1.0000000000
40
1.0000000000
40
1.0000000000
40
1.0000000000
10
98.8241580816
20
67.2865914018
30
0.0000000000
10
98.8241580816
20
67.8447897556
30
0.0000000000
10
98.7840821399
20
68.8785037582
30
0.0000000000
10
98.6181930628
20
70.3056882173
30
0.0000000000
10
98.3828670619
20
71.5120669368
30
0.0000000000
10
98.0947448775
20
72.5393249993
30
0.0000000000
10
97.7573541525
20
73.4313977310
30
0.0000000000
10
97.3677702799
20
74.2174781381
30
0.0000000000
10
96.9211010135
20
74.9111013965
30
0.0000000000
10
96.4161585725
20
75.5133753217
30
0.0000000000
10
95.8574790963
20
76.0211989333
30
0.0000000000
10
95.2490402994
20
76.4364715456
30
0.0000000000
10
94.5929579988
20
76.7641161415
30
0.0000000000
10
93.8873407684
20
77.0102684356
30
0.0000000000
10
93.3945555343
20
77.1201711729
30
0.0000000000
10
93.1410807724
20
77.1634748077
30
0.0000000000
11
98.8241580816
21
67.2865914018
31
0.0000000000
11
98.7577005534
21
68.9598672357
31
0.0000000000
11
98.5902276522
21
70.3749223156
31
0.0000000000
11
98.3560292837
21
71.5589138545
31
0.0000000000
11
98.0689833132
21
72.5707035210
31
0.0000000000
11
97.7342188184
21
73.4472784434
31
0.0000000000
11
97.3465205110
21
74.2229145379
31
0.0000000000
11
96.8993231754
21
74.9123189947
31
0.0000000000
11
96.3964448769
21
75.5089333717
31
0.0000000000
11
95.8414619788
21
76.0120069242
31
0.0000000000
11
95.2398631073
21
76.4227458079
31
0.0000000000
11
94.5913250077
21
76.7478706211
31
0.0000000000
11
93.8935093775
21
76.9932598512
31
0.0000000000
11
93.1410807724
21
77.1634748077
31
0.0000000000
0
SPLINE
5
430
100
AcDbEntity
8
0
100
AcDbSpline
62
7
6
CONTINUOUS
70
0
71
3
72
12
73
8
74
6
42
0.0000001000
43
0.0000001000
44
0.0000000001
12
-2.1785271366
22
2.6264970497
32
0.0000000000
13
0.0000000000
23
-3.4123990443
33
0.0000000000
40
0.0000000000
40
0.0000000000
40
0.0000000000
40
0.0000000000
40
0.3913783922
40
0.6547362213
40
0.8109930262
40
0.8914783534
40
1.0000000000
40
1.0000000000
40
1.0000000000
40
1.0000000000
10
38.2941006742
20
58.7671654536
30
0.0000000000
10
38.0098911915
20
59.1098168510
30
0.0000000000
10
37.5299092073
20
59.6846389584
30
0.0000000000
10
36.8529737990
20
60.3036118620
30
0.0000000000
10
36.4234957165
20
60.6931630068
30
0.0000000000
10
35.9492953771
20
60.6775458371
30
0.0000000000
10
35.9410524866
20
60.3937098507
30
0.0000000000
10
35.9410524866
20
60.2702701297
30
0.0000000000
11
38.2941006742
21
58.7671654536
31
0.0000000000
11
37.4122870829
21
59.7701958033
31
0.0000000000
11
36.7595956609
21
60.3879524323
31
0.0000000000
11
36.3053454334
21
60.6671839572
31
0.0000000000
11
36.0333793810
21
60.6288953200
31
0.0000000000
11
35.9410524866
21
60.2702701297
31
0.0000000000
0
SPLINE
5
431
100
AcDbEntity
8
0
100
AcDbSpline
62
7
6
CONTINUOUS
70
0
71
3
72
12
73
8
74
6
42
0.0000001000
43
0.0000001000
44
0.0000000001
12
2.8464677978
22
2.2563599661
32
0.0000000000
13
3.2792262408
23
-1.5621185878
33
0.0000000000
40
0.0000000000
40
0.0000000000
40
0.0000000000
40
0.0000000000
40
0.3447485170
40
0.6079027905
40
0.7984316587
40
0.9253322904
40
1.0000000000
40
1.0000000000
40
1.0000000000
40
1.0000000000
10
75.7336279269
20
47.1898375033
30
0.0000000000
10
76.0607331109
20
47.4491297540
30
0.0000000000
10
76.6457501811
20
47.8970485062
30
0.0000000000
10
77.4399622710
20
48.4460470244
30
0.0000000000
10
78.0530514904
20
48.8005849360
30
0.0000000000
10
78.4825928094
20
48.9853176350
30
0.0000000000
10
78.7462950157
20
49.0151277566
30
0.0000000000
10
78.8279124533
20
48.9762478176
30
0.0000000000
11
75.7336279269
21
47.1898375033
31
0.0000000000
11
76.7305998012
21
47.9475442646
31
0.0000000000
11
77.5215564712
21
48.4842400835
31
0.0000000000
11
78.1247604204
21
48.8234847684
31
0.0000000000
11
78.5568113257
21
48.9841015186
31
0.0000000000
11
78.8279124533
21
48.9762478176
31
0.0000000000
0
SPLINE
5
432
100
AcDbEntity
8
0
100
AcDbSpline
62
7
6
CONTINUOUS
70
0
71
3
72
13
73
9
74
7
42
0.0000001000
43
0.0000001000
44
0.0000000001
12
0.9050543702
22
-5.3368999236
32
0.0000000000
13
4.9702259477
23
-2.1444062666
33
0.0000000000
40
0.0000000000
40
0.0000000000
40
0.0000000000
40
0.0000000000
40
0.1792498814
40
0.3482974844
40
0.5105478708
40
0.6728484235
40
0.8379106032
40
1.0000000000
40
1.0000000000
40
1.0000000000
40
1.0000000000
10
59.2595419972
20
35.4046956679
30
0.0000000000
10
59.3136189600
20
35.0858161084
30
0.0000000000
10
59.4415625571
20
34.4695363315
30
0.0000000000
10
59.7253979700
20
33.5906471955
30
0.0000000000
10
60.1234000011
20
32.7890857976
30
0.0000000000
10
60.6666958451
20
32.0836876622
30
0.0000000000
10
61.3542379204
20
31.5178356046
30
0.0000000000
10
61.8799367378
20
31.2415158667
30
0.0000000000
10
62.1484770463
20
31.1256540273
30
0.0000000000
11
59.2595419972
21
35.4046956679
31
0.0000000000
11
59.4627089123
21
34.4559071631
31
0.0000000000
11
59.7507745013
21
33.5873604290
31
0.0000000000
11
60.1479622958
21
32.8040261332
31
0.0000000000
11
60.6873748040
21
32.1105695855
31
0.0000000000
11
61.3752515246
21
31.5403383182
31
0.0000000000
11
62.1484770463
21
31.1256540273
31
0.0000000000
0
SPLINE
5
433
100
AcDbEntity
8
0
100
AcDbSpline
62
7
6
CONTINUOUS
70
0
71
3
72
9
73
5
74
3
42
0.0000001000
43
0.0000001000
44
0.0000000001
12
-0.7529567957
22
0.9561488239
32
0.0000000000
13
-0.7769710032
23
0.9367393287
33
0.0000000000
40
0.0000000000
40
0.0000000000
40
0.0000000000
40
0.0000000000
40
0.5258490516
40
1.0000000000
40
1.0000000000
40
1.0000000000
40
1.0000000000
10
39.0579468916
20
57.8197243020
30
0.0000000000
10
38.9259663527
20
57.9873209527
30
0.0000000000
10
38.6734039052
20
58.3048006800
30
0.0000000000
10
38.4169011869
20
58.6191135065
30
0.0000000000
10
38.2941006742
20
58.7671654536
30
0.0000000000
11
39.0579468916
21
57.8197243020
31
0.0000000000
11
38.6592573530
21
58.3203380771
31
0.0000000000
11
38.2941006742
21
58.7671654536
31
0.0000000000
0
SPLINE
5
434
100
AcDbEntity
8
0
100
AcDbSpline
62
7
6
CONTINUOUS
70
0
71
3
72
9
73
5
74
3
42
0.0000001000
43
0.0000001000
44
0.0000000001
12
-0.1175125979
22
0.2035377901
32
0.0000000000
13
-0.1130015900
23
0.2060764017
33
0.0000000000
40
0.0000000000
40
0.0000000000
40
0.0000000000
40
0.0000000000
40
0.5020324368
40
1.0000000000
40
1.0000000000
40
1.0000000000
40
1.0000000000
10
39.1732184362
20
57.6149130740
30
0.0000000000
10
39.1535533909
20
57.6489739316
30
0.0000000000
10
39.1147527476
20
57.7170343065
30
0.0000000000
10
39.0767039338
20
57.7855178474
30
0.0000000000
10
39.0579468916
20
57.8197243020
30
0.0000000000
11
39.1732184362
21
57.6149130740
31
0.0000000000
11
39.1147845164
21
57.7174176166
31
0.0000000000
11
39.0579468916
21
57.8197243020
31
0.0000000000
0
SPLINE
5
435
100
AcDbEntity
8
0
100
AcDbSpline
62
9
6
CONTINUOUS
70
0
71
3
72
9
73
5
74
3
42
0.0000001000
43
0.0000001000
44
0.0000000001
12
0.8963716843
22
-1.1390700415
32
0.0000000000
13
0.8646879141
23
-1.1633045891
33
0.0000000000
40
0.0000000000
40
0.0000000000
40
0.0000000000
40
0.0000000000
40
0.4772681024
40
1.0000000000
40
1.0000000000
40
1.0000000000
40
1.0000000000
10
38.2941006742
20
58.7671654536
30
0.0000000000
10
38.4367038785
20
58.5859515212
30
0.0000000000
10
38.7322647189
20
58.2037152989
30
0.0000000000
10
39.0226093277
20
57.8175122119
30
0.0000000000
10
39.1732759791
20
57.6148134068
30
0.0000000000
11
38.2941006742
21
58.7671654536
31
0.0000000000
11
38.7176392229
21
58.2201896166
31
0.0000000000
11
39.1732759791
21
57.6148134068
31
0.0000000000
0
SPLINE
5
436
100
AcDbEntity
8
0
100
AcDbSpline
62
7
6
CONTINUOUS
70
0
71
3
72
14
73
10
74
8
42
0.0000001000
43
0.0000001000
44
0.0000000001
12
0.4287916583
22
9.9530219128
32
0.0000000000
13
5.2263448935
23
8.4812632631
33
0.0000000000
40
0.0000000000
40
0.0000000000
40
0.0000000000
40
0.0000000000
40
0.0939366241
40
0.2022589133
40
0.3263122871
40
0.4673154921
40
0.6262852654
40
0.8038473649
40
1.0000000000
40
1.0000000000
40
1.0000000000
40
1.0000000000
10
91.8160389455
20
29.3940451139
30
0.0000000000
10
91.8294653591
20
29.7056962066
30
0.0000000000
10
91.9076259450
20
30.3747835017
30
0.0000000000
10
92.1450178851
20
31.4334161524
30
0.0000000000
10
92.5161534768
20
32.6177484175
30
0.0000000000
10
93.0289105367
20
33.9301352475
30
0.0000000000
10
93.6923187070
20
35.3713698801
30
0.0000000000
10
94.5149865978
20
36.9381234986
30
0.0000000000
10
95.1436831431
20
38.0086986094
30
0.0000000000
10
95.4854035841
20
38.5632393222
30
0.0000000000
11
91.8160389455
21
29.3940451139
31
0.0000000000
11
91.9169464756
21
30.3244094082
31
0.0000000000
11
92.1470299788
21
31.3787301114
31
0.0000000000
11
92.5118038444
21
32.5595215007
31
0.0000000000
11
93.0191130143
21
33.8694249032
31
0.0000000000
11
93.6781401299
21
35.3094875203
31
0.0000000000
11
94.4979103525
21
36.8769856416
31
0.0000000000
11
95.4854035841
21
38.5632393222
31
0.0000000000
0
SPLINE
5
437
100
AcDbEntity
8
0
100
AcDbSpline
62
7
6
CONTINUOUS
70
0
71
3
72
15
73
11
74
9
42
0.0000001000
43
0.0000001000
44
0.0000000001
12
17.4528495289
22
-2.1089407464
32
0.0000000000
13
7.7130809416
23
-15.7974039050
33
0.0000000000
40
0.0000000000
40
0.0000000000
40
0.0000000000
40
0.0000000000
40
0.1173019962
40
0.2350031896
40
0.3526054615
40
0.4718955675
40
0.5949613105
40
0.7237108695
40
0.8587941169
40
1.0000000000
40
1.0000000000
40
1.0000000000
40
1.0000000000
10
68.9410502826
20
77.1634748077
30
0.0000000000
10
69.6234683122
20
77.0810138213
30
0.0000000000
10
70.9820464632
20
76.8329447428
30
0.0000000000
10
72.9599925032
20
76.2191944292
30
0.0000000000
10
74.8613995705
20
75.3688698293
30
0.0000000000
10
76.6745750330
20
74.2811647028
30
0.0000000000
10
78.3940814275
20
72.9409031070
30
0.0000000000
10
79.9981961836
20
71.3298963377
30
0.0000000000
10
81.4451326990
20
69.4401667151
30
0.0000000000
10
82.2525124401
20
68.0301535248
30
0.0000000000
10
82.6155565754
20
67.2865914018
30
0.0000000000
11
68.9410502826
21
77.1634748077
31
0.0000000000
11
70.9696918924
21
76.7932575044
31
0.0000000000
11
72.9459874815
21
76.1803169441
31
0.0000000000
11
74.8333730330
21
75.3365026579
31
0.0000000000
11
76.6318521123
21
74.2579440720
31
0.0000000000
11
78.3384323231
21
72.9282092408
31
0.0000000000
11
79.9358881432
21
71.3247506001
31
0.0000000000
11
81.3803238611
21
69.4398148497
31
0.0000000000
11
82.6155565754
21
67.2865914018
31
0.0000000000
0
SPLINE
5
438
100
AcDbEntity
8
0
100
AcDbSpline
62
7
6
CONTINUOUS
70
0
71
3
72
9
73
5
74
3
42
0.0000001000
43
0.0000001000
44
0.0000000001
12
-0.0317898582
22
2.0466063408
32
0.0000000000
13
0.0000000000
23
2.0468532213
33
0.0000000000
40
0.0000000000
40
0.0000000000
40
0.0000000000
40
0.0000000000
40
0.4967609962
40
1.0000000000
40
1.0000000000
40
1.0000000000
40
1.0000000000
10
95.4854035841
20
38.5632393222
30
0.0000000000
10
95.4801395969
20
38.9021307237
30
0.0000000000
10
95.4722277708
20
39.5843769834
30
0.0000000000
10
95.4695931929
20
40.2666639665
30
0.0000000000
10
95.4695931929
20
40.6100160919
30
0.0000000000
11
95.4854035841
21
38.5632393222
31
0.0000000000
11
95.4735812980
21
39.5799674363
31
0.0000000000
11
95.4695931929
21
40.6100160919
31
0.0000000000
0
SPLINE
5
439
100
AcDbEntity
8
0
100
AcDbSpline
62
7
6
CONTINUOUS
70
0
71
3
72
13
73
9
74
7
42
0.0000001000
43
0.0000001000
44
0.0000000001
12
-0.9050543702
22
-5.3368999236
32
0.0000000000
13
-4.9702259477
23
-2.1444062666
33
0.0000000000
40
0.0000000000
40
0.0000000000
40
0.0000000000
40
0.0000000000
40
0.1792498814
40
0.3482974844
40
0.5105478708
40
0.6728484235
40
0.8379106032
40
1.0000000000
40
1.0000000000
40
1.0000000000
40
1.0000000000
10
78.6225629761
20
35.4046956679
30
0.0000000000
10
78.5684860132
20
35.0858161084
30
0.0000000000
10
78.4405424162
20
34.4695363315
30
0.0000000000
10
78.1567070032
20
33.5906471955
30
0.0000000000
10
77.7587049721
20
32.7890857976
30
0.0000000000
10
77.2154091281
20
32.0836876622
30
0.0000000000
10
76.5278670528
20
31.5178356046
30
0.0000000000
10
76.0021682355
20
31.2415158667
30
0.0000000000
10
75.7336279269
20
31.1256540273
30
0.0000000000
11
78.6225629761
21
35.4046956679
31
0.0000000000
11
78.4193960609
21
34.4559071631
31
0.0000000000
11
78.1313304719
21
33.5873604290
31
0.0000000000
11
77.7341426774
21
32.8040261332
31
0.0000000000
11
77.1947301693
21
32.1105695855
31
0.0000000000
11
76.5068534486
21
31.5403383182
31
0.0000000000
11
75.7336279269
21
31.1256540273
31
0.0000000000
0
SPLINE
5
43A
100
AcDbEntity
8
0
100
AcDbSpline
62
7
6
CONTINUOUS
70
0
71
3
72
9
73
5
74
3
42
0.0000001000
43
0.0000001000
44
0.0000000001
12
-0.7769710029
22
-0.9367393283
32
0.0000000000
13
-0.7529567954
23
-0.9561488236
33
0.0000000000
40
0.0000000000
40
0.0000000000
40
0.0000000000
40
0.0000000000
40
0.4742535837
40
1.0000000000
40
1.0000000000
40
1.0000000000
40
1.0000000000
10
99.5880042990
20
58.7671654536
30
0.0000000000
10
99.4651772048
20
58.6190814591
30
0.0000000000
10
99.2086750103
20
58.3047681965
30
0.0000000000
10
98.9561128605
20
57.9872882411
30
0.0000000000
10
98.8241580816
20
57.8197243020
30
0.0000000000
11
99.5880042990
21
58.7671654536
31
0.0000000000
11
99.2227692158
21
58.3202408354
31
0.0000000000
11
98.8241580816
21
57.8197243020
31
0.0000000000
0
SPLINE
5
43B
100
AcDbEntity
8
0
100
AcDbSpline
62
9
6
CONTINUOUS
70
0
71
3
72
9
73
5
74
3
42
0.0000001000
43
0.0000001000
44
0.0000000001
12
-0.8963716843
22
-1.1390700415
32
0.0000000000
13
-0.8646879141
23
-1.1633045891
33
0.0000000000
40
0.0000000000
40
0.0000000000
40
0.0000000000
40
0.0000000000
40
0.4772681024
40
1.0000000000
40
1.0000000000
40
1.0000000000
40
1.0000000000
10
99.5880042990
20
58.7671654536
30
0.0000000000
10
99.4454010948
20
58.5859515212
30
0.0000000000
10
99.1498402543
20
58.2037152989
30
0.0000000000
10
98.8594956456
20
57.8175122119
30
0.0000000000
10
98.7088289942
20
57.6148134068
30
0.0000000000
11
99.5880042990
21
58.7671654536
31
0.0000000000
11
99.1644657504
21
58.2201896166
31
0.0000000000
11
98.7088289942
21
57.6148134068
31
0.0000000000
0
SPLINE
5
43C
100
AcDbEntity
8
0
100
AcDbSpline
62
7
6
CONTINUOUS
70
0
71
3
72
9
73
5
74
3
42
0.0000001000
43
0.0000001000
44
0.0000000001
12
0.1175125979
22
0.2035377901
32
0.0000000000
13
0.1130015900
23
0.2060764017
33
0.0000000000
40
0.0000000000
40
0.0000000000
40
0.0000000000
40
0.0000000000
40
0.5020324368
40
1.0000000000
40
1.0000000000
40
1.0000000000
40
1.0000000000
10
98.7088865371
20
57.6149130740
30
0.0000000000
10
98.7285515824
20
57.6489739316
30
0.0000000000
10
98.7673522257
20
57.7170343065
30
0.0000000000
10
98.8054010394
20
57.7855178474
30
0.0000000000
10
98.8241580816
20
57.8197243020
30
0.0000000000
11
98.7088865371
21
57.6149130740
31
0.0000000000
11
98.7673204568
21
57.7174176166
31
0.0000000000
11
98.8241580816
21
57.8197243020
31
0.0000000000
0
SPLINE
5
43D
100
AcDbEntity
8
0
100
AcDbSpline
62
7
6
CONTINUOUS
70
0
71
3
72
24
73
20
74
18
42
0.0000001000
43
0.0000001000
44
0.0000000001
12
-2.4070821799
22
-6.8082565292
32
0.0000000000
13
-2.4070821799
23
6.8082565292
33
0.0000000000
40
0.0000000000
40
0.0000000000
40
0.0000000000
40
0.0000000000
40
0.0506371920
40
0.1016175642
40
0.1519298781
40
0.2016240211
40
0.2530731116
40
0.3096724915
40
0.3743432272
40
0.4465014510
40
0.5224473752
40
0.5979893195
40
0.6676047052
40
0.7287598018
40
0.7840130263
40
0.8372960633
40
0.8912184382
40
0.9458102113
40
1.0000000000
40
1.0000000000
40
1.0000000000
40
1.0000000000
10
54.0694796114
20
40.6100160919
30
0.0000000000
10
54.0288503172
20
40.4950990942
30
0.0000000000
10
53.9304003181
20
40.2700993476
30
0.0000000000
10
53.7373559843
20
39.9581606170
30
0.0000000000
10
53.5052405916
20
39.6770943696
30
0.0000000000
10
53.2380553882
20
39.4276517873
30
0.0000000000
10
52.9293168435
20
39.2049093363
30
0.0000000000
10
52.5623738226
20
39.0068370581
30
0.0000000000
10
52.1240065499
20
38.8449292849
30
0.0000000000
10
51.6197438753
20
38.7432566814
30
0.0000000000
10
51.0791800684
20
38.7246598781
30
0.0000000000
10
50.5491882883
20
38.7957724018
30
0.0000000000
10
50.0722183325
20
38.9413470803
30
0.0000000000
10
49.6670178658
20
39.1354654033
30
0.0000000000
10
49.3255209821
20
39.3617723423
30
0.0000000000
10
49.0304347184
20
39.6201437921
30
0.0000000000
10
48.7745260591
20
39.9154673631
30
0.0000000000
10
48.5627860806
20
40.2465761407
30
0.0000000000
10
48.4561051201
20
40.4870367642
30
0.0000000000
10
48.4126253619
20
40.6100160919
30
0.0000000000
11
54.0694796114
21
40.6100160919
31
0.0000000000
11
53.9231178045
21
40.2749218894
31
0.0000000000
11
53.7296638795
21
39.9617063236
31
0.0000000000
11
53.4985497273
21
39.6813744781
31
0.0000000000
11
53.2364362711
21
39.4362775911
31
0.0000000000
11
52.9352991489
21
39.2186806627
31
0.0000000000
11
52.5757757351
21
39.0242754649
31
0.0000000000
11
52.1378078632
21
38.8621759583
31
0.0000000000
11
51.6270640879
21
38.7589424245
31
0.0000000000
11
51.0789657663
21
38.7400379211
31
0.0000000000
11
50.5383296853
21
38.8127738721
31
0.0000000000
11
50.0576126170
21
38.9598395272
31
0.0000000000
11
49.6594878204
21
39.1509451625
31
0.0000000000
11
49.3270714488
21
39.3716215930
31
0.0000000000
11
49.0378118586
21
39.6253474316
31
0.0000000000
11
48.7830949204
21
39.9198662468
31
0.0000000000
11
48.5710488733
21
40.2522010128
31
0.0000000000
11
48.4126253619
21
40.6100160919
31
0.0000000000
0
SPLINE
5
43E
100
AcDbEntity
8
0
100
AcDbSpline
62
7
6
CONTINUOUS
70
0
71
3
72
11
73
7
74
5
42
0.0000001000
43
0.0000001000
44
0.0000000001
12
0.0000000000
22
-5.2113581451
32
0.0000000000
13
0.5369008613
23
-5.1836272225
33
0.0000000000
40
0.0000000000
40
0.0000000000
40
0.0000000000
40
0.0000000000
40
0.2844576548
40
0.5436094825
40
0.7805572926
40
1.0000000000
40
1.0000000000
40
1.0000000000
40
1.0000000000
10
59.0541925200
20
40.6100160919
30
0.0000000000
10
59.0541925200
20
40.1158791865
30
0.0000000000
10
59.0615466204
20
39.1715444708
30
0.0000000000
10
59.0960415388
20
37.8159708025
30
0.0000000000
10
59.1564723232
20
36.5743315803
30
0.0000000000
10
59.2202690043
20
35.7838653985
30
0.0000000000
10
59.2595419972
20
35.4046956679
30
0.0000000000
11
59.0541925200
21
40.6100160919
31
0.0000000000
11
59.0664533543
21
39.1276560806
31
0.0000000000
11
59.1024732550
21
37.7776035187
31
0.0000000000
11
59.1647573911
21
36.5443554205
31
0.0000000000
11
59.2595419972
21
35.4046956679
31
0.0000000000
0
SPLINE
5
43F
100
AcDbEntity
8
0
100
AcDbSpline
62
7
6
CONTINUOUS
70
0
71
3
72
15
73
11
74
9
42
0.0000001000
43
0.0000001000
44
0.0000000001
12
-5.0124127710
22
-8.1620432415
32
0.0000000000
13
9.5782687195
23
0.0000000000
33
0.0000000000
40
0.0000000000
40
0.0000000000
40
0.0000000000
40
0.0000000000
40
0.2129362262
40
0.4085549482
40
0.5808846063
40
0.7247035169
40
0.8382575759
40
0.9192391813
40
0.9693721528
40
1.0000000000
40
1.0000000000
40
1.0000000000
40
1.0000000000
10
59.2595419972
20
35.4046956679
30
0.0000000000
10
58.9037672440
20
34.8253641059
30
0.0000000000
10
58.2682046798
20
33.6842016116
30
0.0000000000
10
57.4853171645
20
32.0019814521
30
0.0000000000
10
56.8899243918
20
30.4778876610
30
0.0000000000
10
56.4767561582
20
29.1720632655
30
0.0000000000
10
56.2138935449
20
28.1147011670
30
0.0000000000
10
56.1371077176
20
27.3506605943
30
0.0000000000
10
56.1287649405
20
26.8037878004
30
0.0000000000
10
56.3723945839
20
26.6100160919
30
0.0000000000
10
56.4701818342
20
26.6100160919
30
0.0000000000
11
59.2595419972
21
35.4046956679
31
0.0000000000
11
58.2643362373
21
33.6244226272
31
0.0000000000
11
57.4731012449
21
31.9259949783
31
0.0000000000
11
56.8757188697
21
30.3872682532
31
0.0000000000
11
56.4624942228
21
29.0731711112
31
0.0000000000
11
56.2192810509
21
28.0130613607
31
0.0000000000
11
56.1405436576
21
27.2414044363
31
0.0000000000
11
56.2232446116
21
26.7683926211
31
0.0000000000
11
56.4701818342
21
26.6100160919
31
0.0000000000
0
SPLINE
5
440
100
AcDbEntity
8
0
100
AcDbSpline
62
7
6
CONTINUOUS
70
0
71
3
72
20
73
16
74
14
42
0.0000001000
43
0.0000001000
44
0.0000000001
12
-12.3015444682
22
-2.1015961727
32
0.0000000000
13
0.0000000000
23
-12.4797717437
33
0.0000000000
40
0.0000000000
40
0.0000000000
40
0.0000000000
40
0.0000000000
40
0.0641395078
40
0.1249471791
40
0.1838719201
40
0.2422825522
40
0.3017000565
40
0.3634478037
40
0.4286270943
40
0.4973854121
40
0.5717822489
40
0.6553068406
40
0.7514673148
40
0.8654592229
40
1.0000000000
40
1.0000000000
40
1.0000000000
40
1.0000000000
10
44.7410242008
20
77.1634748077
30
0.0000000000
10
44.4780191982
20
77.1185430263
30
0.0000000000
10
43.9696400717
20
77.0041543055
30
0.0000000000
10
43.2471909463
20
76.7470231677
30
0.0000000000
10
42.5854341650
20
76.4085031257
30
0.0000000000
10
41.9808405163
20
75.9859699953
30
0.0000000000
10
41.4314536943
20
75.4763970400
30
0.0000000000
10
40.9366441678
20
74.8769160163
30
0.0000000000
10
40.4985556199
20
74.1886094543
30
0.0000000000
10
40.1156550939
20
73.4094317610
30
0.0000000000
10
39.7832175883
20
72.5256162006
30
0.0000000000
10
39.4981739372
20
71.5065648849
30
0.0000000000
10
39.2641122217
20
70.3062633684
30
0.0000000000
10
39.0981534264
20
68.8806913884
30
0.0000000000
10
39.0579468916
20
67.8462707980
30
0.0000000000
10
39.0579468916
20
67.2865914018
30
0.0000000000
11
44.7410242008
21
77.1634748077
31
0.0000000000
11
43.9606820610
21
76.9852036314
31
0.0000000000
11
43.2464119703
21
76.7288920481
31
0.0000000000
11
42.5922299050
21
76.3930186841
31
0.0000000000
11
41.9947434433
21
75.9754303604
31
0.0000000000
11
41.4503545365
21
75.4719544237
31
0.0000000000
11
40.9582706715
21
74.8789329871
31
0.0000000000
11
40.5192818754
21
74.1941371961
31
0.0000000000
11
40.1382824252
21
73.4252713917
31
0.0000000000
11
39.8086848771
21
72.5572880105
31
0.0000000000
11
39.5249621806
21
71.5542764736
31
0.0000000000
11
39.2922077176
21
70.3770036889
31
0.0000000000
11
39.1247616947
21
68.9642996664
31
0.0000000000
11
39.0579468916
21
67.2865914018
31
0.0000000000
0
SPLINE
5
441
100
AcDbEntity
8
0
100
AcDbSpline
62
7
6
CONTINUOUS
70
0
71
3
72
15
73
11
74
9
42
0.0000001000
43
0.0000001000
44
0.0000000001
12
-17.4528495289
22
-2.1089407464
32
0.0000000000
13
-7.7130809416
23
-15.7974039050
33
0.0000000000
40
0.0000000000
40
0.0000000000
40
0.0000000000
40
0.0000000000
40
0.1173019962
40
0.2350031896
40
0.3526054615
40
0.4718955675
40
0.5949613105
40
0.7237108695
40
0.8587941169
40
1.0000000000
40
1.0000000000
40
1.0000000000
40
1.0000000000
10
68.9410546906
20
77.1634748077
30
0.0000000000
10
68.2586366610
20
77.0810138213
30
0.0000000000
10
66.9000585100
20
76.8329447428
30
0.0000000000
10
64.9221124701
20
76.2191944292
30
0.0000000000
10
63.0207054027
20
75.3688698293
30
0.0000000000
10
61.2075299403
20
74.2811647028
30
0.0000000000
10
59.4880235458
20
72.9409031070
30
0.0000000000
10
57.8839087896
20
71.3298963377
30
0.0000000000
10
56.4369722742
20
69.4401667151
30
0.0000000000
10
55.6295925332
20
68.0301535248
30
0.0000000000
10
55.2665483979
20
67.2865914018
30
0.0000000000
11
68.9410546906
21
77.1634748077
31
0.0000000000
11
66.9124130808
21
76.7932575044
31
0.0000000000
11
64.9361174917
21
76.1803169441
31
0.0000000000
11
63.0487319402
21
75.3365026579
31
0.0000000000
11
61.2502528609
21
74.2579440720
31
0.0000000000
11
59.5436726501
21
72.9282092408
31
0.0000000000
11
57.9462168300
21
71.3247506001
31
0.0000000000
11
56.5017811121
21
69.4398148497
31
0.0000000000
11
55.2665483979
21
67.2865914018
31
0.0000000000
0
SPLINE
5
442
100
AcDbEntity
8
0
100
AcDbSpline
62
7
6
CONTINUOUS
70
0
71
3
72
10
73
6
74
4
42
0.0000001000
43
0.0000001000
44
0.0000000001
12
0.8348382008
22
-0.9949214250
32
0.0000000000
13
0.2449452019
23
1.2754706235
33
0.0000000000
40
0.0000000000
40
0.0000000000
40
0.0000000000
40
0.0000000000
40
0.1492561488
40
0.4467994953
40
1.0000000000
40
1.0000000000
40
1.0000000000
40
1.0000000000
10
40.9410524866
20
32.8600160919
30
0.0000000000
10
40.9825873982
20
32.8105167118
30
0.0000000000
10
41.2409307060
20
32.7859333191
30
0.0000000000
10
41.3411997178
20
33.3131340728
30
0.0000000000
10
41.4479747608
20
33.6230611316
30
0.0000000000
10
41.4931426972
20
33.8582581291
30
0.0000000000
11
40.9410524866
21
32.8600160919
31
0.0000000000
11
41.1313597330
21
32.8231217899
31
0.0000000000
11
41.3181916900
21
33.1613994086
31
0.0000000000
11
41.4931426972
21
33.8582581291
31
0.0000000000
0
SPLINE
5
443
100
AcDbEntity
8
0
100
AcDbSpline
62
7
6
CONTINUOUS
70
0
71
3
72
10
73
6
74
4
42
0.0000001000
43
0.0000001000
44
0.0000000001
12
-0.1174078742
22
-2.7252469157
32
0.0000000000
13
0.0000000000
23
0.0000000000
33
0.0000000000
40
0.0000000000
40
0.0000000000
40
0.0000000000
40
0.0000000000
40
0.4915110276
40
0.8285970758
40
1.0000000000
40
1.0000000000
40
1.0000000000
40
1.0000000000
10
91.8160389455
20
29.3940451139
30
0.0000000000
10
91.7968031905
20
28.9475488099
30
0.0000000000
10
91.7611274000
20
28.1169424858
30
0.0000000000
10
91.7317504060
20
27.4314622236
30
0.0000000000
10
91.6991870291
20
26.6687743191
30
0.0000000000
10
91.6991870291
20
26.6687743191
30
0.0000000000
11
91.8160389455
21
29.3940451139
31
0.0000000000
11
91.7584666377
21
28.0545503946
31
0.0000000000
11
91.7191374475
21
27.1358970579
31
0.0000000000
11
91.6991870291
21
26.6687743191
31
0.0000000000
0
SPLINE
5
444
100
AcDbEntity
8
0
100
AcDbSpline
62
7
6
CONTINUOUS
70
0
71
3
72
10
73
6
74
4
42
0.0000001000
43
0.0000001000
44
0.0000000001
12
-0.8348382008
22
-0.9949214250
32
0.0000000000
13
-0.2449452019
23
1.2754706235
33
0.0000000000
40
0.0000000000
40
0.0000000000
40
0.0000000000
40
0.0000000000
40
0.1492561488
40
0.4467994953
40
1.0000000000
40
1.0000000000
40
1.0000000000
40
1.0000000000
10
96.9410524866
20
32.8600160919
30
0.0000000000
10
96.8995175751
20
32.8105167118
30
0.0000000000
10
96.6411742672
20
32.7859333191
30
0.0000000000
10
96.5409052554
20
33.3131340728
30
0.0000000000
10
96.4341302124
20
33.6230611316
30
0.0000000000
10
96.3889622760
20
33.8582581291
30
0.0000000000
11
96.9410524866
21
32.8600160919
31
0.0000000000
11
96.7507452402
21
32.8231217899
31
0.0000000000
11
96.5639132832
21
33.1613994086
31
0.0000000000
11
96.3889622760
21
33.8582581291
31
0.0000000000
0
SPLINE
5
445
100
AcDbEntity
8
0
100
AcDbSpline
62
7
6
CONTINUOUS
70
0
71
3
72
11
73
7
74
5
42
0.0000001000
43
0.0000001000
44
0.0000000001
12
-2.9824148257
22
0.7614917603
32
0.0000000000
13
-0.6937149522
23
2.9989043763
33
0.0000000000
40
0.0000000000
40
0.0000000000
40
0.0000000000
40
0.0000000000
40
0.1364420762
40
0.3433422081
40
0.6310745104
40
1.0000000000
40
1.0000000000
40
1.0000000000
40
1.0000000000
10
63.4410524866
20
28.4198506071
30
0.0000000000
10
63.3054101963
20
28.4544837794
30
0.0000000000
10
63.0200430092
20
28.7020806242
30
0.0000000000
10
62.7113273496
20
29.2694266010
30
0.0000000000
10
62.4029725381
20
30.1045165922
30
0.0000000000
10
62.2337867558
20
30.7568632723
30
0.0000000000
10
62.1484770463
20
31.1256540273
30
0.0000000000
11
63.4410524866
21
28.4198506071
31
0.0000000000
11
63.0971450765
21
28.6609154969
31
0.0000000000
11
62.7623035500
21
29.2026438029
31
0.0000000000
11
62.4445002374
21
30.0293285381
31
0.0000000000
11
62.1484770463
21
31.1256540273
31
0.0000000000
0
SPLINE
5
446
100
AcDbEntity
8
0
100
AcDbSpline
62
7
6
CONTINUOUS
70
0
71
3
72
15
73
11
74
9
42
0.0000001000
43
0.0000001000
44
0.0000000001
12
5.0124127710
22
-8.1620432415
32
0.0000000000
13
-9.5782687195
23
0.0000000000
33
0.0000000000
40
0.0000000000
40
0.0000000000
40
0.0000000000
40
0.0000000000
40
0.2129362262
40
0.4085549482
40
0.5808846063
40
0.7247035169
40
0.8382575759
40
0.9192391813
40
0.9693721528
40
1.0000000000
40
1.0000000000
40
1.0000000000
40
1.0000000000
10
78.6225629761
20
35.4046956679
30
0.0000000000
10
78.9783377293
20
34.8253641059
30
0.0000000000
10
79.6139002934
20
33.6842016116
30
0.0000000000
10
80.3967878087
20
32.0019814521
30
0.0000000000
10
80.9921805815
20
30.4778876610
30
0.0000000000
10
81.4053488151
20
29.1720632655
30
0.0000000000
10
81.6682114283
20
28.1147011670
30
0.0000000000
10
81.7449972556
20
27.3506605943
30
0.0000000000
10
81.7533400327
20
26.8037878004
30
0.0000000000
10
81.5097103893
20
26.6100160919
30
0.0000000000
10
81.4119231390
20
26.6100160919
30
0.0000000000
11
78.6225629761
21
35.4046956679
31
0.0000000000
11
79.6177687360
21
33.6244226272
31
0.0000000000
11
80.4090037283
21
31.9259949783
31
0.0000000000
11
81.0063861035
21
30.3872682532
31
0.0000000000
11
81.4196107504
21
29.0731711112
31
0.0000000000
11
81.6628239223
21
28.0130613607
31
0.0000000000
11
81.7415613156
21
27.2414044363
31
0.0000000000
11
81.6588603616
21
26.7683926211
31
0.0000000000
11
81.4119231390
21
26.6100160919
31
0.0000000000
0
SPLINE
5
447
100
AcDbEntity
8
0
100
AcDbSpline
62
7
6
CONTINUOUS
70
0
71
3
72
12
73
8
74
6
42
0.0000001000
43
0.0000001000
44
0.0000000001
12
-2.8464677978
22
2.2563599661
32
0.0000000000
13
-3.2792262408
23
-1.5621185878
33
0.0000000000
40
0.0000000000
40
0.0000000000
40
0.0000000000
40
0.0000000000
40
0.3447485170
40
0.6079027905
40
0.7984316587
40
0.9253322904
40
1.0000000000
40
1.0000000000
40
1.0000000000
40
1.0000000000
10
62.1484770463
20
47.1898375033
30
0.0000000000
10
61.8213718623
20
47.4491297540
30
0.0000000000
10
61.2363547921
20
47.8970485062
30
0.0000000000
10
60.4421427023
20
48.4460470244
30
0.0000000000
10
59.8290534828
20
48.8005849360
30
0.0000000000
10
59.3995121638
20
48.9853176350
30
0.0000000000
10
59.1358099575
20
49.0151277566
30
0.0000000000
10
59.0541925200
20
48.9762478176
30
0.0000000000
11
62.1484770463
21
47.1898375033
31
0.0000000000
11
61.1515051721
21
47.9475442646
31
0.0000000000
11
60.3605485020
21
48.4842400835
31
0.0000000000
11
59.7573445528
21
48.8234847684
31
0.0000000000
11
59.3252936475
21
48.9841015186
31
0.0000000000
11
59.0541925200
21
48.9762478176
31
0.0000000000
0
SPLINE
5
448
100
AcDbEntity
8
0
100
AcDbSpline
62
7
6
CONTINUOUS
70
0
71
3
72
11
73
7
74
5
42
0.0000001000
43
0.0000001000
44
0.0000000001
12
0.0000000000
22
-5.2113581451
32
0.0000000000
13
-0.5369008613
23
-5.1836272225
33
0.0000000000
40
0.0000000000
40
0.0000000000
40
0.0000000000
40
0.0000000000
40
0.2844576548
40
0.5436094825
40
0.7805572926
40
1.0000000000
40
1.0000000000
40
1.0000000000
40
1.0000000000
10
78.8279124533
20
40.6100160919
30
0.0000000000
10
78.8279124533
20
40.1158791865
30
0.0000000000
10
78.8205583529
20
39.1715444708
30
0.0000000000
10
78.7860634344
20
37.8159708025
30
0.0000000000
10
78.7256326500
20
36.5743315803
30
0.0000000000
10
78.6618359689
20
35.7838653985
30
0.0000000000
10
78.6225629761
20
35.4046956679
30
0.0000000000
11
78.8279124533
21
40.6100160919
31
0.0000000000
11
78.8156516189
21
39.1276560806
31
0.0000000000
11
78.7796317182
21
37.7776035187
31
0.0000000000
11
78.7173475822
21
36.5443554205
31
0.0000000000
11
78.6225629761
21
35.4046956679
31
0.0000000000
0
SPLINE
5
449
100
AcDbEntity
8
0
100
AcDbSpline
62
7
6
CONTINUOUS
70
0
71
3
72
10
73
6
74
4
42
0.0000001000
43
0.0000001000
44
0.0000000001
12
0.1174078742
22
-2.7252469157
32
0.0000000000
13
0.0000000000
23
0.0000000000
33
0.0000000000
40
0.0000000000
40
0.0000000000
40
0.0000000000
40
0.0000000000
40
0.4915110276
40
0.8285970758
40
1.0000000000
40
1.0000000000
40
1.0000000000
40
1.0000000000
10
46.0660660278
20
29.3940451139
30
0.0000000000
10
46.0853017827
20
28.9475488099
30
0.0000000000
10
46.1209775732
20
28.1169424858
30
0.0000000000
10
46.1503545673
20
27.4314622236
30
0.0000000000
10
46.1829179441
20
26.6687743191
30
0.0000000000
10
46.1829179441
20
26.6687743191
30
0.0000000000
11
46.0660660278
21
29.3940451139
31
0.0000000000
11
46.1236383355
21
28.0545503946
31
0.0000000000
11
46.1629675258
21
27.1358970579
31
0.0000000000
11
46.1829179441
21
26.6687743191
31
0.0000000000
0
SPLINE
5
44A
100
AcDbEntity
8
0
100
AcDbSpline
62
7
6
CONTINUOUS
70
0
71
3
72
21
73
17
74
15
42
0.0000001000
43
0.0000001000
44
0.0000000001
12
11.1712667216
22
0.0000000000
32
0.0000000000
13
-11.1712667216
23
-0.0000000000
33
0.0000000000
40
0.0000000000
40
0.0000000000
40
0.0000000000
40
0.0000000000
40
0.0169633988
40
0.0551805205
40
0.1148685528
40
0.1933794175
40
0.2868838472
40
0.3907853873
40
0.5000027691
40
0.6092197386
40
0.7131201885
40
0.8066232074
40
0.8851327747
40
0.9448199306
40
0.9830366613
40
1.0000000000
40
1.0000000000
40
1.0000000000
40
1.0000000000
10
40.9410524866
20
154.1100160919
30
0.0000000000
10
41.0042200376
20
154.1100160919
30
0.0000000000
10
41.1231374901
20
154.3438772047
30
0.0000000000
10
41.2111614594
20
154.7204536163
30
0.0000000000
10
41.3207744638
20
155.3901826121
30
0.0000000000
10
41.4029715979
20
156.2408434695
30
0.0000000000
10
41.4695866617
20
157.2692167994
30
0.0000000000
10
41.5098848191
20
158.4095253384
30
0.0000000000
10
41.5238618564
20
159.6100455181
30
0.0000000000
10
41.5098834986
20
160.8105616210
30
0.0000000000
10
41.4695844232
20
161.9508592841
30
0.0000000000
10
41.4029691095
20
162.9792183598
30
0.0000000000
10
41.3207722494
20
163.8298660231
30
0.0000000000
10
41.2111600894
20
164.4995850297
30
0.0000000000
10
41.1231366260
20
164.8761571407
30
0.0000000000
10
41.0042198136
20
165.1100160919
30
0.0000000000
10
40.9410524866
20
165.1100160919
30
0.0000000000
11
40.9410524866
21
154.1100160919
31
0.0000000000
11
41.0700922497
21
154.2487964760
31
0.0000000000
11
41.1925456138
21
154.6577922251
31
0.0000000000
11
41.3022069771
21
155.3155038094
31
0.0000000000
11
41.3935919252
21
156.1877957484
31
0.0000000000
11
41.4622043185
21
157.2301028246
31
0.0000000000
11
41.5047253092
21
158.3900355338
31
0.0000000000
11
41.5191257806
21
159.6100470511
31
0.0000000000
11
41.5047239392
21
160.8300539456
31
0.0000000000
11
41.4622020446
21
161.9899744340
31
0.0000000000
11
41.3935894801
21
163.0322657046
31
0.0000000000
11
41.3022050397
21
163.9045431234
31
0.0000000000
11
41.1925445335
21
164.5622449248
31
0.0000000000
11
41.0700919545
21
164.9712363509
31
0.0000000000
11
40.9410524866
21
165.1100160919
31
0.0000000000
0
SPLINE
5
44B
100
AcDbEntity
8
0
100
AcDbSpline
62
7
6
CONTINUOUS
70
0
71
3
72
9
73
5
74
3
42
0.0000001000
43
0.0000001000
44
0.0000000001
12
-0.2021694795
22
0.0000000000
32
0.0000000000
13
-0.0323702667
23
0.1995611793
33
0.0000000000
40
0.0000000000
40
0.0000000000
40
0.0000000000
40
0.0000000000
40
0.5311153275
40
1.0000000000
40
1.0000000000
40
1.0000000000
40
1.0000000000
10
63.4062761758
20
153.4600160919
30
0.0000000000
10
63.3704844060
20
153.4600160919
30
0.0000000000
10
63.2959105991
20
153.4714092210
30
0.0000000000
10
63.2617749902
20
153.5399568141
30
0.0000000000
10
63.2567156829
20
153.5711472069
30
0.0000000000
11
63.4062761758
21
153.4600160919
31
0.0000000000
11
63.3026767703
21
153.4882405536
31
0.0000000000
11
63.2567156829
21
153.5711472069
31
0.0000000000
0
SPLINE
5
44C
100
AcDbEntity
8
0
100
AcDbSpline
62
7
6
CONTINUOUS
70
0
71
3
72
9
73
5
74
3
42
0.0000001000
43
0.0000001000
44
0.0000000001
12
0.2021694795
22
0.0000000000
32
0.0000000000
13
0.0323702667
23
0.1995611793
33
0.0000000000
40
0.0000000000
40
0.0000000000
40
0.0000000000
40
0.0000000000
40
0.5311153275
40
1.0000000000
40
1.0000000000
40
1.0000000000
40
1.0000000000
10
74.4758287975
20
153.4600160919
30
0.0000000000
10
74.5116205672
20
153.4600160919
30
0.0000000000
10
74.5861943741
20
153.4714092210
30
0.0000000000
10
74.6203299830
20
153.5399568141
30
0.0000000000
10
74.6253892903
20
153.5711472069
30
0.0000000000
11
74.4758287975
21
153.4600160919
31
0.0000000000
11
74.5794282029
21
153.4882405536
31
0.0000000000
11
74.6253892903
21
153.5711472069
31
0.0000000000
0
SPLINE
5
44D
100
AcDbEntity
8
0
100
AcDbSpline
62
7
6
CONTINUOUS
70
0
71
3
72
21
73
17
74
15
42
0.0000001000
43
0.0000001000
44
0.0000000001
12
-12.4915073342
22
0.0000000000
32
0.0000000000
13
12.4915073342
23
0.0000000000
33
0.0000000000
40
0.0000000000
40
0.0000000000
40
0.0000000000
40
0.0000000000
40
0.0169633988
40
0.0551805205
40
0.1148685527
40
0.1933794175
40
0.2868838472
40
0.3907853873
40
0.5000027691
40
0.6092197386
40
0.7131201885
40
0.8066232074
40
0.8851327747
40
0.9448199306
40
0.9830366613
40
1.0000000000
40
1.0000000000
40
1.0000000000
40
1.0000000000
10
96.9410524866
20
153.4600160919
30
0.0000000000
10
96.8704196796
20
153.4600160919
30
0.0000000000
10
96.7374483464
20
153.7215153362
30
0.0000000000
10
96.6390215443
20
154.1425962328
30
0.0000000000
10
96.5164542758
20
154.8914750190
30
0.0000000000
10
96.4245429350
20
155.8426685232
30
0.0000000000
10
96.3500551818
20
156.9925768831
30
0.0000000000
10
96.3049945149
20
158.2676491584
30
0.0000000000
10
96.2893656458
20
159.6100489958
30
0.0000000000
10
96.3049959914
20
160.9524442744
30
0.0000000000
10
96.3500576848
20
162.2275043886
30
0.0000000000
10
96.4245457174
20
163.3773968097
30
0.0000000000
10
96.5164567518
20
164.3285755605
30
0.0000000000
10
96.6390230762
20
165.0774431769
30
0.0000000000
10
96.7374493126
20
165.4985192647
30
0.0000000000
10
96.8704199301
20
165.7600160919
30
0.0000000000
10
96.9410524866
20
165.7600160919
30
0.0000000000
11
96.9410524866
21
153.4600160919
31
0.0000000000
11
96.7967625697
21
153.6151977941
31
0.0000000000
11
96.6598374444
21
154.0725294045
31
0.0000000000
11
96.5372161018
21
154.8079705396
31
0.0000000000
11
96.4350311144
21
155.7833515260
31
0.0000000000
11
96.3583099837
21
156.9488403476
31
0.0000000000
11
96.3107637850
21
158.2458560133
31
0.0000000000
11
96.2946614397
21
159.6100507099
31
0.0000000000
11
96.3107653169
21
160.9742402374
31
0.0000000000
11
96.3583125263
21
162.2712422381
31
0.0000000000
11
96.4350338485
21
163.4367133861
31
0.0000000000
11
96.5372182682
21
164.4120781362
31
0.0000000000
11
96.6598386524
21
165.1475083324
31
0.0000000000
11
96.7967628998
21
165.6048351088
31
0.0000000000
11
96.9410524866
21
165.7600160919
31
0.0000000000
0
SPLINE
5
44E
100
AcDbEntity
8
0
100
AcDbSpline
62
7
6
CONTINUOUS
70
0
71
3
72
21
73
17
74
15
42
0.0000001000
43
0.0000001000
44
0.0000000001
12
-7.9284274360
22
9.6475820232
32
0.0000000000
13
12.4874256956
23
0.0000000000
33
0.0000000000
40
0.0000000000
40
0.0000000000
40
0.0000000000
40
0.0000000000
40
0.0343083480
40
0.0869763385
40
0.1564918699
40
0.2400267145
40
0.3340428236
40
0.4345852375
40
0.5374775298
40
0.6384705725
40
0.7333735409
40
0.8181989046
40
0.8893512727
40
0.9439048636
40
0.9801594285
40
1.0000000000
40
1.0000000000
40
1.0000000000
40
1.0000000000
10
63.2567156829
20
153.5711472069
30
0.0000000000
10
63.1660452669
20
153.6814780742
30
0.0000000000
10
63.0206343983
20
154.0221898988
30
0.0000000000
10
62.8534786232
20
154.6491889543
30
0.0000000000
10
62.7080596542
20
155.4953231764
30
0.0000000000
10
62.5911079122
20
156.5168846415
30
0.0000000000
10
62.5093173601
20
157.6720273038
30
0.0000000000
10
62.4663446678
20
158.9096001394
30
0.0000000000
10
62.4641351886
20
160.1769979292
30
0.0000000000
10
62.5029966250
20
161.4203781391
30
0.0000000000
10
62.5803974675
20
162.5863883176
30
0.0000000000
10
62.6952810670
20
163.6254277907
30
0.0000000000
10
62.8341080573
20
164.4890749620
30
0.0000000000
10
63.0094383978
20
165.1479001907
30
0.0000000000
10
63.1642576655
20
165.5680808971
30
0.0000000000
10
63.3584665991
20
165.7600160919
30
0.0000000000
10
63.4410524866
20
165.7600160919
30
0.0000000000
11
63.2567156829
21
153.5711472069
31
0.0000000000
11
63.0594988177
21
153.9514782858
31
0.0000000000
11
62.8796758499
21
154.5841051133
31
0.0000000000
11
62.7253429074
21
155.4383456669
31
0.0000000000
11
62.6031141677
21
156.4742950425
31
0.0000000000
11
62.5180352373
21
157.6452274075
31
0.0000000000
11
62.4735022954
21
158.8999532938
31
0.0000000000
11
62.4712518629
21
160.1848111768
31
0.0000000000
11
62.5113725934
21
161.4453159522
31
0.0000000000
11
62.5923065112
21
162.6276428674
31
0.0000000000
11
62.7108371309
21
163.6802405870
31
0.0000000000
11
62.8620948565
21
164.5557809684
31
0.0000000000
11
63.0396255877
21
165.2134757934
31
0.0000000000
11
63.2355618239
21
165.6216056630
31
0.0000000000
11
63.4410524866
21
165.7600160919
31
0.0000000000
0
SPLINE
5
44F
100
AcDbEntity
8
0
100
AcDbSpline
62
7
6
CONTINUOUS
70
0
71
3
72
10
73
6
74
4
42
0.0000001000
43
0.0000001000
44
0.0000000001
12
-9.7206531797
22
1.5059100284
32
0.0000000000
13
-8.9524281259
23
4.0758917925
33
0.0000000000
40
0.0000000000
40
0.0000000000
40
0.0000000000
40
0.0000000000
40
0.3332101269
40
0.6664806948
40
1.0000000000
40
1.0000000000
40
1.0000000000
40
1.0000000000
10
63.4410524866
20
171.8001815766
30
0.0000000000
10
62.3613791266
20
171.9674430672
30
0.0000000000
10
60.2157730948
20
172.4008353803
30
0.0000000000
10
57.0703647986
20
173.3411859075
30
0.0000000000
10
55.0379967481
20
174.1568865589
30
0.0000000000
10
54.0427275453
20
174.6100160919
30
0.0000000000
11
63.4410524866
21
171.8001815766
31
0.0000000000
11
60.2282784708
21
172.4491206013
31
0.0000000000
11
57.0873746526
21
173.3880879313
31
0.0000000000
11
54.0427275453
21
174.6100160919
31
0.0000000000
0
SPLINE
5
450
100
AcDbEntity
8
0
100
AcDbSpline
62
7
6
CONTINUOUS
70
0
71
3
72
14
73
10
74
8
42
0.0000001000
43
0.0000001000
44
0.0000000001
12
0.0002822451
22
3.2745113982
32
0.0000000000
13
1.6371946080
23
2.8358453400
33
0.0000000000
40
0.0000000000
40
0.0000000000
40
0.0000000000
40
0.0000000000
40
0.1427614258
40
0.2856118951
40
0.4284488374
40
0.5712709565
40
0.7141143623
40
0.8570274674
40
1.0000000000
40
1.0000000000
40
1.0000000000
40
1.0000000000
10
35.9411181898
20
139.2767069426
30
0.0000000000
10
35.9411316210
20
139.4325315812
30
0.0000000000
10
35.9528902693
20
139.7444034934
30
0.0000000000
10
36.0055553057
20
140.2095018526
30
0.0000000000
10
36.0928969862
20
140.6694449823
30
0.0000000000
10
36.2143478045
20
141.1215609282
30
0.0000000000
10
36.3692144126
20
141.5634440645
30
0.0000000000
10
36.5566346579
20
141.9926834575
30
0.0000000000
10
36.7026344335
20
142.2688539557
30
0.0000000000
10
36.7806590533
20
142.4040032858
30
0.0000000000
11
35.9411181898
21
139.2767069426
31
0.0000000000
11
35.9587201733
21
139.7438493553
31
0.0000000000
11
36.0113360041
21
140.2086462248
31
0.0000000000
11
36.0985855097
21
140.6681575328
31
0.0000000000
11
36.2199055990
21
141.1198201852
31
0.0000000000
11
36.3746019419
21
141.5612405732
31
0.0000000000
11
36.5618624872
21
141.9901111414
31
0.0000000000
11
36.7806590533
21
142.4040032858
31
0.0000000000
0
SPLINE
5
451
100
AcDbEntity
8
0
100
AcDbSpline
62
7
6
CONTINUOUS
70
0
71
3
72
21
73
17
74
15
42
0.0000001000
43
0.0000001000
44
0.0000000001
12
7.9284274360
22
9.6475820232
32
0.0000000000
13
-12.4874256956
23
0.0000000000
33
0.0000000000
40
0.0000000000
40
0.0000000000
40
0.0000000000
40
0.0000000000
40
0.0343083480
40
0.0869763385
40
0.1564918699
40
0.2400267145
40
0.3340428236
40
0.4345852375
40
0.5374775298
40
0.6384705725
40
0.7333735409
40
0.8181989046
40
0.8893512727
40
0.9439048636
40
0.9801594285
40
1.0000000000
40
1.0000000000
40
1.0000000000
40
1.0000000000
10
74.6253892903
20
153.5711472069
30
0.0000000000
10
74.7160597063
20
153.6814780742
30
0.0000000000
10
74.8614705749
20
154.0221898988
30
0.0000000000
10
75.0286263501
20
154.6491889543
30
0.0000000000
10
75.1740453191
20
155.4953231764
30
0.0000000000
10
75.2909970610
20
156.5168846415
30
0.0000000000
10
75.3727876132
20
157.6720273038
30
0.0000000000
10
75.4157603055
20
158.9096001394
30
0.0000000000
10
75.4179697847
20
160.1769979292
30
0.0000000000
10
75.3791083483
20
161.4203781391
30
0.0000000000
10
75.3017075058
20
162.5863883176
30
0.0000000000
10
75.1868239062
20
163.6254277907
30
0.0000000000
10
75.0479969159
20
164.4890749620
30
0.0000000000
10
74.8726665754
20
165.1479001907
30
0.0000000000
10
74.7178473078
20
165.5680808971
30
0.0000000000
10
74.5236383741
20
165.7600160919
30
0.0000000000
10
74.4410524866
20
165.7600160919
30
0.0000000000
11
74.6253892903
21
153.5711472069
31
0.0000000000
11
74.8226061555
21
153.9514782858
31
0.0000000000
11
75.0024291233
21
154.5841051133
31
0.0000000000
11
75.1567620658
21
155.4383456669
31
0.0000000000
11
75.2789908056
21
156.4742950425
31
0.0000000000
11
75.3640697359
21
157.6452274075
31
0.0000000000
11
75.4086026778
21
158.8999532938
31
0.0000000000
11
75.4108531104
21
160.1848111768
31
0.0000000000
11
75.3707323798
21
161.4453159522
31
0.0000000000
11
75.2897984620
21
162.6276428674
31
0.0000000000
11
75.1712678423
21
163.6802405870
31
0.0000000000
11
75.0200101168
21
164.5557809684
31
0.0000000000
11
74.8424793855
21
165.2134757934
31
0.0000000000
11
74.6465431494
21
165.6216056630
31
0.0000000000
11
74.4410524866
21
165.7600160919
31
0.0000000000
0
SPLINE
5
452
100
AcDbEntity
8
0
100
AcDbSpline
62
7
6
CONTINUOUS
70
0
71
3
72
10
73
6
74
4
42
0.0000001000
43
0.0000001000
44
0.0000000001
12
9.7206531798
22
1.5059100284
32
0.0000000000
13
8.9524281259
23
4.0758917926
33
0.0000000000
40
0.0000000000
40
0.0000000000
40
0.0000000000
40
0.0000000000
40
0.3332216184
40
0.6665718234
40
1.0000000000
40
1.0000000000
40
1.0000000000
40
1.0000000000
10
74.4410524866
20
171.8001815766
30
0.0000000000
10
75.5207630815
20
171.9674488355
30
0.0000000000
10
77.6666617800
20
172.4009037282
30
0.0000000000
10
80.8120595606
20
173.3412993134
30
0.0000000000
10
82.8443801659
20
174.1570103691
30
0.0000000000
10
83.8393774280
20
174.6100160919
30
0.0000000000
11
74.4410524866
21
171.8001815766
31
0.0000000000
11
77.6539362806
21
172.4491480374
31
0.0000000000
11
80.7955774479
21
173.3883838606
31
0.0000000000
11
83.8393774280
21
174.6100160919
31
0.0000000000
0
SPLINE
5
453
100
AcDbEntity
8
0
100
AcDbSpline
62
7
6
CONTINUOUS
70
0
71
3
72
14
73
10
74
8
42
0.0000001000
43
0.0000001000
44
0.0000000001
12
1.6371938953
22
-2.8358457564
32
0.0000000000
13
0.0002822452
23
-3.2745114025
33
0.0000000000
40
0.0000000000
40
0.0000000000
40
0.0000000000
40
0.0000000000
40
0.1430479530
40
0.2860837623
40
0.4290322873
40
0.5718961916
40
0.7146686796
40
0.8573828363
40
1.0000000000
40
1.0000000000
40
1.0000000000
40
1.0000000000
10
101.1014459200
20
142.4040032858
30
0.0000000000
10
101.1795116651
20
142.2687826423
30
0.0000000000
10
101.3256073923
20
141.9924176098
30
0.0000000000
10
101.5131298061
20
141.5628605156
30
0.0000000000
10
101.6680361336
20
141.1206784904
30
0.0000000000
10
101.7894336816
20
140.6684546825
30
0.0000000000
10
101.8766674780
20
140.2086682892
30
0.0000000000
10
101.9292381334
20
139.7439394075
30
0.0000000000
10
101.9409733658
20
139.4323741186
30
0.0000000000
10
101.9409867834
20
139.2767069424
30
0.0000000000
11
101.1014459200
21
142.4040032858
31
0.0000000000
11
101.3203497515
21
141.9898884956
31
0.0000000000
11
101.5077404162
21
141.5606363149
31
0.0000000000
11
101.6624927192
21
141.1188708021
31
0.0000000000
11
101.7837716617
21
140.6670554277
31
0.0000000000
11
101.8709064835
21
140.2077371771
31
0.0000000000
11
101.9234203012
21
139.7433779700
31
0.0000000000
11
101.9409867834
21
139.2767069424
31
0.0000000000
0
SPLINE
5
454
100
AcDbEntity
8
0
100
AcDbSpline
62
7
6
CONTINUOUS
70
0
71
3
72
10
73
6
74
4
42
0.0000001000
43
0.0000001000
44
0.0000000001
12
-0.8348382008
22
0.9949214250
32
0.0000000000
13
-0.2449452019
23
-1.2754706235
33
0.0000000000
40
0.0000000000
40
0.0000000000
40
0.0000000000
40
0.0000000000
40
0.1492561488
40
0.4467994953
40
1.0000000000
40
1.0000000000
40
1.0000000000
40
1.0000000000
10
96.9410524866
20
168.3600160919
30
0.0000000000
10
96.8995175751
20
168.4095154719
30
0.0000000000
10
96.6411742672
20
168.4340988647
30
0.0000000000
10
96.5409052554
20
167.9068981109
30
0.0000000000
10
96.4341302124
20
167.5969710522
30
0.0000000000
10
96.3889622760
20
167.3617740546
30
0.0000000000
11
96.9410524866
21
168.3600160919
31
0.0000000000
11
96.7507452402
21
168.3969103938
31
0.0000000000
11
96.5639132832
21
168.0586327751
31
0.0000000000
11
96.3889622760
21
167.3617740546
31
0.0000000000
0
SPLINE
5
455
100
AcDbEntity
8
0
100
AcDbSpline
62
7
6
CONTINUOUS
70
0
71
3
72
18
73
14
74
12
42
0.0000001000
43
0.0000001000
44
0.0000000001
12
-47.8716322661
22
-8.1783912535
32
0.0000000000
13
-47.8716322661
23
8.1783912535
33
0.0000000000
40
0.0000000000
40
0.0000000000
40
0.0000000000
40
0.0000000000
40
0.0755835450
40
0.1602049679
40
0.2520345906
40
0.3491021356
40
0.4493459805
40
0.5506540195
40
0.6508978644
40
0.7479654094
40
0.8397950321
40
0.9244164550
40
1.0000000000
40
1.0000000000
40
1.0000000000
40
1.0000000000
10
93.1410812433
20
124.0565574547
30
0.0000000000
10
91.9349786867
20
123.8505068537
30
0.0000000000
10
89.3670470765
20
123.4805302121
30
0.0000000000
10
85.3091838382
20
123.0494592318
30
0.0000000000
10
80.8931721280
20
122.7176114914
30
0.0000000000
10
76.2173664878
20
122.4923116417
30
0.0000000000
10
71.3840708005
20
122.3784577780
30
0.0000000000
10
66.4980341727
20
122.3784577780
30
0.0000000000
10
61.6647384854
20
122.4923116417
30
0.0000000000
10
56.9889328453
20
122.7176114914
30
0.0000000000
10
52.5729211351
20
123.0494592318
30
0.0000000000
10
48.5150578967
20
123.4805302121
30
0.0000000000
10
45.9471262865
20
123.8505068537
30
0.0000000000
10
44.7410237300
20
124.0565574547
30
0.0000000000
11
93.1410812433
21
124.0565574547
31
0.0000000000
11
89.5093700593
21
123.5227635622
31
0.0000000000
11
85.4234217914
21
123.0819617178
31
0.0000000000
11
80.9765711436
21
122.7433431629
31
0.0000000000
11
76.2680582047
21
122.5137890882
31
0.0000000000
11
71.4010753895
21
122.3978724772
31
0.0000000000
11
66.4810295837
21
122.3978724772
31
0.0000000000
11
61.6140467685
21
122.5137890882
31
0.0000000000
11
56.9055338296
21
122.7433431629
31
0.0000000000
11
52.4586831818
21
123.0819617178
31
0.0000000000
11
48.3727349139
21
123.5227635622
31
0.0000000000
11
44.7410237300
21
124.0565574547
31
0.0000000000
0
SPLINE
5
456
100
AcDbEntity
8
0
100
AcDbSpline
62
7
6
CONTINUOUS
70
0
71
3
72
15
73
11
74
9
42
0.0000001000
43
0.0000001000
44
0.0000000001
12
0.5053830953
22
7.2219965212
32
0.0000000000
13
6.6473466475
23
2.8680007624
33
0.0000000000
40
0.0000000000
40
0.0000000000
40
0.0000000000
40
0.0000000000
40
0.1409116617
40
0.2758008457
40
0.4036844268
40
0.5250562291
40
0.6432361069
40
0.7627813955
40
0.8830586821
40
1.0000000000
40
1.0000000000
40
1.0000000000
40
1.0000000000
10
59.0541925200
20
163.0012009734
30
0.0000000000
10
59.0779306439
20
163.3404221502
30
0.0000000000
10
59.1362933343
20
164.0036717552
30
0.0000000000
10
59.2740127817
20
164.9687261323
30
0.0000000000
10
59.4759595658
20
165.8748005875
30
0.0000000000
10
59.7623618398
20
166.7164468106
30
0.0000000000
10
60.1618389184
20
167.4901550626
30
0.0000000000
10
60.7034090597
20
168.1718512855
30
0.0000000000
10
61.3790857830
20
168.7161240088
30
0.0000000000
10
61.8893605538
20
168.9825822267
30
0.0000000000
10
62.1484770463
20
169.0943781564
30
0.0000000000
11
59.0541925200
21
163.0012009734
31
0.0000000000
11
59.1468942295
21
164.0171325364
31
0.0000000000
11
59.2891814523
21
164.9832625778
31
0.0000000000
11
59.4960324827
21
165.8856926777
31
0.0000000000
11
59.7853266287
21
166.7153947793
31
0.0000000000
11
60.1838381856
21
167.4725003822
31
0.0000000000
11
60.7250144754
21
168.1478975464
31
0.0000000000
11
61.4010871100
21
168.6966779395
31
0.0000000000
11
62.1484770463
21
169.0943781564
31
0.0000000000
0
SPLINE
5
457
100
AcDbEntity
8
0
100
AcDbSpline
62
7
6
CONTINUOUS
70
0
71
3
72
15
73
11
74
9
42
0.0000001000
43
0.0000001000
44
0.0000000001
12
-17.4528490152
22
2.1089406808
32
0.0000000000
13
-7.7130807144
23
15.7974034397
33
0.0000000000
40
0.0000000000
40
0.0000000000
40
0.0000000000
40
0.0000000000
40
0.1172962476
40
0.2349934273
40
0.3525935204
40
0.4718834932
40
0.5949509878
40
0.7237038915
40
0.8587910020
40
1.0000000000
40
1.0000000000
40
1.0000000000
40
1.0000000000
10
68.9410542440
20
124.0565573760
30
0.0000000000
10
68.2586696776
20
124.1390143188
30
0.0000000000
10
66.9001476824
20
124.3870691292
30
0.0000000000
10
64.9222641184
20
125.0007828566
30
0.0000000000
10
63.0208818374
20
125.8510712666
30
0.0000000000
10
61.2076960793
20
126.9387527043
30
0.0000000000
10
59.4881515832
20
128.2790130105
30
0.0000000000
10
57.8839856875
20
129.8900435368
30
0.0000000000
10
56.4370028148
20
131.7798144757
30
0.0000000000
10
55.6296005310
20
133.1898622783
30
0.0000000000
10
55.2665483979
20
133.9334407820
30
0.0000000000
11
68.9410542440
21
124.0565573760
31
0.0000000000
11
66.9125110376
21
124.4267506415
31
0.0000000000
11
64.9362780577
21
125.0396546708
31
0.0000000000
11
63.0489182460
21
125.8834325322
31
0.0000000000
11
61.2504281705
21
126.9619681098
31
0.0000000000
11
59.5438088146
21
128.2917026986
31
0.0000000000
11
57.9462977956
21
129.8951892532
31
0.0000000000
11
56.5018115265
21
131.7801717358
31
0.0000000000
11
55.2665483979
21
133.9334407820
31
0.0000000000
0
SPLINE
5
458
100
AcDbEntity
8
0
100
AcDbSpline
62
9
6
CONTINUOUS
70
0
71
3
72
13
73
9
74
7
42
0.0000001000
43
0.0000001000
44
0.0000000001
12
-0.5143730927
22
-5.5558235076
32
0.0000000000
13
3.3000341500
23
4.4990586944
33
0.0000000000
40
0.0000000000
40
0.0000000000
40
0.0000000000
40
0.0000000000
40
0.0728392117
40
0.1175740830
40
0.2110766789
40
0.3774694855
40
0.6352002491
40
1.0000000000
40
1.0000000000
40
1.0000000000
40
1.0000000000
10
36.7804621600
20
142.4036622567
30
0.0000000000
10
36.7679733165
20
142.2687683218
30
0.0000000000
10
36.7166030470
20
141.9776730036
30
0.0000000000
10
37.1847589596
20
141.8831299750
30
0.0000000000
10
37.6072014244
20
142.3277378853
30
0.0000000000
10
38.2934119170
20
142.9650482908
30
0.0000000000
10
39.2185759200
20
144.1269428373
30
0.0000000000
10
39.9177941940
20
145.0427210547
30
0.0000000000
10
40.3190780726
20
145.5898062183
30
0.0000000000
11
36.7804621600
21
142.4036622567
31
0.0000000000
11
36.8241247926
21
141.9996020154
31
0.0000000000
11
37.0645619458
21
141.9325862441
31
0.0000000000
11
37.5040680611
21
142.2136753194
31
0.0000000000
11
38.1623388708
21
142.8683591515
31
0.0000000000
11
39.0877347343
21
143.9690743062
31
0.0000000000
11
40.3190780726
21
145.5898062183
31
0.0000000000
0
SPLINE
5
459
100
AcDbEntity
8
0
100
AcDbSpline
62
7
6
CONTINUOUS
70
0
71
3
72
10
73
6
74
4
42
0.0000001000
43
0.0000001000
44
0.0000000001
12
-2.2642770187
22
-3.9218428387
32
0.0000000000
13
-0.0000505411
23
-4.5285540370
33
0.0000000000
40
0.0000000000
40
0.0000000000
40
0.0000000000
40
0.0000000000
40
0.3709456105
40
0.7026696831
40
1.0000000000
40
1.0000000000
40
1.0000000000
40
1.0000000000
10
40.3177219651
20
145.5874573713
30
0.0000000000
10
40.0377474248
20
145.1025272426
30
0.0000000000
10
39.5738265146
20
144.1424569055
30
0.0000000000
10
39.1531218125
20
142.6854349896
30
0.0000000000
10
39.0579519008
20
141.7340713426
30
0.0000000000
10
39.0579468916
20
141.2852458736
30
0.0000000000
11
40.3177219651
21
145.5874573713
31
0.0000000000
11
39.5948358406
21
144.0711056946
31
0.0000000000
11
39.1857809967
21
142.6256402769
31
0.0000000000
11
39.0579468916
21
141.2852458736
31
0.0000000000
0
SPLINE
5
45A
100
AcDbEntity
8
0
100
AcDbSpline
62
7
6
CONTINUOUS
70
0
71
3
72
10
73
6
74
4
42
0.0000001000
43
0.0000001000
44
0.0000000001
12
-0.0365217280
22
2.5757211894
32
0.0000000000
13
-0.0000000000
23
0.0000000000
33
0.0000000000
40
0.0000000000
40
0.0000000000
40
0.0000000000
40
0.0000000000
40
0.4925070417
40
0.8291539851
40
1.0000000000
40
1.0000000000
40
1.0000000000
40
1.0000000000
10
46.2227874163
20
171.9789827822
30
0.0000000000
10
46.2167916802
20
172.4018363899
30
0.0000000000
10
46.2056405861
20
173.1875414755
30
0.0000000000
10
46.1964397468
20
173.8353862596
30
0.0000000000
10
46.1862118179
20
174.5547032070
30
0.0000000000
10
46.1862118179
20
174.5547032070
30
0.0000000000
11
46.2227874163
21
171.9789827822
31
0.0000000000
11
46.2047871607
21
173.2475434203
31
0.0000000000
11
46.1924682629
21
174.1146517457
31
0.0000000000
11
46.1862118179
21
174.5547032070
31
0.0000000000
0
SPLINE
5
45B
100
AcDbEntity
8
0
100
AcDbSpline
62
7
6
CONTINUOUS
70
0
71
3
72
11
73
7
74
5
42
0.0000001000
43
0.0000001000
44
0.0000000001
12
1.7963950424
22
1.3196622623
32
0.0000000000
13
0.8405100647
23
2.0644821302
33
0.0000000000
40
0.0000000000
40
0.0000000000
40
0.0000000000
40
0.0000000000
40
0.2876935398
40
0.5514393190
40
0.7920054718
40
1.0000000000
40
1.0000000000
40
1.0000000000
40
1.0000000000
10
80.4782197030
20
164.1925917868
30
0.0000000000
10
80.6504901192
20
164.3191445560
30
0.0000000000
10
80.9698386741
20
164.5771644717
30
0.0000000000
10
81.3846972771
20
164.9965099842
30
0.0000000000
10
81.7052598837
20
165.4197880926
30
0.0000000000
10
81.8627411801
20
165.7158491943
30
0.0000000000
10
81.9210150116
20
165.8589828565
30
0.0000000000
11
80.4782197030
21
164.1925917868
31
0.0000000000
11
80.9754055052
21
164.5976110151
31
0.0000000000
11
81.3866631191
21
165.0177159933
31
0.0000000000
11
81.7071515584
21
165.4476311995
31
0.0000000000
11
81.9210150116
21
165.8589828565
31
0.0000000000
0
SPLINE
5
45C
100
AcDbEntity
8
0
100
AcDbSpline
62
7
6
CONTINUOUS
70
0
71
3
72
14
73
10
74
8
42
0.0000001000
43
0.0000001000
44
0.0000000001
12
3.4580316180
22
8.4937059502
32
0.0000000000
13
-9.1706610143
23
0.0000000000
33
0.0000000000
40
0.0000000000
40
0.0000000000
40
0.0000000000
40
0.0000000000
40
0.2482976043
40
0.4672803265
40
0.6507876245
40
0.7971171495
40
0.9037021152
40
0.9682403349
40
1.0000000000
40
1.0000000000
40
1.0000000000
40
1.0000000000
10
81.9210150185
20
165.8589828565
30
0.0000000000
10
82.2072220073
20
166.5619718027
30
0.0000000000
10
82.7079666583
20
167.9005778806
30
0.0000000000
10
83.3115573266
20
169.7972569864
30
0.0000000000
10
83.7329270432
20
171.4214860009
30
0.0000000000
10
84.0166046297
20
172.7262975101
30
0.0000000000
10
84.0981513560
20
173.6980975571
30
0.0000000000
10
84.1540855092
20
174.3087177797
30
0.0000000000
10
83.9364631355
20
174.6100160919
30
0.0000000000
10
83.8393774280
20
174.6100160919
30
0.0000000000
11
81.9210150185
21
165.8589828565
31
0.0000000000
11
82.7203637620
21
167.9911209094
31
0.0000000000
11
83.3254327038
21
169.9060162947
31
0.0000000000
11
83.7494477101
21
171.5346068571
31
0.0000000000
11
84.0091556457
21
172.8511746090
31
0.0000000000
11
84.1102015555
21
173.8233922798
31
0.0000000000
11
84.0534505824
21
174.4125233173
31
0.0000000000
11
83.8393774280
21
174.6100160919
31
0.0000000000
0
SPLINE
5
45D
100
AcDbEntity
8
0
100
AcDbSpline
62
7
6
CONTINUOUS
70
0
71
3
72
10
73
6
74
4
42
0.0000001000
43
0.0000001000
44
0.0000000001
12
0.8348382008
22
0.9949214250
32
0.0000000000
13
0.2449452019
23
-1.2754706235
33
0.0000000000
40
0.0000000000
40
0.0000000000
40
0.0000000000
40
0.0000000000
40
0.1492561488
40
0.4467994953
40
1.0000000000
40
1.0000000000
40
1.0000000000
40
1.0000000000
10
40.9410524866
20
168.3600160919
30
0.0000000000
10
40.9825873982
20
168.4095154719
30
0.0000000000
10
41.2409307060
20
168.4340988647
30
0.0000000000
10
41.3411997178
20
167.9068981109
30
0.0000000000
10
41.4479747608
20
167.5969710522
30
0.0000000000
10
41.4931426972
20
167.3617740546
30
0.0000000000
11
40.9410524866
21
168.3600160919
31
0.0000000000
11
41.1313597330
21
168.3969103938
31
0.0000000000
11
41.3181916900
21
168.0586327751
31
0.0000000000
11
41.4931426972
21
167.3617740546
31
0.0000000000
0
SPLINE
5
45E
100
AcDbEntity
8
0
100
AcDbSpline
62
7
6
CONTINUOUS
70
0
71
3
72
15
73
11
74
9
42
0.0000001000
43
0.0000001000
44
0.0000000001
12
17.4528490152
22
2.1089406808
32
0.0000000000
13
7.7130807144
23
15.7974034397
33
0.0000000000
40
0.0000000000
40
0.0000000000
40
0.0000000000
40
0.0000000000
40
0.1172962476
40
0.2349934273
40
0.3525935204
40
0.4718834932
40
0.5949509878
40
0.7237038915
40
0.8587910020
40
1.0000000000
40
1.0000000000
40
1.0000000000
40
1.0000000000
10
68.9410507292
20
124.0565573760
30
0.0000000000
10
69.6234352956
20
124.1390143188
30
0.0000000000
10
70.9819572909
20
124.3870691292
30
0.0000000000
10
72.9598408548
20
125.0007828566
30
0.0000000000
10
74.8612231359
20
125.8510712666
30
0.0000000000
10
76.6744088939
20
126.9387527043
30
0.0000000000
10
78.3939533901
20
128.2790130105
30
0.0000000000
10
79.9981192857
20
129.8900435368
30
0.0000000000
10
81.4451021584
20
131.7798144757
30
0.0000000000
10
82.2525044423
20
133.1898622783
30
0.0000000000
10
82.6155565754
20
133.9334407820
30
0.0000000000
11
68.9410507292
21
124.0565573760
31
0.0000000000
11
70.9695939357
21
124.4267506415
31
0.0000000000
11
72.9458269155
21
125.0396546708
31
0.0000000000
11
74.8331867273
21
125.8834325322
31
0.0000000000
11
76.6316768027
21
126.9619681098
31
0.0000000000
11
78.3382961586
21
128.2917026986
31
0.0000000000
11
79.9358071776
21
129.8951892532
31
0.0000000000
11
81.3802934468
21
131.7801717358
31
0.0000000000
11
82.6155565754
21
133.9334407820
31
0.0000000000
0
SPLINE
5
45F
100
AcDbEntity
8
0
100
AcDbSpline
62
7
6
CONTINUOUS
70
0
71
3
72
9
73
5
74
3
42
0.0000001000
43
0.0000001000
44
0.0000000001
12
1.6596722521
22
1.1783386593
32
0.0000000000
13
1.6403799217
23
1.2050509088
33
0.0000000000
40
0.0000000000
40
0.0000000000
40
0.0000000000
40
0.0000000000
40
0.5036541468
40
1.0000000000
40
1.0000000000
40
1.0000000000
40
1.0000000000
10
78.8279124533
20
163.0012009734
30
0.0000000000
10
79.1065460573
20
163.1990260241
30
0.0000000000
10
79.6582914168
20
163.5938932648
30
0.0000000000
10
80.2068211125
20
163.9932177797
30
0.0000000000
10
80.4782197030
20
164.1925917868
30
0.0000000000
11
78.8279124533
21
163.0012009734
31
0.0000000000
11
79.6615080245
21
163.5979097362
31
0.0000000000
11
80.4782197030
21
164.1925917868
31
0.0000000000
0
SPLINE
5
460
100
AcDbEntity
8
0
100
AcDbSpline
62
9
6
CONTINUOUS
70
0
71
3
72
13
73
9
74
7
42
0.0000001000
43
0.0000001000
44
0.0000000001
12
0.0005345109
22
-4.2129937395
32
0.0000000000
13
2.9058436636
23
3.0504735922
33
0.0000000000
40
0.0000000000
40
0.0000000000
40
0.0000000000
40
0.0000000000
40
0.0693258148
40
0.1284480719
40
0.2346232370
40
0.4063136102
40
0.6563449283
40
1.0000000000
40
1.0000000000
40
1.0000000000
40
1.0000000000
10
35.9410524866
20
139.2749148418
30
0.0000000000
10
35.9410648384
20
139.1775584339
30
0.0000000000
10
35.9644474597
20
138.9524843090
30
0.0000000000
10
36.3525903489
20
138.9145115203
30
0.0000000000
10
36.7531675349
20
139.1723259218
30
0.0000000000
10
37.3520000634
20
139.6086570860
30
0.0000000000
10
38.1401028351
20
140.3433055854
30
0.0000000000
10
38.7250775875
20
140.9367719348
30
0.0000000000
10
39.0579468916
20
141.2862088418
30
0.0000000000
11
35.9410524866
21
139.2749148418
31
0.0000000000
11
36.0213925500
21
138.9941125856
31
0.0000000000
11
36.2649033103
21
138.9417274415
31
0.0000000000
11
36.6730856394
21
139.1246978555
31
0.0000000000
11
37.2558150733
21
139.5532225112
31
0.0000000000
11
38.0390273349
21
140.2576292058
31
0.0000000000
11
39.0579468916
21
141.2862088418
31
0.0000000000
0
SPLINE
5
461
100
AcDbEntity
8
0
100
AcDbSpline
62
7
6
CONTINUOUS
70
0
71
3
72
13
73
9
74
7
42
0.0000001000
43
0.0000001000
44
0.0000000001
12
2.9873374088
22
-0.7627486298
32
0.0000000000
13
0.6948599537
23
-3.0038541761
33
0.0000000000
40
0.0000000000
40
0.0000000000
40
0.0000000000
40
0.0000000000
40
0.0847301491
40
0.1962667577
40
0.3420120973
40
0.5244751296
40
0.7441286198
40
1.0000000000
40
1.0000000000
40
1.0000000000
40
1.0000000000
10
74.4410524866
20
171.8001815766
30
0.0000000000
10
74.5254250013
20
171.7786389749
30
0.0000000000
10
74.7038459121
20
171.6679863336
30
0.0000000000
10
74.9252808528
20
171.3919714325
30
0.0000000000
10
75.1420225219
20
170.9935321553
30
0.0000000000
10
75.3519375380
20
170.4702596189
30
0.0000000000
10
75.5546118258
20
169.8246212084
30
0.0000000000
10
75.6743630017
20
169.3505782611
30
0.0000000000
10
75.7336279269
20
169.0943781564
30
0.0000000000
11
74.4410524866
21
171.8001815766
31
0.0000000000
11
74.6699069168
21
171.6742018396
31
0.0000000000
11
74.8956586591
21
171.4147902624
31
0.0000000000
11
75.1168235288
21
171.0236264768
31
0.0000000000
11
75.3314674409
21
170.5036188227
31
0.0000000000
11
75.5377546147
21
169.8585712410
31
0.0000000000
11
75.7336279269
21
169.0943781564
31
0.0000000000
0
SPLINE
5
462
100
AcDbEntity
8
0
100
AcDbSpline
62
7
6
CONTINUOUS
70
0
71
3
72
12
73
8
74
6
42
0.0000001000
43
0.0000001000
44
0.0000000001
12
2.8464665501
22
-2.2563589771
32
0.0000000000
13
3.2792248034
23
1.5621179030
33
0.0000000000
40
0.0000000000
40
0.0000000000
40
0.0000000000
40
0.0000000000
40
0.3445919201
40
0.6077937621
40
0.7983846014
40
0.9253179407
40
1.0000000000
40
1.0000000000
40
1.0000000000
40
1.0000000000
10
75.7336279269
20
154.0301946805
30
0.0000000000
10
76.0605843849
20
153.7710203230
30
0.0000000000
10
76.6454932397
20
153.3231786310
30
0.0000000000
10
77.4396406033
20
152.7741893182
30
0.0000000000
10
78.0528662341
20
152.4195375804
30
0.0000000000
10
78.4825140063
20
152.2347334869
30
0.0000000000
10
78.7462793662
20
152.2048969722
30
0.0000000000
10
78.8279124533
20
152.2437843661
30
0.0000000000
11
75.7336279269
21
154.0301946805
31
0.0000000000
11
76.7301380006
21
153.2728212389
31
0.0000000000
11
77.5212197688
21
152.7360028062
31
0.0000000000
11
78.1246050754
21
152.3966220126
31
0.0000000000
11
78.5567589740
21
152.2359419471
31
0.0000000000
11
78.8279124533
21
152.2437843661
31
0.0000000000
0
SPLINE
5
463
100
AcDbEntity
8
0
100
AcDbSpline
62
7
6
CONTINUOUS
70
0
71
3
72
10
73
6
74
4
42
0.0000001000
43
0.0000001000
44
0.0000000001
12
0.0365217280
22
2.5757211894
32
0.0000000000
13
0.0000000000
23
0.0000000000
33
0.0000000000
40
0.0000000000
40
0.0000000000
40
0.0000000000
40
0.0000000000
40
0.4925070417
40
0.8291539851
40
1.0000000000
40
1.0000000000
40
1.0000000000
40
1.0000000000
10
91.6593175569
20
171.9789827822
30
0.0000000000
10
91.6653132930
20
172.4018363899
30
0.0000000000
10
91.6764643871
20
173.1875414755
30
0.0000000000
10
91.6856652265
20
173.8353862596
30
0.0000000000
10
91.6958931554
20
174.5547032070
30
0.0000000000
10
91.6958931554
20
174.5547032070
30
0.0000000000
11
91.6593175569
21
171.9789827822
31
0.0000000000
11
91.6773178126
21
173.2475434203
31
0.0000000000
11
91.6896367103
21
174.1146517457
31
0.0000000000
11
91.6958931554
21
174.5547032070
31
0.0000000000
0
SPLINE
5
464
100
AcDbEntity
8
0
100
AcDbSpline
62
7
6
CONTINUOUS
70
0
71
3
72
10
73
6
74
4
42
0.0000001000
43
0.0000001000
44
0.0000000001
12
0.8164557103
22
-1.7490615995
32
0.0000000000
13
1.0933732825
23
-1.5907077892
33
0.0000000000
40
0.0000000000
40
0.0000000000
40
0.0000000000
40
0.0000000000
40
0.2970638832
40
0.6311625433
40
1.0000000000
40
1.0000000000
40
1.0000000000
40
1.0000000000
10
93.3869933358
20
165.8589828276
30
0.0000000000
10
93.4678398371
20
165.6857884841
30
0.0000000000
10
93.6520616605
20
165.3235511072
30
0.0000000000
10
93.9755734738
20
164.7670730704
30
0.0000000000
10
94.2229481352
20
164.3881626586
30
0.0000000000
10
94.3573738087
20
164.1925917868
30
0.0000000000
11
93.3869933358
21
165.8589828276
31
0.0000000000
11
93.6456751321
21
165.3472449408
31
0.0000000000
11
93.9688455162
21
164.7891735618
31
0.0000000000
11
94.3573738087
21
164.1925917868
31
0.0000000000
0
SPLINE
5
465
100
AcDbEntity
8
0
100
AcDbSpline
62
7
6
CONTINUOUS
70
0
71
3
72
12
73
8
74
6
42
0.0000001000
43
0.0000001000
44
0.0000000001
12
-0.0908056386
22
-6.4041331114
32
0.0000000000
13
2.7091053798
23
-5.8036122039
33
0.0000000000
40
0.0000000000
40
0.0000000000
40
0.0000000000
40
0.0000000000
40
0.1487960876
40
0.3209283049
40
0.5187561128
40
0.7444392051
40
1.0000000000
40
1.0000000000
40
1.0000000000
40
1.0000000000
10
91.6593175569
20
171.9789827822
30
0.0000000000
10
91.6548137157
20
171.6613461317
30
0.0000000000
10
91.7017953347
20
170.9752559842
30
0.0000000000
10
91.9047479303
20
169.8848643018
30
0.0000000000
10
92.2499858963
20
168.6594316656
30
0.0000000000
10
92.7454422214
20
167.2958552697
30
0.0000000000
10
93.1562129610
20
166.3533747437
30
0.0000000000
10
93.3869933358
20
165.8589828276
30
0.0000000000
11
91.6593175569
21
171.9789827822
31
0.0000000000
11
91.7152699233
21
171.0276209849
31
0.0000000000
11
91.9097817985
21
169.9424473606
31
0.0000000000
11
92.2477023050
21
168.7212972439
31
0.0000000000
11
92.7367617853
21
167.3610964929
31
0.0000000000
11
93.3869933358
21
165.8589828276
31
0.0000000000
0
SPLINE
5
466
100
AcDbEntity
8
0
100
AcDbSpline
62
7
6
CONTINUOUS
70
0
71
3
72
9
73
5
74
3
42
0.0000001000
43
0.0000001000
44
0.0000000001
12
-1.6596722521
22
1.1783386593
32
0.0000000000
13
-1.6403799217
23
1.2050509088
33
0.0000000000
40
0.0000000000
40
0.0000000000
40
0.0000000000
40
0.0000000000
40
0.5036541468
40
1.0000000000
40
1.0000000000
40
1.0000000000
40
1.0000000000
10
59.0541925200
20
163.0012009734
30
0.0000000000
10
58.7755589159
20
163.1990260241
30
0.0000000000
10
58.2238135565
20
163.5938932648
30
0.0000000000
10
57.6752838608
20
163.9932177797
30
0.0000000000
10
57.4038852702
20
164.1925917868
30
0.0000000000
11
59.0541925200
21
163.0012009734
31
0.0000000000
11
58.2205969488
21
163.5979097362
31
0.0000000000
11
57.4038852702
21
164.1925917868
31
0.0000000000
0
SPLINE
5
467
100
AcDbEntity
8
0
100
AcDbSpline
62
7
6
CONTINUOUS
70
0
71
3
72
15
73
11
74
9
42
0.0000001000
43
0.0000001000
44
0.0000000001
12
-0.5053830953
22
7.2219965212
32
0.0000000000
13
-6.6473466475
23
2.8680007624
33
0.0000000000
40
0.0000000000
40
0.0000000000
40
0.0000000000
40
0.0000000000
40
0.1409116617
40
0.2758008457
40
0.4036844268
40
0.5250562291
40
0.6432361069
40
0.7627813955
40
0.8830586821
40
1.0000000000
40
1.0000000000
40
1.0000000000
40
1.0000000000
10
78.8279124533
20
163.0012009734
30
0.0000000000
10
78.8041743293
20
163.3404221502
30
0.0000000000
10
78.7458116389
20
164.0036717552
30
0.0000000000
10
78.6080921915
20
164.9687261323
30
0.0000000000
10
78.4061454074
20
165.8748005875
30
0.0000000000
10
78.1197431334
20
166.7164468106
30
0.0000000000
10
77.7202660548
20
167.4901550626
30
0.0000000000
10
77.1786959136
20
168.1718512855
30
0.0000000000
10
76.5030191902
20
168.7161240088
30
0.0000000000
10
75.9927444194
20
168.9825822267
30
0.0000000000
10
75.7336279269
20
169.0943781564
30
0.0000000000
11
78.8279124533
21
163.0012009734
31
0.0000000000
11
78.7352107437
21
164.0171325364
31
0.0000000000
11
78.5929235209
21
164.9832625778
31
0.0000000000
11
78.3860724905
21
165.8856926777
31
0.0000000000
11
78.0967783445
21
166.7153947793
31
0.0000000000
11
77.6982667877
21
167.4725003822
31
0.0000000000
11
77.1570904978
21
168.1478975464
31
0.0000000000
11
76.4810178632
21
168.6966779395
31
0.0000000000
11
75.7336279269
21
169.0943781564
31
0.0000000000
0
SPLINE
5
468
100
AcDbEntity
8
0
100
AcDbSpline
62
9
6
CONTINUOUS
70
0
71
3
72
13
73
9
74
7
42
0.0000001000
43
0.0000001000
44
0.0000000001
12
-0.0005345113
22
-4.2129937395
32
0.0000000000
13
-2.9058436636
23
3.0504735922
33
0.0000000000
40
0.0000000000
40
0.0000000000
40
0.0000000000
40
0.0000000000
40
0.0693258148
40
0.1284480719
40
0.2346232370
40
0.4063136102
40
0.6563449283
40
1.0000000000
40
1.0000000000
40
1.0000000000
40
1.0000000000
10
101.9410524866
20
139.2749148418
30
0.0000000000
10
101.9410401348
20
139.1775584339
30
0.0000000000
10
101.9176575135
20
138.9524843090
30
0.0000000000
10
101.5295146243
20
138.9145115203
30
0.0000000000
10
101.1289374383
20
139.1723259218
30
0.0000000000
10
100.5301049098
20
139.6086570860
30
0.0000000000
10
99.7420021382
20
140.3433055854
30
0.0000000000
10
99.1570273858
20
140.9367719348
30
0.0000000000
10
98.8241580816
20
141.2862088418
30
0.0000000000
11
101.9410524866
21
139.2749148418
31
0.0000000000
11
101.8607124232
21
138.9941125856
31
0.0000000000
11
101.6172016629
21
138.9417274415
31
0.0000000000
11
101.2090193339
21
139.1246978555
31
0.0000000000
11
100.6262899000
21
139.5532225112
31
0.0000000000
11
99.8430776383
21
140.2576292058
31
0.0000000000
11
98.8241580816
21
141.2862088418
31
0.0000000000
0
SPLINE
5
469
100
AcDbEntity
8
0
100
AcDbSpline
62
7
6
CONTINUOUS
70
0
71
3
72
10
73
6
74
4
42
0.0000001000
43
0.0000001000
44
0.0000000001
12
2.2642770187
22
-3.9218428387
32
0.0000000000
13
0.0000505411
23
-4.5285540370
33
0.0000000000
40
0.0000000000
40
0.0000000000
40
0.0000000000
40
0.0000000000
40
0.3709456105
40
0.7026696831
40
1.0000000000
40
1.0000000000
40
1.0000000000
40
1.0000000000
10
97.5643830081
20
145.5874573713
30
0.0000000000
10
97.8443575484
20
145.1025272426
30
0.0000000000
10
98.3082784586
20
144.1424569055
30
0.0000000000
10
98.7289831608
20
142.6854349896
30
0.0000000000
10
98.8241530725
20
141.7340713426
30
0.0000000000
10
98.8241580816
20
141.2852458736
30
0.0000000000
11
97.5643830081
21
145.5874573713
31
0.0000000000
11
98.2872691326
21
144.0711056946
31
0.0000000000
11
98.6963239766
21
142.6256402769
31
0.0000000000
11
98.8241580816
21
141.2852458736
31
0.0000000000
0
SPLINE
5
46A
100
AcDbEntity
8
0
100
AcDbSpline
62
9
6
CONTINUOUS
70
0
71
3
72
13
73
9
74
7
42
0.0000001000
43
0.0000001000
44
0.0000000001
12
0.5143730927
22
-5.5558235076
32
0.0000000000
13
-3.3000341500
23
4.4990586944
33
0.0000000000
40
0.0000000000
40
0.0000000000
40
0.0000000000
40
0.0000000000
40
0.0728392117
40
0.1175740830
40
0.2110766789
40
0.3774694855
40
0.6352002491
40
1.0000000000
40
1.0000000000
40
1.0000000000
40
1.0000000000
10
101.1016428132
20
142.4036622567
30
0.0000000000
10
101.1141316568
20
142.2687683218
30
0.0000000000
10
101.1655019262
20
141.9776730036
30
0.0000000000
10
100.6973460136
20
141.8831299750
30
0.0000000000
10
100.2749035488
20
142.3277378853
30
0.0000000000
10
99.5886930563
20
142.9650482908
30
0.0000000000
10
98.6635290532
20
144.1269428373
30
0.0000000000
10
97.9643107793
20
145.0427210547
30
0.0000000000
10
97.5630269007
20
145.5898062183
30
0.0000000000
11
101.1016428132
21
142.4036622567
31
0.0000000000
11
101.0579801806
21
141.9996020154
31
0.0000000000
11
100.8175430274
21
141.9325862441
31
0.0000000000
11
100.3780369122
21
142.2136753194
31
0.0000000000
11
99.7197661024
21
142.8683591515
31
0.0000000000
11
98.7943702389
21
143.9690743062
31
0.0000000000
11
97.5630269007
21
145.5898062183
31
0.0000000000
0
SPLINE
5
46B
100
AcDbEntity
8
0
100
AcDbSpline
62
7
6
CONTINUOUS
70
0
71
3
72
19
73
15
74
13
42
0.0000001000
43
0.0000001000
44
0.0000000001
12
-12.3005145931
22
2.1014210074
32
0.0000000000
13
-0.0000000000
23
12.4787270788
33
0.0000000000
40
0.0000000000
40
0.0000000000
40
0.0000000000
40
0.0000000000
40
0.0576279646
40
0.1145588640
40
0.1709665146
40
0.2272556773
40
0.2849306063
40
0.3478413226
40
0.4204212597
40
0.5079535017
40
0.6143521627
40
0.7358892511
40
0.8675288317
40
1.0000000000
40
1.0000000000
40
1.0000000000
40
1.0000000000
10
44.7410236972
20
124.0565574607
30
0.0000000000
10
44.5047391573
20
124.0969243326
30
0.0000000000
10
44.0383714542
20
124.1992685464
30
0.0000000000
10
43.3629573399
20
124.4267101849
30
0.0000000000
10
42.7248262583
20
124.7322010391
30
0.0000000000
10
42.1291095215
20
125.1198688450
30
0.0000000000
10
41.5699721498
20
125.6014184096
30
0.0000000000
10
41.0359638740
20
126.2050477723
30
0.0000000000
10
40.5198358413
20
126.9792899823
30
0.0000000000
10
40.0327766437
20
127.9786989653
30
0.0000000000
10
39.6111052130
20
129.2247307330
30
0.0000000000
10
39.2921358093
20
130.6887346380
30
0.0000000000
10
39.1000541770
20
132.2833295721
30
0.0000000000
10
39.0579468916
20
133.3824169302
30
0.0000000000
10
39.0579468916
20
133.9334407820
30
0.0000000000
11
44.7410236972
21
124.0565574607
31
0.0000000000
11
44.0390247117
21
124.2125582225
31
0.0000000000
11
43.3662839558
21
124.4408645462
31
0.0000000000
11
42.7318731291
21
124.7458104861
31
0.0000000000
11
42.1432789131
21
125.1291466703
31
0.0000000000
11
41.5974664757
21
125.5982637488
31
0.0000000000
11
41.0758472521
21
126.1849579378
31
0.0000000000
11
40.5704518709
21
126.9365412437
31
0.0000000000
11
40.0866498938
21
127.9158446622
31
0.0000000000
11
39.6536689756
21
129.1709811217
31
0.0000000000
11
39.3237929963
21
130.6512996017
31
0.0000000000
11
39.1226877191
21
132.2816374666
31
0.0000000000
11
39.0579468916
21
133.9334407820
31
0.0000000000
0
SPLINE
5
46C
100
AcDbEntity
8
0
100
AcDbSpline
62
7
6
CONTINUOUS
70
0
71
3
72
11
73
7
74
5
42
0.0000001000
43
0.0000001000
44
0.0000000001
12
-1.7963950424
22
1.3196622623
32
0.0000000000
13
-0.8405100647
23
2.0644821302
33
0.0000000000
40
0.0000000000
40
0.0000000000
40
0.0000000000
40
0.0000000000
40
0.2876935398
40
0.5514393190
40
0.7920054718
40
1.0000000000
40
1.0000000000
40
1.0000000000
40
1.0000000000
10
57.4038852702
20
164.1925917868
30
0.0000000000
10
57.2316148540
20
164.3191445560
30
0.0000000000
10
56.9122662992
20
164.5771644717
30
0.0000000000
10
56.4974076962
20
164.9965099842
30
0.0000000000
10
56.1768450896
20
165.4197880926
30
0.0000000000
10
56.0193637931
20
165.7158491943
30
0.0000000000
10
55.9610899617
20
165.8589828565
30
0.0000000000
11
57.4038852702
21
164.1925917868
31
0.0000000000
11
56.9066994680
21
164.5976110151
31
0.0000000000
11
56.4954418542
21
165.0177159933
31
0.0000000000
11
56.1749534148
21
165.4476311995
31
0.0000000000
11
55.9610899617
21
165.8589828565
31
0.0000000000
0
SPLINE
5
46D
100
AcDbEntity
8
0
100
AcDbSpline
62
7
6
CONTINUOUS
70
0
71
3
72
13
73
9
74
7
42
0.0000001000
43
0.0000001000
44
0.0000000001
12
-2.9873374088
22
-0.7627486298
32
0.0000000000
13
-0.6948599537
23
-3.0038541761
33
0.0000000000
40
0.0000000000
40
0.0000000000
40
0.0000000000
40
0.0000000000
40
0.0847301491
40
0.1962667577
40
0.3420120973
40
0.5244751296
40
0.7441286198
40
1.0000000000
40
1.0000000000
40
1.0000000000
40
1.0000000000
10
63.4410524866
20
171.8001815766
30
0.0000000000
10
63.3566799719
20
171.7786389749
30
0.0000000000
10
63.1782590611
20
171.6679863336
30
0.0000000000
10
62.9568241205
20
171.3919714325
30
0.0000000000
10
62.7400824513
20
170.9935321553
30
0.0000000000
10
62.5301674352
20
170.4702596189
30
0.0000000000
10
62.3274931475
20
169.8246212084
30
0.0000000000
10
62.2077419715
20
169.3505782611
30
0.0000000000
10
62.1484770463
20
169.0943781564
30
0.0000000000
11
63.4410524866
21
171.8001815766
31
0.0000000000
11
63.2121980565
21
171.6742018396
31
0.0000000000
11
62.9864463142
21
171.4147902624
31
0.0000000000
11
62.7652814444
21
171.0236264768
31
0.0000000000
11
62.5506375323
21
170.5036188227
31
0.0000000000
11
62.3443503585
21
169.8585712410
31
0.0000000000
11
62.1484770463
21
169.0943781564
31
0.0000000000
0
SPLINE
5
46E
100
AcDbEntity
8
0
100
AcDbSpline
62
7
6
CONTINUOUS
70
0
71
3
72
19
73
15
74
13
42
0.0000001000
43
0.0000001000
44
0.0000000001
12
12.3005145931
22
2.1014210074
32
0.0000000000
13
0.0000000000
23
12.4787270788
33
0.0000000000
40
0.0000000000
40
0.0000000000
40
0.0000000000
40
0.0000000000
40
0.0576279646
40
0.1145588640
40
0.1709665146
40
0.2272556773
40
0.2849306063
40
0.3478413226
40
0.4204212597
40
0.5079535017
40
0.6143521627
40
0.7358892511
40
0.8675288317
40
1.0000000000
40
1.0000000000
40
1.0000000000
40
1.0000000000
10
93.1410812760
20
124.0565574607
30
0.0000000000
10
93.3773658160
20
124.0969243326
30
0.0000000000
10
93.8437335191
20
124.1992685464
30
0.0000000000
10
94.5191476334
20
124.4267101849
30
0.0000000000
10
95.1572787150
20
124.7322010391
30
0.0000000000
10
95.7529954517
20
125.1198688450
30
0.0000000000
10
96.3121328234
20
125.6014184096
30
0.0000000000
10
96.8461410993
20
126.2050477723
30
0.0000000000
10
97.3622691319
20
126.9792899823
30
0.0000000000
10
97.8493283296
20
127.9786989653
30
0.0000000000
10
98.2709997603
20
129.2247307330
30
0.0000000000
10
98.5899691639
20
130.6887346380
30
0.0000000000
10
98.7820507963
20
132.2833295721
30
0.0000000000
10
98.8241580816
20
133.3824169302
30
0.0000000000
10
98.8241580816
20
133.9334407820
30
0.0000000000
11
93.1410812760
21
124.0565574607
31
0.0000000000
11
93.8430802616
21
124.2125582225
31
0.0000000000
11
94.5158210174
21
124.4408645462
31
0.0000000000
11
95.1502318442
21
124.7458104861
31
0.0000000000
11
95.7388260601
21
125.1291466703
31
0.0000000000
11
96.2846384975
21
125.5982637488
31
0.0000000000
11
96.8062577212
21
126.1849579378
31
0.0000000000
11
97.3116531024
21
126.9365412437
31
0.0000000000
11
97.7954550795
21
127.9158446622
31
0.0000000000
11
98.2284359976
21
129.1709811217
31
0.0000000000
11
98.5583119769
21
130.6512996017
31
0.0000000000
11
98.7594172541
21
132.2816374666
31
0.0000000000
11
98.8241580816
21
133.9334407820
31
0.0000000000
0
SPLINE
5
46F
100
AcDbEntity
8
0
100
AcDbSpline
62
7
6
CONTINUOUS
70
0
71
3
72
12
73
8
74
6
42
0.0000001000
43
0.0000001000
44
0.0000000001
12
-2.8464665501
22
-2.2563589771
32
0.0000000000
13
-3.2792248034
23
1.5621179030
33
0.0000000000
40
0.0000000000
40
0.0000000000
40
0.0000000000
40
0.0000000000
40
0.3445919201
40
0.6077937621
40
0.7983846014
40
0.9253179407
40
1.0000000000
40
1.0000000000
40
1.0000000000
40
1.0000000000
10
62.1484770463
20
154.0301946805
30
0.0000000000
10
61.8215205883
20
153.7710203230
30
0.0000000000
10
61.2366117335
20
153.3231786310
30
0.0000000000
10
60.4424643700
20
152.7741893182
30
0.0000000000
10
59.8292387391
20
152.4195375804
30
0.0000000000
10
59.3995909669
20
152.2347334869
30
0.0000000000
10
59.1358256071
20
152.2048969722
30
0.0000000000
10
59.0541925200
20
152.2437843661
30
0.0000000000
11
62.1484770463
21
154.0301946805
31
0.0000000000
11
61.1519669727
21
153.2728212389
31
0.0000000000
11
60.3608852045
21
152.7360028062
31
0.0000000000
11
59.7574998979
21
152.3966220126
31
0.0000000000
11
59.3253459993
21
152.2359419471
31
0.0000000000
11
59.0541925200
21
152.2437843661
31
0.0000000000
0
SPLINE
5
470
100
AcDbEntity
8
0
100
AcDbSpline
62
7
6
CONTINUOUS
70
0
71
3
72
12
73
8
74
6
42
0.0000001000
43
0.0000001000
44
0.0000000001
12
0.0908056386
22
-6.4041331114
32
0.0000000000
13
-2.7091053798
23
-5.8036122039
33
0.0000000000
40
0.0000000000
40
0.0000000000
40
0.0000000000
40
0.0000000000
40
0.1487960876
40
0.3209283049
40
0.5187561128
40
0.7444392051
40
1.0000000000
40
1.0000000000
40
1.0000000000
40
1.0000000000
10
46.2227874163
20
171.9789827822
30
0.0000000000
10
46.2272912576
20
171.6613461317
30
0.0000000000
10
46.1803096385
20
170.9752559842
30
0.0000000000
10
45.9773570429
20
169.8848643018
30
0.0000000000
10
45.6321190769
20
168.6594316656
30
0.0000000000
10
45.1366627518
20
167.2958552697
30
0.0000000000
10
44.7258920122
20
166.3533747437
30
0.0000000000
10
44.4951116374
20
165.8589828276
30
0.0000000000
11
46.2227874163
21
171.9789827822
31
0.0000000000
11
46.1668350500
21
171.0276209849
31
0.0000000000
11
45.9723231747
21
169.9424473606
31
0.0000000000
11
45.6344026682
21
168.7212972439
31
0.0000000000
11
45.1453431879
21
167.3610964929
31
0.0000000000
11
44.4951116374
21
165.8589828276
31
0.0000000000
0
SPLINE
5
471
100
AcDbEntity
8
0
100
AcDbSpline
62
7
6
CONTINUOUS
70
0
71
3
72
10
73
6
74
4
42
0.0000001000
43
0.0000001000
44
0.0000000001
12
-0.8164557103
22
-1.7490615995
32
0.0000000000
13
-1.0933732825
23
-1.5907077892
33
0.0000000000
40
0.0000000000
40
0.0000000000
40
0.0000000000
40
0.0000000000
40
0.2970638832
40
0.6311625433
40
1.0000000000
40
1.0000000000
40
1.0000000000
40
1.0000000000
10
44.4951116374
20
165.8589828276
30
0.0000000000
10
44.4142651362
20
165.6857884841
30
0.0000000000
10
44.2300433128
20
165.3235511072
30
0.0000000000
10
43.9065314995
20
164.7670730704
30
0.0000000000
10
43.6591568381
20
164.3881626586
30
0.0000000000
10
43.5247311645
20
164.1925917868
30
0.0000000000
11
44.4951116374
21
165.8589828276
31
0.0000000000
11
44.2364298411
21
165.3472449408
31
0.0000000000
11
43.9132594570
21
164.7891735618
31
0.0000000000
11
43.5247311645
21
164.1925917868
31
0.0000000000
0
SPLINE
5
472
100
AcDbEntity
8
0
100
AcDbSpline
62
7
6
CONTINUOUS
70
0
71
3
72
14
73
10
74
8
42
0.0000001000
43
0.0000001000
44
0.0000000001
12
-3.4580316180
22
8.4937059502
32
0.0000000000
13
9.1706610143
23
0.0000000000
33
0.0000000000
40
0.0000000000
40
0.0000000000
40
0.0000000000
40
0.0000000000
40
0.2482976043
40
0.4672803265
40
0.6507876245
40
0.7971171495
40
0.9037021152
40
0.9682403349
40
1.0000000000
40
1.0000000000
40
1.0000000000
40
1.0000000000
10
55.9610899547
20
165.8589828565
30
0.0000000000
10
55.6748829659
20
166.5619718027
30
0.0000000000
10
55.1741383150
20
167.9005778806
30
0.0000000000
10
54.5705476467
20
169.7972569864
30
0.0000000000
10
54.1491779300
20
171.4214860009
30
0.0000000000
10
53.8655003435
20
172.7262975101
30
0.0000000000
10
53.7839536172
20
173.6980975571
30
0.0000000000
10
53.7280194640
20
174.3087177797
30
0.0000000000
10
53.9456418377
20
174.6100160919
30
0.0000000000
10
54.0427275453
20
174.6100160919
30
0.0000000000
11
55.9610899547
21
165.8589828565
31
0.0000000000
11
55.1617412112
21
167.9911209094
31
0.0000000000
11
54.5566722694
21
169.9060162947
31
0.0000000000
11
54.1326572632
21
171.5346068571
31
0.0000000000
11
53.8729493275
21
172.8511746090
31
0.0000000000
11
53.7719034177
21
173.8233922798
31
0.0000000000
11
53.8286543908
21
174.4125233173
31
0.0000000000
11
54.0427275453
21
174.6100160919
31
0.0000000000
0
SPLINE
5
473
100
AcDbEntity
8
0
100
AcDbSpline
62
7
6
CONTINUOUS
70
0
71
3
72
15
73
11
74
9
42
0.0000001000
43
0.0000001000
44
0.0000000001
12
-1.1100897977
22
7.3274845132
32
0.0000000000
13
-1.1100804998
23
-7.3274901768
33
0.0000000000
40
0.0000000000
40
0.0000000000
40
0.0000000000
40
0.0000000000
40
0.0384031399
40
0.1922685939
40
0.3461340478
40
0.4999995018
40
0.6538649558
40
0.8077304098
40
0.9615958637
40
1.0000000000
40
1.0000000000
40
1.0000000000
40
1.0000000000
10
170.0254522990
20
44.1103522960
30
0.0000000000
10
170.0112419878
20
44.2041517669
30
0.0000000000
10
169.9286131555
20
44.6667716998
30
0.0000000000
10
169.6784405957
20
45.4155910891
30
0.0000000000
10
169.1791364850
20
46.0828397703
30
0.0000000000
10
168.5901671289
20
46.3171463482
30
0.0000000000
10
168.0011977727
20
46.0828397703
30
0.0000000000
10
167.5018936621
20
45.4155910891
30
0.0000000000
10
167.2517203821
20
44.6667695442
30
0.0000000000
10
167.1690914135
20
44.2041469720
30
0.0000000000
10
167.1548808526
20
44.1103449950
30
0.0000000000
11
170.0254522990
21
44.1103522960
31
0.0000000000
11
169.9759864276
21
44.3870944526
31
0.0000000000
11
169.6508273006
21
45.3603644991
31
0.0000000000
11
169.1641922774
21
46.0106827531
31
0.0000000000
11
168.5901671289
21
46.2390441555
31
0.0000000000
11
168.0161419803
21
46.0106827531
31
0.0000000000
11
167.5295069571
21
45.3603644991
31
0.0000000000
11
167.2043478301
21
44.3870944526
31
0.0000000000
11
167.1548808526
21
44.1103449950
31
0.0000000000
0
SPLINE
5
474
100
AcDbEntity
8
0
100
AcDbSpline
62
7
6
CONTINUOUS
70
0
71
3
72
15
73
11
74
9
42
0.0000001000
43
0.0000001000
44
0.0000000001
12
-1.0232716637
22
6.7422362664
32
0.0000000000
13
-1.0231944049
23
-6.7422900490
33
0.0000000000
40
0.0000000000
40
0.0000000000
40
0.0000000000
40
0.0000000000
40
0.0312952706
40
0.1875285573
40
0.3437618440
40
0.4999951306
40
0.6562284173
40
0.8124617040
40
0.9686949907
40
1.0000000000
40
1.0000000000
40
1.0000000000
40
1.0000000000
10
169.8455754796
20
44.1101416150
30
0.0000000000
10
169.8349009584
20
44.1804749845
30
0.0000000000
10
169.7631771384
20
44.5965269786
30
0.0000000000
10
169.5478477796
20
45.2849982731
30
0.0000000000
10
169.1084601623
20
45.9122120334
30
0.0000000000
10
168.5901671289
20
46.1324602166
30
0.0000000000
10
168.0718740955
20
45.9122120334
30
0.0000000000
10
167.6324864781
20
45.2849982731
30
0.0000000000
10
167.4171510191
20
44.5965074743
30
0.0000000000
10
167.3454258499
20
44.1804317716
30
0.0000000000
10
167.3347488131
20
44.1100759539
30
0.0000000000
11
169.8455754796
21
44.1101416150
31
0.0000000000
11
169.8096881118
21
44.3182114348
31
0.0000000000
11
169.5235480800
21
45.2330852785
31
0.0000000000
11
169.0953092596
21
45.8443844372
31
0.0000000000
11
168.5901671289
21
46.0590441555
31
0.0000000000
11
168.0850249981
21
45.8443844372
31
0.0000000000
11
167.6567861777
21
45.2330852785
31
0.0000000000
11
167.3706461460
21
44.3182114348
31
0.0000000000
11
167.3347488131
21
44.1100759539
31
0.0000000000
0
SPLINE
5
475
100
AcDbEntity
8
0
100
AcDbSpline
62
7
6
CONTINUOUS
70
0
71
3
72
8
73
4
74
2
42
0.0000001000
43
0.0000001000
44
0.0000000001
12
-0.1154442401
22
0.3171804428
32
0.0000000000
13
-0.2190222493
23
0.0000000000
33
0.0000000000
40
0.0000000000
40
0.0000000000
40
0.0000000000
40
0.0000000000
40
1.0000000000
40
1.0000000000
40
1.0000000000
40
1.0000000000
10
169.4460362901
20
45.0586477417
30
0.0000000000
10
169.4075548767
20
45.1643745560
30
0.0000000000
10
169.3518103275
20
45.2172381062
30
0.0000000000
10
169.2788029110
20
45.2172381062
30
0.0000000000
11
169.4460362901
21
45.0586477417
31
0.0000000000
11
169.2788029110
21
45.2172381062
31
0.0000000000
0
SPLINE
5
476
100
AcDbEntity
8
0
100
AcDbSpline
62
7
6
CONTINUOUS
70
0
71
3
72
8
73
4
74
2
42
0.0000001000
43
0.0000001000
44
0.0000000001
12
-0.3224492168
22
0.0000000000
32
0.0000000000
13
-0.2623995603
23
-0.9415019752
33
0.0000000000
40
0.0000000000
40
0.0000000000
40
0.0000000000
40
0.0000000000
40
1.0000000000
40
1.0000000000
40
1.0000000000
40
1.0000000000
10
169.2788029110
20
45.2172381062
30
0.0000000000
10
169.1713198388
20
45.2172381062
30
0.0000000000
10
169.0732601239
20
45.0604098458
30
0.0000000000
10
168.9857936038
20
44.7465758540
30
0.0000000000
11
169.2788029110
21
45.2172381062
31
0.0000000000
11
168.9857936038
21
44.7465758540
31
0.0000000000
0
SPLINE
5
477
100
AcDbEntity
8
0
100
AcDbSpline
62
7
6
CONTINUOUS
70
0
71
3
72
8
73
4
74
2
42
0.0000001000
43
0.0000001000
44
0.0000000001
12
-0.1604244717
22
-0.5756105566
32
0.0000000000
13
-0.0926573064
23
-0.6988792606
33
0.0000000000
40
0.0000000000
40
0.0000000000
40
0.0000000000
40
0.0000000000
40
1.0000000000
40
1.0000000000
40
1.0000000000
40
1.0000000000
10
168.9857936038
20
44.7465758540
30
0.0000000000
10
168.9323187799
20
44.5547056685
30
0.0000000000
10
168.8899207091
20
44.3430014959
30
0.0000000000
10
168.8590349403
20
44.1100417423
30
0.0000000000
11
168.9857936038
21
44.7465758540
31
0.0000000000
11
168.8590349403
21
44.1100417423
31
0.0000000000
0
SPLINE
5
478
100
AcDbEntity
8
0
100
AcDbSpline
62
7
6
CONTINUOUS
70
0
71
3
72
8
73
4
74
2
42
0.0000001000
43
0.0000001000
44
0.0000000001
12
0.0075787593
22
0.7982378483
32
0.0000000000
13
0.0065881061
23
0.1196977643
33
0.0000000000
40
0.0000000000
40
0.0000000000
40
0.0000000000
40
0.0000000000
40
1.0000000000
40
1.0000000000
40
1.0000000000
40
1.0000000000
10
168.5754544794
20
44.3414671082
30
0.0000000000
10
168.5779807325
20
44.6075463910
30
0.0000000000
10
168.5809941341
20
44.7608503003
30
0.0000000000
10
168.5831901694
20
44.8007495550
30
0.0000000000
11
168.5754544794
21
44.3414671082
31
0.0000000000
11
168.5831901694
21
44.8007495550
31
0.0000000000
0
SPLINE
5
479
100
AcDbEntity
8
0
100
AcDbSpline
62
7
6
CONTINUOUS
70
0
71
3
72
8
73
4
74
2
42
0.0000001000
43
0.0000001000
44
0.0000000001
12
0.0233805527
22
0.4247958156
32
0.0000000000
13
0.1090384605
23
0.2854625702
33
0.0000000000
40
0.0000000000
40
0.0000000000
40
0.0000000000
40
0.0000000000
40
1.0000000000
40
1.0000000000
40
1.0000000000
40
1.0000000000
10
168.5831901694
20
44.8007495550
30
0.0000000000
10
168.5909836870
20
44.9423481602
30
0.0000000000
10
168.6129081192
20
45.0604098458
30
0.0000000000
10
168.6492542727
20
45.1555640358
30
0.0000000000
11
168.5831901694
21
44.8007495550
31
0.0000000000
11
168.6492542727
21
45.1555640358
31
0.0000000000
0
SPLINE
5
47A
100
AcDbEntity
8
0
100
AcDbSpline
62
7
6
CONTINUOUS
70
0
71
3
72
8
73
4
74
2
42
0.0000001000
43
0.0000001000
44
0.0000000001
12
-0.0909690987
22
-0.2431716442
32
0.0000000000
13
-0.2379936162
23
-0.7150138738
33
0.0000000000
40
0.0000000000
40
0.0000000000
40
0.0000000000
40
0.0000000000
40
1.0000000000
40
1.0000000000
40
1.0000000000
40
1.0000000000
10
168.6151690825
20
45.1238458771
30
0.0000000000
10
168.5848460496
20
45.0427886624
30
0.0000000000
10
168.5306565777
20
44.8824361939
30
0.0000000000
10
168.4513253722
20
44.6440982360
30
0.0000000000
11
168.6151690825
21
45.1238458771
31
0.0000000000
11
168.4513253722
21
44.6440982360
31
0.0000000000
0
SPLINE
5
47B
100
AcDbEntity
8
0
100
AcDbSpline
62
7
6
CONTINUOUS
70
0
71
3
72
8
73
4
74
2
42
0.0000001000
43
0.0000001000
44
0.0000000001
12
-0.2124560003
22
-0.6382901786
32
0.0000000000
13
-0.2433576432
23
0.0000000000
33
0.0000000000
40
0.0000000000
40
0.0000000000
40
0.0000000000
40
0.0000000000
40
1.0000000000
40
1.0000000000
40
1.0000000000
40
1.0000000000
10
168.4513253722
20
44.6440982360
30
0.0000000000
10
168.3805067055
20
44.4313348431
30
0.0000000000
10
168.3054211363
20
44.3256080288
30
0.0000000000
10
168.2243019219
20
44.3256080288
30
0.0000000000
11
168.4513253722
21
44.6440982360
31
0.0000000000
11
168.2243019219
21
44.3256080288
31
0.0000000000
0
SPLINE
5
47C
100
AcDbEntity
8
0
100
AcDbSpline
62
7
6
CONTINUOUS
70
0
71
3
72
8
73
4
74
2
42
0.0000001000
43
0.0000001000
44
0.0000000001
12
-0.1125530798
22
0.0000000000
32
0.0000000000
13
-0.0654185173
23
0.1797358990
33
0.0000000000
40
0.0000000000
40
0.0000000000
40
0.0000000000
40
0.0000000000
40
1.0000000000
40
1.0000000000
40
1.0000000000
40
1.0000000000
10
168.2243019219
20
44.3256080288
30
0.0000000000
10
168.1867842287
20
44.3256080288
30
0.0000000000
10
168.1582707090
20
44.3538018364
30
0.0000000000
10
168.1364645366
20
44.4137138028
30
0.0000000000
11
168.2243019219
21
44.3256080288
31
0.0000000000
11
168.1364645366
21
44.4137138028
31
0.0000000000
0
SPLINE
5
47D
100
AcDbEntity
8
0
100
AcDbSpline
62
7
6
CONTINUOUS
70
0
71
3
72
8
73
4
74
2
42
0.0000001000
43
0.0000001000
44
0.0000000001
12
-0.0327091805
22
0.0898677349
32
0.0000000000
13
0.0207457477
23
0.1268723488
33
0.0000000000
40
0.0000000000
40
0.0000000000
40
0.0000000000
40
0.0000000000
40
1.0000000000
40
1.0000000000
40
1.0000000000
40
1.0000000000
10
168.1364645366
20
44.4137138028
30
0.0000000000
10
168.1255614764
20
44.4436697144
30
0.0000000000
10
168.1232468379
20
44.4806740422
30
0.0000000000
10
168.1301620872
20
44.5229648251
30
0.0000000000
11
168.1364645366
21
44.4137138028
31
0.0000000000
11
168.1301620872
21
44.5229648251
31
0.0000000000
0
SPLINE
5
47E
100
AcDbEntity
8
0
100
AcDbSpline
62
7
6
CONTINUOUS
70
0
71
3
72
8
73
4
74
2
42
0.0000001000
43
0.0000001000
44
0.0000000001
12
0.0207457477
22
0.1268723488
32
0.0000000000
13
0.0167208419
23
0.1306943343
33
0.0000000000
40
0.0000000000
40
0.0000000000
40
0.0000000000
40
0.0000000000
40
1.0000000000
40
1.0000000000
40
1.0000000000
40
1.0000000000
10
168.1301620872
20
44.5229648251
30
0.0000000000
10
168.1370773364
20
44.5652556080
30
0.0000000000
10
168.1436198717
20
44.6057842869
30
0.0000000000
10
168.1491934857
20
44.6493490650
30
0.0000000000
11
168.1301620872
21
44.5229648251
31
0.0000000000
11
168.1491934857
21
44.6493490650
31
0.0000000000
0
SPLINE
5
47F
100
AcDbEntity
8
0
100
AcDbSpline
62
7
6
CONTINUOUS
70
0
71
3
72
8
73
4
74
2
42
0.0000001000
43
0.0000001000
44
0.0000000001
12
0.0252114059
22
0.1970587327
32
0.0000000000
13
-0.0654183611
23
0.1797354698
33
0.0000000000
40
0.0000000000
40
0.0000000000
40
0.0000000000
40
0.0000000000
40
1.0000000000
40
1.0000000000
40
1.0000000000
40
1.0000000000
10
168.1491934857
20
44.6493490650
30
0.0000000000
10
168.1575972876
20
44.7150353093
30
0.0000000000
10
168.1507323336
20
44.7784714837
30
0.0000000000
10
168.1289262132
20
44.8383833069
30
0.0000000000
11
168.1491934857
21
44.6493490650
31
0.0000000000
11
168.1289262132
21
44.8383833069
31
0.0000000000
0
SPLINE
5
480
100
AcDbEntity
8
0
100
AcDbSpline
62
7
6
CONTINUOUS
70
0
71
3
72
8
73
4
74
2
42
0.0000001000
43
0.0000001000
44
0.0000000001
12
-0.0692666378
22
0.1903085232
32
0.0000000000
13
-0.1196102878
23
0.1097220420
33
0.0000000000
40
0.0000000000
40
0.0000000000
40
0.0000000000
40
0.0000000000
40
1.0000000000
40
1.0000000000
40
1.0000000000
40
1.0000000000
10
168.1289262132
20
44.8383833069
30
0.0000000000
10
168.1058373340
20
44.9018194813
30
0.0000000000
10
168.0736833790
20
44.9511586804
30
0.0000000000
10
168.0338132831
20
44.9877326944
30
0.0000000000
11
168.1289262132
21
44.8383833069
31
0.0000000000
11
168.0338132831
21
44.9877326944
31
0.0000000000
0
SPLINE
5
481
100
AcDbEntity
8
0
100
AcDbSpline
62
7
6
CONTINUOUS
70
0
71
3
72
8
73
4
74
2
42
0.0000001000
43
0.0000001000
44
0.0000000001
12
-0.1224253199
22
0.1123043538
32
0.0000000000
13
-0.1277628553
23
0.0000000000
33
0.0000000000
40
0.0000000000
40
0.0000000000
40
0.0000000000
40
0.0000000000
40
1.0000000000
40
1.0000000000
40
1.0000000000
40
1.0000000000
10
168.0338132831
20
44.9877326944
30
0.0000000000
10
167.9930048431
20
45.0251674790
30
0.0000000000
10
167.9514742476
20
45.0445507664
30
0.0000000000
10
167.9088866292
20
45.0445507664
30
0.0000000000
11
168.0338132831
21
44.9877326944
31
0.0000000000
11
167.9088866292
21
45.0445507664
31
0.0000000000
0
SPLINE
5
482
100
AcDbEntity
8
0
100
AcDbSpline
62
7
6
CONTINUOUS
70
0
71
3
72
8
73
4
74
2
42
0.0000001000
43
0.0000001000
44
0.0000000001
12
-0.1612246084
22
0.0000000000
32
0.0000000000
13
-0.1623643805
23
-0.2643171717
33
0.0000000000
40
0.0000000000
40
0.0000000000
40
0.0000000000
40
0.0000000000
40
1.0000000000
40
1.0000000000
40
1.0000000000
40
1.0000000000
10
167.9088866292
20
45.0445507664
30
0.0000000000
10
167.8551450931
20
45.0445507664
30
0.0000000000
10
167.8012136536
20
45.0004978795
30
0.0000000000
10
167.7470921935
20
44.9123921555
30
0.0000000000
11
167.9088866292
21
45.0445507664
31
0.0000000000
11
167.7470921935
21
44.9123921555
31
0.0000000000
0
SPLINE
5
483
100
AcDbEntity
8
0
100
AcDbSpline
62
7
6
CONTINUOUS
70
0
71
3
72
8
73
4
74
2
42
0.0000001000
43
0.0000001000
44
0.0000000001
12
-0.1298913540
22
-0.2114534925
32
0.0000000000
13
-0.0604547998
23
-0.2563240515
33
0.0000000000
40
0.0000000000
40
0.0000000000
40
0.0000000000
40
0.0000000000
40
1.0000000000
40
1.0000000000
40
1.0000000000
40
1.0000000000
10
167.7470921935
20
44.9123921555
30
0.0000000000
10
167.7037950755
20
44.8419076580
30
0.0000000000
10
167.6695200643
20
44.7661366124
30
0.0000000000
10
167.6493684644
20
44.6806952619
30
0.0000000000
11
167.7470921935
21
44.9123921555
31
0.0000000000
11
167.6493684644
21
44.6806952619
31
0.0000000000
0
SPLINE
5
484
100
AcDbEntity
8
0
100
AcDbSpline
62
7
6
CONTINUOUS
70
0
71
3
72
8
73
4
74
2
42
0.0000001000
43
0.0000001000
44
0.0000000001
12
-0.0866675411
22
-0.3674642099
32
0.0000000000
13
-0.0235252498
23
-0.1819933805
33
0.0000000000
40
0.0000000000
40
0.0000000000
40
0.0000000000
40
0.0000000000
40
1.0000000000
40
1.0000000000
40
1.0000000000
40
1.0000000000
10
167.6493684644
20
44.6806952619
30
0.0000000000
10
167.6204792840
20
44.5582071919
30
0.0000000000
10
167.6023584957
20
44.4673297037
30
0.0000000000
10
167.5945167457
20
44.4066652436
30
0.0000000000
11
167.6493684644
21
44.6806952619
31
0.0000000000
11
167.5945167457
21
44.4066652436
31
0.0000000000
0
SPLINE
5
485
100
AcDbEntity
8
0
100
AcDbSpline
62
7
6
CONTINUOUS
70
0
71
3
72
8
73
4
74
2
42
0.0000001000
43
0.0000001000
44
0.0000000001
12
0.0705568523
22
0.3911892414
32
0.0000000000
13
0.0983698756
23
0.2128920661
33
0.0000000000
40
0.0000000000
40
0.0000000000
40
0.0000000000
40
0.0000000000
40
1.0000000000
40
1.0000000000
40
1.0000000000
40
1.0000000000
10
167.6221704031
20
44.4894847054
30
0.0000000000
10
167.6456893539
20
44.6198811192
30
0.0000000000
10
167.6723720641
20
44.7220838684
30
0.0000000000
10
167.7051620226
20
44.7930478905
30
0.0000000000
11
167.6221704031
21
44.4894847054
31
0.0000000000
11
167.7051620226
21
44.7930478905
31
0.0000000000
0
SPLINE
5
486
100
AcDbEntity
8
0
100
AcDbSpline
62
7
6
CONTINUOUS
70
0
71
3
72
8
73
4
74
2
42
0.0000001000
43
0.0000001000
44
0.0000000001
12
0.2045164661
22
0.4426144971
32
0.0000000000
13
0.2220642044
23
0.0000000000
33
0.0000000000
40
0.0000000000
40
0.0000000000
40
0.0000000000
40
0.0000000000
40
1.0000000000
40
1.0000000000
40
1.0000000000
40
1.0000000000
10
167.7051620226
20
44.7930478905
30
0.0000000000
10
167.7733341780
20
44.9405860562
30
0.0000000000
10
167.8430989644
20
45.0163569588
30
0.0000000000
10
167.9171203659
20
45.0163569588
30
0.0000000000
11
167.7051620226
21
44.7930478905
31
0.0000000000
11
167.9171203659
21
45.0163569588
31
0.0000000000
0
SPLINE
5
487
100
AcDbEntity
8
0
100
AcDbSpline
62
7
6
CONTINUOUS
70
0
71
3
72
8
73
4
74
2
42
0.0000001000
43
0.0000001000
44
0.0000000001
12
0.1673085186
22
0.0000000000
32
0.0000000000
13
0.0731146021
23
-0.2008807182
33
0.0000000000
40
0.0000000000
40
0.0000000000
40
0.0000000000
40
0.0000000000
40
1.0000000000
40
1.0000000000
40
1.0000000000
40
1.0000000000
10
167.9171203659
20
45.0163569588
30
0.0000000000
10
167.9728898721
20
45.0163569588
30
0.0000000000
10
168.0141087902
20
44.9811145920
30
0.0000000000
10
168.0384803242
20
44.9141543526
30
0.0000000000
11
167.9171203659
21
45.0163569588
31
0.0000000000
11
168.0384803242
21
44.9141543526
31
0.0000000000
0
SPLINE
5
488
100
AcDbEntity
8
0
100
AcDbSpline
62
7
6
CONTINUOUS
70
0
71
3
72
8
73
4
74
2
42
0.0000001000
43
0.0000001000
44
0.0000000001
12
0.0423296380
22
-0.1162997246
32
0.0000000000
13
-0.0352626425
23
-0.2538858932
33
0.0000000000
40
0.0000000000
40
0.0000000000
40
0.0000000000
40
0.0000000000
40
1.0000000000
40
1.0000000000
40
1.0000000000
40
1.0000000000
10
168.0384803242
20
44.9141543526
30
0.0000000000
10
168.0525902036
20
44.8753877778
30
0.0000000000
10
168.0531025256
20
44.8154758114
30
0.0000000000
10
168.0413483114
20
44.7308471804
30
0.0000000000
11
168.0384803242
21
44.9141543526
31
0.0000000000
11
168.0413483114
21
44.7308471804
31
0.0000000000
0
SPLINE
5
489
100
AcDbEntity
8
0
100
AcDbSpline
62
7
6
CONTINUOUS
70
0
71
3
72
8
73
4
74
2
42
0.0000001000
43
0.0000001000
44
0.0000000001
12
-0.0462367936
22
-0.3328981835
32
0.0000000000
13
0.0654185173
23
-0.1797358990
33
0.0000000000
40
0.0000000000
40
0.0000000000
40
0.0000000000
40
0.0000000000
40
1.0000000000
40
1.0000000000
40
1.0000000000
40
1.0000000000
10
168.0413483114
20
44.7308471804
30
0.0000000000
10
168.0259360469
20
44.6198811192
30
0.0000000000
10
168.0299847600
20
44.5335375924
30
0.0000000000
10
168.0517909325
20
44.4736256260
30
0.0000000000
11
168.0413483114
21
44.7308471804
31
0.0000000000
11
168.0517909325
21
44.4736256260
31
0.0000000000
0
SPLINE
5
48A
100
AcDbEntity
8
0
100
AcDbSpline
62
7
6
CONTINUOUS
70
0
71
3
72
8
73
4
74
2
42
0.0000001000
43
0.0000001000
44
0.0000000001
12
0.1289128181
22
-0.3541850567
32
0.0000000000
13
0.2342317779
23
0.0000000000
33
0.0000000000
40
0.0000000000
40
0.0000000000
40
0.0000000000
40
0.0000000000
40
1.0000000000
40
1.0000000000
40
1.0000000000
40
1.0000000000
10
168.0517909325
20
44.4736256260
30
0.0000000000
10
168.0947618718
20
44.3555639405
30
0.0000000000
10
168.1544583170
20
44.2974142212
30
0.0000000000
10
168.2325355763
20
44.2974142212
30
0.0000000000
11
168.0517909325
21
44.4736256260
31
0.0000000000
11
168.2325355763
21
44.2974142212
31
0.0000000000
0
SPLINE
5
48B
100
AcDbEntity
8
0
100
AcDbSpline
62
7
6
CONTINUOUS
70
0
71
3
72
8
73
4
74
2
42
0.0000001000
43
0.0000001000
44
0.0000000001
12
0.2372739799
22
0.0000000000
32
0.0000000000
13
0.2637812746
23
0.7295153618
33
0.0000000000
40
0.0000000000
40
0.0000000000
40
0.0000000000
40
0.0000000000
40
1.0000000000
40
1.0000000000
40
1.0000000000
40
1.0000000000
10
168.2325355763
20
44.2974142212
30
0.0000000000
10
168.3116269030
20
44.2974142212
30
0.0000000000
10
168.3961501794
20
44.4190001149
30
0.0000000000
10
168.4840772710
20
44.6621719021
30
0.0000000000
11
168.2325355763
21
44.2974142212
31
0.0000000000
11
168.4840772710
21
44.6621719021
31
0.0000000000
0
SPLINE
5
48C
100
AcDbEntity
8
0
100
AcDbSpline
62
7
6
CONTINUOUS
70
0
71
3
72
8
73
4
74
2
42
0.0000001000
43
0.0000001000
44
0.0000000001
12
-0.0338584128
22
-0.6473211404
32
0.0000000000
13
-0.0208944865
23
-0.4560139663
33
0.0000000000
40
0.0000000000
40
0.0000000000
40
0.0000000000
40
0.0000000000
40
1.0000000000
40
1.0000000000
40
1.0000000000
40
1.0000000000
10
168.4840772710
20
44.6621719021
30
0.0000000000
10
168.4727911334
20
44.4463981887
30
0.0000000000
10
168.4638428347
20
44.2620221311
30
0.0000000000
10
168.4568780059
20
44.1100174756
30
0.0000000000
11
168.4840772710
21
44.6621719021
31
0.0000000000
11
168.4568780059
21
44.1100174756
31
0.0000000000
0
SPLINE
5
48D
100
AcDbEntity
8
0
100
AcDbSpline
62
7
6
CONTINUOUS
70
0
71
3
72
8
73
4
74
2
42
0.0000001000
43
0.0000001000
44
0.0000000001
12
0.6863360892
22
0.3541850567
32
0.0000000000
13
0.2204919620
23
0.6654297332
33
0.0000000000
40
0.0000000000
40
0.0000000000
40
0.0000000000
40
0.0000000000
40
1.0000000000
40
1.0000000000
40
1.0000000000
40
1.0000000000
10
168.9859774548
20
44.1106300492
30
0.0000000000
10
169.2147561512
20
44.2286917347
30
0.0000000000
10
169.3654826797
20
44.3996168274
30
0.0000000000
10
169.4389800003
20
44.6214267385
30
0.0000000000
11
168.9859774548
21
44.1106300492
31
0.0000000000
11
169.4389800003
21
44.6214267385
31
0.0000000000
0
SPLINE
5
48E
100
AcDbEntity
8
0
100
AcDbSpline
62
7
6
CONTINUOUS
70
0
71
3
72
8
73
4
74
2
42
0.0000001000
43
0.0000001000
44
0.0000000001
12
0.1578632514
22
0.4764205476
32
0.0000000000
13
-0.1443054563
23
0.3964759827
33
0.0000000000
40
0.0000000000
40
0.0000000000
40
0.0000000000
40
0.0000000000
40
1.0000000000
40
1.0000000000
40
1.0000000000
40
1.0000000000
10
169.4389800003
20
44.6214267385
30
0.0000000000
10
169.4916010841
20
44.7802335877
30
0.0000000000
10
169.4941381089
20
44.9264890809
30
0.0000000000
10
169.4460362901
20
45.0586477417
30
0.0000000000
11
169.4389800003
21
44.6214267385
31
0.0000000000
11
169.4460362901
21
45.0586477417
31
0.0000000000
0
SPLINE
5
48F
100
AcDbEntity
8
0
100
AcDbSpline
62
7
6
CONTINUOUS
70
0
71
3
72
8
73
4
74
2
42
0.0000001000
43
0.0000001000
44
0.0000000001
12
0.1385332755
22
-0.3806170464
32
0.0000000000
13
-0.1561168699
23
-0.4556602576
33
0.0000000000
40
0.0000000000
40
0.0000000000
40
0.0000000000
40
0.0000000000
40
1.0000000000
40
1.0000000000
40
1.0000000000
40
1.0000000000
10
169.4298122003
20
45.0586477417
30
0.0000000000
10
169.4759899588
20
44.9317753930
30
0.0000000000
10
169.4719018347
20
44.7925683159
30
0.0000000000
10
169.4198628781
20
44.6406815634
30
0.0000000000
11
169.4298122003
21
45.0586477417
31
0.0000000000
11
169.4198628781
21
44.6406815634
31
0.0000000000
0
SPLINE
5
490
100
AcDbEntity
8
0
100
AcDbSpline
62
7
6
CONTINUOUS
70
0
71
3
72
8
73
4
74
2
42
0.0000001000
43
0.0000001000
44
0.0000000001
12
-0.2332889193
22
-0.6809032819
32
0.0000000000
13
-0.6295274765
23
-0.3013215065
33
0.0000000000
40
0.0000000000
40
0.0000000000
40
0.0000000000
40
0.0000000000
40
1.0000000000
40
1.0000000000
40
1.0000000000
40
1.0000000000
10
169.4198628781
20
44.6406815634
30
0.0000000000
10
169.3420999050
20
44.4137138028
30
0.0000000000
10
169.1979339928
20
44.2498371262
30
0.0000000000
10
168.9880915007
20
44.1493966240
30
0.0000000000
11
169.4198628781
21
44.6406815634
31
0.0000000000
11
168.9880915007
21
44.1493966240
31
0.0000000000
0
SPLINE
5
491
100
AcDbEntity
8
0
100
AcDbSpline
62
7
6
CONTINUOUS
70
0
71
3
72
8
73
4
74
2
42
0.0000001000
43
0.0000001000
44
0.0000000001
12
0.2565051939
22
2.0616737366
32
0.0000000000
13
0.3802468577
23
0.0000000000
33
0.0000000000
40
0.0000000000
40
0.0000000000
40
0.0000000000
40
0.0000000000
40
1.0000000000
40
1.0000000000
40
1.0000000000
40
1.0000000000
10
168.9880915007
20
44.1493966240
30
0.0000000000
10
169.0735932320
20
44.8366212029
30
0.0000000000
10
169.1790770861
20
45.1819957394
30
0.0000000000
10
169.3058260387
20
45.1819957394
30
0.0000000000
11
168.9880915007
21
44.1493966240
31
0.0000000000
11
169.3058260387
21
45.1819957394
31
0.0000000000
0
SPLINE
5
492
100
AcDbEntity
8
0
100
AcDbSpline
62
7
6
CONTINUOUS
70
0
71
3
72
8
73
4
74
2
42
0.0000001000
43
0.0000001000
44
0.0000000001
12
0.1581826533
22
0.0000000000
32
0.0000000000
13
0.0885072403
23
-0.2431716442
33
0.0000000000
40
0.0000000000
40
0.0000000000
40
0.0000000000
40
0.0000000000
40
1.0000000000
40
1.0000000000
40
1.0000000000
40
1.0000000000
10
169.3058260387
20
45.1819957394
30
0.0000000000
10
169.3585535898
20
45.1819957394
30
0.0000000000
10
169.4003097868
20
45.1397049565
30
0.0000000000
10
169.4298122003
20
45.0586477417
30
0.0000000000
11
169.3058260387
21
45.1819957394
31
0.0000000000
11
169.4298122003
21
45.0586477417
31
0.0000000000
0
SPLINE
5
493
100
AcDbEntity
8
0
100
AcDbSpline
62
7
6
CONTINUOUS
70
0
71
3
72
15
73
11
74
9
42
0.0000001000
43
0.0000001000
44
0.0000000001
12
0.0000000000
22
9.4235096980
32
0.0000000000
13
0.0000000000
23
-9.4235096980
33
0.0000000000
40
0.0000000000
40
0.0000000000
40
0.0000000000
40
0.0000000000
40
0.1250000000
40
0.2500000000
40
0.3750000000
40
0.5000000000
40
0.6250000000
40
0.7500000000
40
0.8750000000
40
1.0000000000
40
1.0000000000
40
1.0000000000
40
1.0000000000
10
170.0901671289
20
161.2390441555
30
0.0000000000
10
170.0901671289
20
161.6316903930
30
0.0000000000
10
170.0120649362
20
162.4169828678
30
0.0000000000
10
169.6784405957
20
163.4155910891
30
0.0000000000
10
169.1791364850
20
164.0828397703
30
0.0000000000
10
168.5901671289
20
164.3171463482
30
0.0000000000
10
168.0011977727
20
164.0828397703
30
0.0000000000
10
167.5018936621
20
163.4155910891
30
0.0000000000
10
167.1682693215
20
162.4169828678
30
0.0000000000
10
167.0901671289
20
161.6316903930
30
0.0000000000
10
167.0901671289
20
161.2390441555
30
0.0000000000
11
170.0901671289
21
161.2390441555
31
0.0000000000
11
169.9759864276
21
162.3870944526
31
0.0000000000
11
169.6508273006
21
163.3603644991
31
0.0000000000
11
169.1641922774
21
164.0106827531
31
0.0000000000
11
168.5901671289
21
164.2390441555
31
0.0000000000
11
168.0161419803
21
164.0106827531
31
0.0000000000
11
167.5295069571
21
163.3603644991
31
0.0000000000
11
167.2043478301
21
162.3870944526
31
0.0000000000
11
167.0901671289
21
161.2390441555
31
0.0000000000
0
SPLINE
5
494
100
AcDbEntity
8
0
100
AcDbSpline
62
7
6
CONTINUOUS
70
0
71
3
72
15
73
11
74
9
42
0.0000001000
43
0.0000001000
44
0.0000000001
12
0.0000000000
22
-9.4235096980
32
0.0000000000
13
0.0000000000
23
9.4235096980
33
0.0000000000
40
0.0000000000
40
0.0000000000
40
0.0000000000
40
0.0000000000
40
0.1250000000
40
0.2500000000
40
0.3750000000
40
0.5000000000
40
0.6250000000
40
0.7500000000
40
0.8750000000
40
1.0000000000
40
1.0000000000
40
1.0000000000
40
1.0000000000
10
167.0901671289
20
161.2390441555
30
0.0000000000
10
167.0901671289
20
160.8463979181
30
0.0000000000
10
167.1682693215
20
160.0611054433
30
0.0000000000
10
167.5018936621
20
159.0624972220
30
0.0000000000
10
168.0011977727
20
158.3952485408
30
0.0000000000
10
168.5901671289
20
158.1609419629
30
0.0000000000
10
169.1791364850
20
158.3952485408
30
0.0000000000
10
169.6784405957
20
159.0624972220
30
0.0000000000
10
170.0120649362
20
160.0611054433
30
0.0000000000
10
170.0901671289
20
160.8463979181
30
0.0000000000
10
170.0901671289
20
161.2390441555
30
0.0000000000
11
167.0901671289
21
161.2390441555
31
0.0000000000
11
167.2043478301
21
160.0909938584
31
0.0000000000
11
167.5295069571
21
159.1177238120
31
0.0000000000
11
168.0161419803
21
158.4674055580
31
0.0000000000
11
168.5901671289
21
158.2390441555
31
0.0000000000
11
169.1641922774
21
158.4674055580
31
0.0000000000
11
169.6508273006
21
159.1177238120
31
0.0000000000
11
169.9759864276
21
160.0909938584
31
0.0000000000
11
170.0901671289
21
161.2390441555
31
0.0000000000
0
SPLINE
5
495
100
AcDbEntity
8
0
100
AcDbSpline
62
7
6
CONTINUOUS
70
0
71
3
72
15
73
11
74
9
42
0.0000001000
43
0.0000001000
44
0.0000000001
12
0.0000000000
22
-8.8580991161
32
0.0000000000
13
0.0000000000
23
8.8580991161
33
0.0000000000
40
0.0000000000
40
0.0000000000
40
0.0000000000
40
0.0000000000
40
0.1250000000
40
0.2500000000
40
0.3750000000
40
0.5000000000
40
0.6250000000
40
0.7500000000
40
0.8750000000
40
1.0000000000
40
1.0000000000
40
1.0000000000
40
1.0000000000
10
167.2701671289
20
161.2390441555
30
0.0000000000
10
167.2701671289
20
160.8699566924
30
0.0000000000
10
167.3388970584
20
160.1317817660
30
0.0000000000
10
167.6324864781
20
159.1930900380
30
0.0000000000
10
168.0718740955
20
158.5658762777
30
0.0000000000
10
168.5901671289
20
158.3456280945
30
0.0000000000
10
169.1084601623
20
158.5658762777
30
0.0000000000
10
169.5478477796
20
159.1930900380
30
0.0000000000
10
169.8414371994
20
160.1317817660
30
0.0000000000
10
169.9101671289
20
160.8699566924
30
0.0000000000
10
169.9101671289
20
161.2390441555
30
0.0000000000
11
167.2701671289
21
161.2390441555
31
0.0000000000
11
167.3706461460
21
160.1598768763
31
0.0000000000
11
167.6567861777
21
159.2450030326
31
0.0000000000
11
168.0850249981
21
158.6337038739
31
0.0000000000
11
168.5901671289
21
158.4190441555
31
0.0000000000
11
169.0953092596
21
158.6337038739
31
0.0000000000
11
169.5235480800
21
159.2450030326
31
0.0000000000
11
169.8096881118
21
160.1598768763
31
0.0000000000
11
169.9101671289
21
161.2390441555
31
0.0000000000
0
SPLINE
5
496
100
AcDbEntity
8
0
100
AcDbSpline
62
7
6
CONTINUOUS
70
0
71
3
72
15
73
11
74
9
42
0.0000001000
43
0.0000001000
44
0.0000000001
12
0.0000000000
22
8.8580991161
32
0.0000000000
13
0.0000000000
23
-8.8580991161
33
0.0000000000
40
0.0000000000
40
0.0000000000
40
0.0000000000
40
0.0000000000
40
0.1250000000
40
0.2500000000
40
0.3750000000
40
0.5000000000
40
0.6250000000
40
0.7500000000
40
0.8750000000
40
1.0000000000
40
1.0000000000
40
1.0000000000
40
1.0000000000
10
169.9101671289
20
161.2390441555
30
0.0000000000
10
169.9101671289
20
161.6081316187
30
0.0000000000
10
169.8414371994
20
162.3463065451
30
0.0000000000
10
169.5478477796
20
163.2849982731
30
0.0000000000
10
169.1084601623
20
163.9122120334
30
0.0000000000
10
168.5901671289
20
164.1324602166
30
0.0000000000
10
168.0718740955
20
163.9122120334
30
0.0000000000
10
167.6324864781
20
163.2849982731
30
0.0000000000
10
167.3388970584
20
162.3463065451
30
0.0000000000
10
167.2701671289
20
161.6081316187
30
0.0000000000
10
167.2701671289
20
161.2390441555
30
0.0000000000
11
169.9101671289
21
161.2390441555
31
0.0000000000
11
169.8096881118
21
162.3182114348
31
0.0000000000
11
169.5235480800
21
163.2330852785
31
0.0000000000
11
169.0953092596
21
163.8443844372
31
0.0000000000
11
168.5901671289
21
164.0590441555
31
0.0000000000
11
168.0850249981
21
163.8443844372
31
0.0000000000
11
167.6567861777
21
163.2330852785
31
0.0000000000
11
167.3706461460
21
162.3182114348
31
0.0000000000
11
167.2701671289
21
161.2390441555
31
0.0000000000
0
SPLINE
5
497
100
AcDbEntity
8
0
100
AcDbSpline
62
7
6
CONTINUOUS
70
0
71
3
72
8
73
4
74
2
42
0.0000001000
43
0.0000001000
44
0.0000000001
12
-0.1154442401
22
0.3171804428
32
0.0000000000
13
-0.2190222493
23
0.0000000000
33
0.0000000000
40
0.0000000000
40
0.0000000000
40
0.0000000000
40
0.0000000000
40
1.0000000000
40
1.0000000000
40
1.0000000000
40
1.0000000000
10
169.4460362901
20
163.0586477417
30
0.0000000000
10
169.4075548767
20
163.1643745560
30
0.0000000000
10
169.3518103275
20
163.2172381062
30
0.0000000000
10
169.2788029110
20
163.2172381062
30
0.0000000000
11
169.4460362901
21
163.0586477417
31
0.0000000000
11
169.2788029110
21
163.2172381062
31
0.0000000000
0
SPLINE
5
498
100
AcDbEntity
8
0
100
AcDbSpline
62
7
6
CONTINUOUS
70
0
71
3
72
8
73
4
74
2
42
0.0000001000
43
0.0000001000
44
0.0000000001
12
-0.3224492168
22
0.0000000000
32
0.0000000000
13
-0.2623995603
23
-0.9415019752
33
0.0000000000
40
0.0000000000
40
0.0000000000
40
0.0000000000
40
0.0000000000
40
1.0000000000
40
1.0000000000
40
1.0000000000
40
1.0000000000
10
169.2788029110
20
163.2172381062
30
0.0000000000
10
169.1713198388
20
163.2172381062
30
0.0000000000
10
169.0732601239
20
163.0604098458
30
0.0000000000
10
168.9857936038
20
162.7465758540
30
0.0000000000
11
169.2788029110
21
163.2172381062
31
0.0000000000
11
168.9857936038
21
162.7465758540
31
0.0000000000
0
SPLINE
5
499
100
AcDbEntity
8
0
100
AcDbSpline
62
7
6
CONTINUOUS
70
0
71
3
72
8
73
4
74
2
42
0.0000001000
43
0.0000001000
44
0.0000000001
12
-0.1663368054
22
-0.5968242882
32
0.0000000000
13
-0.0934308009
23
-0.7295153618
33
0.0000000000
40
0.0000000000
40
0.0000000000
40
0.0000000000
40
0.0000000000
40
1.0000000000
40
1.0000000000
40
1.0000000000
40
1.0000000000
10
168.9857936038
20
162.7465758540
30
0.0000000000
10
168.9303480020
20
162.5476344246
30
0.0000000000
10
168.8868106504
20
162.3273701329
30
0.0000000000
10
168.8556670501
20
162.0841983456
30
0.0000000000
11
168.9857936038
21
162.7465758540
31
0.0000000000
11
168.8556670501
21
162.0841983456
31
0.0000000000
0
SPLINE
5
49A
100
AcDbEntity
8
0
100
AcDbSpline
62
7
6
CONTINUOUS
70
0
71
3
72
8
73
4
74
2
42
0.0000001000
43
0.0000001000
44
0.0000000001
12
-0.3385406786
22
-0.1480175972
32
0.0000000000
13
-0.2284059262
23
-0.1162995100
33
0.0000000000
40
0.0000000000
40
0.0000000000
40
0.0000000000
40
0.0000000000
40
1.0000000000
40
1.0000000000
40
1.0000000000
40
1.0000000000
10
168.8556670501
20
162.0841983456
30
0.0000000000
10
168.7428201573
20
162.0348591465
30
0.0000000000
10
168.6489704229
20
161.9890441555
30
0.0000000000
10
168.5728351142
20
161.9502776522
30
0.0000000000
11
168.8556670501
21
162.0841983456
31
0.0000000000
11
168.5728351142
21
161.9502776522
31
0.0000000000
0
SPLINE
5
49B
100
AcDbEntity
8
0
100
AcDbSpline
62
7
6
CONTINUOUS
70
0
71
3
72
8
73
4
74
2
42
0.0000001000
43
0.0000001000
44
0.0000000001
12
0.0075787593
22
0.7982378483
32
0.0000000000
13
0.0065881061
23
0.1196977643
33
0.0000000000
40
0.0000000000
40
0.0000000000
40
0.0000000000
40
0.0000000000
40
1.0000000000
40
1.0000000000
40
1.0000000000
40
1.0000000000
10
168.5754544794
20
162.3414671082
30
0.0000000000
10
168.5779807325
20
162.6075463910
30
0.0000000000
10
168.5809941341
20
162.7608503003
30
0.0000000000
10
168.5831901694
20
162.8007495550
30
0.0000000000
11
168.5754544794
21
162.3414671082
31
0.0000000000
11
168.5831901694
21
162.8007495550
31
0.0000000000
0
SPLINE
5
49C
100
AcDbEntity
8
0
100
AcDbSpline
62
7
6
CONTINUOUS
70
0
71
3
72
8
73
4
74
2
42
0.0000001000
43
0.0000001000
44
0.0000000001
12
0.0233805527
22
0.4247958156
32
0.0000000000
13
0.1090384605
23
0.2854625702
33
0.0000000000
40
0.0000000000
40
0.0000000000
40
0.0000000000
40
0.0000000000
40
1.0000000000
40
1.0000000000
40
1.0000000000
40
1.0000000000
10
168.5831901694
20
162.8007495550
30
0.0000000000
10
168.5909836870
20
162.9423481602
30
0.0000000000
10
168.6129081192
20
163.0604098458
30
0.0000000000
10
168.6492542727
20
163.1555640358
30
0.0000000000
11
168.5831901694
21
162.8007495550
31
0.0000000000
11
168.6492542727
21
163.1555640358
31
0.0000000000
0
SPLINE
5
49D
100
AcDbEntity
8
0
100
AcDbSpline
62
7
6
CONTINUOUS
70
0
71
3
72
8
73
4
74
2
42
0.0000001000
43
0.0000001000
44
0.0000000001
12
-0.0909690987
22
-0.2431716442
32
0.0000000000
13
-0.2379936162
23
-0.7150138738
33
0.0000000000
40
0.0000000000
40
0.0000000000
40
0.0000000000
40
0.0000000000
40
1.0000000000
40
1.0000000000
40
1.0000000000
40
1.0000000000
10
168.6151690825
20
163.1238458771
30
0.0000000000
10
168.5848460496
20
163.0427886624
30
0.0000000000
10
168.5306565777
20
162.8824361939
30
0.0000000000
10
168.4513253722
20
162.6440982360
30
0.0000000000
11
168.6151690825
21
163.1238458771
31
0.0000000000
11
168.4513253722
21
162.6440982360
31
0.0000000000
0
SPLINE
5
49E
100
AcDbEntity
8
0
100
AcDbSpline
62
7
6
CONTINUOUS
70
0
71
3
72
8
73
4
74
2
42
0.0000001000
43
0.0000001000
44
0.0000000001
12
-0.2124560003
22
-0.6382901786
32
0.0000000000
13
-0.2433576432
23
0.0000000000
33
0.0000000000
40
0.0000000000
40
0.0000000000
40
0.0000000000
40
0.0000000000
40
1.0000000000
40
1.0000000000
40
1.0000000000
40
1.0000000000
10
168.4513253722
20
162.6440982360
30
0.0000000000
10
168.3805067055
20
162.4313348431
30
0.0000000000
10
168.3054211363
20
162.3256080288
30
0.0000000000
10
168.2243019219
20
162.3256080288
30
0.0000000000
11
168.4513253722
21
162.6440982360
31
0.0000000000
11
168.2243019219
21
162.3256080288
31
0.0000000000
0
SPLINE
5
49F
100
AcDbEntity
8
0
100
AcDbSpline
62
7
6
CONTINUOUS
70
0
71
3
72
8
73
4
74
2
42
0.0000001000
43
0.0000001000
44
0.0000000001
12
-0.1125530798
22
0.0000000000
32
0.0000000000
13
-0.0654185173
23
0.1797358990
33
0.0000000000
40
0.0000000000
40
0.0000000000
40
0.0000000000
40
0.0000000000
40
1.0000000000
40
1.0000000000
40
1.0000000000
40
1.0000000000
10
168.2243019219
20
162.3256080288
30
0.0000000000
10
168.1867842287
20
162.3256080288
30
0.0000000000
10
168.1582707090
20
162.3538018364
30
0.0000000000
10
168.1364645366
20
162.4137138028
30
0.0000000000
11
168.2243019219
21
162.3256080288
31
0.0000000000
11
168.1364645366
21
162.4137138028
31
0.0000000000
0
SPLINE
5
4A0
100
AcDbEntity
8
0
100
AcDbSpline
62
7
6
CONTINUOUS
70
0
71
3
72
8
73
4
74
2
42
0.0000001000
43
0.0000001000
44
0.0000000001
12
-0.0327091805
22
0.0898677349
32
0.0000000000
13
0.0207457477
23
0.1268723488
33
0.0000000000
40
0.0000000000
40
0.0000000000
40
0.0000000000
40
0.0000000000
40
1.0000000000
40
1.0000000000
40
1.0000000000
40
1.0000000000
10
168.1364645366
20
162.4137138028
30
0.0000000000
10
168.1255614764
20
162.4436697144
30
0.0000000000
10
168.1232468379
20
162.4806740422
30
0.0000000000
10
168.1301620872
20
162.5229648251
30
0.0000000000
11
168.1364645366
21
162.4137138028
31
0.0000000000
11
168.1301620872
21
162.5229648251
31
0.0000000000
0
SPLINE
5
4A1
100
AcDbEntity
8
0
100
AcDbSpline
62
7
6
CONTINUOUS
70
0
71
3
72
8
73
4
74
2
42
0.0000001000
43
0.0000001000
44
0.0000000001
12
0.0207457477
22
0.1268723488
32
0.0000000000
13
0.0167208419
23
0.1306943343
33
0.0000000000
40
0.0000000000
40
0.0000000000
40
0.0000000000
40
0.0000000000
40
1.0000000000
40
1.0000000000
40
1.0000000000
40
1.0000000000
10
168.1301620872
20
162.5229648251
30
0.0000000000
10
168.1370773364
20
162.5652556080
30
0.0000000000
10
168.1436198717
20
162.6057842869
30
0.0000000000
10
168.1491934857
20
162.6493490650
30
0.0000000000
11
168.1301620872
21
162.5229648251
31
0.0000000000
11
168.1491934857
21
162.6493490650
31
0.0000000000
0
SPLINE
5
4A2
100
AcDbEntity
8
0
100
AcDbSpline
62
7
6
CONTINUOUS
70
0
71
3
72
8
73
4
74
2
42
0.0000001000
43
0.0000001000
44
0.0000000001
12
0.0252114059
22
0.1970587327
32
0.0000000000
13
-0.0654183611
23
0.1797354698
33
0.0000000000
40
0.0000000000
40
0.0000000000
40
0.0000000000
40
0.0000000000
40
1.0000000000
40
1.0000000000
40
1.0000000000
40
1.0000000000
10
168.1491934857
20
162.6493490650
30
0.0000000000
10
168.1575972876
20
162.7150353093
30
0.0000000000
10
168.1507323336
20
162.7784714837
30
0.0000000000
10
168.1289262132
20
162.8383833069
30
0.0000000000
11
168.1491934857
21
162.6493490650
31
0.0000000000
11
168.1289262132
21
162.8383833069
31
0.0000000000
0
SPLINE
5
4A3
100
AcDbEntity
8
0
100
AcDbSpline
62
7
6
CONTINUOUS
70
0
71
3
72
8
73
4
74
2
42
0.0000001000
43
0.0000001000
44
0.0000000001
12
-0.0692666378
22
0.1903085232
32
0.0000000000
13
-0.1196102878
23
0.1097220420
33
0.0000000000
40
0.0000000000
40
0.0000000000
40
0.0000000000
40
0.0000000000
40
1.0000000000
40
1.0000000000
40
1.0000000000
40
1.0000000000
10
168.1289262132
20
162.8383833069
30
0.0000000000
10
168.1058373340
20
162.9018194813
30
0.0000000000
10
168.0736833790
20
162.9511586804
30
0.0000000000
10
168.0338132831
20
162.9877326944
30
0.0000000000
11
168.1289262132
21
162.8383833069
31
0.0000000000
11
168.0338132831
21
162.9877326944
31
0.0000000000
0
SPLINE
5
4A4
100
AcDbEntity
8
0
100
AcDbSpline
62
7
6
CONTINUOUS
70
0
71
3
72
8
73
4
74
2
42
0.0000001000
43
0.0000001000
44
0.0000000001
12
-0.1224253199
22
0.1123043538
32
0.0000000000
13
-0.1277628553
23
0.0000000000
33
0.0000000000
40
0.0000000000
40
0.0000000000
40
0.0000000000
40
0.0000000000
40
1.0000000000
40
1.0000000000
40
1.0000000000
40
1.0000000000
10
168.0338132831
20
162.9877326944
30
0.0000000000
10
167.9930048431
20
163.0251674790
30
0.0000000000
10
167.9514742476
20
163.0445507664
30
0.0000000000
10
167.9088866292
20
163.0445507664
30
0.0000000000
11
168.0338132831
21
162.9877326944
31
0.0000000000
11
167.9088866292
21
163.0445507664
31
0.0000000000
0
SPLINE
5
4A5
100
AcDbEntity
8
0
100
AcDbSpline
62
7
6
CONTINUOUS
70
0
71
3
72
8
73
4
74
2
42
0.0000001000
43
0.0000001000
44
0.0000000001
12
-0.1612246084
22
0.0000000000
32
0.0000000000
13
-0.1623643805
23
-0.2643171717
33
0.0000000000
40
0.0000000000
40
0.0000000000
40
0.0000000000
40
0.0000000000
40
1.0000000000
40
1.0000000000
40
1.0000000000
40
1.0000000000
10
167.9088866292
20
163.0445507664
30
0.0000000000
10
167.8551450931
20
163.0445507664
30
0.0000000000
10
167.8012136536
20
163.0004978795
30
0.0000000000
10
167.7470921935
20
162.9123921555
30
0.0000000000
11
167.9088866292
21
163.0445507664
31
0.0000000000
11
167.7470921935
21
162.9123921555
31
0.0000000000
0
SPLINE
5
4A6
100
AcDbEntity
8
0
100
AcDbSpline
62
7
6
CONTINUOUS
70
0
71
3
72
8
73
4
74
2
42
0.0000001000
43
0.0000001000
44
0.0000000001
12
-0.1298913540
22
-0.2114534925
32
0.0000000000
13
-0.0604547998
23
-0.2563240515
33
0.0000000000
40
0.0000000000
40
0.0000000000
40
0.0000000000
40
0.0000000000
40
1.0000000000
40
1.0000000000
40
1.0000000000
40
1.0000000000
10
167.7470921935
20
162.9123921555
30
0.0000000000
10
167.7037950755
20
162.8419076580
30
0.0000000000
10
167.6695200643
20
162.7661366124
30
0.0000000000
10
167.6493684644
20
162.6806952619
30
0.0000000000
11
167.7470921935
21
162.9123921555
31
0.0000000000
11
167.6493684644
21
162.6806952619
31
0.0000000000
0
SPLINE
5
4A7
100
AcDbEntity
8
0
100
AcDbSpline
62
7
6
CONTINUOUS
70
0
71
3
72
8
73
4
74
2
42
0.0000001000
43
0.0000001000
44
0.0000000001
12
-0.0866675411
22
-0.3674642099
32
0.0000000000
13
-0.0235252498
23
-0.1819933805
33
0.0000000000
40
0.0000000000
40
0.0000000000
40
0.0000000000
40
0.0000000000
40
1.0000000000
40
1.0000000000
40
1.0000000000
40
1.0000000000
10
167.6493684644
20
162.6806952619
30
0.0000000000
10
167.6204792840
20
162.5582071919
30
0.0000000000
10
167.6023584957
20
162.4673297037
30
0.0000000000
10
167.5945167457
20
162.4066652436
30
0.0000000000
11
167.6493684644
21
162.6806952619
31
0.0000000000
11
167.5945167457
21
162.4066652436
31
0.0000000000
0
SPLINE
5
4A8
100
AcDbEntity
8
0
100
AcDbSpline
62
7
6
CONTINUOUS
70
0
71
3
72
8
73
4
74
2
42
0.0000001000
43
0.0000001000
44
0.0000000001
12
0.0705568523
22
0.3911892414
32
0.0000000000
13
0.0983698756
23
0.2128920661
33
0.0000000000
40
0.0000000000
40
0.0000000000
40
0.0000000000
40
0.0000000000
40
1.0000000000
40
1.0000000000
40
1.0000000000
40
1.0000000000
10
167.6221704031
20
162.4894847054
30
0.0000000000
10
167.6456893539
20
162.6198811192
30
0.0000000000
10
167.6723720641
20
162.7220838684
30
0.0000000000
10
167.7051620226
20
162.7930478905
30
0.0000000000
11
167.6221704031
21
162.4894847054
31
0.0000000000
11
167.7051620226
21
162.7930478905
31
0.0000000000
0
SPLINE
5
4A9
100
AcDbEntity
8
0
100
AcDbSpline
62
7
6
CONTINUOUS
70
0
71
3
72
8
73
4
74
2
42
0.0000001000
43
0.0000001000
44
0.0000000001
12
0.2045164661
22
0.4426144971
32
0.0000000000
13
0.2220642044
23
0.0000000000
33
0.0000000000
40
0.0000000000
40
0.0000000000
40
0.0000000000
40
0.0000000000
40
1.0000000000
40
1.0000000000
40
1.0000000000
40
1.0000000000
10
167.7051620226
20
162.7930478905
30
0.0000000000
10
167.7733341780
20
162.9405860562
30
0.0000000000
10
167.8430989644
20
163.0163569588
30
0.0000000000
10
167.9171203659
20
163.0163569588
30
0.0000000000
11
167.7051620226
21
162.7930478905
31
0.0000000000
11
167.9171203659
21
163.0163569588
31
0.0000000000
0
SPLINE
5
4AA
100
AcDbEntity
8
0
100
AcDbSpline
62
7
6
CONTINUOUS
70
0
71
3
72
8
73
4
74
2
42
0.0000001000
43
0.0000001000
44
0.0000000001
12
0.1673085186
22
0.0000000000
32
0.0000000000
13
0.0731146021
23
-0.2008807182
33
0.0000000000
40
0.0000000000
40
0.0000000000
40
0.0000000000
40
0.0000000000
40
1.0000000000
40
1.0000000000
40
1.0000000000
40
1.0000000000
10
167.9171203659
20
163.0163569588
30
0.0000000000
10
167.9728898721
20
163.0163569588
30
0.0000000000
10
168.0141087902
20
162.9811145920
30
0.0000000000
10
168.0384803242
20
162.9141543526
30
0.0000000000
11
167.9171203659
21
163.0163569588
31
0.0000000000
11
168.0384803242
21
162.9141543526
31
0.0000000000
0
SPLINE
5
4AB
100
AcDbEntity
8
0
100
AcDbSpline
62
7
6
CONTINUOUS
70
0
71
3
72
8
73
4
74
2
42
0.0000001000
43
0.0000001000
44
0.0000000001
12
0.0423296380
22
-0.1162997246
32
0.0000000000
13
-0.0352626425
23
-0.2538858932
33
0.0000000000
40
0.0000000000
40
0.0000000000
40
0.0000000000
40
0.0000000000
40
1.0000000000
40
1.0000000000
40
1.0000000000
40
1.0000000000
10
168.0384803242
20
162.9141543526
30
0.0000000000
10
168.0525902036
20
162.8753877778
30
0.0000000000
10
168.0531025256
20
162.8154758114
30
0.0000000000
10
168.0413483114
20
162.7308471804
30
0.0000000000
11
168.0384803242
21
162.9141543526
31
0.0000000000
11
168.0413483114
21
162.7308471804
31
0.0000000000
0
SPLINE
5
4AC
100
AcDbEntity
8
0
100
AcDbSpline
62
7
6
CONTINUOUS
70
0
71
3
72
8
73
4
74
2
42
0.0000001000
43
0.0000001000
44
0.0000000001
12
-0.0462367936
22
-0.3328981835
32
0.0000000000
13
0.0654185173
23
-0.1797358990
33
0.0000000000
40
0.0000000000
40
0.0000000000
40
0.0000000000
40
0.0000000000
40
1.0000000000
40
1.0000000000
40
1.0000000000
40
1.0000000000
10
168.0413483114
20
162.7308471804
30
0.0000000000
10
168.0259360469
20
162.6198811192
30
0.0000000000
10
168.0299847600
20
162.5335375924
30
0.0000000000
10
168.0517909325
20
162.4736256260
30
0.0000000000
11
168.0413483114
21
162.7308471804
31
0.0000000000
11
168.0517909325
21
162.4736256260
31
0.0000000000
0
SPLINE
5
4AD
100
AcDbEntity
8
0
100
AcDbSpline
62
7
6
CONTINUOUS
70
0
71
3
72
8
73
4
74
2
42
0.0000001000
43
0.0000001000
44
0.0000000001
12
0.1289128181
22
-0.3541850567
32
0.0000000000
13
0.2342317779
23
0.0000000000
33
0.0000000000
40
0.0000000000
40
0.0000000000
40
0.0000000000
40
0.0000000000
40
1.0000000000
40
1.0000000000
40
1.0000000000
40
1.0000000000
10
168.0517909325
20
162.4736256260
30
0.0000000000
10
168.0947618718
20
162.3555639405
30
0.0000000000
10
168.1544583170
20
162.2974142212
30
0.0000000000
10
168.2325355763
20
162.2974142212
30
0.0000000000
11
168.0517909325
21
162.4736256260
31
0.0000000000
11
168.2325355763
21
162.2974142212
31
0.0000000000
0
SPLINE
5
4AE
100
AcDbEntity
8
0
100
AcDbSpline
62
7
6
CONTINUOUS
70
0
71
3
72
8
73
4
74
2
42
0.0000001000
43
0.0000001000
44
0.0000000001
12
0.2372739799
22
0.0000000000
32
0.0000000000
13
0.2637812746
23
0.7295153618
33
0.0000000000
40
0.0000000000
40
0.0000000000
40
0.0000000000
40
0.0000000000
40
1.0000000000
40
1.0000000000
40
1.0000000000
40
1.0000000000
10
168.2325355763
20
162.2974142212
30
0.0000000000
10
168.3116269030
20
162.2974142212
30
0.0000000000
10
168.3961501794
20
162.4190001149
30
0.0000000000
10
168.4840772710
20
162.6621719021
30
0.0000000000
11
168.2325355763
21
162.2974142212
31
0.0000000000
11
168.4840772710
21
162.6621719021
31
0.0000000000
0
SPLINE
5
4AF
100
AcDbEntity
8
0
100
AcDbSpline
62
7
6
CONTINUOUS
70
0
71
3
72
8
73
4
74
2
42
0.0000001000
43
0.0000001000
44
0.0000000001
12
-0.0519828492
22
-0.9938326836
32
0.0000000000
13
-0.0227663598
23
-0.5392072678
33
0.0000000000
40
0.0000000000
40
0.0000000000
40
0.0000000000
40
0.0000000000
40
1.0000000000
40
1.0000000000
40
1.0000000000
40
1.0000000000
10
168.4840772710
20
162.6621719021
30
0.0000000000
10
168.4667496546
20
162.3308943409
30
0.0000000000
10
168.4549326721
20
162.0736257214
30
0.0000000000
10
168.4473438855
20
161.8938899655
30
0.0000000000
11
168.4840772710
21
162.6621719021
31
0.0000000000
11
168.4473438855
21
161.8938899655
31
0.0000000000
0
SPLINE
5
4B0
100
AcDbEntity
8
0
100
AcDbSpline
62
7
6
CONTINUOUS
70
0
71
3
72
8
73
4
74
2
42
0.0000001000
43
0.0000001000
44
0.0000000001
12
-1.1078376491
22
-0.7506606102
32
0.0000000000
13
0.2943829762
23
-0.8088105798
33
0.0000000000
40
0.0000000000
40
0.0000000000
40
0.0000000000
40
0.0000000000
40
1.0000000000
40
1.0000000000
40
1.0000000000
40
1.0000000000
10
168.3154138406
20
161.8022599835
30
0.0000000000
10
167.9461346243
20
161.5520397801
30
0.0000000000
10
167.8112521733
20
161.2930089135
30
0.0000000000
10
167.9093798320
20
161.0234053869
30
0.0000000000
11
168.3154138406
21
161.8022599835
31
0.0000000000
11
167.9093798320
21
161.0234053869
31
0.0000000000
0
SPLINE
5
4B1
100
AcDbEntity
8
0
100
AcDbSpline
62
7
6
CONTINUOUS
70
0
71
3
72
8
73
4
74
2
42
0.0000001000
43
0.0000001000
44
0.0000000001
12
0.1712423780
22
-0.4704845667
32
0.0000000000
13
0.3528688913
23
0.0000000000
33
0.0000000000
40
0.0000000000
40
0.0000000000
40
0.0000000000
40
0.0000000000
40
1.0000000000
40
1.0000000000
40
1.0000000000
40
1.0000000000
10
167.9093798320
20
161.0234053869
30
0.0000000000
10
167.9664606247
20
160.8665771980
30
0.0000000000
10
168.0534918056
20
160.7890441555
30
0.0000000000
10
168.1711147694
20
160.7890441555
30
0.0000000000
11
167.9093798320
21
161.0234053869
31
0.0000000000
11
168.1711147694
21
160.7890441555
31
0.0000000000
0
SPLINE
5
4B2
100
AcDbEntity
8
0
100
AcDbSpline
62
7
6
CONTINUOUS
70
0
71
3
72
8
73
4
74
2
42
0.0000001000
43
0.0000001000
44
0.0000000001
12
0.7696193338
22
0.0000000000
32
0.0000000000
13
0.0324100422
23
2.2678413033
33
0.0000000000
40
0.0000000000
40
0.0000000000
40
0.0000000000
40
0.0000000000
40
1.0000000000
40
1.0000000000
40
1.0000000000
40
1.0000000000
10
168.1711147694
20
160.7890441555
30
0.0000000000
10
168.4276545473
20
160.7890441555
30
0.0000000000
10
168.5611396642
20
161.1661366720
30
0.0000000000
10
168.5719430116
20
161.9220837731
30
0.0000000000
11
168.1711147694
21
160.7890441555
31
0.0000000000
11
168.5719430116
21
161.9220837731
31
0.0000000000
0
SPLINE
5
4B3
100
AcDbEntity
8
0
100
AcDbSpline
62
7
6
CONTINUOUS
70
0
71
3
72
8
73
4
74
2
42
0.0000001000
43
0.0000001000
44
0.0000000001
12
0.2929107800
22
0.1480178118
32
0.0000000000
13
0.2626736759
23
0.1057266712
33
0.0000000000
40
0.0000000000
40
0.0000000000
40
0.0000000000
40
0.0000000000
40
1.0000000000
40
1.0000000000
40
1.0000000000
40
1.0000000000
10
168.5719430116
20
161.9220837731
30
0.0000000000
10
168.6695799382
20
161.9714230437
30
0.0000000000
10
168.7626844354
20
162.0137137551
30
0.0000000000
10
168.8502423274
20
162.0489559788
30
0.0000000000
11
168.5719430116
21
161.9220837731
31
0.0000000000
11
168.8502423274
21
162.0489559788
31
0.0000000000
0
SPLINE
5
4B4
100
AcDbEntity
8
0
100
AcDbSpline
62
7
6
CONTINUOUS
70
0
71
3
72
8
73
4
74
2
42
0.0000001000
43
0.0000001000
44
0.0000000001
12
-0.0371922231
22
-0.8088102579
32
0.0000000000
13
-0.0002416136
23
-0.0841016786
33
0.0000000000
40
0.0000000000
40
0.0000000000
40
0.0000000000
40
0.0000000000
40
1.0000000000
40
1.0000000000
40
1.0000000000
40
1.0000000000
10
168.8502423274
20
162.0489559788
30
0.0000000000
10
168.8378449197
20
161.7793525595
30
0.0000000000
10
168.8325348523
20
161.6295727868
30
0.0000000000
10
168.8324543144
20
161.6015388939
30
0.0000000000
11
168.8502423274
21
162.0489559788
31
0.0000000000
11
168.8324543144
21
161.6015388939
31
0.0000000000
0
SPLINE
5
4B5
100
AcDbEntity
8
0
100
AcDbSpline
62
7
6
CONTINUOUS
70
0
71
3
72
8
73
4
74
2
42
0.0000001000
43
0.0000001000
44
0.0000000001
12
-0.0021883067
22
-0.7617133005
32
0.0000000000
13
0.1346850183
23
-0.3700440466
33
0.0000000000
40
0.0000000000
40
0.0000000000
40
0.0000000000
40
0.0000000000
40
1.0000000000
40
1.0000000000
40
1.0000000000
40
1.0000000000
10
168.8324543144
20
161.6015388939
30
0.0000000000
10
168.8317248789
20
161.3476344604
30
0.0000000000
10
168.8540792535
20
161.1608503241
30
0.0000000000
10
168.8989742596
20
161.0375023086
30
0.0000000000
11
168.8324543144
21
161.6015388939
31
0.0000000000
11
168.8989742596
21
161.0375023086
31
0.0000000000
0
SPLINE
5
4B6
100
AcDbEntity
8
0
100
AcDbSpline
62
7
6
CONTINUOUS
70
0
71
3
72
8
73
4
74
2
42
0.0000001000
43
0.0000001000
44
0.0000000001
12
0.1808627476
22
-0.4969163150
32
0.0000000000
13
0.2524837555
23
0.0000000000
33
0.0000000000
40
0.0000000000
40
0.0000000000
40
0.0000000000
40
0.0000000000
40
1.0000000000
40
1.0000000000
40
1.0000000000
40
1.0000000000
10
168.8989742596
20
161.0375023086
30
0.0000000000
10
168.9592618421
20
160.8718635369
30
0.0000000000
10
169.0309791828
20
160.7890441555
30
0.0000000000
10
169.1151404347
20
160.7890441555
30
0.0000000000
11
168.8989742596
21
161.0375023086
31
0.0000000000
11
169.1151404347
21
160.7890441555
31
0.0000000000
0
SPLINE
5
4B7
100
AcDbEntity
8
0
100
AcDbSpline
62
7
6
CONTINUOUS
70
0
71
3
72
8
73
4
74
2
42
0.0000001000
43
0.0000001000
44
0.0000000001
12
0.1095113716
22
0.0000000000
32
0.0000000000
13
0.1248741333
23
0.1935970654
33
0.0000000000
40
0.0000000000
40
0.0000000000
40
0.0000000000
40
0.0000000000
40
1.0000000000
40
1.0000000000
40
1.0000000000
40
1.0000000000
10
169.1151404347
20
160.7890441555
30
0.0000000000
10
169.1516442252
20
160.7890441555
30
0.0000000000
10
169.1918131960
20
160.8207622182
30
0.0000000000
10
169.2334379071
20
160.8852945733
30
0.0000000000
11
169.1151404347
21
160.7890441555
31
0.0000000000
11
169.2334379071
21
160.8852945733
31
0.0000000000
0
SPLINE
5
4B8
100
AcDbEntity
8
0
100
AcDbSpline
62
7
6
CONTINUOUS
70
0
71
3
72
8
73
4
74
2
42
0.0000001000
43
0.0000001000
44
0.0000000001
12
0.1240413637
22
0.1923059913
32
0.0000000000
13
0.0528532090
23
0.2643171608
33
0.0000000000
40
0.0000000000
40
0.0000000000
40
0.0000000000
40
0.0000000000
40
1.0000000000
40
1.0000000000
40
1.0000000000
40
1.0000000000
10
169.2334379071
20
160.8852945733
30
0.0000000000
10
169.2747850283
20
160.9493965704
30
0.0000000000
10
169.3039901533
20
161.0251675088
30
0.0000000000
10
169.3216078897
20
161.1132732291
30
0.0000000000
11
169.2334379071
21
160.8852945733
31
0.0000000000
11
169.3216078897
21
161.1132732291
31
0.0000000000
0
SPLINE
5
4B9
100
AcDbEntity
8
0
100
AcDbSpline
62
7
6
CONTINUOUS
70
0
71
3
72
8
73
4
74
2
42
0.0000001000
43
0.0000001000
44
0.0000000001
12
-0.0351493578
22
-0.1374449730
32
0.0000000000
13
-0.1028090573
23
-0.1664482990
33
0.0000000000
40
0.0000000000
40
0.0000000000
40
0.0000000000
40
0.0000000000
40
1.0000000000
40
1.0000000000
40
1.0000000000
40
1.0000000000
10
169.2898802935
20
161.0639340300
30
0.0000000000
10
169.2781638409
20
161.0181190390
30
0.0000000000
10
169.2555622747
20
160.9687798399
30
0.0000000000
10
169.2212925890
20
160.9132970736
30
0.0000000000
11
169.2898802935
21
161.0639340300
31
0.0000000000
11
169.2212925890
21
160.9132970736
31
0.0000000000
0
SPLINE
5
4BA
100
AcDbEntity
8
0
100
AcDbSpline
62
7
6
CONTINUOUS
70
0
71
3
72
8
73
4
74
2
42
0.0000001000
43
0.0000001000
44
0.0000000001
12
-0.1192233261
22
-0.1930230697
32
0.0000000000
13
-0.0821332818
23
0.0000000000
33
0.0000000000
40
0.0000000000
40
0.0000000000
40
0.0000000000
40
0.0000000000
40
1.0000000000
40
1.0000000000
40
1.0000000000
40
1.0000000000
10
169.2212925890
20
160.9132970736
30
0.0000000000
10
169.1815514802
20
160.8489560503
30
0.0000000000
10
169.1474664197
20
160.8172379877
30
0.0000000000
10
169.1200886591
20
160.8172379877
30
0.0000000000
11
169.2212925890
21
160.9132970736
31
0.0000000000
11
169.1200886591
21
160.8172379877
31
0.0000000000
0
SPLINE
5
4BB
100
AcDbEntity
8
0
100
AcDbSpline
62
7
6
CONTINUOUS
70
0
71
3
72
8
73
4
74
2
42
0.0000001000
43
0.0000001000
44
0.0000000001
12
-0.1338470124
22
0.0000000000
32
0.0000000000
13
-0.0981276587
23
0.2696035266
33
0.0000000000
40
0.0000000000
40
0.0000000000
40
0.0000000000
40
0.0000000000
40
1.0000000000
40
1.0000000000
40
1.0000000000
40
1.0000000000
10
169.1200886591
20
160.8172379877
30
0.0000000000
10
169.0754729883
20
160.8172379877
30
0.0000000000
10
169.0371312223
20
160.8612908501
30
0.0000000000
10
169.0044220027
20
160.9511586923
30
0.0000000000
11
169.1200886591
21
160.8172379877
31
0.0000000000
11
169.0044220027
21
160.9511586923
31
0.0000000000
0
SPLINE
5
4BC
100
AcDbEntity
8
0
100
AcDbSpline
62
7
6
CONTINUOUS
70
0
71
3
72
8
73
4
74
2
42
0.0000001000
43
0.0000001000
44
0.0000000001
12
-0.1808627573
22
0.4969163418
32
0.0000000000
13
0.1453602262
23
1.8237886190
33
0.0000000000
40
0.0000000000
40
0.0000000000
40
0.0000000000
40
0.0000000000
40
1.0000000000
40
1.0000000000
40
1.0000000000
40
1.0000000000
10
169.0044220027
20
160.9511586923
30
0.0000000000
10
168.9441344169
20
161.1167974729
30
0.0000000000
10
168.9375240461
20
161.5027005095
30
0.0000000000
10
168.9859774548
20
162.1106300492
30
0.0000000000
11
169.0044220027
21
160.9511586923
31
0.0000000000
11
168.9859774548
21
162.1106300492
31
0.0000000000
0
SPLINE
5
4BD
100
AcDbEntity
8
0
100
AcDbSpline
62
7
6
CONTINUOUS
70
0
71
3
72
8
73
4
74
2
42
0.0000001000
43
0.0000001000
44
0.0000000001
12
0.6863360892
22
0.3541850567
32
0.0000000000
13
0.2204919620
23
0.6654297332
33
0.0000000000
40
0.0000000000
40
0.0000000000
40
0.0000000000
40
0.0000000000
40
1.0000000000
40
1.0000000000
40
1.0000000000
40
1.0000000000
10
168.9859774548
20
162.1106300492
30
0.0000000000
10
169.2147561512
20
162.2286917347
30
0.0000000000
10
169.3654826797
20
162.3996168274
30
0.0000000000
10
169.4389800003
20
162.6214267385
30
0.0000000000
11
168.9859774548
21
162.1106300492
31
0.0000000000
11
169.4389800003
21
162.6214267385
31
0.0000000000
0
SPLINE
5
4BE
100
AcDbEntity
8
0
100
AcDbSpline
62
7
6
CONTINUOUS
70
0
71
3
72
8
73
4
74
2
42
0.0000001000
43
0.0000001000
44
0.0000000001
12
0.1578632514
22
0.4764205476
32
0.0000000000
13
-0.1443054563
23
0.3964759827
33
0.0000000000
40
0.0000000000
40
0.0000000000
40
0.0000000000
40
0.0000000000
40
1.0000000000
40
1.0000000000
40
1.0000000000
40
1.0000000000
10
169.4389800003
20
162.6214267385
30
0.0000000000
10
169.4916010841
20
162.7802335877
30
0.0000000000
10
169.4941381089
20
162.9264890809
30
0.0000000000
10
169.4460362901
20
163.0586477417
30
0.0000000000
11
169.4389800003
21
162.6214267385
31
0.0000000000
11
169.4460362901
21
163.0586477417
31
0.0000000000
0
SPLINE
5
4BF
100
AcDbEntity
8
0
100
AcDbSpline
62
7
6
CONTINUOUS
70
0
71
3
72
8
73
4
74
2
42
0.0000001000
43
0.0000001000
44
0.0000000001
12
0.1385332755
22
-0.3806170464
32
0.0000000000
13
-0.1561168699
23
-0.4556602576
33
0.0000000000
40
0.0000000000
40
0.0000000000
40
0.0000000000
40
0.0000000000
40
1.0000000000
40
1.0000000000
40
1.0000000000
40
1.0000000000
10
169.4298122003
20
163.0586477417
30
0.0000000000
10
169.4759899588
20
162.9317753930
30
0.0000000000
10
169.4719018347
20
162.7925683159
30
0.0000000000
10
169.4198628781
20
162.6406815634
30
0.0000000000
11
169.4298122003
21
163.0586477417
31
0.0000000000
11
169.4198628781
21
162.6406815634
31
0.0000000000
0
SPLINE
5
4C0
100
AcDbEntity
8
0
100
AcDbSpline
62
7
6
CONTINUOUS
70
0
71
3
72
8
73
4
74
2
42
0.0000001000
43
0.0000001000
44
0.0000000001
12
-0.2332889193
22
-0.6809032819
32
0.0000000000
13
-0.6295274765
23
-0.3013215065
33
0.0000000000
40
0.0000000000
40
0.0000000000
40
0.0000000000
40
0.0000000000
40
1.0000000000
40
1.0000000000
40
1.0000000000
40
1.0000000000
10
169.4198628781
20
162.6406815634
30
0.0000000000
10
169.3420999050
20
162.4137138028
30
0.0000000000
10
169.1979339928
20
162.2498371262
30
0.0000000000
10
168.9880915007
20
162.1493966240
30
0.0000000000
11
169.4198628781
21
162.6406815634
31
0.0000000000
11
168.9880915007
21
162.1493966240
31
0.0000000000
0
SPLINE
5
4C1
100
AcDbEntity
8
0
100
AcDbSpline
62
7
6
CONTINUOUS
70
0
71
3
72
8
73
4
74
2
42
0.0000001000
43
0.0000001000
44
0.0000000001
12
0.2565051939
22
2.0616737366
32
0.0000000000
13
0.3802468577
23
0.0000000000
33
0.0000000000
40
0.0000000000
40
0.0000000000
40
0.0000000000
40
0.0000000000
40
1.0000000000
40
1.0000000000
40
1.0000000000
40
1.0000000000
10
168.9880915007
20
162.1493966240
30
0.0000000000
10
169.0735932320
20
162.8366212029
30
0.0000000000
10
169.1790770861
20
163.1819957394
30
0.0000000000
10
169.3058260387
20
163.1819957394
30
0.0000000000
11
168.9880915007
21
162.1493966240
31
0.0000000000
11
169.3058260387
21
163.1819957394
31
0.0000000000
0
SPLINE
5
4C2
100
AcDbEntity
8
0
100
AcDbSpline
62
7
6
CONTINUOUS
70
0
71
3
72
8
73
4
74
2
42
0.0000001000
43
0.0000001000
44
0.0000000001
12
0.1581826533
22
0.0000000000
32
0.0000000000
13
0.0885072403
23
-0.2431716442
33
0.0000000000
40
0.0000000000
40
0.0000000000
40
0.0000000000
40
0.0000000000
40
1.0000000000
40
1.0000000000
40
1.0000000000
40
1.0000000000
10
169.3058260387
20
163.1819957394
30
0.0000000000
10
169.3585535898
20
163.1819957394
30
0.0000000000
10
169.4003097868
20
163.1397049565
30
0.0000000000
10
169.4298122003
20
163.0586477417
30
0.0000000000
11
169.3058260387
21
163.1819957394
31
0.0000000000
11
169.4298122003
21
163.0586477417
31
0.0000000000
0
SPLINE
5
4C3
100
AcDbEntity
8
0
100
AcDbSpline
62
7
6
CONTINUOUS
70
0
71
3
72
8
73
4
74
2
42
0.0000001000
43
0.0000001000
44
0.0000000001
12
-0.0385038844
22
-1.6493392467
32
0.0000000000
13
-0.5384292640
23
0.0000000000
33
0.0000000000
40
0.0000000000
40
0.0000000000
40
0.0000000000
40
0.0000000000
40
1.0000000000
40
1.0000000000
40
1.0000000000
40
1.0000000000
10
168.4403281324
20
161.6401454825
30
0.0000000000
10
168.4274935043
20
161.0903657336
30
0.0000000000
10
168.3312036097
20
160.8172379877
30
0.0000000000
10
168.1517271883
20
160.8172379877
30
0.0000000000
11
168.4403281324
21
161.6401454825
31
0.0000000000
11
168.1517271883
21
160.8172379877
31
0.0000000000
0
SPLINE
5
4C4
100
AcDbEntity
8
0
100
AcDbSpline
62
7
6
CONTINUOUS
70
0
71
3
72
8
73
4
74
2
42
0.0000001000
43
0.0000001000
44
0.0000000001
12
-0.2281481146
22
0.0000000000
32
0.0000000000
13
-0.1192924484
23
0.3277533084
33
0.0000000000
40
0.0000000000
40
0.0000000000
40
0.0000000000
40
0.0000000000
40
1.0000000000
40
1.0000000000
40
1.0000000000
40
1.0000000000
10
168.1517271883
20
160.8172379877
30
0.0000000000
10
168.0756778168
20
160.8172379877
30
0.0000000000
10
168.0182780908
20
160.8718635369
30
0.0000000000
10
167.9785139413
20
160.9811146397
30
0.0000000000
11
168.1517271883
21
160.8172379877
31
0.0000000000
11
167.9785139413
21
160.9811146397
31
0.0000000000
0
SPLINE
5
4C5
100
AcDbEntity
8
0
100
AcDbSpline
62
7
6
CONTINUOUS
70
0
71
3
72
8
73
4
74
2
42
0.0000001000
43
0.0000001000
44
0.0000000001
12
-0.1577738781
22
0.4334801674
32
0.0000000000
13
0.2486969801
23
0.4797663548
33
0.0000000000
40
0.0000000000
40
0.0000000000
40
0.0000000000
40
0.0000000000
40
1.0000000000
40
1.0000000000
40
1.0000000000
40
1.0000000000
10
167.9785139413
20
160.9811146397
30
0.0000000000
10
167.9259226486
20
161.1256080288
30
0.0000000000
10
167.9400899418
20
161.2789120097
30
0.0000000000
10
168.0229889352
20
161.4388341279
30
0.0000000000
11
167.9785139413
21
160.9811146397
31
0.0000000000
11
168.0229889352
21
161.4388341279
31
0.0000000000
0
SPLINE
5
4C6
100
AcDbEntity
8
0
100
AcDbSpline
62
7
6
CONTINUOUS
70
0
71
3
72
8
73
4
74
2
42
0.0000001000
43
0.0000001000
44
0.0000000001
12
0.2034504138
22
0.3924802921
32
0.0000000000
13
0.3640321938
23
0.2535772511
33
0.0000000000
40
0.0000000000
40
0.0000000000
40
0.0000000000
40
0.0000000000
40
1.0000000000
40
1.0000000000
40
1.0000000000
40
1.0000000000
10
168.0229889352
20
161.4388341279
30
0.0000000000
10
168.0908057398
20
161.5696608920
30
0.0000000000
10
168.1848578912
20
161.6789677298
30
0.0000000000
10
168.3062019558
20
161.7634934802
30
0.0000000000
11
168.0229889352
21
161.4388341279
31
0.0000000000
11
168.3062019558
21
161.7634934802
31
0.0000000000
0
SPLINE
5
4C7
100
AcDbEntity
8
0
100
AcDbSpline
62
7
6
CONTINUOUS
70
0
71
3
72
14
73
10
74
8
42
0.0000001000
43
0.0000001000
44
0.0000000001
12
10.4868779371
22
1.1022152859
32
0.0000000000
13
0.0000000000
23
10.5446425925
33
0.0000000000
40
0.0000000000
40
0.0000000000
40
0.0000000000
40
0.0000000000
40
0.1441836878
40
0.2880404537
40
0.4314078421
40
0.5742170949
40
0.7164963975
40
0.8583614691
40
1.0000000000
40
1.0000000000
40
1.0000000000
40
1.0000000000
10
168.5901671289
20
34.4600160919
30
0.0000000000
10
169.0941793737
20
34.5129899134
30
0.0000000000
10
170.0931005134
20
34.7252163121
30
0.0000000000
10
171.4878768431
20
35.3467037517
30
0.0000000000
10
172.7195853114
20
36.2420548990
30
0.0000000000
10
173.7342663436
20
37.3697086324
30
0.0000000000
10
174.4897368161
20
38.6792414646
30
0.0000000000
10
174.9552945882
20
40.1125617738
30
0.0000000000
10
175.0601450475
20
41.1121735299
30
0.0000000000
10
175.0601450475
20
41.6100160919
30
0.0000000000
11
168.5901671289
21
34.4600160919
31
0.0000000000
11
170.0772800715
21
34.7762536838
31
0.0000000000
11
171.4628819834
21
35.3936256211
31
0.0000000000
11
172.6855602987
21
36.2827091912
31
0.0000000000
11
173.6926860043
21
37.4022402934
31
0.0000000000
11
174.4423072671
21
38.7018253142
31
0.0000000000
11
174.9041760813
21
40.1246546444
31
0.0000000000
11
175.0601450475
21
41.6100160919
31
0.0000000000
0
SPLINE
5
4C8
100
AcDbEntity
8
0
100
AcDbSpline
62
7
6
CONTINUOUS
70
0
71
3
72
14
73
10
74
8
42
0.0000001000
43
0.0000001000
44
0.0000000001
12
0.0000000000
22
10.5446425991
32
0.0000000000
13
-10.4868779437
23
1.1022152866
33
0.0000000000
40
0.0000000000
40
0.0000000000
40
0.0000000000
40
0.0000000000
40
0.1416458109
40
0.2835145685
40
0.4257943064
40
0.5686012721
40
0.7119647068
40
0.8558160008
40
1.0000000000
40
1.0000000000
40
1.0000000000
40
1.0000000000
10
175.0601450475
20
41.6100160919
30
0.0000000000
10
175.0601450475
20
42.1078842425
30
0.0000000000
10
174.9552850484
20
43.1075350243
30
0.0000000000
10
174.4896952365
20
44.5408878927
30
0.0000000000
10
173.7341998400
20
45.8504139295
30
0.0000000000
10
172.7195157786
20
46.9780367749
30
0.0000000000
10
171.4878319583
20
47.8733502820
30
0.0000000000
10
170.0930837683
20
48.4948192844
30
0.0000000000
10
169.0941804626
20
48.7070421559
30
0.0000000000
10
168.5901671289
20
48.7600160919
30
0.0000000000
11
175.0601450475
21
41.6100160919
31
0.0000000000
11
174.9041600494
21
43.0954530443
31
0.0000000000
11
174.4422600179
21
44.5183131056
31
0.0000000000
11
173.6926149989
21
45.8178897229
31
0.0000000000
11
172.6854885179
21
46.9373876896
31
0.0000000000
11
171.4628346107
21
47.8264339393
31
0.0000000000
11
170.0772832123
21
48.4437774786
31
0.0000000000
11
168.5901671289
21
48.7600160919
31
0.0000000000
0
SPLINE
5
4C9
100
AcDbEntity
8
0
100
AcDbSpline
62
7
6
CONTINUOUS
70
0
71
3
72
10
73
6
74
4
42
0.0000001000
43
0.0000001000
44
0.0000000001
12
5.3829832466
22
-0.6742635994
32
0.0000000000
13
4.7589377519
23
2.6045443956
33
0.0000000000
40
0.0000000000
40
0.0000000000
40
0.0000000000
40
0.0000000000
40
0.3338271887
40
0.6673705291
40
1.0000000000
40
1.0000000000
40
1.0000000000
40
1.0000000000
10
168.5901671289
20
32.8600160919
30
0.0000000000
10
169.1891625170
20
32.7849869179
30
0.0000000000
10
170.4062297799
20
32.7601021489
30
0.0000000000
10
172.1944061771
20
33.1002756988
30
0.0000000000
10
173.3153002887
20
33.5694753877
30
0.0000000000
10
173.8429546042
20
33.8582581291
30
0.0000000000
11
168.5901671289
21
32.8600160919
31
0.0000000000
11
170.4008196294
21
32.8231217899
31
0.0000000000
11
172.1784069600
21
33.1613994086
31
0.0000000000
11
173.8429546042
21
33.8582581291
31
0.0000000000
0
SPLINE
5
4CA
100
AcDbEntity
8
0
100
AcDbSpline
62
7
6
CONTINUOUS
70
0
71
3
72
12
73
8
74
6
42
0.0000001000
43
0.0000001000
44
0.0000000001
12
-11.3089684190
22
5.4444481251
32
0.0000000000
13
-12.2828447413
23
-2.5819580068
33
0.0000000000
40
0.0000000000
40
0.0000000000
40
0.0000000000
40
0.0000000000
40
0.2141921869
40
0.4146656855
40
0.6083202902
40
0.8013970877
40
1.0000000000
40
1.0000000000
40
1.0000000000
40
1.0000000000
10
180.8279914701
20
58.7671654536
30
0.0000000000
10
180.0205605776
20
59.1558848704
30
0.0000000000
10
178.4063295606
20
59.8083330804
30
0.0000000000
10
175.9326745846
20
60.4371142983
30
0.0000000000
10
173.4849461215
20
60.7203811596
30
0.0000000000
10
171.0297965546
20
60.6799585601
30
0.0000000000
10
169.4033033743
20
60.4411982562
30
0.0000000000
10
168.5901671289
20
60.2702701297
30
0.0000000000
11
180.8279914701
21
58.7671654536
31
0.0000000000
11
178.3337266488
21
59.7701958033
31
0.0000000000
11
175.8945381884
21
60.3879524323
31
0.0000000000
11
173.4800163225
21
60.6671839572
31
0.0000000000
11
171.0569566975
21
60.6288953200
31
0.0000000000
11
168.5901671289
21
60.2702701297
31
0.0000000000
0
SPLINE
5
4CB
100
AcDbEntity
8
0
100
AcDbSpline
62
7
6
CONTINUOUS
70
0
71
3
72
9
73
5
74
3
42
0.0000001000
43
0.0000001000
44
0.0000000001
12
-1.7198676922
22
1.0231817433
32
0.0000000000
13
-1.8031325787
23
0.8680775668
33
0.0000000000
40
0.0000000000
40
0.0000000000
40
0.0000000000
40
0.0000000000
40
0.5079216013
40
1.0000000000
40
1.0000000000
40
1.0000000000
40
1.0000000000
10
182.5901671289
20
57.8197243020
30
0.0000000000
10
182.2989811448
20
57.9929563385
30
0.0000000000
10
181.7183250883
20
58.3218021287
30
0.0000000000
10
181.1237523341
20
58.6247780472
30
0.0000000000
10
180.8279914701
20
58.7671654536
30
0.0000000000
11
182.5901671289
21
57.8197243020
31
0.0000000000
11
181.7055353465
21
58.3203380771
31
0.0000000000
11
180.8279914701
21
58.7671654536
31
0.0000000000
0
SPLINE
5
4CC
100
AcDbEntity
8
0
100
AcDbSpline
62
9
6
CONTINUOUS
70
0
71
3
72
9
73
5
74
3
42
0.0000001000
43
0.0000001000
44
0.0000000001
12
1.7198933979
22
-0.9959461085
32
0.0000000000
13
1.6109257182
23
-1.1641159947
33
0.0000000000
40
0.0000000000
40
0.0000000000
40
0.0000000000
40
0.0000000000
40
0.5246613073
40
1.0000000000
40
1.0000000000
40
1.0000000000
40
1.0000000000
10
180.8279914701
20
58.7671654536
30
0.0000000000
10
181.1287786430
20
58.5929873245
30
0.0000000000
10
181.6929754557
20
58.2450576344
30
0.0000000000
10
182.2388167624
20
57.8691291424
30
0.0000000000
10
182.4940618707
20
57.6846793507
30
0.0000000000
11
180.8279914701
21
58.7671654536
31
0.0000000000
11
181.7157504069
21
58.2201896166
31
0.0000000000
11
182.4940618707
21
57.6846793507
31
0.0000000000
0
SPLINE
5
4CD
100
AcDbEntity
8
0
100
AcDbSpline
62
9
6
CONTINUOUS
70
0
71
3
72
8
73
4
74
2
42
0.0000001000
43
0.0000001000
44
0.0000000001
12
0.0963053773
22
-0.0695939166
32
0.0000000000
13
0.0959050058
23
-0.0701368377
33
0.0000000000
40
0.0000000000
40
0.0000000000
40
0.0000000000
40
0.0000000000
40
1.0000000000
40
1.0000000000
40
1.0000000000
40
1.0000000000
10
182.4940618707
20
57.6846793507
30
0.0000000000
10
182.5261636631
20
57.6614813785
30
0.0000000000
10
182.5581987936
20
57.6381923527
30
0.0000000000
10
182.5901671289
20
57.6148134068
30
0.0000000000
11
182.4940618707
21
57.6846793507
31
0.0000000000
11
182.5901671289
21
57.6148134068
31
0.0000000000
0
SPLINE
5
4CE
100
AcDbEntity
8
0
100
AcDbSpline
62
9
6
CONTINUOUS
70
0
71
3
72
9
73
5
74
3
42
0.0000001000
43
0.0000001000
44
0.0000000001
12
-1.7198933979
22
-0.9959461085
32
0.0000000000
13
-1.6109257182
23
-1.1641159947
33
0.0000000000
40
0.0000000000
40
0.0000000000
40
0.0000000000
40
0.0000000000
40
0.5246613073
40
1.0000000000
40
1.0000000000
40
1.0000000000
40
1.0000000000
10
156.3523427876
20
58.7671654536
30
0.0000000000
10
156.0515556147
20
58.5929873245
30
0.0000000000
10
155.4873588020
20
58.2450576344
30
0.0000000000
10
154.9415174954
20
57.8691291424
30
0.0000000000
10
154.6862723871
20
57.6846793507
30
0.0000000000
11
156.3523427876
21
58.7671654536
31
0.0000000000
11
155.4645838509
21
58.2201896166
31
0.0000000000
11
154.6862723871
21
57.6846793507
31
0.0000000000
0
SPLINE
5
4CF
100
AcDbEntity
8
0
100
AcDbSpline
62
9
6
CONTINUOUS
70
0
71
3
72
8
73
4
74
2
42
0.0000001000
43
0.0000001000
44
0.0000000001
12
-0.0963053773
22
-0.0695939166
32
0.0000000000
13
-0.0959050058
23
-0.0701368377
33
0.0000000000
40
0.0000000000
40
0.0000000000
40
0.0000000000
40
0.0000000000
40
1.0000000000
40
1.0000000000
40
1.0000000000
40
1.0000000000
10
154.6862723871
20
57.6846793507
30
0.0000000000
10
154.6541705946
20
57.6614813785
30
0.0000000000
10
154.6221354641
20
57.6381923527
30
0.0000000000
10
154.5901671289
20
57.6148134068
30
0.0000000000
11
154.6862723871
21
57.6846793507
31
0.0000000000
11
154.5901671289
21
57.6148134068
31
0.0000000000
0
SPLINE
5
4D0
100
AcDbEntity
8
0
100
AcDbSpline
62
7
6
CONTINUOUS
70
0
71
3
72
9
73
5
74
3
42
0.0000001000
43
0.0000001000
44
0.0000000001
12
-1.8031325790
22
-0.8680775669
32
0.0000000000
13
-1.7198676924
23
-1.0231817435
33
0.0000000000
40
0.0000000000
40
0.0000000000
40
0.0000000000
40
0.0000000000
40
0.4921810565
40
1.0000000000
40
1.0000000000
40
1.0000000000
40
1.0000000000
10
156.3523427876
20
58.7671654536
30
0.0000000000
10
156.0565202217
20
58.6247483422
30
0.0000000000
10
155.4619487790
20
58.3217695602
30
0.0000000000
10
154.8812942604
20
57.9929213260
30
0.0000000000
10
154.5901671289
20
57.8197243020
30
0.0000000000
11
156.3523427876
21
58.7671654536
31
0.0000000000
11
155.4746178863
21
58.3202408354
31
0.0000000000
11
154.5901671289
21
57.8197243020
31
0.0000000000
0
SPLINE
5
4D1
100
AcDbEntity
8
0
100
AcDbSpline
62
7
6
CONTINUOUS
70
0
71
3
72
12
73
8
74
6
42
0.0000001000
43
0.0000001000
44
0.0000000001
12
-12.2828448529
22
2.5819580303
32
0.0000000000
13
-11.3089685218
23
-5.4444481746
33
0.0000000000
40
0.0000000000
40
0.0000000000
40
0.0000000000
40
0.0000000000
40
0.1986286646
40
0.3917250690
40
0.5853790373
40
0.7858271531
40
1.0000000000
40
1.0000000000
40
1.0000000000
40
1.0000000000
10
168.5901671289
20
60.2702701297
30
0.0000000000
10
167.7769254388
20
60.4412204216
30
0.0000000000
10
166.1502405711
20
60.6799955643
30
0.0000000000
10
163.6949009431
20
60.7203625296
30
0.0000000000
10
161.2472079530
20
60.4370231527
30
0.0000000000
10
158.7737528979
20
59.8082366378
30
0.0000000000
10
157.1597007822
20
59.1558497753
30
0.0000000000
10
156.3523427876
20
58.7671654536
30
0.0000000000
11
168.5901671289
21
60.2702701297
31
0.0000000000
11
166.1230546870
21
60.6289212673
31
0.0000000000
11
163.6997480643
21
60.6671558498
31
0.0000000000
11
161.2852426756
21
60.3878511952
31
0.0000000000
11
158.8463762448
21
59.7701205945
31
0.0000000000
11
156.3523427876
21
58.7671654536
31
0.0000000000
0
SPLINE
5
4D2
100
AcDbEntity
8
0
100
AcDbSpline
62
7
6
CONTINUOUS
70
0
71
3
72
14
73
10
74
8
42
0.0000001000
43
0.0000001000
44
0.0000000001
12
-10.4868779371
22
-1.1022152859
32
0.0000000000
13
0.0000000000
23
-10.5446425925
33
0.0000000000
40
0.0000000000
40
0.0000000000
40
0.0000000000
40
0.0000000000
40
0.1441836878
40
0.2880404537
40
0.4314078421
40
0.5742170949
40
0.7164963975
40
0.8583614691
40
1.0000000000
40
1.0000000000
40
1.0000000000
40
1.0000000000
10
168.5901671289
20
48.7600160919
30
0.0000000000
10
168.0861548840
20
48.7070422703
30
0.0000000000
10
167.0872337444
20
48.4948158717
30
0.0000000000
10
165.6924574146
20
47.8733284321
30
0.0000000000
10
164.4607489463
20
46.9779772847
30
0.0000000000
10
163.4460679141
20
45.8503235513
30
0.0000000000
10
162.6905974416
20
44.5407907191
30
0.0000000000
10
162.2250396696
20
43.1074704100
30
0.0000000000
10
162.1201892102
20
42.1078586538
30
0.0000000000
10
162.1201892102
20
41.6100160919
30
0.0000000000
11
168.5901671289
21
48.7600160919
31
0.0000000000
11
167.1030541863
21
48.4437784999
31
0.0000000000
11
165.7174522743
21
47.8264065627
31
0.0000000000
11
164.4947739591
21
46.9373229925
31
0.0000000000
11
163.4876482534
21
45.8177918904
31
0.0000000000
11
162.7380269906
21
44.5182068695
31
0.0000000000
11
162.2761581765
21
43.0953775394
31
0.0000000000
11
162.1201892102
21
41.6100160919
31
0.0000000000
0
SPLINE
5
4D3
100
AcDbEntity
8
0
100
AcDbSpline
62
7
6
CONTINUOUS
70
0
71
3
72
10
73
6
74
4
42
0.0000001000
43
0.0000001000
44
0.0000000001
12
-5.3829832466
22
-0.6742635994
32
0.0000000000
13
-4.7589377519
23
2.6045443956
33
0.0000000000
40
0.0000000000
40
0.0000000000
40
0.0000000000
40
0.0000000000
40
0.3338271887
40
0.6673705291
40
1.0000000000
40
1.0000000000
40
1.0000000000
40
1.0000000000
10
168.5901671289
20
32.8600160919
30
0.0000000000
10
167.9911717408
20
32.7849869179
30
0.0000000000
10
166.7741044778
20
32.7601021489
30
0.0000000000
10
164.9859280806
20
33.1002756988
30
0.0000000000
10
163.8650339691
20
33.5694753877
30
0.0000000000
10
163.3373796535
20
33.8582581291
30
0.0000000000
11
168.5901671289
21
32.8600160919
31
0.0000000000
11
166.7795146283
21
32.8231217899
31
0.0000000000
11
165.0019272977
21
33.1613994086
31
0.0000000000
11
163.3373796535
21
33.8582581291
31
0.0000000000
0
SPLINE
5
4D4
100
AcDbEntity
8
0
100
AcDbSpline
62
7
6
CONTINUOUS
70
0
71
3
72
14
73
10
74
8
42
0.0000001000
43
0.0000001000
44
0.0000000001
12
0.0000000000
22
-10.5446425991
32
0.0000000000
13
10.4868779437
23
-1.1022152866
33
0.0000000000
40
0.0000000000
40
0.0000000000
40
0.0000000000
40
0.0000000000
40
0.1416458109
40
0.2835145685
40
0.4257943064
40
0.5686012721
40
0.7119647068
40
0.8558160008
40
1.0000000000
40
1.0000000000
40
1.0000000000
40
1.0000000000
10
162.1201892102
20
41.6100160919
30
0.0000000000
10
162.1201892102
20
41.1121479412
30
0.0000000000
10
162.2250492094
20
40.1124971594
30
0.0000000000
10
162.6906390212
20
38.6791442910
30
0.0000000000
10
163.4461344177
20
37.3696182543
30
0.0000000000
10
164.4608184792
20
36.2419954088
30
0.0000000000
10
165.6925022994
20
35.3466819017
30
0.0000000000
10
167.0872504894
20
34.7252128993
30
0.0000000000
10
168.0861537951
20
34.5129900279
30
0.0000000000
10
168.5901671289
20
34.4600160919
30
0.0000000000
11
162.1201892102
21
41.6100160919
31
0.0000000000
11
162.2761742083
21
40.1245791395
31
0.0000000000
11
162.7380742398
21
38.7017190781
31
0.0000000000
11
163.4877192589
21
37.4021424609
31
0.0000000000
11
164.4948457399
21
36.2826444941
31
0.0000000000
11
165.7174996470
21
35.3935982445
31
0.0000000000
11
167.1030510454
21
34.7762547052
31
0.0000000000
11
168.5901671289
21
34.4600160919
31
0.0000000000
0
SPLINE
5
4D5
100
AcDbEntity
8
0
100
AcDbSpline
62
9
6
CONTINUOUS
70
0
71
3
72
13
73
9
74
7
42
0.0000001000
43
0.0000001000
44
0.0000000001
12
-14.4306827223
22
-3.6127914917
32
0.0000000000
13
-11.7454128153
23
9.1291918587
33
0.0000000000
40
0.0000000000
40
0.0000000000
40
0.0000000000
40
0.0000000000
40
0.1557840469
40
0.3104560124
40
0.4651629754
40
0.6265291920
40
0.8033284392
40
1.0000000000
40
1.0000000000
40
1.0000000000
40
1.0000000000
10
168.5901671289
20
142.4036622567
30
0.0000000000
10
167.8408104109
20
142.2160571636
30
0.0000000000
10
166.3194514684
20
141.9437512980
30
0.0000000000
10
164.0055180451
20
141.8738979800
30
0.0000000000
10
161.6795765527
20
142.1604510478
30
0.0000000000
10
159.3198254932
20
142.8332852360
30
0.0000000000
10
156.9041613162
20
143.9533603729
30
0.0000000000
10
155.3601633523
20
144.9913220812
30
0.0000000000
10
154.5901671289
20
145.5898062183
30
0.0000000000
11
168.5901671289
21
142.4036622567
31
0.0000000000
11
166.3082127522
21
141.9996020154
31
0.0000000000
11
164.0082809967
21
141.9325862441
31
0.0000000000
11
161.7240826226
21
142.2136753194
31
0.0000000000
11
159.4145912193
21
142.8683591515
31
0.0000000000
11
157.0259267820
21
143.9690743062
31
0.0000000000
11
154.5901671289
21
145.5898062183
31
0.0000000000
0
SPLINE
5
4D6
100
AcDbEntity
8
0
100
AcDbSpline
62
9
6
CONTINUOUS
70
0
71
3
72
13
73
9
74
7
42
0.0000001000
43
0.0000001000
44
0.0000000001
12
-14.1688823597
22
-2.4360801859
32
0.0000000000
13
-12.9010947072
23
6.3445621874
33
0.0000000000
40
0.0000000000
40
0.0000000000
40
0.0000000000
40
0.0000000000
40
0.1612579815
40
0.3220140725
40
0.4825221597
40
0.6459281987
40
0.8170122329
40
1.0000000000
40
1.0000000000
40
1.0000000000
40
1.0000000000
10
168.5901671289
20
139.2749148418
30
0.0000000000
10
167.8285520055
20
139.1439690506
30
0.0000000000
10
166.2939124732
20
138.9564875781
30
0.0000000000
10
163.9784658569
20
138.9021173674
30
0.0000000000
10
161.6589110289
20
139.0863333692
30
0.0000000000
10
159.3222967508
20
139.5200940353
30
0.0000000000
10
156.9418165596
20
140.2319215901
30
0.0000000000
10
155.3770813002
20
140.8992164191
30
0.0000000000
10
154.5901671289
20
141.2862088418
30
0.0000000000
11
168.5901671289
21
139.2749148418
31
0.0000000000
11
166.2888653972
21
138.9941125856
31
0.0000000000
11
163.9783047059
21
138.9417274415
31
0.0000000000
11
161.6779811111
21
139.1246978555
31
0.0000000000
11
159.3681429443
21
139.5532225112
31
0.0000000000
11
157.0115298375
21
140.2576292058
31
0.0000000000
11
154.5901671289
21
141.2862088418
31
0.0000000000
0
SPLINE
5
4D7
100
AcDbEntity
8
0
100
AcDbSpline
62
7
6
CONTINUOUS
70
0
71
3
72
10
73
6
74
4
42
0.0000001000
43
0.0000001000
44
0.0000000001
12
-5.3829832466
22
0.6742635994
32
0.0000000000
13
-4.7589377519
23
-2.6045443956
33
0.0000000000
40
0.0000000000
40
0.0000000000
40
0.0000000000
40
0.0000000000
40
0.3338271887
40
0.6673705291
40
1.0000000000
40
1.0000000000
40
1.0000000000
40
1.0000000000
10
168.5901671289
20
168.3600160919
30
0.0000000000
10
167.9911717408
20
168.4350452658
30
0.0000000000
10
166.7741044778
20
168.4599300348
30
0.0000000000
10
164.9859280806
20
168.1197564849
30
0.0000000000
10
163.8650339691
20
167.6505567960
30
0.0000000000
10
163.3373796535
20
167.3617740546
30
0.0000000000
11
168.5901671289
21
168.3600160919
31
0.0000000000
11
166.7795146283
21
168.3969103938
31
0.0000000000
11
165.0019272977
21
168.0586327751
31
0.0000000000
11
163.3373796535
21
167.3617740546
31
0.0000000000
0
SPLINE
5
4D8
100
AcDbEntity
8
0
100
AcDbSpline
62
7
6
CONTINUOUS
70
0
71
3
72
10
73
6
74
4
42
0.0000001000
43
0.0000001000
44
0.0000000001
12
5.3829832466
22
0.6742635994
32
0.0000000000
13
4.7589377519
23
-2.6045443956
33
0.0000000000
40
0.0000000000
40
0.0000000000
40
0.0000000000
40
0.0000000000
40
0.3338271887
40
0.6673705291
40
1.0000000000
40
1.0000000000
40
1.0000000000
40
1.0000000000
10
168.5901671289
20
168.3600160919
30
0.0000000000
10
169.1891625170
20
168.4350452658
30
0.0000000000
10
170.4062297799
20
168.4599300348
30
0.0000000000
10
172.1944061771
20
168.1197564849
30
0.0000000000
10
173.3153002887
20
167.6505567960
30
0.0000000000
10
173.8429546042
20
167.3617740546
30
0.0000000000
11
168.5901671289
21
168.3600160919
31
0.0000000000
11
170.4008196294
21
168.3969103938
31
0.0000000000
11
172.1784069600
21
168.0586327751
31
0.0000000000
11
173.8429546042
21
167.3617740546
31
0.0000000000
0
SPLINE
5
4D9
100
AcDbEntity
8
0
100
AcDbSpline
62
7
6
CONTINUOUS
70
0
71
3
72
14
73
10
74
8
42
0.0000001000
43
0.0000001000
44
0.0000000001
12
0.0000421192
22
3.1272963430
32
0.0000000000
13
-0.0007402090
23
3.1272962557
33
0.0000000000
40
0.0000000000
40
0.0000000000
40
0.0000000000
40
0.0000000000
40
0.1493758063
40
0.2980015898
40
0.4449372357
40
0.5893631560
40
0.7305139583
40
0.8676517672
40
1.0000000000
40
1.0000000000
40
1.0000000000
40
1.0000000000
10
168.5901658672
20
139.2767069426
30
0.0000000000
10
168.5901679644
20
139.4324210802
30
0.0000000000
10
168.5901667697
20
139.7430675076
30
0.0000000000
10
168.5901671380
20
140.2068843710
30
0.0000000000
10
168.5901674402
20
140.6655413143
30
0.0000000000
10
168.5901659101
20
141.1164060969
30
0.0000000000
10
168.5901715350
20
141.5570573004
30
0.0000000000
10
168.5901514206
20
141.9851183316
30
0.0000000000
10
168.5901997840
20
142.2660392416
30
0.0000000000
10
168.5901671289
20
142.4040032858
30
0.0000000000
11
168.5901658672
21
139.2767069426
31
0.0000000000
11
168.5901671289
21
139.7438493553
31
0.0000000000
11
168.5901671289
21
140.2086462248
31
0.0000000000
11
168.5901671289
21
140.6681575328
31
0.0000000000
11
168.5901671289
21
141.1198201852
31
0.0000000000
11
168.5901671289
21
141.5612405732
31
0.0000000000
11
168.5901671289
21
141.9901111414
31
0.0000000000
11
168.5901671289
21
142.4040032858
31
0.0000000000
0
SPLINE
5
4DA
100
AcDbEntity
8
0
100
AcDbSpline
62
9
6
CONTINUOUS
70
0
71
3
72
13
73
9
74
7
42
0.0000001000
43
0.0000001000
44
0.0000000001
12
14.4306827223
22
-3.6127914917
32
0.0000000000
13
11.7454128153
23
9.1291918587
33
0.0000000000
40
0.0000000000
40
0.0000000000
40
0.0000000000
40
0.0000000000
40
0.1557840469
40
0.3104560124
40
0.4651629754
40
0.6265291920
40
0.8033284392
40
1.0000000000
40
1.0000000000
40
1.0000000000
40
1.0000000000
10
168.5901671289
20
142.4036622567
30
0.0000000000
10
169.3395238469
20
142.2160571636
30
0.0000000000
10
170.8608827893
20
141.9437512980
30
0.0000000000
10
173.1748162126
20
141.8738979800
30
0.0000000000
10
175.5007577050
20
142.1604510478
30
0.0000000000
10
177.8605087645
20
142.8332852360
30
0.0000000000
10
180.2761729416
20
143.9533603729
30
0.0000000000
10
181.8201709054
20
144.9913220812
30
0.0000000000
10
182.5901671289
20
145.5898062183
30
0.0000000000
11
168.5901671289
21
142.4036622567
31
0.0000000000
11
170.8721215056
21
141.9996020154
31
0.0000000000
11
173.1720532611
21
141.9325862441
31
0.0000000000
11
175.4562516352
21
142.2136753194
31
0.0000000000
11
177.7657430384
21
142.8683591515
31
0.0000000000
11
180.1544074758
21
143.9690743062
31
0.0000000000
11
182.5901671289
21
145.5898062183
31
0.0000000000
0
SPLINE
5
4DB
100
AcDbEntity
8
0
100
AcDbSpline
62
9
6
CONTINUOUS
70
0
71
3
72
13
73
9
74
7
42
0.0000001000
43
0.0000001000
44
0.0000000001
12
14.1688823597
22
-2.4360801858
32
0.0000000000
13
12.9010947072
23
6.3445621874
33
0.0000000000
40
0.0000000000
40
0.0000000000
40
0.0000000000
40
0.0000000000
40
0.1612579815
40
0.3220140725
40
0.4825221597
40
0.6459281987
40
0.8170122329
40
1.0000000000
40
1.0000000000
40
1.0000000000
40
1.0000000000
10
168.5901671289
20
139.2749148418
30
0.0000000000
10
169.3517822522
20
139.1439690506
30
0.0000000000
10
170.8864217846
20
138.9564875781
30
0.0000000000
10
173.2018684009
20
138.9021173674
30
0.0000000000
10
175.5214232289
20
139.0863333692
30
0.0000000000
10
177.8580375069
20
139.5200940353
30
0.0000000000
10
180.2385176981
20
140.2319215901
30
0.0000000000
10
181.8032529575
20
140.8992164191
30
0.0000000000
10
182.5901671289
20
141.2862088418
30
0.0000000000
11
168.5901671289
21
139.2749148418
31
0.0000000000
11
170.8914688605
21
138.9941125856
31
0.0000000000
11
173.2020295519
21
138.9417274415
31
0.0000000000
11
175.5023531466
21
139.1246978555
31
0.0000000000
11
177.8121913134
21
139.5532225112
31
0.0000000000
11
180.1688044202
21
140.2576292058
31
0.0000000000
11
182.5901671289
21
141.2862088418
31
0.0000000000
0
ENDSEC
0
SECTION
2
OBJECTS
0
DICTIONARY
5
4DC
100
AcDbDictionary
3
ACAD_GROUP
350
4DD
3
ACAD_MLINESTYLE
350
4DE
0
DICTIONARY
5
4DD
102
{ACAD_REACTORS
330
4DC
102
}
100
AcDbDictionary
0
DICTIONARY
5
4DE
102
{ACAD_REACTORS
330
4DC
102
}
100
AcDbDictionary
3
STANDARD
350
4DF
0
MLINESTYLE
5
4DF
102
{ACAD_REACTORS
330
4DE
102
}
100
AcDbMlineStyle
2
STANDARD
70
0
3

62
256
51
90.0
52
90.0
71
2
49
0.5
62
256
6
BYLAYER
49
-0.5
62
256
6
BYLAYER
0
ENDSEC
0
EOF
