999
DXF file: 2715_MA_2uw-pp-4.dxf
999
Pro/ENGINEER 2010140 by Parametric Technology Corporation
  0
SECTION
  2
HEADER
  9
$ACADVER
  1
AC1021
  9
$DWGCODEPAGE
  3
ANSI_1252
  9
$EXTMAX
 10
297.0
 20
210.0
 30
0.0
  9
$EXTMIN
 10
0.0
 20
0.0
 30
0.0
  9
$LIMMIN
 10
0.0
 20
0.0
  9
$LIMMAX
 10
297.0
 20
210.0
  9
$VIEWCTR
 10
148.5
 20
105.0
  9
$VIEWSIZE
 40
210.0
  9
$CLAYER
  8
0
  9
$LTSCALE
 40
16.335
  9
$CELTYPE
  6
BYLAYER
  9
$DIMSCALE
 40
1.0
  9
$DIMASZ
 40
3.5
  9
$DIMEXO
 40
1.85625
  9
$DIMDLI
 40
11.286
  9
$DIMEXE
 40
5.346
  9
$DIMCEN
 40
2.673
  9
$DIMLFAC
 40
1.0
  9
$DIMBLK
  1
_FILLED
  9
$DIMTXT
 40
3.5
  9
$DIMTOL
 70
1
  9
$DIMLIM
 70
0
  9
$DIMTFAC
 40
1.0
  9
$DIMTP
 40
0.005
  9
$DIMTM
 40
0.005
  9
$PDMODE
 70
3
  9
$PDSIZE
 40
0.3125
  9
$HANDSEED
  5
55B
  9
$TILEMODE
 70
1
  9
$MEASUREMENT
 70
1
  9
$INSUNITS
 70
4
  0
ENDSEC
  0
SECTION
  2
CLASSES
  0
CLASS
  1
ACDBDICTIONARYWDFLT
  2
AcDbDictionaryWithDefault
  3
AutoCAD 2000
 90
0
 91
1
280
0
281
0
  0
CLASS
  1
ACDBPLACEHOLDER
  2
AcDbPlaceHolder
  3
AutoCAD 2000
 90
0
 91
1
280
0
281
0
  0
CLASS
  1
LAYOUT
  2
AcDbLayout
  3
AutoCAD 2000
 90
0
 91
0
280
0
281
0
  0
ENDSEC
  0
SECTION
  2
TABLES
  0
TABLE
  2
VPORT
  5
8
100
AcDbSymbolTable
 70
2
  0
VPORT
  5
1F4
100
AcDbSymbolTableRecord
100
AcDbViewportTableRecord
  2
*ACTIVE
 70
0
 10
0.0
 20
0.0
 11
1.0
 21
1.0
 12
148.5
 22
105.0
 13
0.0
 23
0.0
 14
1.0
 24
1.0
 15
0.0
 25
0.0
 16
0.0
 26
0.0
 36
1.0
 17
0.0
 27
0.0
 37
0.0
 40
210.0
 41
1.4142857143
 42
50.0
 43
0.0
 44
0.0
 50
0.0
 51
0.0
 71
0
 72
100
 73
1
 74
1
 75
0
 76
0
 77
0
 78
0
  0
ENDTAB
  0
TABLE
  2
LTYPE
  5
5
100
AcDbSymbolTable
 70
6
  0
LTYPE
  5
14
100
AcDbSymbolTableRecord
100
AcDbLinetypeTableRecord
  2
BYBLOCK
 70
0
  3

 72
65
 73
0
 40
0.0
  0
LTYPE
  5
15
100
AcDbSymbolTableRecord
100
AcDbLinetypeTableRecord
  2
BYLAYER
 70
0
  3

 72
65
 73
0
 40
0.0
  0
LTYPE
  5
16
100
AcDbSymbolTableRecord
100
AcDbLinetypeTableRecord
  2
CONTINUOUS
 70
64
  3
Solid line
 72
65
 73
0
 40
0.0
  0
LTYPE
  5
1F5
100
AcDbSymbolTableRecord
100
AcDbLinetypeTableRecord
  2
CENTER
 70
64
  3
____ _ ____ _ ____ _ ____ _ ____ _ ____ _ ____
 72
65
 73
4
 40
0.6
 49
0.375
 74
0
 49
-0.075
 74
0
 49
0.075
 74
0
 49
-0.075
 74
0
  0
LTYPE
  5
1F6
100
AcDbSymbolTableRecord
100
AcDbLinetypeTableRecord
  2
HIDDEN
 70
64
  3
- - - - - - - - - - - - - - - - - - - -
 72
65
 73
2
 40
0.2
 49
0.1
 74
0
 49
-0.1
 74
0
  0
LTYPE
  5
1F7
100
AcDbSymbolTableRecord
100
AcDbLinetypeTableRecord
  2
PHANTOM
 70
64
  3
_____ _ _ _____ _ _ _____ _ _ _____
 72
65
 73
6
 40
0.8
 49
0.45
 74
0
 49
-0.05
 74
0
 49
0.1
 74
0
 49
-0.05
 74
0
 49
0.1
 74
0
 49
-0.05
 74
0
  0
LTYPE
  5
1F8
100
AcDbSymbolTableRecord
100
AcDbLinetypeTableRecord
  2
DOT
 70
64
  3
. . . . . . . . . . . . . . . . . . . .
 72
65
 73
2
 40
0.2
 49
0.1
 74
0
 49
-0.1
 74
0
  0
LTYPE
  5
1F9
100
AcDbSymbolTableRecord
100
AcDbLinetypeTableRecord
  2
DASHED
 70
64
  3
- - - - - - - - - - - - - - - - - - - -
 72
65
 73
2
 40
0.2
 49
0.1
 74
0
 49
-0.1
 74
0
  0
ENDTAB
  0
TABLE
  2
LAYER
  5
2
100
AcDbSymbolTable
 70
36
  0
LAYER
  5
10
100
AcDbSymbolTableRecord
100
AcDbLayerTableRecord
  2
0
 70
0
 62
7
  6
CONTINUOUS
370
-3
390
F
  0
LAYER
  5
1FA
100
AcDbSymbolTableRecord
100
AcDbLayerTableRecord
  2
DEFAULT_1
 70
0
 62
7
  6
CENTER
370
-3
390
F
  0
LAYER
  5
1FB
100
AcDbSymbolTableRecord
100
AcDbLayerTableRecord
  2
DEFAULT_2
 70
0
 62
8
  6
HIDDEN
370
-3
390
F
  0
LAYER
  5
1FC
100
AcDbSymbolTableRecord
100
AcDbLayerTableRecord
  2
DEFAULT_3
 70
0
 62
7
  6
PHANTOM
370
-3
390
F
  0
LAYER
  5
1FD
100
AcDbSymbolTableRecord
100
AcDbLayerTableRecord
  2
BEZUGSACHSEN
 70
0
 62
7
  6
CONTINUOUS
370
-3
390
F
  0
LAYER
  5
1FE
100
AcDbSymbolTableRecord
100
AcDbLayerTableRecord
  2
BEZUGSEBENEN
 70
0
 62
7
  6
CONTINUOUS
370
-3
390
F
  0
LAYER
  5
1FF
100
AcDbSymbolTableRecord
100
AcDbLayerTableRecord
  2
BG_STARTBEZUEGE
 70
0
 62
7
  6
CONTINUOUS
370
-3
390
F
  0
LAYER
  5
200
100
AcDbSymbolTableRecord
100
AcDbLayerTableRecord
  2
FASEN
 70
0
 62
7
  6
CONTINUOUS
370
-3
390
F
  0
LAYER
  5
201
100
AcDbSymbolTableRecord
100
AcDbLayerTableRecord
  2
HILFEN
 70
0
 62
7
  6
CONTINUOUS
370
-3
390
F
  0
LAYER
  5
202
100
AcDbSymbolTableRecord
100
AcDbLayerTableRecord
  2
KONSTRUKTIONSELEMENTE
 70
0
 62
7
  6
CONTINUOUS
370
-3
390
F
  0
LAYER
  5
203
100
AcDbSymbolTableRecord
100
AcDbLayerTableRecord
  2
PLATZIERUNG
 70
0
 62
7
  6
CONTINUOUS
370
-3
390
F
  0
LAYER
  5
204
100
AcDbSymbolTableRecord
100
AcDbLayerTableRecord
  2
RUNDUNGEN
 70
0
 62
7
  6
CONTINUOUS
370
-3
390
F
  0
LAYER
  5
205
100
AcDbSymbolTableRecord
100
AcDbLayerTableRecord
  2
TEIL_STARTBEZUEGE
 70
0
 62
7
  6
CONTINUOUS
370
-3
390
F
  0
LAYER
  5
206
100
AcDbSymbolTableRecord
100
AcDbLayerTableRecord
  2
ZEICHNUNGSBEMASSUNGEN
 70
0
 62
7
  6
CONTINUOUS
370
-3
390
F
  0
ENDTAB
  0
TABLE
  2
STYLE
  5
3
100
AcDbSymbolTable
 70
1
  0
STYLE
  5
11
100
AcDbSymbolTableRecord
100
AcDbTextStyleTableRecord
  2
STANDARD
 70
0
 40
0.0
 41
0.7
 50
0.0
 71
0
 42
0.2
  3
txt
  4

  0
STYLE
  5
207
100
AcDbSymbolTableRecord
100
AcDbTextStyleTableRecord
  2
TEXTSTYLE_1
 70
0
 40
0.0
 41
0.8
 50
0.0
 71
0
 42
0.2
  3
gdt
  4

  0
ENDTAB
  0
TABLE
  2
VIEW
  5
6
100
AcDbSymbolTable
 70
0
  0
ENDTAB
  0
TABLE
  2
UCS
  5
7
100
AcDbSymbolTable
 70
0
  0
ENDTAB
  0
TABLE
  2
APPID
  5
9
100
AcDbSymbolTable
 70
1
  0
APPID
  5
208
100
AcDbSymbolTableRecord
100
AcDbRegAppTableRecord
  2
ACAD
 70
0
  0
ENDTAB
  0
TABLE
  2
BLOCK_RECORD
  5
1
100
AcDbSymbolTable
 70
0
  0
BLOCK_RECORD
  5
209
100
AcDbSymbolTableRecord
100
AcDbBlockTableRecord
  2
*Model_Space
  0
BLOCK_RECORD
  5
20A
100
AcDbSymbolTableRecord
100
AcDbBlockTableRecord
  2
*Paper_Space
  0
ENDTAB
  0
TABLE
  2
DIMSTYLE
  5
A
100
AcDbSymbolTable
 70
1
100
AcDbDimStyleTable
 71
0
  0
DIMSTYLE
105
20B
100
AcDbSymbolTableRecord
100
AcDbDimStyleTableRecord
  2
STANDARD
 70
0
  3

  4

 40
1.0
 41
3.5
 42
0.0625
 43
0.38
 44
0.18
 45
0.0
 46
0.0
 47
0.005
 48
0.005
140
3.5
141
0.09
142
0.0
143
25.4
144
1.0
145
0.0
146
1.0
147
0.09
 71
1.0
 72
0.0
 73
0
 74
0
 75
0
 76
0
 77
1
 78
8
170
0
171
2
172
0
173
0
174
0
175
0
176
0
177
0
178
5
270
2
271
3
272
3
273
2
274
2
275
0
280
0
281
0
282
0
283
1
284
8
285
0
286
0
287
3
288
0
340
11
  0
ENDTAB
  0
ENDSEC
  0
SECTION
  2
BLOCKS
  0
BLOCK
  5
20
100
AcDbEntity
  8
0
100
AcDbBlockBegin
  2
*Model_Space
 70
0
 10
0.0
 20
0.0
 30
0.0
  3
*Model_Space
  1

  0
ENDBLK
  5
21
100
AcDbEntity
  8
0
100
AcDbBlockEnd
  0
BLOCK
  5
1C
100
AcDbEntity
  8
0
100
AcDbBlockBegin
  2
*Paper_Space
 70
0
 10
0.0
 20
0.0
 30
0.0
  3
*Paper_Space
  1

  0
ENDBLK
  5
1D
100
AcDbEntity
  8
0
100
AcDbBlockEnd
  0
ENDSEC
  0
SECTION
  2
ENTITIES
  0
LINE
  5
20C
100
AcDbEntity
  8
0
100
AcDbLine
 62
7
  6
CONTINUOUS
 10
0.0
 20
0.0
 11
0.0
 21
210.0
  0
LINE
  5
20D
100
AcDbEntity
  8
0
100
AcDbLine
 62
7
  6
CONTINUOUS
 10
0.0
 20
0.0
 11
297.0
 21
0.0
  0
LINE
  5
20E
100
AcDbEntity
  8
0
100
AcDbLine
 62
7
  6
CONTINUOUS
 10
0.0
 20
210.0
 11
297.0
 21
210.0
  0
LINE
  5
20F
100
AcDbEntity
  8
0
100
AcDbLine
 62
7
  6
CONTINUOUS
 10
297.0
 20
0.0
 11
297.0
 21
210.0
  0
LINE
  5
210
100
AcDbEntity
  8
BEZUGSACHSEN
100
AcDbLine
 62
7
  6
CONTINUOUS
 10
55.5418145582
 20
177.2647429121
 11
52.3251127846
 21
175.7647702411
  0
LINE
  5
211
100
AcDbEntity
  8
BEZUGSACHSEN
100
AcDbLine
 62
7
  6
CONTINUOUS
 10
55.516271136
 20
105.2767086635
 11
52.3251127846
 21
106.7647702411
  0
LINE
  5
212
100
AcDbEntity
  8
KONSTRUKTIONSELEMENTE
100
AcDbLine
 62
7
  6
CONTINUOUS
 10
74.127064676
 20
105.2647702411
 11
67.2251127846
 21
105.2647702411
  0
LINE
  5
213
100
AcDbEntity
  8
KONSTRUKTIONSELEMENTE
100
AcDbLine
 62
7
  6
CONTINUOUS
 10
62.4251127846
 20
105.2647702411
 11
55.5233198074
 21
105.2647702411
  0
LINE
  5
214
100
AcDbEntity
  8
KONSTRUKTIONSELEMENTE
100
AcDbLine
 62
7
  6
CONTINUOUS
 10
52.3251127846
 20
106.7647702411
 11
52.9089887601
 21
106.7647702411
  0
LINE
  5
215
100
AcDbEntity
  8
KONSTRUKTIONSELEMENTE
100
AcDbLine
 62
7
  6
CONTINUOUS
 10
76.7412368092
 20
106.7647702411
 11
77.3251127846
 21
106.7647702411
  0
LINE
  5
216
100
AcDbEntity
  8
BEZUGSACHSEN
100
AcDbLine
 62
7
  6
CONTINUOUS
 10
67.2251127846
 20
108.2647702411
 11
62.4251127846
 21
108.2647702411
  0
LINE
  5
217
100
AcDbEntity
  8
KONSTRUKTIONSELEMENTE
100
AcDbLine
 62
7
  6
CONTINUOUS
 10
54.1480345326
 20
109.2647702411
 11
62.4251127846
 21
109.2647702411
  0
LINE
  5
218
100
AcDbEntity
  8
KONSTRUKTIONSELEMENTE
100
AcDbLine
 62
7
  6
CONTINUOUS
 10
67.2251127846
 20
109.2647702411
 11
75.5021910367
 21
109.2647702411
  0
LINE
  5
219
100
AcDbEntity
  8
BEZUGSACHSEN
100
AcDbLine
 62
2
  6
CENTER
 10
72.5251127846
 20
110.7647702411
 11
51.3384080347
 21
110.7647702411
  0
LINE
  5
21A
100
AcDbEntity
  8
BEZUGSACHSEN
100
AcDbLine
 62
2
  6
CENTER
 10
72.5251127846
 20
110.7647702411
 11
78.3583720682
 21
110.7647702411
  0
LINE
  5
21B
100
AcDbEntity
  8
BEZUGSACHSEN
100
AcDbLine
 62
7
  6
CONTINUOUS
 10
67.2251127846
 20
113.2647702411
 11
62.4251127846
 21
113.2647702411
  0
LINE
  5
21C
100
AcDbEntity
  8
BEZUGSACHSEN
100
AcDbLine
 62
7
  6
CONTINUOUS
 10
52.3251127846
 20
166.2647702411
 11
48.8251127846
 21
162.093632667
  0
LINE
  5
21D
100
AcDbEntity
  8
KONSTRUKTIONSELEMENTE
100
AcDbLine
 62
7
  6
CONTINUOUS
 10
52.3251127846
 20
116.2647702411
 11
54.1480345326
 21
116.2647702411
  0
LINE
  5
21E
100
AcDbEntity
  8
KONSTRUKTIONSELEMENTE
100
AcDbLine
 62
7
  6
CONTINUOUS
 10
75.5021910367
 20
116.2647702411
 11
77.3251127846
 21
116.2647702411
  0
LINE
  5
21F
100
AcDbEntity
  8
BEZUGSACHSEN
100
AcDbLine
 62
7
  6
CONTINUOUS
 10
52.3251127846
 20
116.2647702411
 11
48.8251127846
 21
120.4359078152
  0
LINE
  5
220
100
AcDbEntity
  8
KONSTRUKTIONSELEMENTE
100
AcDbLine
 62
7
  6
CONTINUOUS
 10
48.8251127846
 20
120.4359078152
 11
50.2049212674
 21
120.4359078152
  0
LINE
  5
221
100
AcDbEntity
  8
KONSTRUKTIONSELEMENTE
100
AcDbLine
 62
7
  6
CONTINUOUS
 10
79.4453043019
 20
120.4359078152
 11
80.8251127846
 21
120.4359078152
  0
LINE
  5
222
100
AcDbEntity
  8
BEZUGSACHSEN
100
AcDbLine
 62
7
  6
CONTINUOUS
 10
48.8251127846
 20
162.093632667
 11
48.8251127846
 21
136.2647702411
  0
LINE
  5
223
100
AcDbEntity
  8
BEZUGSACHSEN
100
AcDbLine
 62
7
  6
CONTINUOUS
 10
48.8251127846
 20
120.4359078152
 11
48.8251127846
 21
133.2647702411
  0
LINE
  5
224
100
AcDbEntity
  8
KONSTRUKTIONSELEMENTE
100
AcDbLine
 62
7
  6
CONTINUOUS
 10
50.2049212674
 20
162.093632667
 11
50.2049212674
 21
159.2647702411
  0
LINE
  5
225
100
AcDbEntity
  8
KONSTRUKTIONSELEMENTE
100
AcDbLine
 62
7
  6
CONTINUOUS
 10
50.2049212674
 20
120.4359078152
 11
50.2049212674
 21
123.2647702411
  0
LINE
  5
226
100
AcDbEntity
  8
BEZUGSACHSEN
100
AcDbLine
 62
7
  6
CONTINUOUS
 10
50.5751127846
 20
133.2647702411
 11
50.5751127846
 21
136.2647702411
  0
LINE
  5
227
100
AcDbEntity
  8
KONSTRUKTIONSELEMENTE
100
AcDbLine
 62
7
  6
CONTINUOUS
 10
76.8978092523
 20
127.2647702411
 11
52.752416317
 21
127.2647702411
  0
LINE
  5
228
100
AcDbEntity
  8
BEZUGSACHSEN
100
AcDbLine
 62
7
  6
CONTINUOUS
 10
52.3251127846
 20
175.7647702411
 11
52.3251127846
 21
174.2645350448
  0
LINE
  5
229
100
AcDbEntity
  8
BEZUGSACHSEN
100
AcDbLine
 62
7
  6
CONTINUOUS
 10
52.3251127846
 20
169.2650060233
 11
52.3251127846
 21
166.2647702411
  0
LINE
  5
22A
100
AcDbEntity
  8
BEZUGSACHSEN
100
AcDbLine
 62
7
  6
CONTINUOUS
 10
52.3251127846
 20
106.7647702411
 11
52.3251127846
 21
108.2649986099
  0
LINE
  5
22B
100
AcDbEntity
  8
BEZUGSACHSEN
100
AcDbLine
 62
7
  6
CONTINUOUS
 10
52.3251127846
 20
113.2645418723
 11
52.3251127846
 21
116.2647702411
  0
LINE
  5
22C
100
AcDbEntity
  8
KONSTRUKTIONSELEMENTE
100
AcDbLine
 62
7
  6
CONTINUOUS
 10
54.1480345326
 20
173.2647702411
 11
54.1480345326
 21
166.2647702411
  0
LINE
  5
22D
100
AcDbEntity
  8
KONSTRUKTIONSELEMENTE
100
AcDbLine
 62
7
  6
CONTINUOUS
 10
54.1480345326
 20
109.2647702411
 11
54.1480345326
 21
116.2647702411
  0
LINE
  5
22E
100
AcDbEntity
  8
KONSTRUKTIONSELEMENTE
100
AcDbLine
 62
7
  6
CONTINUOUS
 10
56.3251127846
 20
147.2647702411
 11
56.3251127846
 21
143.7647702411
  0
LINE
  5
22F
100
AcDbEntity
  8
KONSTRUKTIONSELEMENTE
100
AcDbLine
 62
7
  6
CONTINUOUS
 10
56.6807261355
 20
146.89242986
 11
56.6807261355
 21
145.7754085079
  0
LINE
  5
230
100
AcDbEntity
  8
KONSTRUKTIONSELEMENTE
100
AcDbLine
 62
7
  6
CONTINUOUS
 10
56.6807261355
 20
145.3286000506
 11
56.6807261355
 21
143.7647702411
  0
LINE
  5
231
100
AcDbEntity
  8
BEZUGSACHSEN
100
AcDbLine
 62
2
  6
CENTER
 10
57.1251127846
 20
171.7647702411
 11
57.1251127846
 21
167.5147702411
  0
LINE
  5
232
100
AcDbEntity
  8
BEZUGSACHSEN
100
AcDbLine
 62
2
  6
CENTER
 10
57.1251127846
 20
171.7647702411
 11
57.1251127846
 21
176.0147702411
  0
LINE
  5
233
100
AcDbEntity
  8
KONSTRUKTIONSELEMENTE
100
AcDbLine
 62
7
  6
CONTINUOUS
 10
58.162448374
 20
146.2222169653
 11
58.1031795388
 21
145.9988127366
  0
LINE
  5
234
100
AcDbEntity
  8
KONSTRUKTIONSELEMENTE
100
AcDbLine
 62
7
  6
CONTINUOUS
 10
58.4587928896
 20
145.9243446604
 11
58.2809862142
 21
145.6264723555
  0
LINE
  5
235
100
AcDbEntity
  8
KONSTRUKTIONSELEMENTE
100
AcDbLine
 62
7
  6
CONTINUOUS
 10
58.1031795388
 20
145.9988127366
 11
57.9846416986
 21
145.8498765842
  0
LINE
  5
236
100
AcDbEntity
  8
KONSTRUKTIONSELEMENTE
100
AcDbLine
 62
7
  6
CONTINUOUS
 10
62.5126127846
 20
150.9988127366
 11
62.3667793818
 21
150.8498765842
  0
LINE
  5
237
100
AcDbEntity
  8
KONSTRUKTIONSELEMENTE
100
AcDbLine
 62
7
  6
CONTINUOUS
 10
58.2809862142
 20
145.6264723555
 11
58.0439107035
 21
145.4030681268
  0
LINE
  5
238
100
AcDbEntity
  8
KONSTRUKTIONSELEMENTE
100
AcDbLine
 62
7
  6
CONTINUOUS
 10
62.7313627846
 20
150.6264723555
 11
62.4396961875
 21
150.477536203
  0
LINE
  5
239
100
AcDbEntity
  8
KONSTRUKTIONSELEMENTE
100
AcDbLine
 62
7
  6
CONTINUOUS
 10
62.3667793818
 20
150.8498765842
 11
62.1480293818
 21
150.7754085079
  0
LINE
  5
23A
100
AcDbEntity
  8
BEZUGSACHSEN
100
AcDbLine
 62
7
  6
CONTINUOUS
 10
48.8251127846
 20
133.2647702411
 11
80.8251127846
 21
133.2647702411
  0
LINE
  5
23B
100
AcDbEntity
  8
KONSTRUKTIONSELEMENTE
100
AcDbLine
 62
7
  6
CONTINUOUS
 10
58.162448374
 20
146.4456214026
 11
58.162448374
 21
146.2222169653
  0
LINE
  5
23C
100
AcDbEntity
  8
KONSTRUKTIONSELEMENTE
100
AcDbLine
 62
7
  6
CONTINUOUS
 10
58.5180617249
 20
146.4456214026
 11
58.5180617249
 21
146.1477488891
  0
LINE
  5
23D
100
AcDbEntity
  8
KONSTRUKTIONSELEMENTE
100
AcDbLine
 62
7
  6
CONTINUOUS
 10
58.9922129158
 20
147.2647702411
 11
58.9922129158
 21
143.7647702411
  0
LINE
  5
23E
100
AcDbEntity
  8
KONSTRUKTIONSELEMENTE
100
AcDbLine
 62
7
  6
CONTINUOUS
 10
59.3478262666
 20
146.89242986
 11
59.3478262666
 21
145.7754085079
  0
LINE
  5
23F
100
AcDbEntity
  8
KONSTRUKTIONSELEMENTE
100
AcDbLine
 62
7
  6
CONTINUOUS
 10
59.3478262666
 20
145.3286000506
 11
59.3478262666
 21
143.7647702411
  0
LINE
  5
240
100
AcDbEntity
  8
KONSTRUKTIONSELEMENTE
100
AcDbLine
 62
7
  6
CONTINUOUS
 10
58.5180617249
 20
146.1477488891
 11
58.4587928896
 21
145.9243446604
  0
LINE
  5
241
100
AcDbEntity
  8
KONSTRUKTIONSELEMENTE
100
AcDbLine
 62
7
  6
CONTINUOUS
 10
60.8295486748
 20
146.2222169653
 11
60.7702796699
 21
145.9988127366
  0
LINE
  5
242
100
AcDbEntity
  8
KONSTRUKTIONSELEMENTE
100
AcDbLine
 62
7
  6
CONTINUOUS
 10
62.5855293818
 20
151.2222169653
 11
62.5126127846
 21
150.9988127366
  0
LINE
  5
243
100
AcDbEntity
  8
KONSTRUKTIONSELEMENTE
100
AcDbLine
 62
7
  6
CONTINUOUS
 10
61.1258930207
 20
145.9243446604
 11
60.9480863453
 21
145.6264723555
  0
LINE
  5
244
100
AcDbEntity
  8
KONSTRUKTIONSELEMENTE
100
AcDbLine
 62
7
  6
CONTINUOUS
 10
62.9501127846
 20
150.9243446604
 11
62.7313627846
 21
150.6264723555
  0
LINE
  5
245
100
AcDbEntity
  8
KONSTRUKTIONSELEMENTE
100
AcDbLine
 62
7
  6
CONTINUOUS
 10
60.7702796699
 20
145.9988127366
 11
60.6517419994
 21
145.8498765842
  0
LINE
  5
246
100
AcDbEntity
  8
KONSTRUKTIONSELEMENTE
100
AcDbLine
 62
7
  6
CONTINUOUS
 10
60.9480863453
 20
145.6264723555
 11
60.7110106651
 21
145.4030681268
  0
LINE
  5
247
100
AcDbEntity
  8
KONSTRUKTIONSELEMENTE
100
AcDbLine
 62
7
  6
CONTINUOUS
 10
65.6480295904
 20
149.4349830315
 11
65.4292795904
 21
149.2860468269
  0
LINE
  5
248
100
AcDbEntity
  8
KONSTRUKTIONSELEMENTE
100
AcDbLine
 62
7
  6
CONTINUOUS
 10
65.7938627846
 20
148.9881744959
 11
65.5021959789
 21
148.8392383239
  0
LINE
  5
249
100
AcDbEntity
  8
KONSTRUKTIONSELEMENTE
100
AcDbLine
 62
7
  6
CONTINUOUS
 10
57.9846416986
 20
145.8498765842
 11
57.8068350232
 21
145.7754085079
  0
LINE
  5
24A
100
AcDbEntity
  8
KONSTRUKTIONSELEMENTE
100
AcDbLine
 62
7
  6
CONTINUOUS
 10
60.6517419994
 20
145.8498765842
 11
60.4739353239
 21
145.7754085079
  0
LINE
  5
24B
100
AcDbEntity
  8
BEZUGSACHSEN
100
AcDbLine
 62
7
  6
CONTINUOUS
 10
80.8251127846
 20
136.2647702411
 11
48.8251127846
 21
136.2647702411
  0
LINE
  5
24C
100
AcDbEntity
  8
KONSTRUKTIONSELEMENTE
100
AcDbLine
 62
7
  6
CONTINUOUS
 10
58.162448374
 20
146.4456214026
 11
58.1031795388
 21
146.6690256313
  0
LINE
  5
24D
100
AcDbEntity
  8
KONSTRUKTIONSELEMENTE
100
AcDbLine
 62
7
  6
CONTINUOUS
 10
60.3251127846
 20
152.2647702411
 11
60.3251127846
 21
148.7647702411
  0
LINE
  5
24E
100
AcDbEntity
  8
KONSTRUKTIONSELEMENTE
100
AcDbLine
 62
7
  6
CONTINUOUS
 10
60.3251127846
 20
140.1796638981
 11
60.3251127846
 21
140.8498765842
  0
LINE
  5
24F
100
AcDbEntity
  8
KONSTRUKTIONSELEMENTE
100
AcDbLine
 62
7
  6
CONTINUOUS
 10
60.6214572366
 20
140.7754085079
 11
60.6214572366
 21
140.2541319743
  0
LINE
  5
250
100
AcDbEntity
  8
KONSTRUKTIONSELEMENTE
100
AcDbLine
 62
7
  6
CONTINUOUS
 10
60.7626127846
 20
151.89242986
 11
60.7626127846
 21
150.7754085079
  0
LINE
  5
251
100
AcDbEntity
  8
KONSTRUKTIONSELEMENTE
100
AcDbLine
 62
7
  6
CONTINUOUS
 10
60.7626127846
 20
150.3286000506
 11
60.7626127846
 21
148.7647702411
  0
LINE
  5
252
100
AcDbEntity
  8
KONSTRUKTIONSELEMENTE
100
AcDbLine
 62
7
  6
CONTINUOUS
 10
60.8295486748
 20
146.4456214026
 11
60.8295486748
 21
146.2222169653
  0
LINE
  5
253
100
AcDbEntity
  8
KONSTRUKTIONSELEMENTE
100
AcDbLine
 62
7
  6
CONTINUOUS
 10
61.1851620256
 20
146.4456214026
 11
61.1851620256
 21
146.1477488891
  0
LINE
  5
254
100
AcDbEntity
  8
KONSTRUKTIONSELEMENTE
100
AcDbLine
 62
7
  6
CONTINUOUS
 10
61.659313047
 20
145.4030681268
 11
61.659313047
 21
145.0307276413
  0
LINE
  5
255
100
AcDbEntity
  8
KONSTRUKTIONSELEMENTE
100
AcDbLine
 62
7
  6
CONTINUOUS
 10
62.162448374
 20
140.7754085079
 11
62.162448374
 21
140.2541319743
  0
LINE
  5
256
100
AcDbEntity
  8
KONSTRUKTIONSELEMENTE
100
AcDbLine
 62
7
  6
CONTINUOUS
 10
62.4251127846
 20
105.2647702411
 11
62.4251127846
 21
115.7656794072
  0
LINE
  5
257
100
AcDbEntity
  8
KONSTRUKTIONSELEMENTE
100
AcDbLine
 62
7
  6
CONTINUOUS
 10
62.4251127846
 20
166.7638610751
 11
62.4251127846
 21
177.2647702411
  0
LINE
  5
258
100
AcDbEntity
  8
KONSTRUKTIONSELEMENTE
100
AcDbLine
 62
7
  6
CONTINUOUS
 10
62.4587928896
 20
140.8498765842
 11
62.4587928896
 21
140.1796638981
  0
LINE
  5
259
100
AcDbEntity
  8
KONSTRUKTIONSELEMENTE
100
AcDbLine
 62
7
  6
CONTINUOUS
 10
62.4890777583
 20
145.4030681268
 11
62.4890777583
 21
145.0307276413
  0
LINE
  5
25A
100
AcDbEntity
  8
KONSTRUKTIONSELEMENTE
100
AcDbLine
 62
7
  6
CONTINUOUS
 10
60.6807261355
 20
141.2222169653
 11
60.6214572366
 21
140.7754085079
  0
LINE
  5
25B
100
AcDbEntity
  8
KONSTRUKTIONSELEMENTE
100
AcDbLine
 62
7
  6
CONTINUOUS
 10
62.162448374
 20
140.2541319743
 11
62.1031795388
 21
139.8073234126
  0
LINE
  5
25C
100
AcDbEntity
  8
KONSTRUKTIONSELEMENTE
100
AcDbLine
 62
7
  6
CONTINUOUS
 10
60.3843816782
 20
141.2222169653
 11
60.3251127846
 21
140.8498765842
  0
LINE
  5
25D
100
AcDbEntity
  8
KONSTRUKTIONSELEMENTE
100
AcDbLine
 62
7
  6
CONTINUOUS
 10
61.1851620256
 20
146.1477488891
 11
61.1258930207
 21
145.9243446604
  0
LINE
  5
25E
100
AcDbEntity
  8
KONSTRUKTIONSELEMENTE
100
AcDbLine
 62
7
  6
CONTINUOUS
 10
60.4436505718
 20
141.4456214026
 11
60.3843816782
 21
141.2222169653
  0
LINE
  5
25F
100
AcDbEntity
  8
KONSTRUKTIONSELEMENTE
100
AcDbLine
 62
7
  6
CONTINUOUS
 10
63.0230293818
 20
151.1477488891
 11
62.9501127846
 21
150.9243446604
  0
LINE
  5
260
100
AcDbEntity
  8
KONSTRUKTIONSELEMENTE
100
AcDbLine
 62
7
  6
CONTINUOUS
 10
60.5621883589
 20
141.7434937075
 11
60.4436505718
 21
141.4456214026
  0
LINE
  5
261
100
AcDbEntity
  8
KONSTRUKTIONSELEMENTE
100
AcDbLine
 62
7
  6
CONTINUOUS
 10
66.2313627846
 20
149.583919184
 11
66.0855295904
 21
149.2860468269
  0
LINE
  5
262
100
AcDbEntity
  8
KONSTRUKTIONSELEMENTE
100
AcDbLine
 62
7
  6
CONTINUOUS
 10
60.9178016886
 20
141.6690256313
 11
60.6807261355
 21
141.2222169653
  0
LINE
  5
263
100
AcDbEntity
  8
KONSTRUKTIONSELEMENTE
100
AcDbLine
 62
7
  6
CONTINUOUS
 10
65.7938627846
 20
149.6583872602
 11
65.6480295904
 21
149.4349830315
  0
LINE
  5
264
100
AcDbEntity
  8
KONSTRUKTIONSELEMENTE
100
AcDbLine
 62
7
  6
CONTINUOUS
 10
60.7399950131
 20
141.9668979362
 11
60.5621883589
 21
141.7434937075
  0
LINE
  5
265
100
AcDbEntity
  8
KONSTRUKTIONSELEMENTE
100
AcDbLine
 62
7
  6
CONTINUOUS
 10
66.0855295904
 20
149.2860468269
 11
65.7938627846
 21
148.9881744959
  0
LINE
  5
266
100
AcDbEntity
  8
KONSTRUKTIONSELEMENTE
100
AcDbLine
 62
7
  6
CONTINUOUS
 10
61.0956084064
 20
141.8179617838
 11
60.9178016886
 21
141.6690256313
  0
LINE
  5
267
100
AcDbEntity
  8
KONSTRUKTIONSELEMENTE
100
AcDbLine
 62
7
  6
CONTINUOUS
 10
61.0363394863
 20
142.1903021649
 11
60.7399950131
 21
141.9668979362
  0
LINE
  5
268
100
AcDbEntity
  8
KONSTRUKTIONSELEMENTE
100
AcDbLine
 62
7
  6
CONTINUOUS
 10
69.1480291732
 20
149.4349830315
 11
68.9292791732
 21
149.2860468269
  0
LINE
  5
269
100
AcDbEntity
  8
KONSTRUKTIONSELEMENTE
100
AcDbLine
 62
7
  6
CONTINUOUS
 10
69.2938627846
 20
148.9881744959
 11
69.0021963961
 21
148.8392383239
  0
LINE
  5
26A
100
AcDbEntity
  8
KONSTRUKTIONSELEMENTE
100
AcDbLine
 62
7
  6
CONTINUOUS
 10
68.2974293812
 20
145.8498765842
 11
68.1196227058
 21
145.7754085079
  0
LINE
  5
26B
100
AcDbEntity
  8
KONSTRUKTIONSELEMENTE
100
AcDbLine
 62
7
  6
CONTINUOUS
 10
68.2078751684
 20
139.2115787507
 11
67.9115311616
 21
139.1371106744
  0
LINE
  5
26C
100
AcDbEntity
  8
KONSTRUKTIONSELEMENTE
100
AcDbLine
 62
7
  6
CONTINUOUS
 10
65.6000440421
 20
138.8392383239
 11
65.3036996962
 21
138.7647702411
  0
LINE
  5
26D
100
AcDbEntity
  8
KONSTRUKTIONSELEMENTE
100
AcDbLine
 62
7
  6
CONTINUOUS
 10
63.2292885961
 20
138.3179617316
 11
62.9329440805
 21
138.3179617316
  0
LINE
  5
26E
100
AcDbEntity
  8
KONSTRUKTIONSELEMENTE
100
AcDbLine
 62
7
  6
CONTINUOUS
 10
67.9707998273
 20
138.7647702411
 11
67.4966484668
 21
138.7647702411
  0
LINE
  5
26F
100
AcDbEntity
  8
KONSTRUKTIONSELEMENTE
100
AcDbLine
 62
7
  6
CONTINUOUS
 10
65.3036996962
 20
138.7647702411
 11
65.0073553502
 21
138.7647702411
  0
LINE
  5
270
100
AcDbEntity
  8
KONSTRUKTIONSELEMENTE
100
AcDbLine
 62
7
  6
CONTINUOUS
 10
61.0363394863
 20
138.8392383239
 11
61.3919528371
 21
138.7647702411
  0
LINE
  5
271
100
AcDbEntity
  8
KONSTRUKTIONSELEMENTE
100
AcDbLine
 62
7
  6
CONTINUOUS
 10
61.3919528371
 20
139.1371106744
 11
61.0956084064
 21
139.2115787507
  0
LINE
  5
272
100
AcDbEntity
  8
KONSTRUKTIONSELEMENTE
100
AcDbLine
 62
7
  6
CONTINUOUS
 10
65.0073553502
 20
138.7647702411
 11
64.7110106651
 21
138.8392383239
  0
LINE
  5
273
100
AcDbEntity
  8
KONSTRUKTIONSELEMENTE
100
AcDbLine
 62
7
  6
CONTINUOUS
 10
60.7399950131
 20
139.0626425721
 11
61.0363394863
 21
138.8392383239
  0
LINE
  5
274
100
AcDbEntity
  8
KONSTRUKTIONSELEMENTE
100
AcDbLine
 62
7
  6
CONTINUOUS
 10
61.0956084064
 20
139.2115787507
 11
60.9178016886
 21
139.3605149031
  0
LINE
  5
275
100
AcDbEntity
  8
KONSTRUKTIONSELEMENTE
100
AcDbLine
 62
7
  6
CONTINUOUS
 10
60.7399950131
 20
139.0626425721
 11
60.5621883589
 21
139.2860468269
  0
LINE
  5
276
100
AcDbEntity
  8
KONSTRUKTIONSELEMENTE
100
AcDbLine
 62
7
  6
CONTINUOUS
 10
58.4587928896
 20
146.6690256313
 11
58.2809862142
 21
146.9668979362
  0
LINE
  5
277
100
AcDbEntity
  8
KONSTRUKTIONSELEMENTE
100
AcDbLine
 62
7
  6
CONTINUOUS
 10
60.9178016886
 20
139.3605149031
 11
60.6807261355
 21
139.8073234126
  0
LINE
  5
278
100
AcDbEntity
  8
KONSTRUKTIONSELEMENTE
100
AcDbLine
 62
7
  6
CONTINUOUS
 10
62.1031795388
 20
141.2222169653
 11
61.8661040281
 21
141.6690256313
  0
LINE
  5
279
100
AcDbEntity
  8
KONSTRUKTIONSELEMENTE
100
AcDbLine
 62
7
  6
CONTINUOUS
 10
60.5621883589
 20
139.2860468269
 11
60.4436505718
 21
139.583919184
  0
LINE
  5
27A
100
AcDbEntity
  8
KONSTRUKTIONSELEMENTE
100
AcDbLine
 62
7
  6
CONTINUOUS
 10
58.5180617249
 20
146.4456214026
 11
58.4587928896
 21
146.6690256313
  0
LINE
  5
27B
100
AcDbEntity
  8
KONSTRUKTIONSELEMENTE
100
AcDbLine
 62
7
  6
CONTINUOUS
 10
60.4436505718
 20
139.583919184
 11
60.3843816782
 21
139.8073234126
  0
LINE
  5
27C
100
AcDbEntity
  8
KONSTRUKTIONSELEMENTE
100
AcDbLine
 62
7
  6
CONTINUOUS
 10
60.8295486748
 20
146.4456214026
 11
60.7702796699
 21
146.6690256313
  0
LINE
  5
27D
100
AcDbEntity
  8
KONSTRUKTIONSELEMENTE
100
AcDbLine
 62
7
  6
CONTINUOUS
 10
62.3995240543
 20
141.2222169653
 11
62.3402550494
 21
141.4456214026
  0
LINE
  5
27E
100
AcDbEntity
  8
KONSTRUKTIONSELEMENTE
100
AcDbLine
 62
7
  6
CONTINUOUS
 10
60.3843816782
 20
139.8073234126
 11
60.3251127846
 21
140.1796638981
  0
LINE
  5
27F
100
AcDbEntity
  8
KONSTRUKTIONSELEMENTE
100
AcDbLine
 62
7
  6
CONTINUOUS
 10
62.4587928896
 20
140.8498765842
 11
62.3995240543
 21
141.2222169653
  0
LINE
  5
280
100
AcDbEntity
  8
KONSTRUKTIONSELEMENTE
100
AcDbLine
 62
7
  6
CONTINUOUS
 10
60.6807261355
 20
139.8073234126
 11
60.6214572366
 21
140.2541319743
  0
LINE
  5
281
100
AcDbEntity
  8
KONSTRUKTIONSELEMENTE
100
AcDbLine
 62
7
  6
CONTINUOUS
 10
62.162448374
 20
140.7754085079
 11
62.1031795388
 21
141.2222169653
  0
LINE
  5
282
100
AcDbEntity
  8
KONSTRUKTIONSELEMENTE
100
AcDbLine
 62
7
  6
CONTINUOUS
 10
62.5855293818
 20
151.4456214026
 11
62.5855293818
 21
151.2222169653
  0
LINE
  5
283
100
AcDbEntity
  8
KONSTRUKTIONSELEMENTE
100
AcDbLine
 62
7
  6
CONTINUOUS
 10
63.0230293818
 20
151.4456214026
 11
63.0230293818
 21
151.1477488891
  0
LINE
  5
284
100
AcDbEntity
  8
KONSTRUKTIONSELEMENTE
100
AcDbLine
 62
7
  6
CONTINUOUS
 10
63.6792793818
 20
152.2647702411
 11
63.6792793818
 21
149.9562595651
  0
LINE
  5
285
100
AcDbEntity
  8
KONSTRUKTIONSELEMENTE
100
AcDbLine
 62
7
  6
CONTINUOUS
 10
64.0590529683
 20
140.7754085079
 11
64.0590529683
 21
140.2541319743
  0
LINE
  5
286
100
AcDbEntity
  8
KONSTRUKTIONSELEMENTE
100
AcDbLine
 62
7
  6
CONTINUOUS
 10
64.1167795904
 20
152.2647702411
 11
64.1167795904
 21
149.9562595651
  0
LINE
  5
287
100
AcDbEntity
  8
KONSTRUKTIONSELEMENTE
100
AcDbLine
 62
7
  6
CONTINUOUS
 10
64.3553973142
 20
140.7754085079
 11
64.3553973142
 21
140.6264723555
  0
LINE
  5
288
100
AcDbEntity
  8
KONSTRUKTIONSELEMENTE
100
AcDbLine
 62
7
  6
CONTINUOUS
 10
64.4146663191
 20
140.0307276413
 11
64.4146663191
 21
139.8073234126
  0
LINE
  5
289
100
AcDbEntity
  8
BEZUGSACHSEN
100
AcDbLine
 62
2
  6
CENTER
 10
64.8251127846
 20
105.7230278763
 11
64.8251127846
 21
147.314163513
  0
LINE
  5
28A
100
AcDbEntity
  8
BEZUGSACHSEN
100
AcDbLine
 62
2
  6
CENTER
 10
64.8251127846
 20
162.1184712053
 11
64.8251127846
 21
180.2647702411
  0
LINE
  5
28B
100
AcDbEntity
  8
KONSTRUKTIONSELEMENTE
100
AcDbLine
 62
7
  6
CONTINUOUS
 10
64.1183219731
 20
141.2966850415
 11
64.0590529683
 21
140.7754085079
  0
LINE
  5
28C
100
AcDbEntity
  8
KONSTRUKTIONSELEMENTE
100
AcDbLine
 62
7
  6
CONTINUOUS
 10
64.4146663191
 20
141.2222169653
 11
64.3553973142
 21
140.7754085079
  0
LINE
  5
28D
100
AcDbEntity
  8
KONSTRUKTIONSELEMENTE
100
AcDbLine
 62
7
  6
CONTINUOUS
 10
62.3995240543
 20
139.8073234126
 11
62.4587928896
 21
140.1796638981
  0
LINE
  5
28E
100
AcDbEntity
  8
KONSTRUKTIONSELEMENTE
100
AcDbLine
 62
7
  6
CONTINUOUS
 10
66.3042795904
 20
149.9562595651
 11
66.2313627846
 21
149.583919184
  0
LINE
  5
28F
100
AcDbEntity
  8
KONSTRUKTIONSELEMENTE
100
AcDbLine
 62
7
  6
CONTINUOUS
 10
65.8667795904
 20
149.9562595651
 11
65.7938627846
 21
149.6583872602
  0
LINE
  5
290
100
AcDbEntity
  8
KONSTRUKTIONSELEMENTE
100
AcDbLine
 62
7
  6
CONTINUOUS
 10
62.3995240543
 20
139.8073234126
 11
62.3402550494
 21
139.583919184
  0
LINE
  5
291
100
AcDbEntity
  8
KONSTRUKTIONSELEMENTE
100
AcDbLine
 62
7
  6
CONTINUOUS
 10
64.4739353239
 20
141.4456214026
 11
64.4146663191
 21
141.2222169653
  0
LINE
  5
292
100
AcDbEntity
  8
KONSTRUKTIONSELEMENTE
100
AcDbLine
 62
7
  6
CONTINUOUS
 10
64.4739353239
 20
140.2541319743
 11
64.4146663191
 21
140.0307276413
  0
LINE
  5
293
100
AcDbEntity
  8
KONSTRUKTIONSELEMENTE
100
AcDbLine
 62
7
  6
CONTINUOUS
 10
65.3339845649
 20
147.2647702411
 11
64.3856818438
 21
143.7647702411
  0
LINE
  5
294
100
AcDbEntity
  8
KONSTRUKTIONSELEMENTE
100
AcDbLine
 62
7
  6
CONTINUOUS
 10
64.9783712141
 20
147.2647702411
 11
64.1486065027
 21
144.2115787507
  0
LINE
  5
295
100
AcDbEntity
  8
KONSTRUKTIONSELEMENTE
100
AcDbLine
 62
7
  6
CONTINUOUS
 10
64.2368596437
 20
141.6690256313
 11
64.1183219731
 21
141.2966850415
  0
LINE
  5
296
100
AcDbEntity
  8
KONSTRUKTIONSELEMENTE
100
AcDbLine
 62
7
  6
CONTINUOUS
 10
62.3402550494
 20
139.583919184
 11
62.2217173789
 21
139.2860468269
  0
LINE
  5
297
100
AcDbEntity
  8
KONSTRUKTIONSELEMENTE
100
AcDbLine
 62
7
  6
CONTINUOUS
 10
63.2885572618
 20
139.1371106744
 11
62.9329440805
 21
138.3179617316
  0
LINE
  5
298
100
AcDbEntity
  8
KONSTRUKTIONSELEMENTE
100
AcDbLine
 62
7
  6
CONTINUOUS
 10
63.5849019469
 20
139.1371106744
 11
63.2292885961
 21
138.3179617316
  0
LINE
  5
299
100
AcDbEntity
  8
KONSTRUKTIONSELEMENTE
100
AcDbLine
 62
7
  6
CONTINUOUS
 10
62.1031795388
 20
139.8073234126
 11
61.8661040281
 21
139.3605149031
  0
LINE
  5
29A
100
AcDbEntity
  8
KONSTRUKTIONSELEMENTE
100
AcDbLine
 62
7
  6
CONTINUOUS
 10
64.5924729945
 20
141.6690256313
 11
64.4739353239
 21
141.4456214026
  0
LINE
  5
29B
100
AcDbEntity
  8
KONSTRUKTIONSELEMENTE
100
AcDbLine
 62
7
  6
CONTINUOUS
 10
64.4146663191
 20
141.9668979362
 11
64.2368596437
 21
141.6690256313
  0
LINE
  5
29C
100
AcDbEntity
  8
KONSTRUKTIONSELEMENTE
100
AcDbLine
 62
7
  6
CONTINUOUS
 10
69.2938627846
 20
149.6583872602
 11
69.1480291732
 21
149.4349830315
  0
LINE
  5
29D
100
AcDbEntity
  8
KONSTRUKTIONSELEMENTE
100
AcDbLine
 62
7
  6
CONTINUOUS
 10
62.0439107035
 20
139.0626425721
 11
62.2217173789
 21
139.2860468269
  0
LINE
  5
29E
100
AcDbEntity
  8
KONSTRUKTIONSELEMENTE
100
AcDbLine
 62
7
  6
CONTINUOUS
 10
68.4159667126
 20
145.9988127366
 11
68.2974293812
 21
145.8498765842
  0
LINE
  5
29F
100
AcDbEntity
  8
KONSTRUKTIONSELEMENTE
100
AcDbLine
 62
7
  6
CONTINUOUS
 10
69.5855291732
 20
149.2860468269
 11
69.2938627846
 21
148.9881744959
  0
LINE
  5
2A0
100
AcDbEntity
  8
KONSTRUKTIONSELEMENTE
100
AcDbLine
 62
7
  6
CONTINUOUS
 10
68.593773388
 20
145.6264723555
 11
68.3566973686
 21
145.4030681268
  0
LINE
  5
2A1
100
AcDbEntity
  8
KONSTRUKTIONSELEMENTE
100
AcDbLine
 62
7
  6
CONTINUOUS
 10
64.7702796699
 20
141.8179617838
 11
64.5924729945
 21
141.6690256313
  0
LINE
  5
2A2
100
AcDbEntity
  8
KONSTRUKTIONSELEMENTE
100
AcDbLine
 62
7
  6
CONTINUOUS
 10
61.8661040281
 20
139.3605149031
 11
61.6882972679
 21
139.2115787507
  0
LINE
  5
2A3
100
AcDbEntity
  8
KONSTRUKTIONSELEMENTE
100
AcDbLine
 62
7
  6
CONTINUOUS
 10
64.7110106651
 20
140.9243446604
 11
64.3553973142
 21
140.6264723555
  0
LINE
  5
2A4
100
AcDbEntity
  8
KONSTRUKTIONSELEMENTE
100
AcDbLine
 62
7
  6
CONTINUOUS
 10
64.7110106651
 20
142.1903021649
 11
64.4146663191
 21
141.9668979362
  0
LINE
  5
2A5
100
AcDbEntity
  8
KONSTRUKTIONSELEMENTE
100
AcDbLine
 62
7
  6
CONTINUOUS
 10
61.7475661879
 20
138.8392383239
 11
62.0439107035
 21
139.0626425721
  0
LINE
  5
2A6
100
AcDbEntity
  8
KONSTRUKTIONSELEMENTE
100
AcDbLine
 62
7
  6
CONTINUOUS
 10
64.9480863453
 20
141.89242986
 11
64.7702796699
 21
141.8179617838
  0
LINE
  5
2A7
100
AcDbEntity
  8
KONSTRUKTIONSELEMENTE
100
AcDbLine
 62
7
  6
CONTINUOUS
 10
61.6882972679
 20
139.2115787507
 11
61.3919528371
 21
139.1371106744
  0
LINE
  5
2A8
100
AcDbEntity
  8
KONSTRUKTIONSELEMENTE
100
AcDbLine
 62
7
  6
CONTINUOUS
 10
65.0073553502
 20
140.9988127366
 11
64.7110106651
 21
140.9243446604
  0
LINE
  5
2A9
100
AcDbEntity
  8
KONSTRUKTIONSELEMENTE
100
AcDbLine
 62
7
  6
CONTINUOUS
 10
67.6151864765
 20
141.89242986
 11
67.3188417914
 21
141.8179617838
  0
LINE
  5
2AA
100
AcDbEntity
  8
KONSTRUKTIONSELEMENTE
100
AcDbLine
 62
7
  6
CONTINUOUS
 10
61.3919528371
 20
138.7647702411
 11
61.7475661879
 21
138.8392383239
  0
LINE
  5
2AB
100
AcDbEntity
  8
KONSTRUKTIONSELEMENTE
100
AcDbLine
 62
7
  6
CONTINUOUS
 10
67.9115311616
 20
139.1371106744
 11
67.5559178108
 21
139.1371106744
  0
LINE
  5
2AC
100
AcDbEntity
  8
KONSTRUKTIONSELEMENTE
100
AcDbLine
 62
7
  6
CONTINUOUS
 10
65.362968701
 20
139.1371106744
 11
64.9480863453
 21
139.1371106744
  0
LINE
  5
2AD
100
AcDbEntity
  8
KONSTRUKTIONSELEMENTE
100
AcDbLine
 62
7
  6
CONTINUOUS
 10
63.5849019469
 20
139.1371106744
 11
63.2885572618
 21
139.1371106744
  0
LINE
  5
2AE
100
AcDbEntity
  8
KONSTRUKTIONSELEMENTE
100
AcDbLine
 62
7
  6
CONTINUOUS
 10
66.9632284406
 20
139.583919184
 11
66.6668844337
 21
139.583919184
  0
LINE
  5
2AF
100
AcDbEntity
  8
KONSTRUKTIONSELEMENTE
100
AcDbLine
 62
7
  6
CONTINUOUS
 10
67.8522618176
 20
140.4030681268
 11
67.6151864765
 21
140.4030681268
  0
LINE
  5
2B0
100
AcDbEntity
  8
KONSTRUKTIONSELEMENTE
100
AcDbLine
 62
7
  6
CONTINUOUS
 10
65.362968701
 20
140.6264723555
 11
64.9480863453
 21
140.6264723555
  0
LINE
  5
2B1
100
AcDbEntity
  8
KONSTRUKTIONSELEMENTE
100
AcDbLine
 62
7
  6
CONTINUOUS
 10
67.8522618176
 20
140.7009404317
 11
67.6151864765
 21
140.7009404317
  0
LINE
  5
2B2
100
AcDbEntity
  8
KONSTRUKTIONSELEMENTE
100
AcDbLine
 62
7
  6
CONTINUOUS
 10
70.6971686242
 20
140.8498765842
 11
70.0452112665
 21
140.8498765842
  0
LINE
  5
2B3
100
AcDbEntity
  8
KONSTRUKTIONSELEMENTE
100
AcDbLine
 62
7
  6
CONTINUOUS
 10
69.7488665814
 20
140.8498765842
 11
69.2747152209
 21
140.8498765842
  0
LINE
  5
2B4
100
AcDbEntity
  8
KONSTRUKTIONSELEMENTE
100
AcDbLine
 62
7
  6
CONTINUOUS
 10
65.3036996962
 20
140.9988127366
 11
65.0073553502
 21
140.9988127366
  0
LINE
  5
2B5
100
AcDbEntity
  8
KONSTRUKTIONSELEMENTE
100
AcDbLine
 62
7
  6
CONTINUOUS
 10
70.6971686242
 20
141.1477488891
 11
70.0452112665
 21
141.1477488891
  0
LINE
  5
2B6
100
AcDbEntity
  8
KONSTRUKTIONSELEMENTE
100
AcDbLine
 62
7
  6
CONTINUOUS
 10
69.7488665814
 20
141.1477488891
 11
69.2747152209
 21
141.1477488891
  0
LINE
  5
2B7
100
AcDbEntity
  8
KONSTRUKTIONSELEMENTE
100
AcDbLine
 62
7
  6
CONTINUOUS
 10
67.0224977845
 20
141.4456214026
 11
66.7261530994
 21
141.4456214026
  0
LINE
  5
2B8
100
AcDbEntity
  8
KONSTRUKTIONSELEMENTE
100
AcDbLine
 62
7
  6
CONTINUOUS
 10
66.0741950635
 20
141.4456214026
 11
65.7778507175
 21
141.4456214026
  0
LINE
  5
2B9
100
AcDbEntity
  8
KONSTRUKTIONSELEMENTE
100
AcDbLine
 62
7
  6
CONTINUOUS
 10
70.5786312928
 20
138.7647702411
 11
70.2230179419
 21
138.8392383239
  0
LINE
  5
2BA
100
AcDbEntity
  8
KONSTRUKTIONSELEMENTE
100
AcDbLine
 62
7
  6
CONTINUOUS
 10
68.2078751684
 20
140.3286000506
 11
67.8522618176
 21
140.4030681268
  0
LINE
  5
2BB
100
AcDbEntity
  8
KONSTRUKTIONSELEMENTE
100
AcDbLine
 62
7
  6
CONTINUOUS
 10
61.7475661879
 20
142.1903021649
 11
61.3919528371
 21
142.2647702411
  0
LINE
  5
2BC
100
AcDbEntity
  8
KONSTRUKTIONSELEMENTE
100
AcDbLine
 62
7
  6
CONTINUOUS
 10
67.5559178108
 20
139.1371106744
 11
67.2595731257
 21
139.2115787507
  0
LINE
  5
2BD
100
AcDbEntity
  8
KONSTRUKTIONSELEMENTE
100
AcDbLine
 62
7
  6
CONTINUOUS
 10
70.5786312928
 20
139.0626425721
 11
70.2822866077
 21
139.1371106744
  0
LINE
  5
2BE
100
AcDbEntity
  8
KONSTRUKTIONSELEMENTE
100
AcDbLine
 62
7
  6
CONTINUOUS
 10
61.6882972679
 20
141.8179617838
 11
61.3919528371
 21
141.89242986
  0
LINE
  5
2BF
100
AcDbEntity
  8
KONSTRUKTIONSELEMENTE
100
AcDbLine
 62
7
  6
CONTINUOUS
 10
65.6000440421
 20
140.9243446604
 11
65.3036996962
 21
140.9988127366
  0
LINE
  5
2C0
100
AcDbEntity
  8
KONSTRUKTIONSELEMENTE
100
AcDbLine
 62
7
  6
CONTINUOUS
 10
67.4966484668
 20
138.7647702411
 11
67.2595731257
 21
138.8392383239
  0
LINE
  5
2C1
100
AcDbEntity
  8
KONSTRUKTIONSELEMENTE
100
AcDbLine
 62
7
  6
CONTINUOUS
 10
64.9480863453
 20
139.1371106744
 11
64.7702796699
 21
139.2115787507
  0
LINE
  5
2C2
100
AcDbEntity
  8
KONSTRUKTIONSELEMENTE
100
AcDbLine
 62
7
  6
CONTINUOUS
 10
65.5407753764
 20
140.5520042792
 11
65.362968701
 21
140.6264723555
  0
LINE
  5
2C3
100
AcDbEntity
  8
KONSTRUKTIONSELEMENTE
100
AcDbLine
 62
7
  6
CONTINUOUS
 10
70.2230179419
 20
138.8392383239
 11
70.0452112665
 21
138.9137064066
  0
LINE
  5
2C4
100
AcDbEntity
  8
KONSTRUKTIONSELEMENTE
100
AcDbLine
 62
7
  6
CONTINUOUS
 10
67.2595731257
 20
138.8392383239
 11
67.0224977845
 21
138.9881744959
  0
LINE
  5
2C5
100
AcDbEntity
  8
KONSTRUKTIONSELEMENTE
100
AcDbLine
 62
7
  6
CONTINUOUS
 10
67.2595731257
 20
139.2115787507
 11
67.141035116
 21
139.2860468269
  0
LINE
  5
2C6
100
AcDbEntity
  8
KONSTRUKTIONSELEMENTE
100
AcDbLine
 62
7
  6
CONTINUOUS
 10
64.7110106651
 20
138.8392383239
 11
64.4146663191
 21
139.0626425721
  0
LINE
  5
2C7
100
AcDbEntity
  8
KONSTRUKTIONSELEMENTE
100
AcDbLine
 62
7
  6
CONTINUOUS
 10
62.0439107035
 20
141.9668979362
 11
61.7475661879
 21
142.1903021649
  0
LINE
  5
2C8
100
AcDbEntity
  8
KONSTRUKTIONSELEMENTE
100
AcDbLine
 62
7
  6
CONTINUOUS
 10
65.8963887272
 20
140.7009404317
 11
65.6000440421
 21
140.9243446604
  0
LINE
  5
2C9
100
AcDbEntity
  8
KONSTRUKTIONSELEMENTE
100
AcDbLine
 62
7
  6
CONTINUOUS
 10
64.7702796699
 20
139.2115787507
 11
64.5924729945
 21
139.3605149031
  0
LINE
  5
2CA
100
AcDbEntity
  8
KONSTRUKTIONSELEMENTE
100
AcDbLine
 62
7
  6
CONTINUOUS
 10
61.8661040281
 20
141.6690256313
 11
61.6882972679
 21
141.8179617838
  0
LINE
  5
2CB
100
AcDbEntity
  8
KONSTRUKTIONSELEMENTE
100
AcDbLine
 62
7
  6
CONTINUOUS
 10
67.0224977845
 20
138.9881744959
 11
66.8446911091
 21
139.1371106744
  0
LINE
  5
2CC
100
AcDbEntity
  8
KONSTRUKTIONSELEMENTE
100
AcDbLine
 62
7
  6
CONTINUOUS
 10
65.7185820518
 20
140.4030681268
 11
65.5407753764
 21
140.5520042792
  0
LINE
  5
2CD
100
AcDbEntity
  8
KONSTRUKTIONSELEMENTE
100
AcDbLine
 62
7
  6
CONTINUOUS
 10
58.2809862142
 20
146.9668979362
 11
58.0439107035
 21
147.1903021649
  0
LINE
  5
2CE
100
AcDbEntity
  8
KONSTRUKTIONSELEMENTE
100
AcDbLine
 62
7
  6
CONTINUOUS
 10
58.1031795388
 20
146.6690256313
 11
57.9846416986
 21
146.8179617838
  0
LINE
  5
2CF
100
AcDbEntity
  8
KONSTRUKTIONSELEMENTE
100
AcDbLine
 62
7
  6
CONTINUOUS
 10
62.2217173789
 20
141.7434937075
 11
62.0439107035
 21
141.9668979362
  0
LINE
  5
2D0
100
AcDbEntity
  8
KONSTRUKTIONSELEMENTE
100
AcDbLine
 62
7
  6
CONTINUOUS
 10
65.8371197224
 20
140.2541319743
 11
65.7185820518
 21
140.4030681268
  0
LINE
  5
2D1
100
AcDbEntity
  8
KONSTRUKTIONSELEMENTE
100
AcDbLine
 62
7
  6
CONTINUOUS
 10
60.7702796699
 20
146.6690256313
 11
60.6517419994
 21
146.8179617838
  0
LINE
  5
2D2
100
AcDbEntity
  8
KONSTRUKTIONSELEMENTE
100
AcDbLine
 62
7
  6
CONTINUOUS
 10
64.4146663191
 20
139.0626425721
 11
64.2368596437
 21
139.3605149031
  0
LINE
  5
2D3
100
AcDbEntity
  8
KONSTRUKTIONSELEMENTE
100
AcDbLine
 62
7
  6
CONTINUOUS
 10
61.1258930207
 20
146.6690256313
 11
60.9480863453
 21
146.9668979362
  0
LINE
  5
2D4
100
AcDbEntity
  8
KONSTRUKTIONSELEMENTE
100
AcDbLine
 62
7
  6
CONTINUOUS
 10
64.5924729945
 20
139.3605149031
 11
64.4739353239
 21
139.583919184
  0
LINE
  5
2D5
100
AcDbEntity
  8
KONSTRUKTIONSELEMENTE
100
AcDbLine
 62
7
  6
CONTINUOUS
 10
62.3402550494
 20
141.4456214026
 11
62.2217173789
 21
141.7434937075
  0
LINE
  5
2D6
100
AcDbEntity
  8
KONSTRUKTIONSELEMENTE
100
AcDbLine
 62
7
  6
CONTINUOUS
 10
64.2368596437
 20
139.3605149031
 11
64.1183219731
 21
139.7328553364
  0
LINE
  5
2D7
100
AcDbEntity
  8
KONSTRUKTIONSELEMENTE
100
AcDbLine
 62
7
  6
CONTINUOUS
 10
63.3188417914
 20
147.2647702411
 11
64.1486065027
 21
144.2115787507
  0
LINE
  5
2D8
100
AcDbEntity
  8
KONSTRUKTIONSELEMENTE
100
AcDbLine
 62
7
  6
CONTINUOUS
 10
63.9115311616
 20
143.7647702411
 11
62.9632284406
 21
147.2647702411
  0
LINE
  5
2D9
100
AcDbEntity
  8
KONSTRUKTIONSELEMENTE
100
AcDbLine
 62
7
  6
CONTINUOUS
 10
61.1851620256
 20
146.4456214026
 11
61.1258930207
 21
146.6690256313
  0
LINE
  5
2DA
100
AcDbEntity
  8
KONSTRUKTIONSELEMENTE
100
AcDbLine
 62
7
  6
CONTINUOUS
 10
64.4739353239
 20
139.583919184
 11
64.4146663191
 21
139.8073234126
  0
LINE
  5
2DB
100
AcDbEntity
  8
KONSTRUKTIONSELEMENTE
100
AcDbLine
 62
7
  6
CONTINUOUS
 10
64.1183219731
 20
139.7328553364
 11
64.0590529683
 21
140.2541319743
  0
LINE
  5
2DC
100
AcDbEntity
  8
KONSTRUKTIONSELEMENTE
100
AcDbLine
 62
7
  6
CONTINUOUS
 10
65.8081352471
 20
147.2647702411
 11
65.8081352471
 21
143.7647702411
  0
LINE
  5
2DD
100
AcDbEntity
  8
KONSTRUKTIONSELEMENTE
100
AcDbLine
 62
7
  6
CONTINUOUS
 10
65.8667795904
 20
152.2647702411
 11
65.8667795904
 21
149.9562595651
  0
LINE
  5
2DE
100
AcDbEntity
  8
KONSTRUKTIONSELEMENTE
100
AcDbLine
 62
7
  6
CONTINUOUS
 10
65.8963887272
 20
140.0307276413
 11
65.8963887272
 21
139.8073234126
  0
LINE
  5
2DF
100
AcDbEntity
  8
KONSTRUKTIONSELEMENTE
100
AcDbLine
 62
7
  6
CONTINUOUS
 10
66.163748598
 20
147.2647702411
 11
66.163748598
 21
143.7647702411
  0
LINE
  5
2E0
100
AcDbEntity
  8
KONSTRUKTIONSELEMENTE
100
AcDbLine
 62
7
  6
CONTINUOUS
 10
66.1927330732
 20
140.1051958219
 11
66.1927330732
 21
139.7328553364
  0
LINE
  5
2E1
100
AcDbEntity
  8
KONSTRUKTIONSELEMENTE
100
AcDbLine
 62
7
  6
CONTINUOUS
 10
66.3042795904
 20
152.2647702411
 11
66.3042795904
 21
149.9562595651
  0
LINE
  5
2E2
100
AcDbEntity
  8
KONSTRUKTIONSELEMENTE
100
AcDbLine
 62
7
  6
CONTINUOUS
 10
66.6378999585
 20
147.2647702411
 11
66.6378999585
 21
143.7647702411
  0
LINE
  5
2E3
100
AcDbEntity
  8
KONSTRUKTIONSELEMENTE
100
AcDbLine
 62
7
  6
CONTINUOUS
 10
66.8876127846
 20
152.2647702411
 11
66.8876127846
 21
148.7647702411
  0
LINE
  5
2E4
100
AcDbEntity
  8
KONSTRUKTIONSELEMENTE
100
AcDbLine
 62
7
  6
CONTINUOUS
 10
66.9935133093
 20
146.89242986
 11
66.9935133093
 21
145.7754085079
  0
LINE
  5
2E5
100
AcDbEntity
  8
KONSTRUKTIONSELEMENTE
100
AcDbLine
 62
7
  6
CONTINUOUS
 10
66.9935133093
 20
145.3286000506
 11
66.9935133093
 21
143.7647702411
  0
LINE
  5
2E6
100
AcDbEntity
  8
KONSTRUKTIONSELEMENTE
100
AcDbLine
 62
7
  6
CONTINUOUS
 10
67.2251127846
 20
115.7656794072
 11
67.2251127846
 21
105.2647702411
  0
LINE
  5
2E7
100
AcDbEntity
  8
KONSTRUKTIONSELEMENTE
100
AcDbLine
 62
7
  6
CONTINUOUS
 10
67.2251127846
 20
166.7638610751
 11
67.2251127846
 21
177.2647702411
  0
LINE
  5
2E8
100
AcDbEntity
  8
KONSTRUKTIONSELEMENTE
100
AcDbLine
 62
7
  6
CONTINUOUS
 10
67.3251127846
 20
151.8179617838
 11
67.3251127846
 21
149.2115787507
  0
LINE
  5
2E9
100
AcDbEntity
  8
KONSTRUKTIONSELEMENTE
100
AcDbLine
 62
7
  6
CONTINUOUS
 10
67.6151864765
 20
140.7009404317
 11
67.6151864765
 21
140.4030681268
  0
LINE
  5
2EA
100
AcDbEntity
  8
KONSTRUKTIONSELEMENTE
100
AcDbLine
 62
7
  6
CONTINUOUS
 10
66.7854217651
 20
141.7434937075
 11
66.7261530994
 21
141.4456214026
  0
LINE
  5
2EB
100
AcDbEntity
  8
KONSTRUKTIONSELEMENTE
100
AcDbLine
 62
7
  6
CONTINUOUS
 10
69.3667791732
 20
149.9562595651
 11
69.2938627846
 21
149.6583872602
  0
LINE
  5
2EC
100
AcDbEntity
  8
KONSTRUKTIONSELEMENTE
100
AcDbLine
 62
7
  6
CONTINUOUS
 10
65.8963887272
 20
139.8073234126
 11
65.8371197224
 21
139.583919184
  0
LINE
  5
2ED
100
AcDbEntity
  8
KONSTRUKTIONSELEMENTE
100
AcDbLine
 62
7
  6
CONTINUOUS
 10
68.4752360566
 20
146.2222169653
 11
68.4159667126
 21
145.9988127366
  0
LINE
  5
2EE
100
AcDbEntity
  8
KONSTRUKTIONSELEMENTE
100
AcDbLine
 62
7
  6
CONTINUOUS
 10
68.8308494074
 20
146.1477488891
 11
68.7715800634
 21
145.9243446604
  0
LINE
  5
2EF
100
AcDbEntity
  8
KONSTRUKTIONSELEMENTE
100
AcDbLine
 62
7
  6
CONTINUOUS
 10
66.1927330732
 20
139.7328553364
 11
66.0741950635
 21
139.3605149031
  0
LINE
  5
2F0
100
AcDbEntity
  8
KONSTRUKTIONSELEMENTE
100
AcDbLine
 62
7
  6
CONTINUOUS
 10
69.7313627846
 20
149.583919184
 11
69.5855291732
 21
149.2860468269
  0
LINE
  5
2F1
100
AcDbEntity
  8
KONSTRUKTIONSELEMENTE
100
AcDbLine
 62
7
  6
CONTINUOUS
 10
65.8371197224
 20
139.583919184
 11
65.7185820518
 21
139.3605149031
  0
LINE
  5
2F2
100
AcDbEntity
  8
KONSTRUKTIONSELEMENTE
100
AcDbLine
 62
7
  6
CONTINUOUS
 10
67.141035116
 20
141.6690256313
 11
67.0224977845
 21
141.4456214026
  0
LINE
  5
2F3
100
AcDbEntity
  8
KONSTRUKTIONSELEMENTE
100
AcDbLine
 62
7
  6
CONTINUOUS
 10
68.7715800634
 20
145.9243446604
 11
68.593773388
 21
145.6264723555
  0
LINE
  5
2F4
100
AcDbEntity
  8
KONSTRUKTIONSELEMENTE
100
AcDbLine
 62
7
  6
CONTINUOUS
 10
66.0741950635
 20
139.3605149031
 11
65.8963887272
 21
139.0626425721
  0
LINE
  5
2F5
100
AcDbEntity
  8
KONSTRUKTIONSELEMENTE
100
AcDbLine
 62
7
  6
CONTINUOUS
 10
70.7274534929
 20
147.2647702411
 11
69.3050000896
 21
145.2541319743
  0
LINE
  5
2F6
100
AcDbEntity
  8
KONSTRUKTIONSELEMENTE
100
AcDbLine
 62
7
  6
CONTINUOUS
 10
70.7274534929
 20
146.6690256313
 11
69.7198827845
 21
145.2541319743
  0
LINE
  5
2F7
100
AcDbEntity
  8
KONSTRUKTIONSELEMENTE
100
AcDbLine
 62
7
  6
CONTINUOUS
 10
64.5924729945
 20
140.4030681268
 11
64.4739353239
 21
140.2541319743
  0
LINE
  5
2F8
100
AcDbEntity
  8
KONSTRUKTIONSELEMENTE
100
AcDbLine
 62
7
  6
CONTINUOUS
 10
67.0224977845
 20
142.0413660124
 11
66.7854217651
 21
141.7434937075
  0
LINE
  5
2F9
100
AcDbEntity
  8
KONSTRUKTIONSELEMENTE
100
AcDbLine
 62
7
  6
CONTINUOUS
 10
68.3264131781
 20
140.9988127366
 11
68.2078751684
 21
140.8498765842
  0
LINE
  5
2FA
100
AcDbEntity
  8
KONSTRUKTIONSELEMENTE
100
AcDbLine
 62
7
  6
CONTINUOUS
 10
68.5634885193
 20
140.7754085079
 11
68.3264131781
 21
140.5520042792
  0
LINE
  5
2FB
100
AcDbEntity
  8
KONSTRUKTIONSELEMENTE
100
AcDbLine
 62
7
  6
CONTINUOUS
 10
64.7702796699
 20
140.5520042792
 11
64.5924729945
 21
140.4030681268
  0
LINE
  5
2FC
100
AcDbEntity
  8
KONSTRUKTIONSELEMENTE
100
AcDbLine
 62
7
  6
CONTINUOUS
 10
67.3188417914
 20
141.8179617838
 11
67.141035116
 21
141.6690256313
  0
LINE
  5
2FD
100
AcDbEntity
  8
KONSTRUKTIONSELEMENTE
100
AcDbLine
 62
7
  6
CONTINUOUS
 10
65.7185820518
 20
139.3605149031
 11
65.5407753764
 21
139.2115787507
  0
LINE
  5
2FE
100
AcDbEntity
  8
KONSTRUKTIONSELEMENTE
100
AcDbLine
 62
7
  6
CONTINUOUS
 10
65.8963887272
 20
139.0626425721
 11
65.6000440421
 21
138.8392383239
  0
LINE
  5
2FF
100
AcDbEntity
  8
KONSTRUKTIONSELEMENTE
100
AcDbLine
 62
7
  6
CONTINUOUS
 10
67.2595731257
 20
142.1903021649
 11
67.0224977845
 21
142.0413660124
  0
LINE
  5
300
100
AcDbEntity
  8
KONSTRUKTIONSELEMENTE
100
AcDbLine
 62
7
  6
CONTINUOUS
 10
64.9480863453
 20
140.6264723555
 11
64.7702796699
 21
140.5520042792
  0
LINE
  5
301
100
AcDbEntity
  8
KONSTRUKTIONSELEMENTE
100
AcDbLine
 62
7
  6
CONTINUOUS
 10
68.2078751684
 20
140.8498765842
 11
67.8522618176
 21
140.7009404317
  0
LINE
  5
302
100
AcDbEntity
  8
KONSTRUKTIONSELEMENTE
100
AcDbLine
 62
7
  6
CONTINUOUS
 10
65.5407753764
 20
139.2115787507
 11
65.362968701
 21
139.1371106744
  0
LINE
  5
303
100
AcDbEntity
  8
KONSTRUKTIONSELEMENTE
100
AcDbLine
 62
7
  6
CONTINUOUS
 10
65.0073553502
 20
142.2647702411
 11
64.7110106651
 21
142.1903021649
  0
LINE
  5
304
100
AcDbEntity
  8
KONSTRUKTIONSELEMENTE
100
AcDbLine
 62
7
  6
CONTINUOUS
 10
61.3919528371
 20
141.89242986
 11
61.0956084064
 21
141.8179617838
  0
LINE
  5
305
100
AcDbEntity
  8
KONSTRUKTIONSELEMENTE
100
AcDbLine
 62
7
  6
CONTINUOUS
 10
61.3919528371
 20
142.2647702411
 11
61.0363394863
 21
142.1903021649
  0
LINE
  5
306
100
AcDbEntity
  8
KONSTRUKTIONSELEMENTE
100
AcDbLine
 62
7
  6
CONTINUOUS
 10
67.6744551422
 20
142.2647702411
 11
67.2595731257
 21
142.1903021649
  0
LINE
  5
307
100
AcDbEntity
  8
KONSTRUKTIONSELEMENTE
100
AcDbLine
 62
7
  6
CONTINUOUS
 10
70.0452112665
 20
141.7434937075
 11
69.7488665814
 21
141.7434937075
  0
LINE
  5
308
100
AcDbEntity
  8
KONSTRUKTIONSELEMENTE
100
AcDbLine
 62
7
  6
CONTINUOUS
 10
67.8522618176
 20
141.89242986
 11
67.6151864765
 21
141.89242986
  0
LINE
  5
309
100
AcDbEntity
  8
KONSTRUKTIONSELEMENTE
100
AcDbLine
 62
7
  6
CONTINUOUS
 10
65.3036996962
 20
141.89242986
 11
64.9480863453
 21
141.89242986
  0
LINE
  5
30A
100
AcDbEntity
  8
KONSTRUKTIONSELEMENTE
100
AcDbLine
 62
7
  6
CONTINUOUS
 10
67.7929931519
 20
142.2647702411
 11
67.6744551422
 21
142.2647702411
  0
LINE
  5
30B
100
AcDbEntity
  8
KONSTRUKTIONSELEMENTE
100
AcDbLine
 62
7
  6
CONTINUOUS
 10
65.2444306913
 20
142.2647702411
 11
65.0073553502
 21
142.2647702411
  0
LINE
  5
30C
100
AcDbEntity
  8
KONSTRUKTIONSELEMENTE
100
AcDbLine
 62
7
  6
CONTINUOUS
 10
71.0830668437
 20
143.7647702411
 11
70.7274534929
 21
143.7647702411
  0
LINE
  5
30D
100
AcDbEntity
  8
KONSTRUKTIONSELEMENTE
100
AcDbLine
 62
7
  6
CONTINUOUS
 10
66.9935133093
 20
143.7647702411
 11
66.6378999585
 21
143.7647702411
  0
LINE
  5
30E
100
AcDbEntity
  8
KONSTRUKTIONSELEMENTE
100
AcDbLine
 62
7
  6
CONTINUOUS
 10
66.163748598
 20
143.7647702411
 11
65.8081352471
 21
143.7647702411
  0
LINE
  5
30F
100
AcDbEntity
  8
KONSTRUKTIONSELEMENTE
100
AcDbLine
 62
7
  6
CONTINUOUS
 10
59.3478262666
 20
143.7647702411
 11
58.9922129158
 21
143.7647702411
  0
LINE
  5
310
100
AcDbEntity
  8
KONSTRUKTIONSELEMENTE
100
AcDbLine
 62
7
  6
CONTINUOUS
 10
56.6807261355
 20
143.7647702411
 11
56.3251127846
 21
143.7647702411
  0
LINE
  5
311
100
AcDbEntity
  8
KONSTRUKTIONSELEMENTE
100
AcDbLine
 62
7
  6
CONTINUOUS
 10
63.9115311616
 20
143.7647702411
 11
64.3856818438
 21
143.7647702411
  0
LINE
  5
312
100
AcDbEntity
  8
KONSTRUKTIONSELEMENTE
100
AcDbLine
 62
7
  6
CONTINUOUS
 10
68.2078751684
 20
142.1903021649
 11
67.7929931519
 21
142.2647702411
  0
LINE
  5
313
100
AcDbEntity
  8
KONSTRUKTIONSELEMENTE
100
AcDbLine
 62
7
  6
CONTINUOUS
 10
65.5407753764
 20
142.1903021649
 11
65.2444306913
 21
142.2647702411
  0
LINE
  5
314
100
AcDbEntity
  8
KONSTRUKTIONSELEMENTE
100
AcDbLine
 62
7
  6
CONTINUOUS
 10
68.1486065027
 20
141.8179617838
 11
67.8522618176
 21
141.89242986
  0
LINE
  5
315
100
AcDbEntity
  8
KONSTRUKTIONSELEMENTE
100
AcDbLine
 62
7
  6
CONTINUOUS
 10
65.4815063716
 20
141.8179617838
 11
65.3036996962
 21
141.89242986
  0
LINE
  5
316
100
AcDbEntity
  8
KONSTRUKTIONSELEMENTE
100
AcDbLine
 62
7
  6
CONTINUOUS
 10
57.9846416986
 20
146.8179617838
 11
57.8068350232
 21
146.89242986
  0
LINE
  5
317
100
AcDbEntity
  8
KONSTRUKTIONSELEMENTE
100
AcDbLine
 62
7
  6
CONTINUOUS
 10
68.6227578632
 20
140.4030681268
 11
68.3264131781
 21
140.5520042792
  0
LINE
  5
318
100
AcDbEntity
  8
KONSTRUKTIONSELEMENTE
100
AcDbLine
 62
7
  6
CONTINUOUS
 10
68.4449511878
 20
142.0413660124
 11
68.2078751684
 21
142.1903021649
  0
LINE
  5
319
100
AcDbEntity
  8
KONSTRUKTIONSELEMENTE
100
AcDbLine
 62
7
  6
CONTINUOUS
 10
65.8371197224
 20
141.9668979362
 11
65.5407753764
 21
142.1903021649
  0
LINE
  5
31A
100
AcDbEntity
  8
KONSTRUKTIONSELEMENTE
100
AcDbLine
 62
7
  6
CONTINUOUS
 10
65.659313047
 20
141.6690256313
 11
65.4815063716
 21
141.8179617838
  0
LINE
  5
31B
100
AcDbEntity
  8
KONSTRUKTIONSELEMENTE
100
AcDbLine
 62
7
  6
CONTINUOUS
 10
68.3856818438
 20
140.1796638981
 11
68.2078751684
 21
140.3286000506
  0
LINE
  5
31C
100
AcDbEntity
  8
KONSTRUKTIONSELEMENTE
100
AcDbLine
 62
7
  6
CONTINUOUS
 10
70.0452112665
 20
138.9137064066
 11
69.8674045911
 21
139.0626425721
  0
LINE
  5
31D
100
AcDbEntity
  8
KONSTRUKTIONSELEMENTE
100
AcDbLine
 62
7
  6
CONTINUOUS
 10
70.2822866077
 20
139.1371106744
 11
70.1044799322
 21
139.2860468269
  0
LINE
  5
31E
100
AcDbEntity
  8
KONSTRUKTIONSELEMENTE
100
AcDbLine
 62
7
  6
CONTINUOUS
 10
68.3264131781
 20
141.6690256313
 11
68.1486065027
 21
141.8179617838
  0
LINE
  5
31F
100
AcDbEntity
  8
KONSTRUKTIONSELEMENTE
100
AcDbLine
 62
7
  6
CONTINUOUS
 10
60.9480863453
 20
146.9668979362
 11
60.7110106651
 21
147.1903021649
  0
LINE
  5
320
100
AcDbEntity
  8
KONSTRUKTIONSELEMENTE
100
AcDbLine
 62
7
  6
CONTINUOUS
 10
66.0741950635
 20
140.477536203
 11
65.8963887272
 21
140.7009404317
  0
LINE
  5
321
100
AcDbEntity
  8
KONSTRUKTIONSELEMENTE
100
AcDbLine
 62
7
  6
CONTINUOUS
 10
67.141035116
 20
139.2860468269
 11
67.0224977845
 21
139.4349830315
  0
LINE
  5
322
100
AcDbEntity
  8
KONSTRUKTIONSELEMENTE
100
AcDbLine
 62
7
  6
CONTINUOUS
 10
66.0149263978
 20
141.6690256313
 11
65.8371197224
 21
141.9668979362
  0
LINE
  5
323
100
AcDbEntity
  8
KONSTRUKTIONSELEMENTE
100
AcDbLine
 62
7
  6
CONTINUOUS
 10
66.8446911091
 20
139.1371106744
 11
66.7261530994
 21
139.3605149031
  0
LINE
  5
324
100
AcDbEntity
  8
KONSTRUKTIONSELEMENTE
100
AcDbLine
 62
7
  6
CONTINUOUS
 10
65.7778507175
 20
141.4456214026
 11
65.659313047
 21
141.6690256313
  0
LINE
  5
325
100
AcDbEntity
  8
KONSTRUKTIONSELEMENTE
100
AcDbLine
 62
7
  6
CONTINUOUS
 10
68.7412951947
 20
140.1796638981
 11
68.6227578632
 21
140.4030681268
  0
LINE
  5
326
100
AcDbEntity
  8
KONSTRUKTIONSELEMENTE
100
AcDbLine
 62
7
  6
CONTINUOUS
 10
63.8980295904
 20
149.2860468269
 11
63.7521961875
 21
149.583919184
  0
LINE
  5
327
100
AcDbEntity
  8
KONSTRUKTIONSELEMENTE
100
AcDbLine
 62
7
  6
CONTINUOUS
 10
67.0224977845
 20
139.4349830315
 11
66.9632284406
 21
139.583919184
  0
LINE
  5
328
100
AcDbEntity
  8
KONSTRUKTIONSELEMENTE
100
AcDbLine
 62
7
  6
CONTINUOUS
 10
68.5042198535
 20
139.8817914889
 11
68.3856818438
 21
140.1796638981
  0
LINE
  5
329
100
AcDbEntity
  8
KONSTRUKTIONSELEMENTE
100
AcDbLine
 62
7
  6
CONTINUOUS
 10
63.0959461875
 20
148.7647702411
 11
62.4396961875
 21
150.477536203
  0
LINE
  5
32A
100
AcDbEntity
  8
KONSTRUKTIONSELEMENTE
100
AcDbLine
 62
7
  6
CONTINUOUS
 10
62.5855293818
 20
148.7647702411
 11
62.0021960832
 21
150.3286000506
  0
LINE
  5
32B
100
AcDbEntity
  8
KONSTRUKTIONSELEMENTE
100
AcDbLine
 62
7
  6
CONTINUOUS
 10
62.5855293818
 20
151.4456214026
 11
62.5126127846
 21
151.6690256313
  0
LINE
  5
32C
100
AcDbEntity
  8
KONSTRUKTIONSELEMENTE
100
AcDbLine
 62
7
  6
CONTINUOUS
 10
63.0230293818
 20
151.4456214026
 11
62.9501127846
 21
151.6690256313
  0
LINE
  5
32D
100
AcDbEntity
  8
KONSTRUKTIONSELEMENTE
100
AcDbLine
 62
7
  6
CONTINUOUS
 10
66.1927330732
 20
140.1051958219
 11
66.0741950635
 21
140.477536203
  0
LINE
  5
32E
100
AcDbEntity
  8
KONSTRUKTIONSELEMENTE
100
AcDbLine
 62
7
  6
CONTINUOUS
 10
65.8963887272
 20
140.0307276413
 11
65.8371197224
 21
140.2541319743
  0
LINE
  5
32F
100
AcDbEntity
  8
KONSTRUKTIONSELEMENTE
100
AcDbLine
 62
7
  6
CONTINUOUS
 10
66.0741950635
 20
141.4456214026
 11
66.0149263978
 21
141.6690256313
  0
LINE
  5
330
100
AcDbEntity
  8
KONSTRUKTIONSELEMENTE
100
AcDbLine
 62
7
  6
CONTINUOUS
 10
66.7261530994
 20
139.3605149031
 11
66.6668844337
 21
139.583919184
  0
LINE
  5
331
100
AcDbEntity
  8
KONSTRUKTIONSELEMENTE
100
AcDbLine
 62
7
  6
CONTINUOUS
 10
64.1896959789
 20
149.6583872602
 11
64.1167795904
 21
149.9562595651
  0
LINE
  5
332
100
AcDbEntity
  8
KONSTRUKTIONSELEMENTE
100
AcDbLine
 62
7
  6
CONTINUOUS
 10
63.7521961875
 20
149.583919184
 11
63.6792793818
 21
149.9562595651
  0
LINE
  5
333
100
AcDbEntity
  8
KONSTRUKTIONSELEMENTE
100
AcDbLine
 62
7
  6
CONTINUOUS
 10
68.4449511878
 20
141.4456214026
 11
68.4449511878
 21
141.2966850415
  0
LINE
  5
334
100
AcDbEntity
  8
KONSTRUKTIONSELEMENTE
100
AcDbLine
 62
7
  6
CONTINUOUS
 10
68.4752360566
 20
146.4456214026
 11
68.4752360566
 21
146.2222169653
  0
LINE
  5
335
100
AcDbEntity
  8
KONSTRUKTIONSELEMENTE
100
AcDbLine
 62
7
  6
CONTINUOUS
 10
68.5042198535
 20
139.8817914889
 11
68.5042198535
 21
139.583919184
  0
LINE
  5
336
100
AcDbEntity
  8
KONSTRUKTIONSELEMENTE
100
AcDbLine
 62
7
  6
CONTINUOUS
 10
68.7412951947
 20
141.4456214026
 11
68.7412951947
 21
141.2966850415
  0
LINE
  5
337
100
AcDbEntity
  8
KONSTRUKTIONSELEMENTE
100
AcDbLine
 62
7
  6
CONTINUOUS
 10
68.8005645387
 20
139.8817914889
 11
68.8005645387
 21
139.583919184
  0
LINE
  5
338
100
AcDbEntity
  8
KONSTRUKTIONSELEMENTE
100
AcDbLine
 62
7
  6
CONTINUOUS
 10
68.8308494074
 20
146.4456214026
 11
68.8308494074
 21
146.1477488891
  0
LINE
  5
339
100
AcDbEntity
  8
KONSTRUKTIONSELEMENTE
100
AcDbLine
 62
7
  6
CONTINUOUS
 10
69.2747152209
 20
141.1477488891
 11
69.2747152209
 21
140.8498765842
  0
LINE
  5
33A
100
AcDbEntity
  8
KONSTRUKTIONSELEMENTE
100
AcDbLine
 62
7
  6
CONTINUOUS
 10
69.3050000896
 20
145.2541319743
 11
69.3050000896
 21
144.8073234126
  0
LINE
  5
33B
100
AcDbEntity
  8
KONSTRUKTIONSELEMENTE
100
AcDbLine
 62
7
  6
CONTINUOUS
 10
69.3667791732
 20
151.0732808128
 11
69.3667791732
 21
149.9562595651
  0
LINE
  5
33C
100
AcDbEntity
  8
KONSTRUKTIONSELEMENTE
100
AcDbLine
 62
7
  6
CONTINUOUS
 10
69.7488665814
 20
141.7434937075
 11
69.7488665814
 21
141.1477488891
  0
LINE
  5
33D
100
AcDbEntity
  8
KONSTRUKTIONSELEMENTE
100
AcDbLine
 62
7
  6
CONTINUOUS
 10
69.7488665814
 20
140.8498765842
 11
69.7488665814
 21
139.3605149031
  0
LINE
  5
33E
100
AcDbEntity
  8
KONSTRUKTIONSELEMENTE
100
AcDbLine
 62
7
  6
CONTINUOUS
 10
69.8042791732
 20
151.0732808128
 11
69.8042791732
 21
149.9562595651
  0
LINE
  5
33F
100
AcDbEntity
  8
KONSTRUKTIONSELEMENTE
100
AcDbLine
 62
7
  6
CONTINUOUS
 10
70.0452112665
 20
141.7434937075
 11
70.0452112665
 21
141.1477488891
  0
LINE
  5
340
100
AcDbEntity
  8
KONSTRUKTIONSELEMENTE
100
AcDbLine
 62
7
  6
CONTINUOUS
 10
70.0452112665
 20
140.8498765842
 11
70.0452112665
 21
139.5094511077
  0
LINE
  5
341
100
AcDbEntity
  8
KONSTRUKTIONSELEMENTE
100
AcDbLine
 62
7
  6
CONTINUOUS
 10
69.8042791732
 20
149.9562595651
 11
69.7313627846
 21
149.583919184
  0
LINE
  5
342
100
AcDbEntity
  8
KONSTRUKTIONSELEMENTE
100
AcDbLine
 62
7
  6
CONTINUOUS
 10
68.7412951947
 20
141.2966850415
 11
68.682026529
 21
140.9988127366
  0
LINE
  5
343
100
AcDbEntity
  8
KONSTRUKTIONSELEMENTE
100
AcDbLine
 62
7
  6
CONTINUOUS
 10
68.8005645387
 20
139.583919184
 11
68.7412951947
 21
139.3605149031
  0
LINE
  5
344
100
AcDbEntity
  8
KONSTRUKTIONSELEMENTE
100
AcDbLine
 62
7
  6
CONTINUOUS
 10
68.4449511878
 20
141.2966850415
 11
68.3264131781
 21
140.9988127366
  0
LINE
  5
345
100
AcDbEntity
  8
KONSTRUKTIONSELEMENTE
100
AcDbLine
 62
7
  6
CONTINUOUS
 10
68.5042198535
 20
139.583919184
 11
68.4449511878
 21
139.4349830315
  0
LINE
  5
346
100
AcDbEntity
  8
KONSTRUKTIONSELEMENTE
100
AcDbLine
 62
7
  6
CONTINUOUS
 10
68.682026529
 20
140.9988127366
 11
68.5634885193
 21
140.7754085079
  0
LINE
  5
347
100
AcDbEntity
  8
KONSTRUKTIONSELEMENTE
100
AcDbLine
 62
7
  6
CONTINUOUS
 10
68.7412951947
 20
139.3605149031
 11
68.6227578632
 21
139.1371106744
  0
LINE
  5
348
100
AcDbEntity
  8
KONSTRUKTIONSELEMENTE
100
AcDbLine
 62
7
  6
CONTINUOUS
 10
68.4449511878
 20
139.4349830315
 11
68.3264131781
 21
139.2860468269
  0
LINE
  5
349
100
AcDbEntity
  8
KONSTRUKTIONSELEMENTE
100
AcDbLine
 62
7
  6
CONTINUOUS
 10
68.6227578632
 20
139.1371106744
 11
68.4449511878
 21
138.9881744959
  0
LINE
  5
34A
100
AcDbEntity
  8
KONSTRUKTIONSELEMENTE
100
AcDbLine
 62
7
  6
CONTINUOUS
 10
68.3264131781
 20
139.2860468269
 11
68.2078751684
 21
139.2115787507
  0
LINE
  5
34B
100
AcDbEntity
  8
KONSTRUKTIONSELEMENTE
100
AcDbLine
 62
7
  6
CONTINUOUS
 10
68.4449511878
 20
138.9881744959
 11
68.2078751684
 21
138.8392383239
  0
LINE
  5
34C
100
AcDbEntity
  8
KONSTRUKTIONSELEMENTE
100
AcDbLine
 62
7
  6
CONTINUOUS
 10
68.2078751684
 20
138.8392383239
 11
67.9707998273
 21
138.7647702411
  0
LINE
  5
34D
100
AcDbEntity
  8
KONSTRUKTIONSELEMENTE
100
AcDbLine
 62
7
  6
CONTINUOUS
 10
68.3566973686
 20
145.4030681268
 11
68.0603533618
 21
145.3286000506
  0
LINE
  5
34E
100
AcDbEntity
  8
KONSTRUKTIONSELEMENTE
100
AcDbLine
 62
7
  6
CONTINUOUS
 10
60.7110106651
 20
145.4030681268
 11
60.4146663191
 21
145.3286000506
  0
LINE
  5
34F
100
AcDbEntity
  8
KONSTRUKTIONSELEMENTE
100
AcDbLine
 62
7
  6
CONTINUOUS
 10
71.675756214
 20
144.8073234126
 11
71.0830668437
 21
144.8073234126
  0
LINE
  5
350
100
AcDbEntity
  8
KONSTRUKTIONSELEMENTE
100
AcDbLine
 62
7
  6
CONTINUOUS
 10
70.7274534929
 20
144.8073234126
 11
69.3050000896
 21
144.8073234126
  0
LINE
  5
351
100
AcDbEntity
  8
KONSTRUKTIONSELEMENTE
100
AcDbLine
 62
7
  6
CONTINUOUS
 10
62.4890777583
 20
145.0307276413
 11
61.659313047
 21
145.0307276413
  0
LINE
  5
352
100
AcDbEntity
  8
KONSTRUKTIONSELEMENTE
100
AcDbLine
 62
7
  6
CONTINUOUS
 10
71.675756214
 20
145.2541319743
 11
71.0830668437
 21
145.2541319743
  0
LINE
  5
353
100
AcDbEntity
  8
KONSTRUKTIONSELEMENTE
100
AcDbLine
 62
7
  6
CONTINUOUS
 10
70.7274534929
 20
145.2541319743
 11
69.7198827845
 21
145.2541319743
  0
LINE
  5
354
100
AcDbEntity
  8
KONSTRUKTIONSELEMENTE
100
AcDbLine
 62
7
  6
CONTINUOUS
 10
68.0603533618
 20
145.3286000506
 11
66.9935133093
 21
145.3286000506
  0
LINE
  5
355
100
AcDbEntity
  8
KONSTRUKTIONSELEMENTE
100
AcDbLine
 62
7
  6
CONTINUOUS
 10
60.4146663191
 20
145.3286000506
 11
59.3478262666
 21
145.3286000506
  0
LINE
  5
356
100
AcDbEntity
  8
KONSTRUKTIONSELEMENTE
100
AcDbLine
 62
7
  6
CONTINUOUS
 10
57.7475661879
 20
145.3286000506
 11
56.6807261355
 21
145.3286000506
  0
LINE
  5
357
100
AcDbEntity
  8
KONSTRUKTIONSELEMENTE
100
AcDbLine
 62
7
  6
CONTINUOUS
 10
62.4890777583
 20
145.4030681268
 11
61.659313047
 21
145.4030681268
  0
LINE
  5
358
100
AcDbEntity
  8
KONSTRUKTIONSELEMENTE
100
AcDbLine
 62
7
  6
CONTINUOUS
 10
68.1196227058
 20
145.7754085079
 11
66.9935133093
 21
145.7754085079
  0
LINE
  5
359
100
AcDbEntity
  8
KONSTRUKTIONSELEMENTE
100
AcDbLine
 62
7
  6
CONTINUOUS
 10
60.4739353239
 20
145.7754085079
 11
59.3478262666
 21
145.7754085079
  0
LINE
  5
35A
100
AcDbEntity
  8
KONSTRUKTIONSELEMENTE
100
AcDbLine
 62
7
  6
CONTINUOUS
 10
57.8068350232
 20
145.7754085079
 11
56.6807261355
 21
145.7754085079
  0
LINE
  5
35B
100
AcDbEntity
  8
KONSTRUKTIONSELEMENTE
100
AcDbLine
 62
7
  6
CONTINUOUS
 10
58.0439107035
 20
147.1903021649
 11
57.7475661879
 21
147.2647702411
  0
LINE
  5
35C
100
AcDbEntity
  8
KONSTRUKTIONSELEMENTE
100
AcDbLine
 62
7
  6
CONTINUOUS
 10
60.7110106651
 20
147.1903021649
 11
60.4146663191
 21
147.2647702411
  0
LINE
  5
35D
100
AcDbEntity
  8
KONSTRUKTIONSELEMENTE
100
AcDbLine
 62
7
  6
CONTINUOUS
 10
60.6517419994
 20
146.8179617838
 11
60.4739353239
 21
146.89242986
  0
LINE
  5
35E
100
AcDbEntity
  8
KONSTRUKTIONSELEMENTE
100
AcDbLine
 62
7
  6
CONTINUOUS
 10
64.1896959789
 20
148.9881744959
 11
63.8980295904
 21
149.2860468269
  0
LINE
  5
35F
100
AcDbEntity
  8
KONSTRUKTIONSELEMENTE
100
AcDbLine
 62
7
  6
CONTINUOUS
 10
68.682026529
 20
141.7434937075
 11
68.4449511878
 21
142.0413660124
  0
LINE
  5
360
100
AcDbEntity
  8
KONSTRUKTIONSELEMENTE
100
AcDbLine
 62
7
  6
CONTINUOUS
 10
62.9501127846
 20
151.6690256313
 11
62.7313627846
 21
151.9668979362
  0
LINE
  5
361
100
AcDbEntity
  8
KONSTRUKTIONSELEMENTE
100
AcDbLine
 62
7
  6
CONTINUOUS
 10
64.3355295904
 20
149.4349830315
 11
64.1896959789
 21
149.6583872602
  0
LINE
  5
362
100
AcDbEntity
  8
KONSTRUKTIONSELEMENTE
100
AcDbLine
 62
7
  6
CONTINUOUS
 10
68.4449511878
 20
141.4456214026
 11
68.3264131781
 21
141.6690256313
  0
LINE
  5
363
100
AcDbEntity
  8
KONSTRUKTIONSELEMENTE
100
AcDbLine
 62
7
  6
CONTINUOUS
 10
69.8674045911
 20
139.0626425721
 11
69.7488665814
 21
139.3605149031
  0
LINE
  5
364
100
AcDbEntity
  8
KONSTRUKTIONSELEMENTE
100
AcDbLine
 62
7
  6
CONTINUOUS
 10
70.1044799322
 20
139.2860468269
 11
70.0452112665
 21
139.5094511077
  0
LINE
  5
365
100
AcDbEntity
  8
KONSTRUKTIONSELEMENTE
100
AcDbLine
 62
7
  6
CONTINUOUS
 10
68.4752360566
 20
146.4456214026
 11
68.4159667126
 21
146.6690256313
  0
LINE
  5
366
100
AcDbEntity
  8
KONSTRUKTIONSELEMENTE
100
AcDbLine
 62
7
  6
CONTINUOUS
 10
68.8308494074
 20
146.4456214026
 11
68.7715800634
 21
146.6690256313
  0
LINE
  5
367
100
AcDbEntity
  8
KONSTRUKTIONSELEMENTE
100
AcDbLine
 62
7
  6
CONTINUOUS
 10
68.8005645387
 20
139.8817914889
 11
68.7412951947
 21
140.1796638981
  0
LINE
  5
368
100
AcDbEntity
  8
KONSTRUKTIONSELEMENTE
100
AcDbLine
 62
7
  6
CONTINUOUS
 10
68.7412951947
 20
141.4456214026
 11
68.682026529
 21
141.7434937075
  0
LINE
  5
369
100
AcDbEntity
  8
KONSTRUKTIONSELEMENTE
100
AcDbLine
 62
7
  6
CONTINUOUS
 10
70.5786312928
 20
139.0626425721
 11
70.5786312928
 21
138.7647702411
  0
LINE
  5
36A
100
AcDbEntity
  8
KONSTRUKTIONSELEMENTE
100
AcDbLine
 62
7
  6
CONTINUOUS
 10
70.6971686242
 20
141.1477488891
 11
70.6971686242
 21
140.8498765842
  0
LINE
  5
36B
100
AcDbEntity
  8
KONSTRUKTIONSELEMENTE
100
AcDbLine
 62
7
  6
CONTINUOUS
 10
70.7274534929
 20
146.6690256313
 11
70.7274534929
 21
145.2541319743
  0
LINE
  5
36C
100
AcDbEntity
  8
KONSTRUKTIONSELEMENTE
100
AcDbLine
 62
7
  6
CONTINUOUS
 10
70.7274534929
 20
144.8073234126
 11
70.7274534929
 21
143.7647702411
  0
LINE
  5
36D
100
AcDbEntity
  8
KONSTRUKTIONSELEMENTE
100
AcDbLine
 62
7
  6
CONTINUOUS
 10
71.0830668437
 20
147.2647702411
 11
71.0830668437
 21
145.2541319743
  0
LINE
  5
36E
100
AcDbEntity
  8
KONSTRUKTIONSELEMENTE
100
AcDbLine
 62
7
  6
CONTINUOUS
 10
71.0830668437
 20
144.8073234126
 11
71.0830668437
 21
143.7647702411
  0
LINE
  5
36F
100
AcDbEntity
  8
KONSTRUKTIONSELEMENTE
100
AcDbLine
 62
7
  6
CONTINUOUS
 10
71.675756214
 20
145.2541319743
 11
71.675756214
 21
144.8073234126
  0
LINE
  5
370
100
AcDbEntity
  8
BEZUGSACHSEN
100
AcDbLine
 62
2
  6
CENTER
 10
72.5251127846
 20
110.7647702411
 11
72.5251127846
 21
106.5147702411
  0
LINE
  5
371
100
AcDbEntity
  8
BEZUGSACHSEN
100
AcDbLine
 62
2
  6
CENTER
 10
72.5251127846
 20
110.7647702411
 11
72.5251127846
 21
115.0147702411
  0
LINE
  5
372
100
AcDbEntity
  8
KONSTRUKTIONSELEMENTE
100
AcDbLine
 62
7
  6
CONTINUOUS
 10
68.9292791732
 20
149.2860468269
 11
68.6376127846
 21
149.2115787507
  0
LINE
  5
373
100
AcDbEntity
  8
KONSTRUKTIONSELEMENTE
100
AcDbLine
 62
7
  6
CONTINUOUS
 10
65.4292795904
 20
149.2860468269
 11
65.1376127846
 21
149.2115787507
  0
LINE
  5
374
100
AcDbEntity
  8
KONSTRUKTIONSELEMENTE
100
AcDbLine
 62
7
  6
CONTINUOUS
 10
58.0439107035
 20
145.4030681268
 11
57.7475661879
 21
145.3286000506
  0
LINE
  5
375
100
AcDbEntity
  8
KONSTRUKTIONSELEMENTE
100
AcDbLine
 62
7
  6
CONTINUOUS
 10
69.0021963961
 20
148.8392383239
 11
68.6376127846
 21
148.7647702411
  0
LINE
  5
376
100
AcDbEntity
  8
KONSTRUKTIONSELEMENTE
100
AcDbLine
 62
7
  6
CONTINUOUS
 10
65.5021959789
 20
148.8392383239
 11
65.1376127846
 21
148.7647702411
  0
LINE
  5
377
100
AcDbEntity
  8
KONSTRUKTIONSELEMENTE
100
AcDbLine
 62
7
  6
CONTINUOUS
 10
68.1196227058
 20
146.89242986
 11
66.9935133093
 21
146.89242986
  0
LINE
  5
378
100
AcDbEntity
  8
KONSTRUKTIONSELEMENTE
100
AcDbLine
 62
7
  6
CONTINUOUS
 10
60.4739353239
 20
146.89242986
 11
59.3478262666
 21
146.89242986
  0
LINE
  5
379
100
AcDbEntity
  8
KONSTRUKTIONSELEMENTE
100
AcDbLine
 62
7
  6
CONTINUOUS
 10
57.8068350232
 20
146.89242986
 11
56.6807261355
 21
146.89242986
  0
LINE
  5
37A
100
AcDbEntity
  8
KONSTRUKTIONSELEMENTE
100
AcDbLine
 62
7
  6
CONTINUOUS
 10
71.0830668437
 20
147.2647702411
 11
70.7274534929
 21
147.2647702411
  0
LINE
  5
37B
100
AcDbEntity
  8
KONSTRUKTIONSELEMENTE
100
AcDbLine
 62
7
  6
CONTINUOUS
 10
68.0603533618
 20
147.2647702411
 11
66.6378999585
 21
147.2647702411
  0
LINE
  5
37C
100
AcDbEntity
  8
KONSTRUKTIONSELEMENTE
100
AcDbLine
 62
7
  6
CONTINUOUS
 10
66.163748598
 20
147.2647702411
 11
65.8081352471
 21
147.2647702411
  0
LINE
  5
37D
100
AcDbEntity
  8
KONSTRUKTIONSELEMENTE
100
AcDbLine
 62
7
  6
CONTINUOUS
 10
65.3339845649
 20
147.2647702411
 11
64.9783712141
 21
147.2647702411
  0
LINE
  5
37E
100
AcDbEntity
  8
KONSTRUKTIONSELEMENTE
100
AcDbLine
 62
7
  6
CONTINUOUS
 10
60.4146663191
 20
147.2647702411
 11
58.9922129158
 21
147.2647702411
  0
LINE
  5
37F
100
AcDbEntity
  8
KONSTRUKTIONSELEMENTE
100
AcDbLine
 62
7
  6
CONTINUOUS
 10
57.7475661879
 20
147.2647702411
 11
56.3251127846
 21
147.2647702411
  0
LINE
  5
380
100
AcDbEntity
  8
KONSTRUKTIONSELEMENTE
100
AcDbLine
 62
7
  6
CONTINUOUS
 10
62.9632284406
 20
147.2647702411
 11
63.3188417914
 21
147.2647702411
  0
LINE
  5
381
100
AcDbEntity
  8
KONSTRUKTIONSELEMENTE
100
AcDbLine
 62
7
  6
CONTINUOUS
 10
68.6376127846
 20
148.7647702411
 11
66.8876127846
 21
148.7647702411
  0
LINE
  5
382
100
AcDbEntity
  8
KONSTRUKTIONSELEMENTE
100
AcDbLine
 62
7
  6
CONTINUOUS
 10
65.1376127846
 20
148.7647702411
 11
64.8459459789
 21
148.7647702411
  0
LINE
  5
383
100
AcDbEntity
  8
KONSTRUKTIONSELEMENTE
100
AcDbLine
 62
7
  6
CONTINUOUS
 10
63.0959461875
 20
148.7647702411
 11
62.5855293818
 21
148.7647702411
  0
LINE
  5
384
100
AcDbEntity
  8
KONSTRUKTIONSELEMENTE
100
AcDbLine
 62
7
  6
CONTINUOUS
 10
60.7626127846
 20
148.7647702411
 11
60.3251127846
 21
148.7647702411
  0
LINE
  5
385
100
AcDbEntity
  8
KONSTRUKTIONSELEMENTE
100
AcDbLine
 62
7
  6
CONTINUOUS
 10
68.6376127846
 20
149.2115787507
 11
67.3251127846
 21
149.2115787507
  0
LINE
  5
386
100
AcDbEntity
  8
KONSTRUKTIONSELEMENTE
100
AcDbLine
 62
7
  6
CONTINUOUS
 10
65.1376127846
 20
149.2115787507
 11
64.8459459789
 21
149.2115787507
  0
LINE
  5
387
100
AcDbEntity
  8
KONSTRUKTIONSELEMENTE
100
AcDbLine
 62
7
  6
CONTINUOUS
 10
64.8459459789
 20
148.7647702411
 11
64.4813627846
 21
148.8392383239
  0
LINE
  5
388
100
AcDbEntity
  8
KONSTRUKTIONSELEMENTE
100
AcDbLine
 62
7
  6
CONTINUOUS
 10
68.3566973686
 20
147.1903021649
 11
68.0603533618
 21
147.2647702411
  0
LINE
  5
389
100
AcDbEntity
  8
KONSTRUKTIONSELEMENTE
100
AcDbLine
 62
7
  6
CONTINUOUS
 10
64.8459459789
 20
149.2115787507
 11
64.5542795904
 21
149.2860468269
  0
LINE
  5
38A
100
AcDbEntity
  8
KONSTRUKTIONSELEMENTE
100
AcDbLine
 62
7
  6
CONTINUOUS
 10
68.2974293812
 20
146.8179617838
 11
68.1196227058
 21
146.89242986
  0
LINE
  5
38B
100
AcDbEntity
  8
KONSTRUKTIONSELEMENTE
100
AcDbLine
 62
7
  6
CONTINUOUS
 10
64.4813627846
 20
148.8392383239
 11
64.1896959789
 21
148.9881744959
  0
LINE
  5
38C
100
AcDbEntity
  8
KONSTRUKTIONSELEMENTE
100
AcDbLine
 62
7
  6
CONTINUOUS
 10
64.5542795904
 20
149.2860468269
 11
64.3355295904
 21
149.4349830315
  0
LINE
  5
38D
100
AcDbEntity
  8
KONSTRUKTIONSELEMENTE
100
AcDbLine
 62
7
  6
CONTINUOUS
 10
62.7313627846
 20
151.9668979362
 11
62.4396961875
 21
152.1903021649
  0
LINE
  5
38E
100
AcDbEntity
  8
KONSTRUKTIONSELEMENTE
100
AcDbLine
 62
7
  6
CONTINUOUS
 10
68.593773388
 20
146.9668979362
 11
68.3566973686
 21
147.1903021649
  0
LINE
  5
38F
100
AcDbEntity
  8
KONSTRUKTIONSELEMENTE
100
AcDbLine
 62
7
  6
CONTINUOUS
 10
62.5126127846
 20
151.6690256313
 11
62.3667793818
 21
151.8179617838
  0
LINE
  5
390
100
AcDbEntity
  8
KONSTRUKTIONSELEMENTE
100
AcDbLine
 62
7
  6
CONTINUOUS
 10
68.4159667126
 20
146.6690256313
 11
68.2974293812
 21
146.8179617838
  0
LINE
  5
391
100
AcDbEntity
  8
KONSTRUKTIONSELEMENTE
100
AcDbLine
 62
7
  6
CONTINUOUS
 10
68.7715800634
 20
146.6690256313
 11
68.593773388
 21
146.9668979362
  0
LINE
  5
392
100
AcDbEntity
  8
KONSTRUKTIONSELEMENTE
100
AcDbLine
 62
7
  6
CONTINUOUS
 10
69.3667791732
 20
151.0732808128
 11
69.2938627846
 21
151.3711531178
  0
LINE
  5
393
100
AcDbEntity
  8
KONSTRUKTIONSELEMENTE
100
AcDbLine
 62
7
  6
CONTINUOUS
 10
69.8042791732
 20
151.0732808128
 11
69.7313627846
 21
151.4456214026
  0
LINE
  5
394
100
AcDbEntity
  8
KONSTRUKTIONSELEMENTE
100
AcDbLine
 62
7
  6
CONTINUOUS
 10
75.5021910367
 20
173.2647702411
 11
75.5021910367
 21
166.2647702411
  0
LINE
  5
395
100
AcDbEntity
  8
KONSTRUKTIONSELEMENTE
100
AcDbLine
 62
7
  6
CONTINUOUS
 10
75.5021910367
 20
109.2647702411
 11
75.5021910367
 21
116.2647702411
  0
LINE
  5
396
100
AcDbEntity
  8
KONSTRUKTIONSELEMENTE
100
AcDbLine
 62
7
  6
CONTINUOUS
 10
62.0021960832
 20
150.3286000506
 11
60.7626127846
 21
150.3286000506
  0
LINE
  5
397
100
AcDbEntity
  8
KONSTRUKTIONSELEMENTE
100
AcDbLine
 62
7
  6
CONTINUOUS
 10
62.1480293818
 20
150.7754085079
 11
60.7626127846
 21
150.7754085079
  0
LINE
  5
398
100
AcDbEntity
  8
KONSTRUKTIONSELEMENTE
100
AcDbLine
 62
7
  6
CONTINUOUS
 10
68.6376127846
 20
151.8179617838
 11
67.3251127846
 21
151.8179617838
  0
LINE
  5
399
100
AcDbEntity
  8
KONSTRUKTIONSELEMENTE
100
AcDbLine
 62
7
  6
CONTINUOUS
 10
62.1480293818
 20
151.89242986
 11
60.7626127846
 21
151.89242986
  0
LINE
  5
39A
100
AcDbEntity
  8
KONSTRUKTIONSELEMENTE
100
AcDbLine
 62
7
  6
CONTINUOUS
 10
62.4396961875
 20
152.1903021649
 11
62.0751127846
 21
152.2647702411
  0
LINE
  5
39B
100
AcDbEntity
  8
KONSTRUKTIONSELEMENTE
100
AcDbLine
 62
7
  6
CONTINUOUS
 10
62.3667793818
 20
151.8179617838
 11
62.1480293818
 21
151.89242986
  0
LINE
  5
39C
100
AcDbEntity
  8
KONSTRUKTIONSELEMENTE
100
AcDbLine
 62
7
  6
CONTINUOUS
 10
69.5855291732
 20
151.7434937075
 11
69.2938627846
 21
152.0413660124
  0
LINE
  5
39D
100
AcDbEntity
  8
KONSTRUKTIONSELEMENTE
100
AcDbLine
 62
7
  6
CONTINUOUS
 10
69.2938627846
 20
151.3711531178
 11
69.1480291732
 21
151.5945575551
  0
LINE
  5
39E
100
AcDbEntity
  8
KONSTRUKTIONSELEMENTE
100
AcDbLine
 62
7
  6
CONTINUOUS
 10
69.7313627846
 20
151.4456214026
 11
69.5855291732
 21
151.7434937075
  0
LINE
  5
39F
100
AcDbEntity
  8
BEZUGSACHSEN
100
AcDbLine
 62
7
  6
CONTINUOUS
 10
77.3251127846
 20
175.7647702411
 11
77.3251127846
 21
174.2645418723
  0
LINE
  5
3A0
100
AcDbEntity
  8
BEZUGSACHSEN
100
AcDbLine
 62
7
  6
CONTINUOUS
 10
77.3251127846
 20
169.2649986099
 11
77.3251127846
 21
166.2647702411
  0
LINE
  5
3A1
100
AcDbEntity
  8
BEZUGSACHSEN
100
AcDbLine
 62
7
  6
CONTINUOUS
 10
77.3251127846
 20
106.7647702411
 11
77.3251127846
 21
108.2650052439
  0
LINE
  5
3A2
100
AcDbEntity
  8
BEZUGSACHSEN
100
AcDbLine
 62
7
  6
CONTINUOUS
 10
77.3251127846
 20
113.2645370427
 11
77.3251127846
 21
116.2647702411
  0
LINE
  5
3A3
100
AcDbEntity
  8
KONSTRUKTIONSELEMENTE
100
AcDbLine
 62
7
  6
CONTINUOUS
 10
68.6376127846
 20
152.2647702411
 11
66.8876127846
 21
152.2647702411
  0
LINE
  5
3A4
100
AcDbEntity
  8
KONSTRUKTIONSELEMENTE
100
AcDbLine
 62
7
  6
CONTINUOUS
 10
66.3042795904
 20
152.2647702411
 11
65.8667795904
 21
152.2647702411
  0
LINE
  5
3A5
100
AcDbEntity
  8
KONSTRUKTIONSELEMENTE
100
AcDbLine
 62
7
  6
CONTINUOUS
 10
64.1167795904
 20
152.2647702411
 11
63.6792793818
 21
152.2647702411
  0
LINE
  5
3A6
100
AcDbEntity
  8
KONSTRUKTIONSELEMENTE
100
AcDbLine
 62
7
  6
CONTINUOUS
 10
62.0751127846
 20
152.2647702411
 11
60.3251127846
 21
152.2647702411
  0
LINE
  5
3A7
100
AcDbEntity
  8
KONSTRUKTIONSELEMENTE
100
AcDbLine
 62
7
  6
CONTINUOUS
 10
69.0021963961
 20
152.1903021649
 11
68.6376127846
 21
152.2647702411
  0
LINE
  5
3A8
100
AcDbEntity
  8
KONSTRUKTIONSELEMENTE
100
AcDbLine
 62
7
  6
CONTINUOUS
 10
68.9292791732
 20
151.7434937075
 11
68.6376127846
 21
151.8179617838
  0
LINE
  5
3A9
100
AcDbEntity
  8
KONSTRUKTIONSELEMENTE
100
AcDbLine
 62
7
  6
CONTINUOUS
 10
69.2938627846
 20
152.0413660124
 11
69.0021963961
 21
152.1903021649
  0
LINE
  5
3AA
100
AcDbEntity
  8
KONSTRUKTIONSELEMENTE
100
AcDbLine
 62
7
  6
CONTINUOUS
 10
69.1480291732
 20
151.5945575551
 11
68.9292791732
 21
151.7434937075
  0
LINE
  5
3AB
100
AcDbEntity
  8
BEZUGSACHSEN
100
AcDbLine
 62
7
  6
CONTINUOUS
 10
79.0751127846
 20
133.2647702411
 11
79.0751127846
 21
136.2647702411
  0
LINE
  5
3AC
100
AcDbEntity
  8
KONSTRUKTIONSELEMENTE
100
AcDbLine
 62
7
  6
CONTINUOUS
 10
79.4453043019
 20
162.093632667
 11
79.4453043019
 21
159.2647702411
  0
LINE
  5
3AD
100
AcDbEntity
  8
KONSTRUKTIONSELEMENTE
100
AcDbLine
 62
7
  6
CONTINUOUS
 10
79.4453043019
 20
120.4359078152
 11
79.4453043019
 21
123.2647702411
  0
LINE
  5
3AE
100
AcDbEntity
  8
BEZUGSACHSEN
100
AcDbLine
 62
7
  6
CONTINUOUS
 10
80.8251127846
 20
162.093632667
 11
80.8251127846
 21
136.2647702411
  0
LINE
  5
3AF
100
AcDbEntity
  8
BEZUGSACHSEN
100
AcDbLine
 62
7
  6
CONTINUOUS
 10
80.8251127846
 20
120.4359078152
 11
80.8251127846
 21
133.2647702411
  0
LINE
  5
3B0
100
AcDbEntity
  8
KONSTRUKTIONSELEMENTE
100
AcDbLine
 62
7
  6
CONTINUOUS
 10
52.752416317
 20
155.2647702411
 11
76.8978092523
 21
155.2647702411
  0
LINE
  5
3B1
100
AcDbEntity
  8
KONSTRUKTIONSELEMENTE
100
AcDbLine
 62
7
  6
CONTINUOUS
 10
80.8251127846
 20
162.093632667
 11
79.4453043019
 21
162.093632667
  0
LINE
  5
3B2
100
AcDbEntity
  8
KONSTRUKTIONSELEMENTE
100
AcDbLine
 62
7
  6
CONTINUOUS
 10
50.2049212674
 20
162.093632667
 11
48.8251127846
 21
162.093632667
  0
LINE
  5
3B3
100
AcDbEntity
  8
BEZUGSACHSEN
100
AcDbLine
 62
7
  6
CONTINUOUS
 10
77.3251127846
 20
116.2647702411
 11
80.8251127846
 21
120.4359078152
  0
LINE
  5
3B4
100
AcDbEntity
  8
KONSTRUKTIONSELEMENTE
100
AcDbLine
 62
7
  6
CONTINUOUS
 10
77.3251127846
 20
166.2647702411
 11
75.5021910367
 21
166.2647702411
  0
LINE
  5
3B5
100
AcDbEntity
  8
KONSTRUKTIONSELEMENTE
100
AcDbLine
 62
7
  6
CONTINUOUS
 10
54.1480345326
 20
166.2647702411
 11
52.3251127846
 21
166.2647702411
  0
LINE
  5
3B6
100
AcDbEntity
  8
BEZUGSACHSEN
100
AcDbLine
 62
7
  6
CONTINUOUS
 10
77.3251127846
 20
166.2647702411
 11
80.8251127846
 21
162.093632667
  0
LINE
  5
3B7
100
AcDbEntity
  8
BEZUGSACHSEN
100
AcDbLine
 62
7
  6
CONTINUOUS
 10
62.4251127846
 20
169.2647702411
 11
67.2251127846
 21
169.2647702411
  0
LINE
  5
3B8
100
AcDbEntity
  8
BEZUGSACHSEN
100
AcDbLine
 62
2
  6
CENTER
 10
57.1251127846
 20
171.7647702411
 11
51.3384080347
 21
171.7647702411
  0
LINE
  5
3B9
100
AcDbEntity
  8
BEZUGSACHSEN
100
AcDbLine
 62
2
  6
CENTER
 10
57.1251127846
 20
171.7647702411
 11
78.3583720682
 21
171.7647702411
  0
LINE
  5
3BA
100
AcDbEntity
  8
KONSTRUKTIONSELEMENTE
100
AcDbLine
 62
7
  6
CONTINUOUS
 10
75.5021910367
 20
173.2647702411
 11
67.2251127846
 21
173.2647702411
  0
LINE
  5
3BB
100
AcDbEntity
  8
KONSTRUKTIONSELEMENTE
100
AcDbLine
 62
7
  6
CONTINUOUS
 10
62.4251127846
 20
173.2647702411
 11
54.1480345326
 21
173.2647702411
  0
LINE
  5
3BC
100
AcDbEntity
  8
BEZUGSACHSEN
100
AcDbLine
 62
7
  6
CONTINUOUS
 10
62.4251127846
 20
174.2647702411
 11
67.2251127846
 21
174.2647702411
  0
LINE
  5
3BD
100
AcDbEntity
  8
BEZUGSACHSEN
100
AcDbLine
 62
7
  6
CONTINUOUS
 10
74.1341734218
 20
105.2768107795
 11
77.3251127846
 21
106.7647702411
  0
LINE
  5
3BE
100
AcDbEntity
  8
KONSTRUKTIONSELEMENTE
100
AcDbLine
 62
7
  6
CONTINUOUS
 10
77.3251127846
 20
175.7647702411
 11
76.7412368092
 21
175.7647702411
  0
LINE
  5
3BF
100
AcDbEntity
  8
KONSTRUKTIONSELEMENTE
100
AcDbLine
 62
7
  6
CONTINUOUS
 10
52.9089887601
 20
175.7647702411
 11
52.3251127846
 21
175.7647702411
  0
LINE
  5
3C0
100
AcDbEntity
  8
KONSTRUKTIONSELEMENTE
100
AcDbLine
 62
7
  6
CONTINUOUS
 10
55.5418310194
 20
177.2647702411
 11
62.4251127846
 21
177.2647702411
  0
LINE
  5
3C1
100
AcDbEntity
  8
KONSTRUKTIONSELEMENTE
100
AcDbLine
 62
7
  6
CONTINUOUS
 10
67.2251127846
 20
177.2647702411
 11
74.1085350526
 21
177.2647702411
  0
LINE
  5
3C2
100
AcDbEntity
  8
BEZUGSACHSEN
100
AcDbLine
 62
7
  6
CONTINUOUS
 10
74.1086063603
 20
177.2646518193
 11
77.3251127846
 21
175.7647702411
  0
LINE
  5
3C3
100
AcDbEntity
  8
KONSTRUKTIONSELEMENTE
100
AcDbLine
 62
7
  6
CONTINUOUS
 10
56.3251127846
 20
43.1272408873
 11
56.3251127846
 21
42.5405469753
  0
LINE
  5
3C4
100
AcDbEntity
  8
KONSTRUKTIONSELEMENTE
100
AcDbLine
 62
7
  6
CONTINUOUS
 10
57.7475661879
 20
42.3331761904
 11
57.7475661879
 21
41.7777057735
  0
LINE
  5
3C5
100
AcDbEntity
  8
KONSTRUKTIONSELEMENTE
100
AcDbLine
 62
7
  6
CONTINUOUS
 10
58.0439107035
 20
42.1907780198
 11
58.0439107035
 21
41.6405651173
  0
LINE
  5
3C6
100
AcDbEntity
  8
KONSTRUKTIONSELEMENTE
100
AcDbLine
 62
7
  6
CONTINUOUS
 10
58.2809862142
 20
42.0821892023
 11
58.2809862142
 21
41.5359203236
  0
LINE
  5
3C7
100
AcDbEntity
  8
KONSTRUKTIONSELEMENTE
100
AcDbLine
 62
7
  6
CONTINUOUS
 10
58.4587928896
 20
42.0037871708
 11
58.4587928896
 21
41.4603315653
  0
LINE
  5
3C8
100
AcDbEntity
  8
KONSTRUKTIONSELEMENTE
100
AcDbLine
 62
7
  6
CONTINUOUS
 10
58.5180617249
 20
41.9782238559
 11
58.5180617249
 21
41.4356793876
  0
LINE
  5
3C9
100
AcDbEntity
  8
KONSTRUKTIONSELEMENTE
100
AcDbLine
 62
7
  6
CONTINUOUS
 10
79.4453043019
 20
50.1826825991
 11
67.2251127846
 21
50.1826825991
  0
LINE
  5
3CA
100
AcDbEntity
  8
KONSTRUKTIONSELEMENTE
100
AcDbLine
 62
7
  6
CONTINUOUS
 10
62.4251127846
 20
50.1826825991
 11
50.2049212674
 21
50.1826825991
  0
LINE
  5
3CB
100
AcDbEntity
  8
KONSTRUKTIONSELEMENTE
100
AcDbLine
 62
7
  6
CONTINUOUS
 10
58.9922129158
 20
41.7837806556
 11
58.9922129158
 21
41.2480695777
  0
LINE
  5
3CC
100
AcDbEntity
  8
KONSTRUKTIONSELEMENTE
100
AcDbLine
 62
7
  6
CONTINUOUS
 10
60.3251127846
 20
41.3285300663
 11
60.3251127846
 21
40.8081747327
  0
LINE
  5
3CD
100
AcDbEntity
  8
KONSTRUKTIONSELEMENTE
100
AcDbLine
 62
7
  6
CONTINUOUS
 10
62.0751127846
 20
40.9207823329
 11
62.0751127846
 21
40.4134631955
  0
LINE
  5
3CE
100
AcDbEntity
  8
KONSTRUKTIONSELEMENTE
100
AcDbLine
 62
7
  6
CONTINUOUS
 10
62.4251127846
 20
50.1826825991
 11
62.4251127846
 21
63.1826825991
  0
LINE
  5
3CF
100
AcDbEntity
  8
KONSTRUKTIONSELEMENTE
100
AcDbLine
 62
7
  6
CONTINUOUS
 10
62.4396961875
 20
40.8615009852
 11
62.4396961875
 21
40.3560237964
  0
LINE
  5
3D0
100
AcDbEntity
  8
KONSTRUKTIONSELEMENTE
100
AcDbLine
 62
7
  6
CONTINUOUS
 10
62.7313627846
 20
40.8202675579
 11
62.7313627846
 21
40.3160637993
  0
LINE
  5
3D1
100
AcDbEntity
  8
KONSTRUKTIONSELEMENTE
100
AcDbLine
 62
7
  6
CONTINUOUS
 10
62.9501127846
 20
40.7929256783
 11
62.9501127846
 21
40.2895628533
  0
LINE
  5
3D2
100
AcDbEntity
  8
KONSTRUKTIONSELEMENTE
100
AcDbLine
 62
7
  6
CONTINUOUS
 10
63.0230293818
 20
40.7844910224
 11
63.0230293818
 21
40.2813870585
  0
LINE
  5
3D3
100
AcDbEntity
  8
KONSTRUKTIONSELEMENTE
100
AcDbLine
 62
7
  6
CONTINUOUS
 10
63.0959461875
 20
40.7763950724
 11
63.0959461875
 21
40.2735393283
  0
LINE
  5
3D4
100
AcDbEntity
  8
KONSTRUKTIONSELEMENTE
100
AcDbLine
 62
7
  6
CONTINUOUS
 10
63.3188417914
 20
40.7537420287
 11
63.3188417914
 21
40.2515795413
  0
LINE
  5
3D5
100
AcDbEntity
  8
BEZUGSACHSEN
100
AcDbLine
 62
7
  6
CONTINUOUS
 10
62.4251127846
 20
54.1826825991
 11
67.2251127846
 21
54.1826825991
  0
LINE
  5
3D6
100
AcDbEntity
  8
KONSTRUKTIONSELEMENTE
100
AcDbLine
 62
7
  6
CONTINUOUS
 10
63.6792793818
 20
40.7237645338
 11
63.6792793818
 21
40.2225165667
  0
LINE
  5
3D7
100
AcDbEntity
  8
KONSTRUKTIONSELEMENTE
100
AcDbLine
 62
7
  6
CONTINUOUS
 10
64.1167795904
 20
40.6983695364
 11
64.1167795904
 21
40.1978937291
  0
LINE
  5
3D8
100
AcDbEntity
  8
KONSTRUKTIONSELEMENTE
100
AcDbLine
 62
7
  6
CONTINUOUS
 10
64.1896959789
 20
40.6953049065
 11
64.1896959789
 21
40.194922124
  0
LINE
  5
3D9
100
AcDbEntity
  8
KONSTRUKTIONSELEMENTE
100
AcDbLine
 62
7
  6
CONTINUOUS
 10
64.3355295904
 20
40.6901747189
 11
64.3355295904
 21
40.1899475834
  0
LINE
  5
3DA
100
AcDbEntity
  8
KONSTRUKTIONSELEMENTE
100
AcDbLine
 62
7
  6
CONTINUOUS
 10
64.5542795904
 20
40.6849749701
 11
64.5542795904
 21
40.1849054948
  0
LINE
  5
3DB
100
AcDbEntity
  8
BEZUGSACHSEN
100
AcDbLine
 62
2
  6
CENTER
 10
64.8251127846
 20
56.6826825991
 11
64.8251127846
 21
37.6826825991
  0
LINE
  5
3DC
100
AcDbEntity
  8
BEZUGSACHSEN
100
AcDbLine
 62
2
  6
CENTER
 10
64.8251127846
 20
56.6826825991
 11
64.8251127846
 21
75.6826825991
  0
LINE
  5
3DD
100
AcDbEntity
  8
KONSTRUKTIONSELEMENTE
100
AcDbLine
 62
7
  6
CONTINUOUS
 10
64.8459459789
 20
40.6826961622
 11
64.8459459789
 21
40.1826957512
  0
LINE
  5
3DE
100
AcDbEntity
  8
KONSTRUKTIONSELEMENTE
100
AcDbLine
 62
7
  6
CONTINUOUS
 10
65.1376127846
 20
40.685734648
 11
65.1376127846
 21
40.1856421448
  0
LINE
  5
3DF
100
AcDbEntity
  8
KONSTRUKTIONSELEMENTE
100
AcDbLine
 62
7
  6
CONTINUOUS
 10
65.4292795904
 20
40.6940934658
 11
65.4292795904
 21
40.1937474463
  0
LINE
  5
3E0
100
AcDbEntity
  8
KONSTRUKTIONSELEMENTE
100
AcDbLine
 62
7
  6
CONTINUOUS
 10
65.6480295904
 20
40.7038588648
 11
65.6480295904
 21
40.2032163477
  0
LINE
  5
3E1
100
AcDbEntity
  8
KONSTRUKTIONSELEMENTE
100
AcDbLine
 62
7
  6
CONTINUOUS
 10
65.7938627846
 20
40.712036919
 11
65.7938627846
 21
40.2111458329
  0
LINE
  5
3E2
100
AcDbEntity
  8
KONSTRUKTIONSELEMENTE
100
AcDbLine
 62
7
  6
CONTINUOUS
 10
65.8667795904
 20
40.7166270353
 11
65.8667795904
 21
40.2155963278
  0
LINE
  5
3E3
100
AcDbEntity
  8
KONSTRUKTIONSELEMENTE
100
AcDbLine
 62
7
  6
CONTINUOUS
 10
66.3042795904
 20
40.7512022673
 11
66.3042795904
 21
40.2491173876
  0
LINE
  5
3E4
100
AcDbEntity
  8
BEZUGSACHSEN
100
AcDbLine
 62
2
  6
CENTER
 10
64.8251127846
 20
56.6826825991
 11
45.8251127846
 21
56.6826825991
  0
LINE
  5
3E5
100
AcDbEntity
  8
BEZUGSACHSEN
100
AcDbLine
 62
2
  6
CENTER
 10
64.8251127846
 20
56.6826825991
 11
83.8251127846
 21
56.6826825991
  0
LINE
  5
3E6
100
AcDbEntity
  8
KONSTRUKTIONSELEMENTE
100
AcDbLine
 62
7
  6
CONTINUOUS
 10
66.6378999585
 20
40.7857079604
 11
66.6378999585
 21
40.2825666646
  0
LINE
  5
3E7
100
AcDbEntity
  8
KONSTRUKTIONSELEMENTE
100
AcDbLine
 62
7
  6
CONTINUOUS
 10
66.8876127846
 20
40.8161740433
 11
66.8876127846
 21
40.3120963618
  0
LINE
  5
3E8
100
AcDbEntity
  8
KONSTRUKTIONSELEMENTE
100
AcDbLine
 62
7
  6
CONTINUOUS
 10
67.2251127846
 20
50.1826825991
 11
67.2251127846
 21
63.1826825991
  0
LINE
  5
3E9
100
AcDbEntity
  8
BEZUGSACHSEN
100
AcDbLine
 62
7
  6
CONTINUOUS
 10
62.4251127846
 20
59.1826825991
 11
67.2251127846
 21
59.1826825991
  0
LINE
  5
3EA
100
AcDbEntity
  8
KONSTRUKTIONSELEMENTE
100
AcDbLine
 62
7
  6
CONTINUOUS
 10
68.6376127846
 20
41.1435435061
 11
68.6376127846
 21
40.6291831753
  0
LINE
  5
3EB
100
AcDbEntity
  8
KONSTRUKTIONSELEMENTE
100
AcDbLine
 62
7
  6
CONTINUOUS
 10
69.0021963961
 20
41.2375548073
 11
69.0021963961
 21
40.7201648621
  0
LINE
  5
3EC
100
AcDbEntity
  8
KONSTRUKTIONSELEMENTE
100
AcDbLine
 62
7
  6
CONTINUOUS
 10
69.2938627846
 20
41.3194058184
 11
69.2938627846
 21
40.7993494024
  0
LINE
  5
3ED
100
AcDbEntity
  8
KONSTRUKTIONSELEMENTE
100
AcDbLine
 62
7
  6
CONTINUOUS
 10
69.5855291732
 20
41.4072632658
 11
69.5855291732
 21
40.8843144616
  0
LINE
  5
3EE
100
AcDbEntity
  8
KONSTRUKTIONSELEMENTE
100
AcDbLine
 62
7
  6
CONTINUOUS
 10
69.7313627846
 20
41.4534767453
 11
69.7313627846
 21
40.9289937949
  0
LINE
  5
3EF
100
AcDbEntity
  8
KONSTRUKTIONSELEMENTE
100
AcDbLine
 62
7
  6
CONTINUOUS
 10
69.8042791732
 20
41.4771605075
 11
69.8042791732
 21
40.9518878933
  0
LINE
  5
3F0
100
AcDbEntity
  8
KONSTRUKTIONSELEMENTE
100
AcDbLine
 62
7
  6
CONTINUOUS
 10
70.7274534929
 20
41.8111536204
 11
70.7274534929
 21
41.2744908115
  0
LINE
  5
3F1
100
AcDbEntity
  8
KONSTRUKTIONSELEMENTE
100
AcDbLine
 62
7
  6
CONTINUOUS
 10
71.0830668437
 20
41.957262028
 11
71.0830668437
 21
41.4154624528
  0
LINE
  5
3F2
100
AcDbEntity
  8
KONSTRUKTIONSELEMENTE
100
AcDbLine
 62
7
  6
CONTINUOUS
 10
71.675756214
 20
42.2234749927
 11
71.675756214
 21
41.6720635377
  0
LINE
  5
3F3
100
AcDbEntity
  8
KONSTRUKTIONSELEMENTE
100
AcDbLine
 62
7
  6
CONTINUOUS
 10
50.2049212674
 20
63.1826825991
 11
62.4251127846
 21
63.1826825991
  0
LINE
  5
3F4
100
AcDbEntity
  8
KONSTRUKTIONSELEMENTE
100
AcDbLine
 62
7
  6
CONTINUOUS
 10
67.2251127846
 20
63.1826825991
 11
79.4453043019
 21
63.1826825991
  0
LINE
  5
3F5
100
AcDbEntity
  8
KONSTRUKTIONSELEMENTE
100
AcDbLine
 62
7
  6
CONTINUOUS
 10
138.3419846933
 20
106.7647702411
 11
145.8934052831
 21
106.7647702411
  0
LINE
  5
3F6
100
AcDbEntity
  8
BEZUGSACHSEN
100
AcDbLine
 62
2
  6
CENTER
 10
142.1176949882
 20
110.7647702411
 11
135.0816857211
 21
110.7647702411
  0
LINE
  5
3F7
100
AcDbEntity
  8
BEZUGSACHSEN
100
AcDbLine
 62
2
  6
CENTER
 10
142.1176949882
 20
110.7647702411
 11
149.5044164735
 21
110.7647702411
  0
LINE
  5
3F8
100
AcDbEntity
  8
KONSTRUKTIONSELEMENTE
100
AcDbLine
 62
7
  6
CONTINUOUS
 10
138.3989998656
 20
175.8170913766
 11
135.6176949882
 21
173.2647702411
  0
LINE
  5
3F9
100
AcDbEntity
  8
KONSTRUKTIONSELEMENTE
100
AcDbLine
 62
7
  6
CONTINUOUS
 10
135.6176949882
 20
109.2647702411
 11
138.3989998656
 21
106.7124491056
  0
LINE
  5
3FA
100
AcDbEntity
  8
KONSTRUKTIONSELEMENTE
100
AcDbLine
 62
7
  6
CONTINUOUS
 10
135.6176949882
 20
116.2647702411
 11
148.6176949882
 21
116.2647702411
  0
LINE
  5
3FB
100
AcDbEntity
  8
KONSTRUKTIONSELEMENTE
100
AcDbLine
 62
7
  6
CONTINUOUS
 10
135.6176949882
 20
120.4359078152
 11
148.6176949882
 21
120.4359078152
  0
LINE
  5
3FC
100
AcDbEntity
  8
BEZUGSACHSEN
100
AcDbLine
 62
7
  6
CONTINUOUS
 10
126.1176949882
 20
155.2647702411
 11
126.1176949882
 21
136.2647702411
  0
LINE
  5
3FD
100
AcDbEntity
  8
BEZUGSACHSEN
100
AcDbLine
 62
7
  6
CONTINUOUS
 10
126.1176949882
 20
127.2647702411
 11
126.1176949882
 21
133.2647702411
  0
LINE
  5
3FE
100
AcDbEntity
  8
BEZUGSACHSEN
100
AcDbLine
 62
7
  6
CONTINUOUS
 10
127.8676949882
 20
133.2647702411
 11
127.8676949882
 21
136.2647702411
  0
LINE
  5
3FF
100
AcDbEntity
  8
KONSTRUKTIONSELEMENTE
100
AcDbLine
 62
7
  6
CONTINUOUS
 10
158.1172067319
 20
127.2647702411
 11
152.6176949882
 21
127.2647702411
  0
LINE
  5
400
100
AcDbEntity
  8
KONSTRUKTIONSELEMENTE
100
AcDbLine
 62
7
  6
CONTINUOUS
 10
131.6176949882
 20
127.2647702411
 11
126.1181832446
 21
127.2647702411
  0
LINE
  5
401
100
AcDbEntity
  8
BEZUGSACHSEN
100
AcDbLine
 62
7
  6
CONTINUOUS
 10
126.1184139042
 20
133.2647702411
 11
158.1169760723
 21
133.2647702411
  0
LINE
  5
402
100
AcDbEntity
  8
KONSTRUKTIONSELEMENTE
100
AcDbLine
 62
7
  6
CONTINUOUS
 10
135.6176949882
 20
109.2647702411
 11
135.6176949882
 21
123.2647702411
  0
LINE
  5
403
100
AcDbEntity
  8
KONSTRUKTIONSELEMENTE
100
AcDbLine
 62
7
  6
CONTINUOUS
 10
135.6176949882
 20
159.2647702411
 11
135.6176949882
 21
173.2647702411
  0
LINE
  5
404
100
AcDbEntity
  8
BEZUGSACHSEN
100
AcDbLine
 62
7
  6
CONTINUOUS
 10
126.1184139042
 20
136.2647702411
 11
158.1169760723
 21
136.2647702411
  0
LINE
  5
405
100
AcDbEntity
  8
KONSTRUKTIONSELEMENTE
100
AcDbLine
 62
7
  6
CONTINUOUS
 10
158.0054165868
 20
138.3179617316
 11
158.5403423132
 21
138.3179617316
  0
LINE
  5
406
100
AcDbEntity
  8
KONSTRUKTIONSELEMENTE
100
AcDbLine
 62
7
  6
CONTINUOUS
 10
157.7450240234
 20
138.7647702411
 11
158.2565739076
 21
138.7647702411
  0
LINE
  5
407
100
AcDbEntity
  8
KONSTRUKTIONSELEMENTE
100
AcDbLine
 62
7
  6
CONTINUOUS
 10
158.5579995894
 20
138.7647702411
 11
158.6166885226
 21
138.7647702411
  0
LINE
  5
408
100
AcDbEntity
  8
KONSTRUKTIONSELEMENTE
100
AcDbLine
 62
7
  6
CONTINUOUS
 10
157.6626361877
 20
138.8392383239
 11
158.1768106829
 21
138.8392383239
  0
LINE
  5
409
100
AcDbEntity
  8
KONSTRUKTIONSELEMENTE
100
AcDbLine
 62
7
  6
CONTINUOUS
 10
158.560700354
 20
138.8392383239
 11
158.6173004595
 21
138.8392383239
  0
LINE
  5
40A
100
AcDbEntity
  8
BEZUGSACHSEN
100
AcDbLine
 62
2
  6
CENTER
 10
142.1176949882
 20
171.7647702411
 11
142.1176949882
 21
166.2647702411
  0
LINE
  5
40B
100
AcDbEntity
  8
BEZUGSACHSEN
100
AcDbLine
 62
2
  6
CENTER
 10
142.1176949882
 20
105.2647702411
 11
142.1176949882
 21
102.2647702411
  0
LINE
  5
40C
100
AcDbEntity
  8
BEZUGSACHSEN
100
AcDbLine
 62
2
  6
CENTER
 10
142.1176949882
 20
110.7647702411
 11
142.1176949882
 21
105.2647702411
  0
LINE
  5
40D
100
AcDbEntity
  8
BEZUGSACHSEN
100
AcDbLine
 62
2
  6
CENTER
 10
142.1176949882
 20
110.7647702411
 11
142.1176949882
 21
116.2647702411
  0
LINE
  5
40E
100
AcDbEntity
  8
BEZUGSACHSEN
100
AcDbLine
 62
2
  6
CENTER
 10
142.1176949882
 20
171.7647702411
 11
142.1176949882
 21
177.2647702411
  0
LINE
  5
40F
100
AcDbEntity
  8
BEZUGSACHSEN
100
AcDbLine
 62
2
  6
CENTER
 10
142.1176949882
 20
116.2647702411
 11
142.1176949882
 21
166.2647702411
  0
LINE
  5
410
100
AcDbEntity
  8
BEZUGSACHSEN
100
AcDbLine
 62
2
  6
CENTER
 10
142.1176949882
 20
177.2647702411
 11
142.1176949882
 21
180.2647702411
  0
LINE
  5
411
100
AcDbEntity
  8
KONSTRUKTIONSELEMENTE
100
AcDbLine
 62
7
  6
CONTINUOUS
 10
157.5874012813
 20
139.0626425721
 11
158.1039957734
 21
139.0626425721
  0
LINE
  5
412
100
AcDbEntity
  8
KONSTRUKTIONSELEMENTE
100
AcDbLine
 62
7
  6
CONTINUOUS
 10
158.5710191836
 20
139.0626425721
 11
158.6125891588
 21
139.0626425721
  0
LINE
  5
413
100
AcDbEntity
  8
KONSTRUKTIONSELEMENTE
100
AcDbLine
 62
7
  6
CONTINUOUS
 10
158.3916197949
 20
139.1371106744
 11
158.5710191836
 21
139.1371106744
  0
LINE
  5
414
100
AcDbEntity
  8
KONSTRUKTIONSELEMENTE
100
AcDbLine
 62
7
  6
CONTINUOUS
 10
158.1906784416
 20
139.2115787507
 11
158.3167810246
 21
139.2115787507
  0
LINE
  5
415
100
AcDbEntity
  8
KONSTRUKTIONSELEMENTE
100
AcDbLine
 62
7
  6
CONTINUOUS
 10
157.5393510387
 20
139.2860468269
 11
158.057502871
 21
139.2860468269
  0
LINE
  5
416
100
AcDbEntity
  8
KONSTRUKTIONSELEMENTE
100
AcDbLine
 62
7
  6
CONTINUOUS
 10
158.1483818106
 20
139.3605149031
 11
158.3502014853
 21
139.3605149031
  0
LINE
  5
417
100
AcDbEntity
  8
KONSTRUKTIONSELEMENTE
100
AcDbLine
 62
7
  6
CONTINUOUS
 10
158.4110166987
 20
139.3605149031
 11
158.6072055402
 21
139.3605149031
  0
LINE
  5
418
100
AcDbEntity
  8
KONSTRUKTIONSELEMENTE
100
AcDbLine
 62
7
  6
CONTINUOUS
 10
157.5060928541
 20
139.583919184
 11
158.0253280264
 21
139.583919184
  0
LINE
  5
419
100
AcDbEntity
  8
KONSTRUKTIONSELEMENTE
100
AcDbLine
 62
7
  6
CONTINUOUS
 10
158.438433921
 20
139.7328553364
 11
158.6025500603
 21
139.7328553364
  0
LINE
  5
41A
100
AcDbEntity
  8
KONSTRUKTIONSELEMENTE
100
AcDbLine
 62
7
  6
CONTINUOUS
 10
157.489093989
 20
139.8073234126
 11
158.0088845988
 21
139.8073234126
  0
LINE
  5
41B
100
AcDbEntity
  8
KONSTRUKTIONSELEMENTE
100
AcDbLine
 62
7
  6
CONTINUOUS
 10
158.0887331292
 20
139.8073234126
 11
158.391633645
 21
139.8073234126
  0
LINE
  5
41C
100
AcDbEntity
  8
KONSTRUKTIONSELEMENTE
100
AcDbLine
 62
7
  6
CONTINUOUS
 10
157.471847521
 20
140.1796638981
 11
157.9922028546
 21
140.1796638981
  0
LINE
  5
41D
100
AcDbEntity
  8
KONSTRUKTIONSELEMENTE
100
AcDbLine
 62
7
  6
CONTINUOUS
 10
158.0732357197
 20
140.2541319743
 11
158.4014359047
 21
140.2541319743
  0
LINE
  5
41E
100
AcDbEntity
  8
KONSTRUKTIONSELEMENTE
100
AcDbLine
 62
7
  6
CONTINUOUS
 10
158.4471325215
 20
140.2541319743
 11
158.5999021328
 21
140.2541319743
  0
LINE
  5
41F
100
AcDbEntity
  8
KONSTRUKTIONSELEMENTE
100
AcDbLine
 62
7
  6
CONTINUOUS
 10
158.0732357197
 20
140.7754085079
 11
158.4014359047
 21
140.7754085079
  0
LINE
  5
420
100
AcDbEntity
  8
KONSTRUKTIONSELEMENTE
100
AcDbLine
 62
7
  6
CONTINUOUS
 10
158.4471325215
 20
140.7754085079
 11
158.5999021328
 21
140.7754085079
  0
LINE
  5
421
100
AcDbEntity
  8
KONSTRUKTIONSELEMENTE
100
AcDbLine
 62
7
  6
CONTINUOUS
 10
157.471847521
 20
140.8498765842
 11
157.9922028546
 21
140.8498765842
  0
LINE
  5
422
100
AcDbEntity
  8
KONSTRUKTIONSELEMENTE
100
AcDbLine
 62
7
  6
CONTINUOUS
 10
157.489093989
 20
141.2222169653
 11
158.0088845988
 21
141.2222169653
  0
LINE
  5
423
100
AcDbEntity
  8
KONSTRUKTIONSELEMENTE
100
AcDbLine
 62
7
  6
CONTINUOUS
 10
158.0887331292
 20
141.2222169653
 11
158.391633645
 21
141.2222169653
  0
LINE
  5
424
100
AcDbEntity
  8
KONSTRUKTIONSELEMENTE
100
AcDbLine
 62
7
  6
CONTINUOUS
 10
158.438433921
 20
141.2966850415
 11
158.6025500603
 21
141.2966850415
  0
LINE
  5
425
100
AcDbEntity
  8
KONSTRUKTIONSELEMENTE
100
AcDbLine
 62
7
  6
CONTINUOUS
 10
157.5060928541
 20
141.4456214026
 11
158.0253280264
 21
141.4456214026
  0
LINE
  5
426
100
AcDbEntity
  8
KONSTRUKTIONSELEMENTE
100
AcDbLine
 62
7
  6
CONTINUOUS
 10
158.1483818106
 20
141.6690256313
 11
158.3502014853
 21
141.6690256313
  0
LINE
  5
427
100
AcDbEntity
  8
KONSTRUKTIONSELEMENTE
100
AcDbLine
 62
7
  6
CONTINUOUS
 10
158.4110166987
 20
141.6690256313
 11
158.6072055402
 21
141.6690256313
  0
LINE
  5
428
100
AcDbEntity
  8
KONSTRUKTIONSELEMENTE
100
AcDbLine
 62
7
  6
CONTINUOUS
 10
157.5393510387
 20
141.7434937075
 11
158.057502871
 21
141.7434937075
  0
LINE
  5
429
100
AcDbEntity
  8
KONSTRUKTIONSELEMENTE
100
AcDbLine
 62
7
  6
CONTINUOUS
 10
158.1906784416
 20
141.8179617838
 11
158.3167810246
 21
141.8179617838
  0
LINE
  5
42A
100
AcDbEntity
  8
KONSTRUKTIONSELEMENTE
100
AcDbLine
 62
7
  6
CONTINUOUS
 10
157.5874012813
 20
141.9668979362
 11
158.1039957734
 21
141.9668979362
  0
LINE
  5
42B
100
AcDbEntity
  8
KONSTRUKTIONSELEMENTE
100
AcDbLine
 62
7
  6
CONTINUOUS
 10
158.3816094919
 20
141.9668979362
 11
158.6125891588
 21
141.9668979362
  0
LINE
  5
42C
100
AcDbEntity
  8
KONSTRUKTIONSELEMENTE
100
AcDbLine
 62
7
  6
CONTINUOUS
 10
157.6626361877
 20
142.1903021649
 11
158.1768106829
 21
142.1903021649
  0
LINE
  5
42D
100
AcDbEntity
  8
KONSTRUKTIONSELEMENTE
100
AcDbLine
 62
7
  6
CONTINUOUS
 10
158.3281455355
 20
142.1903021649
 11
158.6173004595
 21
142.1903021649
  0
LINE
  5
42E
100
AcDbEntity
  8
KONSTRUKTIONSELEMENTE
100
AcDbLine
 62
7
  6
CONTINUOUS
 10
157.7450240234
 20
142.2647702411
 11
158.6166885226
 21
142.2647702411
  0
LINE
  5
42F
100
AcDbEntity
  8
KONSTRUKTIONSELEMENTE
100
AcDbLine
 62
7
  6
CONTINUOUS
 10
155.6731366999
 20
143.7647702411
 11
156.4675718556
 21
143.7647702411
  0
LINE
  5
430
100
AcDbEntity
  8
KONSTRUKTIONSELEMENTE
100
AcDbLine
 62
7
  6
CONTINUOUS
 10
157.0165969317
 20
143.7647702411
 11
157.6820559581
 21
143.7647702411
  0
LINE
  5
431
100
AcDbEntity
  8
KONSTRUKTIONSELEMENTE
100
AcDbLine
 62
7
  6
CONTINUOUS
 10
158.091591464
 20
143.7647702411
 11
158.6118424487
 21
143.7647702411
  0
LINE
  5
432
100
AcDbEntity
  8
KONSTRUKTIONSELEMENTE
100
AcDbLine
 62
7
  6
CONTINUOUS
 10
157.8013715987
 20
145.0307276413
 11
158.4514924755
 21
145.0307276413
  0
LINE
  5
433
100
AcDbEntity
  8
KONSTRUKTIONSELEMENTE
100
AcDbLine
 62
7
  6
CONTINUOUS
 10
158.0173164295
 20
145.3286000506
 11
157.6820559581
 21
145.3286000506
  0
LINE
  5
434
100
AcDbEntity
  8
KONSTRUKTIONSELEMENTE
100
AcDbLine
 62
7
  6
CONTINUOUS
 10
157.0226718138
 20
145.3286000506
 11
156.4675718556
 21
145.3286000506
  0
LINE
  5
435
100
AcDbEntity
  8
KONSTRUKTIONSELEMENTE
100
AcDbLine
 62
7
  6
CONTINUOUS
 10
158.0965611479
 20
145.4030681268
 11
158.4514924755
 21
145.4030681268
  0
LINE
  5
436
100
AcDbEntity
  8
KONSTRUKTIONSELEMENTE
100
AcDbLine
 62
7
  6
CONTINUOUS
 10
158.0336384006
 20
145.7754085079
 11
157.6820559581
 21
145.7754085079
  0
LINE
  5
437
100
AcDbEntity
  8
KONSTRUKTIONSELEMENTE
100
AcDbLine
 62
7
  6
CONTINUOUS
 10
157.0506711572
 20
145.7754085079
 11
156.4675718556
 21
145.7754085079
  0
LINE
  5
438
100
AcDbEntity
  8
KONSTRUKTIONSELEMENTE
100
AcDbLine
 62
7
  6
CONTINUOUS
 10
156.58171778
 20
145.8498765842
 11
157.132952406
 21
145.8498765842
  0
LINE
  5
439
100
AcDbEntity
  8
KONSTRUKTIONSELEMENTE
100
AcDbLine
 62
7
  6
CONTINUOUS
 10
157.6820559581
 20
145.8498765842
 11
158.081183839
 21
145.8498765842
  0
LINE
  5
43A
100
AcDbEntity
  8
KONSTRUKTIONSELEMENTE
100
AcDbLine
 62
7
  6
CONTINUOUS
 10
156.6371858002
 20
145.9988127366
 11
157.1863914626
 21
145.9988127366
  0
LINE
  5
43B
100
AcDbEntity
  8
KONSTRUKTIONSELEMENTE
100
AcDbLine
 62
7
  6
CONTINUOUS
 10
157.6820559581
 20
145.9988127366
 11
158.1117041295
 21
145.9988127366
  0
LINE
  5
43C
100
AcDbEntity
  8
KONSTRUKTIONSELEMENTE
100
AcDbLine
 62
7
  6
CONTINUOUS
 10
156.6644782392
 20
146.2222169653
 11
157.2126909455
 21
146.2222169653
  0
LINE
  5
43D
100
AcDbEntity
  8
KONSTRUKTIONSELEMENTE
100
AcDbLine
 62
7
  6
CONTINUOUS
 10
157.6820559581
 20
146.2222169653
 11
158.1266133603
 21
146.2222169653
  0
LINE
  5
43E
100
AcDbEntity
  8
KONSTRUKTIONSELEMENTE
100
AcDbLine
 62
7
  6
CONTINUOUS
 10
156.6644782392
 20
146.4456214026
 11
157.2126909455
 21
146.4456214026
  0
LINE
  5
43F
100
AcDbEntity
  8
KONSTRUKTIONSELEMENTE
100
AcDbLine
 62
7
  6
CONTINUOUS
 10
157.6820559581
 20
146.4456214026
 11
158.1266133603
 21
146.4456214026
  0
LINE
  5
440
100
AcDbEntity
  8
KONSTRUKTIONSELEMENTE
100
AcDbLine
 62
7
  6
CONTINUOUS
 10
156.6371858002
 20
146.6690256313
 11
157.1863914626
 21
146.6690256313
  0
LINE
  5
441
100
AcDbEntity
  8
KONSTRUKTIONSELEMENTE
100
AcDbLine
 62
7
  6
CONTINUOUS
 10
157.6820559581
 20
146.6690256313
 11
158.1117041295
 21
146.6690256313
  0
LINE
  5
442
100
AcDbEntity
  8
KONSTRUKTIONSELEMENTE
100
AcDbLine
 62
7
  6
CONTINUOUS
 10
156.58171778
 20
146.8179617838
 11
157.132952406
 21
146.8179617838
  0
LINE
  5
443
100
AcDbEntity
  8
KONSTRUKTIONSELEMENTE
100
AcDbLine
 62
7
  6
CONTINUOUS
 10
157.6820559581
 20
146.8179617838
 11
158.081183839
 21
146.8179617838
  0
LINE
  5
444
100
AcDbEntity
  8
KONSTRUKTIONSELEMENTE
100
AcDbLine
 62
7
  6
CONTINUOUS
 10
148.6176949882
 20
173.2647702411
 11
148.6176949882
 21
159.2647702411
  0
LINE
  5
445
100
AcDbEntity
  8
KONSTRUKTIONSELEMENTE
100
AcDbLine
 62
7
  6
CONTINUOUS
 10
148.6176949882
 20
109.2647702411
 11
148.6176949882
 21
123.2647702411
  0
LINE
  5
446
100
AcDbEntity
  8
KONSTRUKTIONSELEMENTE
100
AcDbLine
 62
7
  6
CONTINUOUS
 10
158.0336384006
 20
146.89242986
 11
157.6820559581
 21
146.89242986
  0
LINE
  5
447
100
AcDbEntity
  8
KONSTRUKTIONSELEMENTE
100
AcDbLine
 62
7
  6
CONTINUOUS
 10
157.0506711572
 20
146.89242986
 11
156.4675718556
 21
146.89242986
  0
LINE
  5
448
100
AcDbEntity
  8
KONSTRUKTIONSELEMENTE
100
AcDbLine
 62
7
  6
CONTINUOUS
 10
155.6731366999
 20
147.2647702411
 11
158.6169832109
 21
147.2647702411
  0
LINE
  5
449
100
AcDbEntity
  8
KONSTRUKTIONSELEMENTE
100
AcDbLine
 62
7
  6
CONTINUOUS
 10
157.471847521
 20
148.7647702411
 11
158.617681836
 21
148.7647702411
  0
LINE
  5
44A
100
AcDbEntity
  8
KONSTRUKTIONSELEMENTE
100
AcDbLine
 62
7
  6
CONTINUOUS
 10
158.526838259
 20
148.8392383239
 11
158.6141138704
 21
148.8392383239
  0
LINE
  5
44B
100
AcDbEntity
  8
KONSTRUKTIONSELEMENTE
100
AcDbLine
 62
7
  6
CONTINUOUS
 10
158.5173830615
 20
148.9881744959
 11
158.6054554633
 21
148.9881744959
  0
LINE
  5
44C
100
AcDbEntity
  8
KONSTRUKTIONSELEMENTE
100
AcDbLine
 62
7
  6
CONTINUOUS
 10
158.5044188405
 20
149.2860468269
 11
158.591629453
 21
149.2860468269
  0
LINE
  5
44D
100
AcDbEntity
  8
KONSTRUKTIONSELEMENTE
100
AcDbLine
 62
7
  6
CONTINUOUS
 10
158.4906541581
 20
149.583919184
 11
158.5827747018
 21
149.583919184
  0
LINE
  5
44E
100
AcDbEntity
  8
KONSTRUKTIONSELEMENTE
100
AcDbLine
 62
7
  6
CONTINUOUS
 10
158.472147161
 20
149.9562595651
 11
158.5778610206
 21
149.9562595651
  0
LINE
  5
44F
100
AcDbEntity
  8
KONSTRUKTIONSELEMENTE
100
AcDbLine
 62
7
  6
CONTINUOUS
 10
158.3744210208
 20
150.3286000506
 11
158.1097584495
 21
150.3286000506
  0
LINE
  5
450
100
AcDbEntity
  8
KONSTRUKTIONSELEMENTE
100
AcDbLine
 62
7
  6
CONTINUOUS
 10
158.3990716024
 20
150.7754085079
 11
158.1097584495
 21
150.7754085079
  0
LINE
  5
451
100
AcDbEntity
  8
KONSTRUKTIONSELEMENTE
100
AcDbLine
 62
7
  6
CONTINUOUS
 10
158.1097584495
 20
150.8498765842
 11
158.4335338229
 21
150.8498765842
  0
LINE
  5
452
100
AcDbEntity
  8
KONSTRUKTIONSELEMENTE
100
AcDbLine
 62
7
  6
CONTINUOUS
 10
158.1097584495
 20
150.9988127366
 11
158.4548411206
 21
150.9988127366
  0
LINE
  5
453
100
AcDbEntity
  8
KONSTRUKTIONSELEMENTE
100
AcDbLine
 62
7
  6
CONTINUOUS
 10
158.1097584495
 20
151.2222169653
 11
158.4649964836
 21
151.2222169653
  0
LINE
  5
454
100
AcDbEntity
  8
KONSTRUKTIONSELEMENTE
100
AcDbLine
 62
7
  6
CONTINUOUS
 10
158.1097584495
 20
151.4456214026
 11
158.4649964836
 21
151.4456214026
  0
LINE
  5
455
100
AcDbEntity
  8
KONSTRUKTIONSELEMENTE
100
AcDbLine
 62
7
  6
CONTINUOUS
 10
158.1097584495
 20
151.6690256313
 11
158.4548411206
 21
151.6690256313
  0
LINE
  5
456
100
AcDbEntity
  8
KONSTRUKTIONSELEMENTE
100
AcDbLine
 62
7
  6
CONTINUOUS
 10
158.1097584495
 20
151.8179617838
 11
158.4335338229
 21
151.8179617838
  0
LINE
  5
457
100
AcDbEntity
  8
KONSTRUKTIONSELEMENTE
100
AcDbLine
 62
7
  6
CONTINUOUS
 10
158.3990716024
 20
151.89242986
 11
158.1097584495
 21
151.89242986
  0
LINE
  5
458
100
AcDbEntity
  8
KONSTRUKTIONSELEMENTE
100
AcDbLine
 62
7
  6
CONTINUOUS
 10
155.6731366999
 20
147.2647702411
 11
155.6731366999
 21
143.7647702411
  0
LINE
  5
459
100
AcDbEntity
  8
KONSTRUKTIONSELEMENTE
100
AcDbLine
 62
7
  6
CONTINUOUS
 10
157.471847521
 20
152.2647702411
 11
158.6024838581
 21
152.2647702411
  0
LINE
  5
45A
100
AcDbEntity
  8
KONSTRUKTIONSELEMENTE
100
AcDbLine
 62
7
  6
CONTINUOUS
 10
156.259830612
 20
147.2647702411
 11
156.259830612
 21
143.7647702411
  0
LINE
  5
45B
100
AcDbEntity
  8
BEZUGSACHSEN
100
AcDbLine
 62
7
  6
CONTINUOUS
 10
156.3676949882
 20
133.2647702411
 11
156.3676949882
 21
136.2647702411
  0
LINE
  5
45C
100
AcDbEntity
  8
KONSTRUKTIONSELEMENTE
100
AcDbLine
 62
7
  6
CONTINUOUS
 10
156.4675718556
 20
146.89242986
 11
156.4675718556
 21
145.7754085079
  0
LINE
  5
45D
100
AcDbEntity
  8
KONSTRUKTIONSELEMENTE
100
AcDbLine
 62
7
  6
CONTINUOUS
 10
156.4675718556
 20
145.3286000506
 11
156.4675718556
 21
143.7647702411
  0
LINE
  5
45E
100
AcDbEntity
  8
KONSTRUKTIONSELEMENTE
100
AcDbLine
 62
7
  6
CONTINUOUS
 10
156.6644782392
 20
146.4456214026
 11
156.6644782392
 21
146.2222169653
  0
LINE
  5
45F
100
AcDbEntity
  8
KONSTRUKTIONSELEMENTE
100
AcDbLine
 62
7
  6
CONTINUOUS
 10
157.0165969317
 20
145.3286000506
 11
157.0165969317
 21
143.7647702411
  0
LINE
  5
460
100
AcDbEntity
  8
KONSTRUKTIONSELEMENTE
100
AcDbLine
 62
7
  6
CONTINUOUS
 10
157.2126909455
 20
146.4456214026
 11
157.2126909455
 21
146.2222169653
  0
LINE
  5
461
100
AcDbEntity
  8
KONSTRUKTIONSELEMENTE
100
AcDbLine
 62
7
  6
CONTINUOUS
 10
157.3646981996
 20
146.4456214026
 11
157.3646981996
 21
146.1477488891
  0
LINE
  5
462
100
AcDbEntity
  8
KONSTRUKTIONSELEMENTE
100
AcDbLine
 62
7
  6
CONTINUOUS
 10
157.471847521
 20
152.2647702411
 11
157.471847521
 21
148.7647702411
  0
LINE
  5
463
100
AcDbEntity
  8
KONSTRUKTIONSELEMENTE
100
AcDbLine
 62
7
  6
CONTINUOUS
 10
157.471847521
 20
140.1796638981
 11
157.471847521
 21
140.8498765842
  0
LINE
  5
464
100
AcDbEntity
  8
KONSTRUKTIONSELEMENTE
100
AcDbLine
 62
7
  6
CONTINUOUS
 10
157.5523080096
 20
147.2647702411
 11
157.5523080096
 21
143.7647702411
  0
LINE
  5
465
100
AcDbEntity
  8
KONSTRUKTIONSELEMENTE
100
AcDbLine
 62
7
  6
CONTINUOUS
 10
157.6820559581
 20
146.89242986
 11
157.6820559581
 21
145.7754085079
  0
LINE
  5
466
100
AcDbEntity
  8
KONSTRUKTIONSELEMENTE
100
AcDbLine
 62
7
  6
CONTINUOUS
 10
157.6820559581
 20
145.3286000506
 11
157.6820559581
 21
143.7647702411
  0
LINE
  5
467
100
AcDbEntity
  8
KONSTRUKTIONSELEMENTE
100
AcDbLine
 62
7
  6
CONTINUOUS
 10
157.8013715987
 20
145.3286000506
 11
157.8013715987
 21
145.0307276413
  0
LINE
  5
468
100
AcDbEntity
  8
KONSTRUKTIONSELEMENTE
100
AcDbLine
 62
7
  6
CONTINUOUS
 10
157.9922028546
 20
152.2647702411
 11
157.9922028546
 21
148.7647702411
  0
LINE
  5
469
100
AcDbEntity
  8
KONSTRUKTIONSELEMENTE
100
AcDbLine
 62
7
  6
CONTINUOUS
 10
157.9922028546
 20
140.1796638981
 11
157.9922028546
 21
140.8498765842
  0
LINE
  5
46A
100
AcDbEntity
  8
KONSTRUKTIONSELEMENTE
100
AcDbLine
 62
7
  6
CONTINUOUS
 10
158.0732357197
 20
140.7754085079
 11
158.0732357197
 21
140.2541319743
  0
LINE
  5
46B
100
AcDbEntity
  8
KONSTRUKTIONSELEMENTE
100
AcDbLine
 62
7
  6
CONTINUOUS
 10
158.1097584495
 20
151.89242986
 11
158.1097584495
 21
150.7754085079
  0
LINE
  5
46C
100
AcDbEntity
  8
KONSTRUKTIONSELEMENTE
100
AcDbLine
 62
7
  6
CONTINUOUS
 10
158.1097584495
 20
150.3286000506
 11
158.1097584495
 21
148.7647702411
  0
LINE
  5
46D
100
AcDbEntity
  8
BEZUGSACHSEN
100
AcDbLine
 62
7
  6
CONTINUOUS
 10
158.1176949882
 20
155.2647702411
 11
158.1176949882
 21
152.2647702411
  0
LINE
  5
46E
100
AcDbEntity
  8
BEZUGSACHSEN
100
AcDbLine
 62
7
  6
CONTINUOUS
 10
158.1176949882
 20
148.7690254704
 11
158.1176949882
 21
147.2647702411
  0
LINE
  5
46F
100
AcDbEntity
  8
BEZUGSACHSEN
100
AcDbLine
 62
7
  6
CONTINUOUS
 10
158.1176949882
 20
143.7647702411
 11
158.1176949882
 21
142.2647702411
  0
LINE
  5
470
100
AcDbEntity
  8
BEZUGSACHSEN
100
AcDbLine
 62
7
  6
CONTINUOUS
 10
158.1176949882
 20
138.3179617316
 11
158.1176949882
 21
136.2647702411
  0
LINE
  5
471
100
AcDbEntity
  8
BEZUGSACHSEN
100
AcDbLine
 62
7
  6
CONTINUOUS
 10
158.1176949882
 20
127.2647702411
 11
158.1176949882
 21
133.2647702411
  0
LINE
  5
472
100
AcDbEntity
  8
KONSTRUKTIONSELEMENTE
100
AcDbLine
 62
7
  6
CONTINUOUS
 10
158.1266133603
 20
146.4456214026
 11
158.1266133603
 21
146.2222169653
  0
LINE
  5
473
100
AcDbEntity
  8
KONSTRUKTIONSELEMENTE
100
AcDbLine
 62
7
  6
CONTINUOUS
 10
158.2111954922
 20
146.4456214026
 11
158.2111954922
 21
146.1477488891
  0
LINE
  5
474
100
AcDbEntity
  8
KONSTRUKTIONSELEMENTE
100
AcDbLine
 62
7
  6
CONTINUOUS
 10
158.3111415646
 20
145.4030681268
 11
158.3111415646
 21
145.0307276413
  0
LINE
  5
475
100
AcDbEntity
  8
KONSTRUKTIONSELEMENTE
100
AcDbLine
 62
7
  6
CONTINUOUS
 10
158.4014359047
 20
140.7754085079
 11
158.4014359047
 21
140.2541319743
  0
LINE
  5
476
100
AcDbEntity
  8
KONSTRUKTIONSELEMENTE
100
AcDbLine
 62
7
  6
CONTINUOUS
 10
158.4471325215
 20
140.8498765842
 11
158.4471325215
 21
140.1796638981
  0
LINE
  5
477
100
AcDbEntity
  8
KONSTRUKTIONSELEMENTE
100
AcDbLine
 62
7
  6
CONTINUOUS
 10
158.4514924755
 20
145.4030681268
 11
158.4514924755
 21
145.0307276413
  0
LINE
  5
478
100
AcDbEntity
  8
KONSTRUKTIONSELEMENTE
100
AcDbLine
 62
7
  6
CONTINUOUS
 10
158.4649964836
 20
151.4456214026
 11
158.4649964836
 21
151.2222169653
  0
LINE
  5
479
100
AcDbEntity
  8
KONSTRUKTIONSELEMENTE
100
AcDbLine
 62
7
  6
CONTINUOUS
 10
158.5189905288
 20
151.4456214026
 11
158.5189905288
 21
151.1477488891
  0
LINE
  5
47A
100
AcDbEntity
  8
KONSTRUKTIONSELEMENTE
100
AcDbLine
 62
7
  6
CONTINUOUS
 10
126.1181832446
 20
155.2647702411
 11
131.6176949882
 21
155.2647702411
  0
LINE
  5
47B
100
AcDbEntity
  8
KONSTRUKTIONSELEMENTE
100
AcDbLine
 62
7
  6
CONTINUOUS
 10
152.6176949882
 20
155.2647702411
 11
158.1172067319
 21
155.2647702411
  0
LINE
  5
47C
100
AcDbEntity
  8
KONSTRUKTIONSELEMENTE
100
AcDbLine
 62
7
  6
CONTINUOUS
 10
158.6169832109
 20
147.2647702411
 11
158.6176944229
 21
146.7007484
  0
LINE
  5
47D
100
AcDbEntity
  8
KONSTRUKTIONSELEMENTE
100
AcDbLine
 62
7
  6
CONTINUOUS
 10
158.5778610206
 20
152.2647702411
 11
158.5778610206
 21
149.9562595651
  0
LINE
  5
47E
100
AcDbEntity
  8
KONSTRUKTIONSELEMENTE
100
AcDbLine
 62
7
  6
CONTINUOUS
 10
158.5999021328
 20
140.7754085079
 11
158.5999021328
 21
140.2541319743
  0
LINE
  5
47F
100
AcDbEntity
  8
KONSTRUKTIONSELEMENTE
100
AcDbLine
 62
7
  6
CONTINUOUS
 10
158.6024838581
 20
152.2647702411
 11
158.6024838581
 21
149.9562595651
  0
LINE
  5
480
100
AcDbEntity
  8
KONSTRUKTIONSELEMENTE
100
AcDbLine
 62
7
  6
CONTINUOUS
 10
158.6110077961
 20
140.7754085079
 11
158.6110077961
 21
140.6264723555
  0
LINE
  5
481
100
AcDbEntity
  8
KONSTRUKTIONSELEMENTE
100
AcDbLine
 62
7
  6
CONTINUOUS
 10
158.6125891588
 20
140.0307276413
 11
158.6125891588
 21
139.8073234126
  0
LINE
  5
482
100
AcDbEntity
  8
KONSTRUKTIONSELEMENTE
100
AcDbLine
 62
7
  6
CONTINUOUS
 10
158.6176949882
 20
149.2168978261
 11
158.6176949882
 21
148.9881744959
  0
LINE
  5
483
100
AcDbEntity
  8
KONSTRUKTIONSELEMENTE
100
AcDbLine
 62
7
  6
CONTINUOUS
 10
158.6176949882
 20
140.6264723555
 11
158.6176949882
 21
140.574969212
  0
LINE
  5
484
100
AcDbEntity
  8
KONSTRUKTIONSELEMENTE
100
AcDbLine
 62
7
  6
CONTINUOUS
 10
158.617681836
 20
148.7647702411
 11
158.6176949822
 21
148.7690256865
  0
LINE
  5
485
100
AcDbEntity
  8
KONSTRUKTIONSELEMENTE
100
AcDbLine
 62
7
  6
CONTINUOUS
 10
135.6176949882
 20
162.093632667
 11
148.6176949882
 21
162.093632667
  0
LINE
  5
486
100
AcDbEntity
  8
KONSTRUKTIONSELEMENTE
100
AcDbLine
 62
7
  6
CONTINUOUS
 10
148.6176949882
 20
166.2647702411
 11
135.6176949882
 21
166.2647702411
  0
LINE
  5
487
100
AcDbEntity
  8
KONSTRUKTIONSELEMENTE
100
AcDbLine
 62
7
  6
CONTINUOUS
 10
145.8363901108
 20
106.7124491056
 11
148.6176949882
 21
109.2647702411
  0
LINE
  5
488
100
AcDbEntity
  8
KONSTRUKTIONSELEMENTE
100
AcDbLine
 62
7
  6
CONTINUOUS
 10
148.6176949882
 20
173.2647702411
 11
145.8363901108
 21
175.8170913766
  0
LINE
  5
489
100
AcDbEntity
  8
BEZUGSACHSEN
100
AcDbLine
 62
2
  6
CENTER
 10
142.1176949882
 20
171.7647702411
 11
135.1675353089
 21
171.7647702411
  0
LINE
  5
48A
100
AcDbEntity
  8
BEZUGSACHSEN
100
AcDbLine
 62
2
  6
CENTER
 10
142.1176949882
 20
171.7647702411
 11
149.3327172979
 21
171.7647702411
  0
LINE
  5
48B
100
AcDbEntity
  8
KONSTRUKTIONSELEMENTE
100
AcDbLine
 62
7
  6
CONTINUOUS
 10
145.8934052831
 20
175.7647702411
 11
138.3419846933
 21
175.7647702411
  0
ARC
  5
48C
100
AcDbEntity
  8
KONSTRUKTIONSELEMENTE
100
AcDbCircle
 62
7
  6
CONTINUOUS
 10
64.8251127846
 20
121.2647702411
 40
6.0
100
AcDbArc
 50
293.5781784782
 51
246.4218215218
  0
ARC
  5
48D
100
AcDbEntity
  8
KONSTRUKTIONSELEMENTE
100
AcDbCircle
 62
7
  6
CONTINUOUS
 10
64.8251127846
 20
161.2647702411
 40
6.0
100
AcDbArc
 50
113.5781784782
 51
66.4218215218
  0
CIRCLE
  5
48E
100
AcDbEntity
  8
BEZUGSACHSEN
100
AcDbCircle
 62
7
  6
CONTINUOUS
 10
72.5251127846
 20
110.7647702411
 40
1.25
  0
CIRCLE
  5
48F
100
AcDbEntity
  8
BEZUGSACHSEN
100
AcDbCircle
 62
7
  6
CONTINUOUS
 10
57.1251127846
 20
171.7647702411
 40
1.25
  0
ARC
  5
490
100
AcDbEntity
  8
KONSTRUKTIONSELEMENTE
100
AcDbCircle
 62
7
  6
CONTINUOUS
 10
64.8251127846
 20
56.6826825991
 40
16.5
100
AcDbArc
 50
276.3075847371
 51
294.5313144315
  0
ARC
  5
491
100
AcDbEntity
  8
KONSTRUKTIONSELEMENTE
100
AcDbCircle
 62
7
  6
CONTINUOUS
 10
64.8251127846
 20
56.6826825991
 40
16.5
100
AcDbArc
 50
238.9924169931
 51
247.5271552058
  0
ARC
  5
492
100
AcDbEntity
  8
KONSTRUKTIONSELEMENTE
100
AcDbCircle
 62
7
  6
CONTINUOUS
 10
64.8251127846
 20
56.6826825991
 40
16.5
100
AcDbArc
 50
249.2979028418
 51
275.1432692789
  0
CIRCLE
  5
493
100
AcDbEntity
  8
KONSTRUKTIONSELEMENTE
100
AcDbCircle
 62
7
  6
CONTINUOUS
 10
64.8251127846
 20
56.6826825991
 40
16.0
  0
ARC
  5
494
100
AcDbEntity
  8
KONSTRUKTIONSELEMENTE
100
AcDbCircle
 62
7
  6
CONTINUOUS
 10
64.8251127846
 20
56.6826825991
 40
12.5
100
AcDbArc
 50
328.6677485024
 51
31.3322514976
  0
ARC
  5
495
100
AcDbEntity
  8
KONSTRUKTIONSELEMENTE
100
AcDbCircle
 62
7
  6
CONTINUOUS
 10
64.8251127846
 20
56.6826825991
 40
12.5
100
AcDbArc
 50
148.6677485024
 51
211.3322514976
  0
ARC
  5
496
100
AcDbEntity
  8
KONSTRUKTIONSELEMENTE
100
AcDbCircle
 62
7
  6
CONTINUOUS
 10
142.1176949882
 20
110.7647702411
 40
5.5
100
AcDbArc
 50
227.4583182636
 51
312.5416817364
  0
ARC
  5
497
100
AcDbEntity
  8
KONSTRUKTIONSELEMENTE
100
AcDbCircle
 62
7
  6
CONTINUOUS
 10
142.1176949882
 20
171.7647702411
 40
5.5
100
AcDbArc
 50
47.4583182636
 51
132.5416817364
  0
ARC
  5
498
100
AcDbEntity
  8
KONSTRUKTIONSELEMENTE
100
AcDbCircle
 62
7
  6
CONTINUOUS
 10
152.6176949882
 20
123.2647702411
 40
4.0
100
AcDbArc
 50
90.0
 51
180.0
  0
ARC
  5
499
100
AcDbEntity
  8
KONSTRUKTIONSELEMENTE
100
AcDbCircle
 62
7
  6
CONTINUOUS
 10
131.6176949882
 20
123.2647702411
 40
4.0
100
AcDbArc
 50
0.0
 51
90.0
  0
ARC
  5
49A
100
AcDbEntity
  8
KONSTRUKTIONSELEMENTE
100
AcDbCircle
 62
7
  6
CONTINUOUS
 10
152.6176949882
 20
159.2647702411
 40
4.0
100
AcDbArc
 50
180.0
 51
270.0
  0
ARC
  5
49B
100
AcDbEntity
  8
KONSTRUKTIONSELEMENTE
100
AcDbCircle
 62
7
  6
CONTINUOUS
 10
131.6176949882
 20
159.2647702411
 40
4.0
100
AcDbArc
 50
270.0
 51
360.0
  0
CIRCLE
  5
49C
100
AcDbEntity
  8
BEZUGSACHSEN
100
AcDbCircle
 62
7
  6
CONTINUOUS
 10
142.1176949882
 20
110.7647702411
 40
2.5
  0
CIRCLE
  5
49D
100
AcDbEntity
  8
BEZUGSACHSEN
100
AcDbCircle
 62
7
  6
CONTINUOUS
 10
142.1176949882
 20
171.7647702411
 40
2.5
  0
LINE
  5
49E
100
AcDbEntity
  8
BEZUGSACHSEN
100
AcDbLine
 62
7
  6
CONTINUOUS
 10
77.3250752933
 20
113.2647172085
 11
77.3055269149
 21
113.1650358838
  0
SPLINE
  5
49F
100
AcDbEntity
  8
BEZUGSACHSEN
100
AcDbSpline
 62
7
  6
CONTINUOUS
 70
0
 71
3
 72
9
 73
5
 74
0
 42
0.0000001
 43
0.0000001
 44
0.0000000001
 40
0.0
 40
0.0
 40
0.0
 40
0.0
 40
0.1449698776
 40
1.0
 40
1.0
 40
1.0
 40
1.0
 10
77.3055269149
 20
113.1650358838
 30
0.0
 10
77.2835017389
 20
113.0505375594
 30
0.0
 10
77.1416924243
 20
112.2589538898
 30
0.0
 10
77.0725614986
 20
111.4524604551
 30
0.0
 10
77.0725614986
 20
110.7647702411
 30
0.0
  0
LINE
  5
4A0
100
AcDbEntity
  8
BEZUGSACHSEN
100
AcDbLine
 62
7
  6
CONTINUOUS
 10
52.3297326629
 20
108.2879712421
 11
52.3251503721
 21
108.2648233022
  0
SPLINE
  5
4A1
100
AcDbEntity
  8
BEZUGSACHSEN
100
AcDbSpline
 62
7
  6
CONTINUOUS
 70
0
 71
3
 72
9
 73
5
 74
0
 42
0.0000001
 43
0.0000001
 44
0.0000000001
 40
0.0
 40
0.0
 40
0.0
 40
0.0
 40
0.6611448993
 40
1.0
 40
1.0
 40
1.0
 40
1.0
 10
52.5776640707
 20
110.7647702411
 30
0.0
 10
52.5776640707
 20
111.3139247549
 30
0.0
 10
52.5210966724
 20
112.1457976075
 30
0.0
 10
52.3843883581
 20
112.9654700665
 30
0.0
 10
52.3297326629
 20
113.2415692401
 30
0.0
  0
SPLINE
  5
4A2
100
AcDbEntity
  8
BEZUGSACHSEN
100
AcDbSpline
 62
7
  6
CONTINUOUS
 70
0
 71
3
 72
26
 73
22
 74
0
 42
0.0000001
 43
0.0000001
 44
0.0000000001
 40
0.0
 40
0.0
 40
0.0
 40
0.0
 40
0.1941751726
 40
0.3811258161
 40
0.5533859725
 40
0.632048823
 40
0.70476173
 40
0.7708109625
 40
0.8295335832
 40
0.8803681828
 40
0.9227611888
 40
0.9406374803
 40
0.9562416736
 40
0.9695324523
 40
0.9804683995
 40
0.9890080064
 40
0.9951145778
 40
0.9972519153
 40
0.9987786045
 40
0.999694636
 40
1.0
 40
1.0
 40
1.0
 40
1.0
 10
77.0725614986
 20
110.7647702411
 30
0.0
 10
77.0725614986
 20
110.601877387
 30
0.0
 10
77.079014393
 20
110.2821163332
 30
0.0
 10
77.1063194453
 20
109.8185833188
 30
0.0
 10
77.1412453409
 20
109.4528358236
 30
0.0
 10
77.1737809276
 20
109.1832869346
 30
0.0
 10
77.1983091374
 20
109.0025401681
 30
0.0
 10
77.2227695177
 20
108.8386822782
 30
0.0
 10
77.2462554418
 20
108.6932475962
 30
0.0
 10
77.2679043248
 20
108.567627017
 30
0.0
 10
77.2845274438
 20
108.4759154958
 30
0.0
 10
77.2962088505
 20
108.4133469207
 30
0.0
 10
77.3035312331
 20
108.3747989621
 30
0.0
 10
77.3098713247
 20
108.341994735
 30
0.0
 10
77.3151316002
 20
108.3150073521
 30
0.0
 10
77.3193387466
 20
108.2939830177
 30
0.0
 10
77.3219789501
 20
108.2801112009
 30
0.0
 10
77.3236977913
 20
108.2721518293
 30
0.0
 10
77.3242348534
 20
108.2682494457
 30
0.0
 10
77.3250518107
 20
108.2662234459
 30
0.0
 10
77.3248684221
 20
108.264974475
 30
0.0
 10
77.3250752587
 20
108.2648233425
 30
0.0
  0
LINE
  5
4A3
100
AcDbEntity
  8
BEZUGSACHSEN
100
AcDbLine
 62
7
  6
CONTINUOUS
 10
77.3201607722
 20
113.2398914918
 11
77.3250752933
 21
113.2647172085
  0
LINE
  5
4A4
100
AcDbEntity
  8
BEZUGSACHSEN
100
AcDbLine
 62
7
  6
CONTINUOUS
 10
77.3250752587
 20
108.2648233425
 11
77.3201391382
 21
108.2897584657
  0
LINE
  5
4A5
100
AcDbEntity
  8
BEZUGSACHSEN
100
AcDbLine
 62
7
  6
CONTINUOUS
 10
52.3251503721
 20
113.2647171801
 11
52.3301086399
 21
113.2396699515
  0
SPLINE
  5
4A6
100
AcDbEntity
  8
BEZUGSACHSEN
100
AcDbSpline
 62
7
  6
CONTINUOUS
 70
0
 71
3
 72
16
 73
12
 74
0
 42
0.0000001
 43
0.0000001
 44
0.0000000001
 40
0.0
 40
0.0
 40
0.0
 40
0.0
 40
0.0772395273
 40
0.1196328498
 40
0.1704676731
 40
0.2291905503
 40
0.2952401373
 40
0.4466123041
 40
0.618872637
 40
0.8058240723
 40
1.0
 40
1.0
 40
1.0
 40
1.0
 10
52.3251503721
 20
108.2648233022
 30
0.0
 10
52.3133100005
 20
108.2011186514
 30
0.0
 10
52.3628603002
 20
108.4582047629
 30
0.0
 10
52.3808503297
 20
108.5600119823
 30
0.0
 10
52.4044652123
 20
108.6958111406
 30
0.0
 10
52.4273003502
 20
108.837876838
 30
0.0
 10
52.4617683175
 20
109.0683715177
 30
0.0
 10
52.5031375374
 20
109.3918833214
 30
0.0
 10
52.5439198733
 20
109.818653312
 30
0.0
 10
52.5712067546
 20
110.2820954778
 30
0.0
 10
52.5776640707
 20
110.601877524
 30
0.0
 10
52.5776640707
 20
110.7647702411
 30
0.0
  0
SPLINE
  5
4A7
100
AcDbEntity
  8
KONSTRUKTIONSELEMENTE
100
AcDbSpline
 62
7
  6
CONTINUOUS
 70
0
 71
3
 72
9
 73
5
 74
0
 42
0.0000001
 43
0.0000001
 44
0.0000000001
 40
0.0
 40
0.0
 40
0.0
 40
0.0
 40
0.5911733507
 40
1.0
 40
1.0
 40
1.0
 40
1.0
 10
53.0086488391
 20
106.7124491056
 30
0.0
 10
53.483487465
 20
106.4632235464
 30
0.0
 10
54.2814140415
 20
106.0312981561
 30
0.0
 10
55.0618423591
 20
105.5682749065
 30
0.0
 10
55.3756556735
 20
105.3706470014
 30
0.0
  0
SPLINE
  5
4A8
100
AcDbEntity
  8
KONSTRUKTIONSELEMENTE
100
AcDbSpline
 62
7
  6
CONTINUOUS
 70
0
 71
3
 72
14
 73
10
 74
0
 42
0.0000001
 43
0.0000001
 44
0.0000000001
 40
0.0
 40
0.0
 40
0.0
 40
0.0
 40
0.4309908127
 40
0.6030882559
 40
0.7451867099
 40
0.8564853024
 40
0.9362158379
 40
0.9840553778
 40
1.0
 40
1.0
 40
1.0
 40
1.0
 10
55.3756556735
 20
105.3706470014
 30
0.0
 10
55.3996042917
 20
105.3555650561
 30
0.0
 10
55.4331427733
 20
105.3343213936
 30
0.0
 10
55.4742555285
 20
105.3081828258
 30
0.0
 10
55.4981193974
 20
105.2927974557
 30
0.0
 10
55.5156811366
 20
105.2818396105
 30
0.0
 10
55.5308071836
 20
105.2714149904
 30
0.0
 10
55.5353504686
 20
105.2697375172
 30
0.0
 10
55.5423792662
 20
105.2639386894
 30
0.0
 10
55.5418211695
 20
105.2648245894
 30
0.0
  0
LINE
  5
4A9
100
AcDbEntity
  8
KONSTRUKTIONSELEMENTE
100
AcDbLine
 62
7
  6
CONTINUOUS
 10
53.0086488391
 20
106.7124491056
 11
52.9089887601
 21
106.7647702411
  0
LINE
  5
4AA
100
AcDbEntity
  8
KONSTRUKTIONSELEMENTE
100
AcDbLine
 62
7
  6
CONTINUOUS
 10
76.7412368092
 20
106.7647702411
 11
76.6415767302
 21
106.7124491056
  0
SPLINE
  5
4AB
100
AcDbEntity
  8
KONSTRUKTIONSELEMENTE
100
AcDbSpline
 62
7
  6
CONTINUOUS
 70
0
 71
3
 72
11
 73
7
 74
0
 42
0.0000001
 43
0.0000001
 44
0.0000000001
 40
0.0
 40
0.0
 40
0.0
 40
0.0
 40
0.0637936257
 40
0.2548569219
 40
0.5690755841
 40
1.0
 40
1.0
 40
1.0
 40
1.0
 10
74.1084053486
 20
105.2648256197
 30
0.0
 10
74.1049510848
 20
105.2623706592
 30
0.0
 10
74.1362767909
 20
105.2830661137
 30
0.0
 10
74.1516539198
 20
105.2923931174
 30
0.0
 10
74.2134962489
 20
105.3322152246
 30
0.0
 10
74.2522814502
 20
105.3566146168
 30
0.0
 10
74.2765060849
 20
105.3718665156
 30
0.0
  0
SPLINE
  5
4AC
100
AcDbEntity
  8
KONSTRUKTIONSELEMENTE
100
AcDbSpline
 62
7
  6
CONTINUOUS
 70
0
 71
3
 72
9
 73
5
 74
0
 42
0.0000001
 43
0.0000001
 44
0.0000000001
 40
0.0
 40
0.0
 40
0.0
 40
0.0
 40
0.4092178133
 40
1.0
 40
1.0
 40
1.0
 40
1.0
 10
74.2765060849
 20
105.3718665156
 30
0.0
 10
74.5903782255
 20
105.5694813066
 30
0.0
 10
75.3701886901
 20
106.0320498303
 30
0.0
 10
76.1674511808
 20
106.4635978144
 30
0.0
 10
76.6415767302
 20
106.7124491056
 30
0.0
  0
SPLINE
  5
4AD
100
AcDbEntity
  8
KONSTRUKTIONSELEMENTE
100
AcDbSpline
 62
7
  6
CONTINUOUS
 70
0
 71
3
 72
9
 73
5
 74
0
 42
0.0000001
 43
0.0000001
 44
0.0000000001
 40
0.0
 40
0.0
 40
0.0
 40
0.0
 40
0.4999984418
 40
1.0
 40
1.0
 40
1.0
 40
1.0
 10
75.5021910367
 20
116.2647702411
 30
0.0
 10
76.1726206838
 20
116.9472379281
 30
0.0
 10
77.4964956691
 20
118.3288828207
 30
0.0
 10
78.7982257122
 20
119.7312527483
 30
0.0
 10
79.4453043019
 20
120.4359078152
 30
0.0
  0
SPLINE
  5
4AE
100
AcDbEntity
  8
KONSTRUKTIONSELEMENTE
100
AcDbSpline
 62
7
  6
CONTINUOUS
 70
0
 71
3
 72
15
 73
11
 74
0
 42
0.0000001
 43
0.0000001
 44
0.0000000001
 40
0.0
 40
0.0
 40
0.0
 40
0.0
 40
0.1036904277
 40
0.203894971
 40
0.3061596672
 40
0.4173588739
 40
0.5428209056
 40
0.6840517476
 40
0.8383656279
 40
1.0
 40
1.0
 40
1.0
 40
1.0
 10
76.8978092523
 20
127.2647702411
 30
0.0
 10
77.0818731634
 20
127.2647702411
 30
0.0
 10
77.445487756
 20
127.231760208
 30
0.0
 10
77.9650354623
 20
127.0517823484
 30
0.0
 10
78.4247971439
 20
126.7240410326
 30
0.0
 10
78.8035738938
 20
126.248137666
 30
0.0
 10
79.09415629
 20
125.6387771632
 30
0.0
 10
79.2982236994
 20
124.9171171112
 30
0.0
 10
79.4189181305
 20
124.112955
 30
0.0
 10
79.4453043019
 20
123.5516921429
 30
0.0
 10
79.4453043019
 20
123.2647702411
 30
0.0
  0
SPLINE
  5
4AF
100
AcDbEntity
  8
KONSTRUKTIONSELEMENTE
100
AcDbSpline
 62
7
  6
CONTINUOUS
 70
0
 71
3
 72
9
 73
5
 74
0
 42
0.0000001
 43
0.0000001
 44
0.0000000001
 40
0.0
 40
0.0
 40
0.0
 40
0.0
 40
0.5000015473
 40
1.0
 40
1.0
 40
1.0
 40
1.0
 10
50.2049212674
 20
120.4359078152
 30
0.0
 10
50.851999843
 20
119.7312527637
 30
0.0
 10
52.1537298992
 20
118.3288828486
 30
0.0
 10
53.4776048708
 20
116.947237943
 30
0.0
 10
54.1480345326
 20
116.2647702411
 30
0.0
  0
SPLINE
  5
4B0
100
AcDbEntity
  8
KONSTRUKTIONSELEMENTE
100
AcDbSpline
 62
7
  6
CONTINUOUS
 70
0
 71
3
 72
15
 73
11
 74
0
 42
0.0000001
 43
0.0000001
 44
0.0000000001
 40
0.0
 40
0.0
 40
0.0
 40
0.0
 40
0.1616350426
 40
0.3159503073
 40
0.4571818039
 40
0.582643656
 40
0.6938420807
 40
0.7961060323
 40
0.8963099111
 40
1.0
 40
1.0
 40
1.0
 40
1.0
 10
50.2049212674
 20
123.2647702411
 30
0.0
 10
50.2049212674
 20
123.551693348
 30
0.0
 10
50.2313078773
 20
124.112959867
 30
0.0
 10
50.3520033504
 20
124.9171267799
 30
0.0
 10
50.5560734936
 20
125.6387896068
 30
0.0
 10
50.8466579343
 20
126.248148632
 30
0.0
 10
51.2254352777
 20
126.7240477198
 30
0.0
 10
51.6851952974
 20
127.0517843974
 30
0.0
 10
52.2047401595
 20
127.2317605301
 30
0.0
 10
52.5683529978
 20
127.2647702411
 30
0.0
 10
52.752416317
 20
127.2647702411
 30
0.0
  0
LINE
  5
4B1
100
AcDbEntity
  8
BEZUGSACHSEN
100
AcDbLine
 62
7
  6
CONTINUOUS
 10
52.3251502935
 20
169.2648232854
 11
52.3447471748
 21
169.364757127
  0
SPLINE
  5
4B2
100
AcDbEntity
  8
BEZUGSACHSEN
100
AcDbSpline
 62
7
  6
CONTINUOUS
 70
0
 71
3
 72
9
 73
5
 74
0
 42
0.0000001
 43
0.0000001
 44
0.0000000001
 40
0.0
 40
0.0
 40
0.0
 40
0.0
 40
0.1450401254
 40
1.0
 40
1.0
 40
1.0
 40
1.0
 10
52.3447471748
 20
169.364757127
 30
0.0
 10
52.3667785331
 20
169.4792991993
 30
0.0
 10
52.508553984
 20
170.2708023618
 30
0.0
 10
52.5776640707
 20
171.0772094512
 30
0.0
 10
52.5776640707
 20
171.7647702411
 30
0.0
  0
LINE
  5
4B3
100
AcDbEntity
  8
BEZUGSACHSEN
100
AcDbLine
 62
7
  6
CONTINUOUS
 10
52.3251503144
 20
174.2647171335
 11
52.3300871495
 21
174.2397783915
  0
LINE
  5
4B4
100
AcDbEntity
  8
BEZUGSACHSEN
100
AcDbLine
 62
7
  6
CONTINUOUS
 10
77.3204929064
 20
174.2415692401
 11
77.3250751972
 21
174.2647171801
  0
SPLINE
  5
4B5
100
AcDbEntity
  8
BEZUGSACHSEN
100
AcDbSpline
 62
7
  6
CONTINUOUS
 70
0
 71
3
 72
9
 73
5
 74
0
 42
0.0000001
 43
0.0000001
 44
0.0000000001
 40
0.0
 40
0.0
 40
0.0
 40
0.0
 40
0.6611448993
 40
1.0
 40
1.0
 40
1.0
 40
1.0
 10
77.0725614986
 20
171.7647702411
 30
0.0
 10
77.0725614986
 20
171.2156157273
 30
0.0
 10
77.1291288969
 20
170.3837428747
 30
0.0
 10
77.2658372112
 20
169.5640704157
 30
0.0
 10
77.3204929064
 20
169.2879712421
 30
0.0
  0
SPLINE
  5
4B6
100
AcDbEntity
  8
BEZUGSACHSEN
100
AcDbSpline
 62
7
  6
CONTINUOUS
 70
0
 71
3
 72
26
 73
22
 74
0
 42
0.0000001
 43
0.0000001
 44
0.0000000001
 40
0.0
 40
0.0
 40
0.0
 40
0.0
 40
0.1941751437
 40
0.3811257739
 40
0.5533859168
 40
0.6320487609
 40
0.7047616635
 40
0.7708108976
 40
0.8295335194
 40
0.8803681221
 40
0.9227611387
 40
0.9406374341
 40
0.9562416304
 40
0.969532413
 40
0.9804683663
 40
0.9890079834
 40
0.9951145659
 40
0.9972519071
 40
0.9987785994
 40
0.9996946335
 40
1.0
 40
1.0
 40
1.0
 40
1.0
 10
52.5776640707
 20
171.7647702411
 30
0.0
 10
52.5776640707
 20
171.9276630706
 30
0.0
 10
52.5712111734
 20
172.2474240879
 30
0.0
 10
52.5439061339
 20
172.7109570549
 30
0.0
 10
52.5089802419
 20
173.0767045214
 30
0.0
 10
52.4764446634
 20
173.3462533903
 30
0.0
 10
52.4519164543
 20
173.5270001481
 30
0.0
 10
52.4274560769
 20
173.6908580382
 30
0.0
 10
52.4039701521
 20
173.8362927194
 30
0.0
 10
52.3823212853
 20
173.9619133289
 30
0.0
 10
52.3656981235
 20
174.0536248195
 30
0.0
 10
52.3540167723
 20
174.1161934818
 30
0.0
 10
52.3466942573
 20
174.1547412782
 30
0.0
 10
52.3403545611
 20
174.1875460228
 30
0.0
 10
52.3350931835
 20
174.214532011
 30
0.0
 10
52.3308888656
 20
174.235560006
 30
0.0
 10
52.3282427642
 20
174.249424286
 30
0.0
 10
52.3265318375
 20
174.2573938311
 30
0.0
 10
52.3259817642
 20
174.2612795273
 30
0.0
 10
52.3251877834
 20
174.263335017
 30
0.0
 10
52.3253473784
 20
174.2645534591
 30
0.0
 10
52.3251503145
 20
174.2647171335
 30
0.0
  0
LINE
  5
4B7
100
AcDbEntity
  8
BEZUGSACHSEN
100
AcDbLine
 62
7
  6
CONTINUOUS
 10
52.330200093
 20
169.2903325314
 11
52.3251502935
 21
169.2648232853
  0
LINE
  5
4B8
100
AcDbEntity
  8
BEZUGSACHSEN
100
AcDbLine
 62
7
  6
CONTINUOUS
 10
77.3250751972
 20
169.2648233022
 11
77.3201169294
 21
169.2898705308
  0
SPLINE
  5
4B9
100
AcDbEntity
  8
BEZUGSACHSEN
100
AcDbSpline
 62
7
  6
CONTINUOUS
 70
0
 71
3
 72
16
 73
12
 74
0
 42
0.0000001
 43
0.0000001
 44
0.0000000001
 40
0.0
 40
0.0
 40
0.0
 40
0.0
 40
0.0772395273
 40
0.1196328498
 40
0.1704676731
 40
0.2291905503
 40
0.2952401373
 40
0.4466123041
 40
0.618872637
 40
0.8058240723
 40
1.0
 40
1.0
 40
1.0
 40
1.0
 10
77.3250751972
 20
174.2647171801
 30
0.0
 10
77.3369155922
 20
174.3284218265
 30
0.0
 10
77.2873652634
 20
174.0713357204
 30
0.0
 10
77.269375241
 20
173.9695284997
 30
0.0
 10
77.2457603565
 20
173.8337293418
 30
0.0
 10
77.2229252193
 20
173.6916636443
 30
0.0
 10
77.1884572517
 20
173.4611689646
 30
0.0
 10
77.147088032
 20
173.1376571608
 30
0.0
 10
77.1063056959
 20
172.7108871703
 30
0.0
 10
77.0790188147
 20
172.2474450045
 30
0.0
 10
77.0725614986
 20
171.9276629582
 30
0.0
 10
77.0725614986
 20
171.7647702411
 30
0.0
  0
LINE
  5
4BA
100
AcDbEntity
  8
KONSTRUKTIONSELEMENTE
100
AcDbLine
 62
7
  6
CONTINUOUS
 10
52.9089887601
 20
175.7647702411
 11
53.0086488391
 21
175.8170913766
  0
SPLINE
  5
4BB
100
AcDbEntity
  8
KONSTRUKTIONSELEMENTE
100
AcDbSpline
 62
7
  6
CONTINUOUS
 70
0
 71
3
 72
15
 73
11
 74
0
 42
0.0000001
 43
0.0000001
 44
0.0000000001
 40
0.0
 40
0.0
 40
0.0
 40
0.0
 40
0.1616325679
 40
0.315942609
 40
0.4571716206
 40
0.582634236
 40
0.6938357328
 40
0.7961025418
 40
0.8963088107
 40
1.0
 40
1.0
 40
1.0
 40
1.0
 10
79.4453043019
 20
159.2647702411
 30
0.0
 10
79.4453043019
 20
158.977851585
 30
0.0
 10
79.4189193088
 20
158.4165987914
 30
0.0
 10
79.2982278001
 20
157.6124499225
 30
0.0
 10
79.0941677928
 20
156.8907974837
 30
0.0
 10
78.8035908012
 20
156.2814326446
 30
0.0
 10
78.4248153013
 20
155.8055171147
 30
0.0
 10
77.9650486595
 20
155.4777632495
 30
0.0
 10
77.4454934146
 20
155.2977810303
 30
0.0
 10
77.0818744879
 20
155.2647702411
 30
0.0
 10
76.8978092523
 20
155.2647702411
 30
0.0
  0
SPLINE
  5
4BC
100
AcDbEntity
  8
KONSTRUKTIONSELEMENTE
100
AcDbSpline
 62
7
  6
CONTINUOUS
 70
0
 71
3
 72
15
 73
11
 74
0
 42
0.0000001
 43
0.0000001
 44
0.0000000001
 40
0.0
 40
0.0
 40
0.0
 40
0.0
 40
0.1036913761
 40
0.2038980186
 40
0.3061652476
 40
0.417367187
 40
0.5428299036
 40
0.6840585407
 40
0.8383678092
 40
1.0
 40
1.0
 40
1.0
 40
1.0
 10
52.752416317
 20
155.2647702411
 30
0.0
 10
52.5683507559
 20
155.2647702411
 30
0.0
 10
52.2047308521
 20
155.2977812098
 30
0.0
 10
51.6851740081
 20
155.4777643888
 30
0.0
 10
51.225406447
 20
155.8055208943
 30
0.0
 10
50.8466312851
 20
156.2814388363
 30
0.0
 10
50.5560554326
 20
156.8908044894
 30
0.0
 10
50.3519969225
 20
157.6124553537
 30
0.0
 10
50.2313060202
 20
158.4166015224
 30
0.0
 10
50.2049212674
 20
158.9778522639
 30
0.0
 10
50.2049212674
 20
159.2647702411
 30
0.0
  0
SPLINE
  5
4BD
100
AcDbEntity
  8
KONSTRUKTIONSELEMENTE
100
AcDbSpline
 62
7
  6
CONTINUOUS
 70
0
 71
3
 72
9
 73
5
 74
0
 42
0.0000001
 43
0.0000001
 44
0.0000000001
 40
0.0
 40
0.0
 40
0.0
 40
0.0
 40
0.5000015522
 40
1.0
 40
1.0
 40
1.0
 40
1.0
 10
79.4453043019
 20
162.093632667
 30
0.0
 10
78.7982257199
 20
162.7982877256
 30
0.0
 10
77.4964956695
 20
164.2006576462
 30
0.0
 10
76.1726206918
 20
165.5823025461
 30
0.0
 10
75.5021910367
 20
166.2647702411
 30
0.0
  0
SPLINE
  5
4BE
100
AcDbEntity
  8
KONSTRUKTIONSELEMENTE
100
AcDbSpline
 62
7
  6
CONTINUOUS
 70
0
 71
3
 72
9
 73
5
 74
0
 42
0.0000001
 43
0.0000001
 44
0.0000000001
 40
0.0
 40
0.0
 40
0.0
 40
0.0
 40
0.4999984364
 40
1.0
 40
1.0
 40
1.0
 40
1.0
 10
54.1480345326
 20
166.2647702411
 30
0.0
 10
53.4776048927
 20
165.5823025615
 30
0.0
 10
52.1537298996
 20
164.2006576763
 30
0.0
 10
50.8519998641
 20
162.7982877416
 30
0.0
 10
50.2049212674
 20
162.093632667
 30
0.0
  0
SPLINE
  5
4BF
100
AcDbEntity
  8
KONSTRUKTIONSELEMENTE
100
AcDbSpline
 62
7
  6
CONTINUOUS
 70
0
 71
3
 72
19
 73
15
 74
0
 42
0.0000001
 43
0.0000001
 44
0.0000000001
 40
0.0
 40
0.0
 40
0.0
 40
0.0
 40
0.1867883918
 40
0.3652993506
 40
0.5323529595
 40
0.683585011
 40
0.8130676776
 40
0.8674509897
 40
0.9136368755
 40
0.9507105223
 40
0.9778637821
 40
0.987490297
 40
0.994414065
 40
1.0
 40
1.0
 40
1.0
 40
1.0
 10
76.6415767302
 20
175.8170913766
 30
0.0
 10
76.4806723946
 20
175.9015442219
 30
0.0
 10
76.1667428377
 20
176.0681407231
 30
0.0
 10
75.7118616934
 20
176.3157805578
 30
0.0
 10
75.2901848576
 20
176.5519984886
 30
0.0
 10
74.91305136
 20
176.7700535109
 30
0.0
 10
74.6331584836
 20
176.9372309737
 30
0.0
 10
74.4423090582
 20
177.0541449459
 30
0.0
 10
74.3285971158
 20
177.1248610999
 30
0.0
 10
74.2376540456
 20
177.182037419
 30
0.0
 10
74.1771522095
 20
177.2207730877
 30
0.0
 10
74.1411940126
 20
177.2434894131
 30
0.0
 10
74.1233338313
 20
177.2554875712
 30
0.0
 10
74.1125916848
 20
177.261370067
 30
0.0
 10
74.1083524091
 20
177.2647702359
 30
0.0
  0
SPLINE
  5
4C0
100
AcDbEntity
  8
KONSTRUKTIONSELEMENTE
100
AcDbSpline
 62
7
  6
CONTINUOUS
 70
0
 71
3
 72
19
 73
15
 74
0
 42
0.0000001
 43
0.0000001
 44
0.0000000001
 40
0.0
 40
0.0
 40
0.0
 40
0.0
 40
0.0055857965
 40
0.0125097475
 40
0.0221361887
 40
0.0492896925
 40
0.0863646027
 40
0.1325504142
 40
0.1869339829
 40
0.3164165424
 40
0.4676479076
 40
0.6347003862
 40
0.8132112699
 40
1.0
 40
1.0
 40
1.0
 40
1.0
 10
55.541873165
 20
177.2647702408
 30
0.0
 10
55.5376578163
 20
177.2613406668
 30
0.0
 10
55.5268782686
 20
177.2555043712
 30
0.0
 10
55.5090374179
 20
177.2434823016
 30
0.0
 10
55.4730680122
 20
177.2207793454
 30
0.0
 10
55.4125726343
 20
177.1820335643
 30
0.0
 10
55.3216250084
 20
177.1248605713
 30
0.0
 10
55.2079131897
 20
177.0541420555
 30
0.0
 10
55.0170625516
 20
176.9372296868
 30
0.0
 10
54.7371713703
 20
176.7700505718
 30
0.0
 10
54.3600388402
 20
176.5519975165
 30
0.0
 10
53.9383636572
 20
176.3157804381
 30
0.0
 10
53.483483256
 20
176.0681409848
 30
0.0
 10
53.1695534668
 20
175.9015443753
 30
0.0
 10
53.0086488391
 20
175.8170913766
 30
0.0
  0
LINE
  5
4C1
100
AcDbEntity
  8
KONSTRUKTIONSELEMENTE
100
AcDbLine
 62
7
  6
CONTINUOUS
 10
76.6415767302
 20
175.8170913766
 11
76.7412368092
 21
175.7647702411
  0
SPLINE
  5
4C2
100
AcDbEntity
  8
KONSTRUKTIONSELEMENTE
100
AcDbSpline
 62
7
  6
CONTINUOUS
 70
0
 71
3
 72
17
 73
13
 74
0
 42
0.0000001
 43
0.0000001
 44
0.0000000001
 40
0.0
 40
0.0
 40
0.0
 40
0.0
 40
0.0290393471
 40
0.0656931564
 40
0.1096382812
 40
0.1599949709
 40
0.2760555105
 40
0.4070862309
 40
0.5480905074
 40
0.6955438963
 40
0.846862674
 40
1.0
 40
1.0
 40
1.0
 40
1.0
 10
70.4819670341
 20
63.1826825991
 30
0.0
 10
70.4144855441
 20
63.1826825991
 30
0.0
 10
70.2623993337
 20
63.2117501875
 30
0.0
 10
70.0242822945
 20
63.3031288359
 30
0.0
 10
69.7523004096
 20
63.4406387081
 30
0.0
 10
69.3310864682
 20
63.6890128582
 30
0.0
 10
68.7589552956
 20
64.0778492243
 30
0.0
 10
68.0336523811
 20
64.6138860014
 30
0.0
 10
67.2634171594
 20
65.2114933227
 30
0.0
 10
66.4645617104
 20
65.8488544393
 30
0.0
 10
65.6487798103
 20
66.5101559739
 30
0.0
 10
65.1007605652
 20
66.9576171287
 30
0.0
 10
64.8251127846
 20
67.1826825991
 30
0.0
  0
SPLINE
  5
4C3
100
AcDbEntity
  8
KONSTRUKTIONSELEMENTE
100
AcDbSpline
 62
7
  6
CONTINUOUS
 70
0
 71
3
 72
17
 73
13
 74
0
 42
0.0000001
 43
0.0000001
 44
0.0000000001
 40
0.0
 40
0.0
 40
0.0
 40
0.0
 40
0.1531387234
 40
0.304459152
 40
0.4519133458
 40
0.5929181752
 40
0.7239482838
 40
0.8400075668
 40
0.8903634912
 40
0.9343079798
 40
0.9709611104
 40
1.0
 40
1.0
 40
1.0
 40
1.0
 10
64.8251127846
 20
67.1826825991
 30
0.0
 10
64.5494624872
 20
66.9576150737
 30
0.0
 10
64.0014377186
 20
66.5101494785
 30
0.0
 10
63.1856488473
 20
65.8488423122
 30
0.0
 10
62.386787541
 20
65.2114773233
 30
0.0
 10
61.6165511357
 20
64.6138686832
 30
0.0
 10
60.891249702
 20
64.0778350106
 30
0.0
 10
60.3191230609
 20
63.6890029085
 30
0.0
 10
59.8979140396
 20
63.4406325076
 30
0.0
 10
59.6259359592
 20
63.3031259112
 30
0.0
 10
59.3878226505
 20
63.2117488974
 30
0.0
 10
59.2357389624
 20
63.1826825991
 30
0.0
 10
59.1682585352
 20
63.1826825991
 30
0.0
  0
SPLINE
  5
4C4
100
AcDbEntity
  8
KONSTRUKTIONSELEMENTE
100
AcDbSpline
 62
7
  6
CONTINUOUS
 70
0
 71
3
 72
19
 73
15
 74
0
 42
0.0000001
 43
0.0000001
 44
0.0000000001
 40
0.0
 40
0.0
 40
0.0
 40
0.0
 40
0.1203775512
 40
0.2426797878
 40
0.3053135604
 40
0.3691674062
 40
0.434206877
 40
0.5000006803
 40
0.5657944399
 40
0.6308338998
 40
0.6946875773
 40
0.7573211472
 40
0.879622643
 40
1.0
 40
1.0
 40
1.0
 40
1.0
 10
76.6415767302
 20
52.9639874765
 30
0.0
 10
76.3128500035
 20
53.1520034879
 30
0.0
 10
75.6748349062
 20
53.5775346135
 30
0.0
 10
74.9881999009
 20
54.263035443
 30
0.0
 10
74.5556809387
 20
54.918491848
 30
0.0
 10
74.303842747
 20
55.4687914716
 30
0.0
 10
74.1446230777
 20
56.0633240157
 30
0.0
 10
74.0901118838
 20
56.6826888933
 30
0.0
 10
74.1446255907
 20
57.302053548
 30
0.0
 10
74.3038478344
 20
57.8965846288
 30
0.0
 10
74.5556864123
 20
58.4468826483
 30
0.0
 10
74.9882041357
 20
59.1023357291
 30
0.0
 10
75.6748380838
 20
59.7878323931
 30
0.0
 10
76.3128505339
 20
60.2133620135
 30
0.0
 10
76.6415767302
 20
60.4013777216
 30
0.0
  0
SPLINE
  5
4C5
100
AcDbEntity
  8
KONSTRUKTIONSELEMENTE
100
AcDbSpline
 62
7
  6
CONTINUOUS
 70
0
 71
3
 72
17
 73
13
 74
0
 42
0.0000001
 43
0.0000001
 44
0.0000000001
 40
0.0
 40
0.0
 40
0.0
 40
0.0
 40
0.1531371208
 40
0.3044557395
 40
0.4519090193
 40
0.592913357
 40
0.7239441027
 40
0.8400043939
 40
0.8903611267
 40
0.9343063993
 40
0.9709605041
 40
1.0
 40
1.0
 40
1.0
 40
1.0
 10
64.8251127846
 20
46.1826825991
 30
0.0
 10
65.1007601953
 20
46.4077477674
 30
0.0
 10
65.6487787806
 20
46.8552083891
 30
0.0
 10
66.4645598185
 20
47.516509237
 30
0.0
 10
67.2634148633
 20
48.153870085
 30
0.0
 10
68.0336500093
 20
48.751477417
 30
0.0
 10
68.7589526009
 20
49.2875139875
 30
0.0
 10
69.3310832801
 20
49.6763503376
 30
0.0
 10
69.7522970032
 20
49.9247245706
 30
0.0
 10
70.0242797154
 20
50.0622353363
 30
0.0
 10
70.2623980002
 20
50.1536145335
 30
0.0
 10
70.4144851985
 20
50.1826825991
 30
0.0
 10
70.4819670341
 20
50.1826825991
 30
0.0
  0
SPLINE
  5
4C6
100
AcDbEntity
  8
KONSTRUKTIONSELEMENTE
100
AcDbSpline
 62
7
  6
CONTINUOUS
 70
0
 71
3
 72
17
 73
13
 74
0
 42
0.0000001
 43
0.0000001
 44
0.0000000001
 40
0.0
 40
0.0
 40
0.0
 40
0.0
 40
0.0290396555
 40
0.0656939522
 40
0.1096394226
 40
0.1599964694
 40
0.2760575604
 40
0.4070887294
 40
0.5480927131
 40
0.6955455063
 40
0.8468633853
 40
1.0
 40
1.0
 40
1.0
 40
1.0
 10
59.1682585352
 20
50.1826825991
 30
0.0
 10
59.2357407414
 20
50.1826825991
 30
0.0
 10
59.387828716
 20
50.1536141028
 30
0.0
 10
59.6259481611
 20
50.0622344208
 30
0.0
 10
59.897932172
 20
49.9247225665
 30
0.0
 10
60.3191483872
 20
49.6763465829
 30
0.0
 10
60.8912818462
 20
49.287507944
 30
0.0
 10
61.6165855484
 20
48.7514694905
 30
0.0
 10
62.3868200492
 20
48.1538629177
 30
0.0
 10
63.1856720546
 20
47.516504148
 30
0.0
 10
64.0014499564
 20
46.8552058294
 30
0.0
 10
64.5494662855
 20
46.4077470231
 30
0.0
 10
64.8251127846
 20
46.1826825991
 30
0.0
  0
LINE
  5
4C7
100
AcDbEntity
  8
KONSTRUKTIONSELEMENTE
100
AcDbLine
 62
7
  6
CONTINUOUS
 10
76.6415767302
 20
52.9639874765
 11
76.7412368092
 21
52.9069723041
  0
LINE
  5
4C8
100
AcDbEntity
  8
KONSTRUKTIONSELEMENTE
100
AcDbLine
 62
7
  6
CONTINUOUS
 10
52.9089887601
 20
52.9069723041
 11
53.0086488391
 21
52.9639874765
  0
SPLINE
  5
4C9
100
AcDbEntity
  8
KONSTRUKTIONSELEMENTE
100
AcDbSpline
 62
7
  6
CONTINUOUS
 70
0
 71
3
 72
19
 73
15
 74
0
 42
0.0000001
 43
0.0000001
 44
0.0000000001
 40
0.0
 40
0.0
 40
0.0
 40
0.0
 40
0.1203769114
 40
0.2426778143
 40
0.3053112647
 40
0.3691650307
 40
0.4342051761
 40
0.4999998946
 40
0.5657947185
 40
0.6308349417
 40
0.6946886812
 40
0.7573220146
 40
0.8796228789
 40
1.0
 40
1.0
 40
1.0
 40
1.0
 10
53.0086488391
 20
60.4013777216
 30
0.0
 10
53.3373738139
 20
60.2133627122
 30
0.0
 10
53.9753836893
 20
59.7878352747
 30
0.0
 10
54.6620162261
 20
59.1023425378
 30
0.0
 10
55.0945340073
 20
58.4468918022
 30
0.0
 10
55.3463739964
 20
57.8965922515
 30
0.0
 10
55.5056000209
 20
57.3020564891
 30
0.0
 10
55.5601142581
 20
56.6826832887
 30
0.0
 10
55.5056003438
 20
56.06330979
 30
0.0
 10
55.346374255
 20
55.468773535
 30
0.0
 10
55.0945345839
 20
54.918474057
 30
0.0
 10
54.6620168947
 20
54.2630239412
 30
0.0
 10
53.9753845178
 20
53.5775309025
 30
0.0
 10
53.3373743865
 20
53.1520028135
 30
0.0
 10
53.0086488391
 20
52.9639874765
 30
0.0
  0
LINE
  5
4CA
100
AcDbEntity
  8
KONSTRUKTIONSELEMENTE
100
AcDbLine
 62
7
  6
CONTINUOUS
 10
76.7412368092
 20
60.458392894
 11
76.6415767302
 21
60.4013777216
  0
LINE
  5
4CB
100
AcDbEntity
  8
KONSTRUKTIONSELEMENTE
100
AcDbLine
 62
7
  6
CONTINUOUS
 10
53.0086488391
 20
60.4013777216
 11
52.9089887601
 21
60.458392894
  0
ELLIPSE
  5
4CC
100
AcDbEntity
  8
KONSTRUKTIONSELEMENTE
100
AcDbEllipse
 62
7
  6
CONTINUOUS
 10
64.8251127846
 20
103.2999126969
 30
0.0
 11
12.5
 21
0.0
 31
0.0
 40
0.9176703914
 41
2.5947417029
 42
2.8347431294
  0
ELLIPSE
  5
4CD
100
AcDbEntity
  8
KONSTRUKTIONSELEMENTE
100
AcDbEllipse
 62
7
  6
CONTINUOUS
 10
64.8251127846
 20
103.2999126969
 30
0.0
 11
12.5
 21
-0.0
 31
0.0
 40
0.9176703914
 41
0.3068495242
 42
0.5468509507
  0
ELLIPSE
  5
4CE
100
AcDbEntity
  8
KONSTRUKTIONSELEMENTE
100
AcDbEllipse
 62
7
  6
CONTINUOUS
 10
64.8251127846
 20
179.2296277853
 30
0.0
 11
12.5
 21
0.0
 31
0.0
 40
0.9176703914
 41
-2.8347431294
 42
-2.5947417029
  0
ELLIPSE
  5
4CF
100
AcDbEntity
  8
KONSTRUKTIONSELEMENTE
100
AcDbEllipse
 62
7
  6
CONTINUOUS
 10
64.8251127846
 20
179.2296277853
 30
0.0
 11
12.5
 21
0.0
 31
0.0
 40
0.9176703914
 41
-0.5468509507
 42
-0.3068495242
  0
ELLIPSE
  5
4D0
100
AcDbEntity
  8
KONSTRUKTIONSELEMENTE
100
AcDbEllipse
 62
7
  6
CONTINUOUS
 10
142.1176949882
 20
140.574969202
 30
0.0
 11
16.5
 21
-0.0
 31
0.0
 40
0.4188148508
 41
-0.0033232252
 42
0.0000000098
  0
ELLIPSE
  5
4D1
100
AcDbEntity
  8
KONSTRUKTIONSELEMENTE
100
AcDbEllipse
 62
7
  6
CONTINUOUS
 10
142.1176949882
 20
145.386623958
 30
0.0
 11
0.0
 21
60.8982751167
 31
0.0
 40
0.2709436346
 41
-1.5974316543
 42
-1.5900936697
  0
ELLIPSE
  5
4D2
100
AcDbEntity
  8
KONSTRUKTIONSELEMENTE
100
AcDbEllipse
 62
7
  6
CONTINUOUS
 10
142.1176949882
 20
149.2168978685
 30
0.0
 11
16.5
 21
-0.0
 31
0.0
 40
0.255319362
 41
0.0000000287
 42
0.0164148701
  0
ELLIPSE
  5
4D3
100
AcDbEntity
  8
KONSTRUKTIONSELEMENTE
100
AcDbEllipse
 62
7
  6
CONTINUOUS
 10
142.1176949882
 20
144.2517680469
 30
0.0
 11
-0.0
 21
43.0638298988
 31
0.0
 40
0.3831521729
 41
4.8173797362
 42
4.8574680841
  0
ELLIPSE
  5
4D4
100
AcDbEntity
  8
KONSTRUKTIONSELEMENTE
100
AcDbEllipse
 62
7
  6
CONTINUOUS
 10
142.1176949882
 20
151.6956214191
 30
0.0
 11
16.5
 21
0.0
 31
0.0
 40
0.5106383587
 41
-0.1450791037
 42
-0.1272369734
  0
ELLIPSE
  5
4D5
100
AcDbEntity
  8
KONSTRUKTIONSELEMENTE
100
AcDbEllipse
 62
7
  6
CONTINUOUS
 10
142.1176949882
 20
153.4775358454
 30
0.0
 11
-0.0
 21
22.468082428
 31
0.0
 40
0.7343750875
 41
-1.6980333002
 42
-1.6846786912
  0
ELLIPSE
  5
4D6
100
AcDbEntity
  8
KONSTRUKTIONSELEMENTE
100
AcDbEllipse
 62
7
  6
CONTINUOUS
 10
142.1176949882
 20
156.6690303052
 30
0.0
 11
0.0
 21
50.5532336743
 31
0.0
 40
0.3263886165
 41
-1.6846786912
 42
-1.6802318075
  0
ELLIPSE
  5
4D7
100
AcDbEntity
  8
KONSTRUKTIONSELEMENTE
100
AcDbEllipse
 62
7
  6
CONTINUOUS
 10
142.1176949882
 20
145.9243399865
 30
0.0
 11
-0.0
 21
50.5532336743
 31
0.0
 40
0.3263886165
 41
-1.4613608461
 42
-1.4569139623
  0
ELLIPSE
  5
4D8
100
AcDbEntity
  8
KONSTRUKTIONSELEMENTE
100
AcDbEllipse
 62
7
  6
CONTINUOUS
 10
142.1176949882
 20
149.1158344463
 30
0.0
 11
0.0
 21
22.468082428
 31
0.0
 40
0.7343750875
 41
4.8262713448
 42
4.8396259538
  0
ELLIPSE
  5
4D9
100
AcDbEntity
  8
KONSTRUKTIONSELEMENTE
100
AcDbEllipse
 62
7
  6
CONTINUOUS
 10
142.1176949882
 20
150.3631743408
 30
0.0
 11
16.5
 21
-0.0
 31
0.0
 40
0.7659575381
 41
0.1272369734
 42
0.1450791037
  0
ELLIPSE
  5
4DA
100
AcDbEntity
  8
KONSTRUKTIONSELEMENTE
100
AcDbEllipse
 62
7
  6
CONTINUOUS
 10
142.1176949882
 20
151.7030682876
 30
0.0
 11
16.5
 21
-0.0
 31
0.0
 40
0.2042552558
 41
0.1450791037
 42
0.1674480792
  0
ELLIPSE
  5
4DB
100
AcDbEntity
  8
KONSTRUKTIONSELEMENTE
100
AcDbEllipse
 62
7
  6
CONTINUOUS
 10
142.1176949882
 20
140.5979341248
 30
0.0
 11
16.5
 21
-0.0
 31
0.0
 40
0.8376297016
 41
-0.0140998484
 42
-0.0033232252
  0
ELLIPSE
  5
4DC
100
AcDbEntity
  8
KONSTRUKTIONSELEMENTE
100
AcDbEllipse
 62
7
  6
CONTINUOUS
 10
142.1176949882
 20
140.6953674025
 30
0.0
 11
-0.0
 21
20.7313548843
 31
0.0
 40
0.7958958829
 41
-1.5920814164
 42
-1.5848961752
  0
ELLIPSE
  5
4DD
100
AcDbEntity
  8
KONSTRUKTIONSELEMENTE
100
AcDbEllipse
 62
7
  6
CONTINUOUS
 10
142.1176949882
 20
141.5778350898
 30
0.0
 11
0.0
 21
62.1939157533
 31
0.0
 40
0.2652992628
 41
-1.5956744363
 42
-1.5920814164
  0
ELLIPSE
  5
4DE
100
AcDbEntity
  8
KONSTRUKTIONSELEMENTE
100
AcDbEllipse
 62
7
  6
CONTINUOUS
 10
142.1176949882
 20
138.2602166865
 30
0.0
 11
0.0
 21
62.1938867147
 31
0.0
 40
0.2652993867
 41
-1.5468164596
 42
-1.5459182172
  0
ELLIPSE
  5
4DF
100
AcDbEntity
  8
KONSTRUKTIONSELEMENTE
100
AcDbEllipse
 62
7
  6
CONTINUOUS
 10
142.1176949882
 20
149.1016497159
 30
0.0
 11
16.5
 21
-0.0
 31
0.0
 40
0.6808512211
 41
6.2996001773
 42
6.3128613715
  0
ELLIPSE
  5
4E0
100
AcDbEntity
  8
KONSTRUKTIONSELEMENTE
100
AcDbEllipse
 62
7
  6
CONTINUOUS
 10
142.1176949882
 20
148.6849847645
 30
0.0
 11
0.0
 21
25.2765445203
 31
0.0
 40
0.6527791007
 41
-1.5411202624
 42
-1.5322766924
  0
ELLIPSE
  5
4E1
100
AcDbEntity
  8
KONSTRUKTIONSELEMENTE
100
AcDbEllipse
 62
7
  6
CONTINUOUS
 10
142.1176949882
 20
147.0626324186
 30
0.0
 11
0.0
 21
67.4045044117
 31
0.0
 40
0.244790762
 41
-1.5322766924
 42
-1.5278538454
  0
ELLIPSE
  5
4E2
100
AcDbEntity
  8
KONSTRUKTIONSELEMENTE
100
AcDbEllipse
 62
7
  6
CONTINUOUS
 10
142.1176949882
 20
142.7693251361
 30
0.0
 11
0.0
 21
62.1939447918
 31
0.0
 40
0.2652991389
 41
-1.5956744363
 42
-1.594776194
  0
ELLIPSE
  5
4E3
100
AcDbEntity
  8
KONSTRUKTIONSELEMENTE
100
AcDbEllipse
 62
7
  6
CONTINUOUS
 10
142.1176949882
 20
144.3164304175
 30
0.0
 11
-0.0
 21
124.3877734295
 31
0.0
 40
0.1326496933
 41
-1.5992677775
 42
-1.5956744363
  0
ELLIPSE
  5
4E4
100
AcDbEntity
  8
KONSTRUKTIONSELEMENTE
100
AcDbEllipse
 62
7
  6
CONTINUOUS
 10
142.1176949882
 20
141.9939139814
 30
0.0
 11
-0.0
 21
38.0074525476
 31
0.0
 40
0.4341253858
 41
-1.6676643654
 42
-1.6460315761
  0
ELLIPSE
  5
4E5
100
AcDbEntity
  8
KONSTRUKTIONSELEMENTE
100
AcDbEllipse
 62
7
  6
CONTINUOUS
 10
142.1176949882
 20
108.5641676748
 30
0.0
 11
-0.0
 21
124.3880248907
 31
0.0
 40
0.1326494252
 41
-1.3169023997
 42
-1.313189579
  0
ELLIPSE
  5
4E6
100
AcDbEntity
  8
KONSTRUKTIONSELEMENTE
100
AcDbEllipse
 62
7
  6
CONTINUOUS
 10
142.1176949882
 20
131.9965339932
 30
0.0
 11
-0.0
 21
31.0970081534
 31
0.0
 40
0.5305976677
 41
4.9514667552
 42
4.9662829075
  0
ELLIPSE
  5
4E7
100
AcDbEntity
  8
KONSTRUKTIONSELEMENTE
100
AcDbEllipse
 62
7
  6
CONTINUOUS
 10
142.1176949882
 20
136.0876358561
 30
0.0
 11
16.5
 21
0.0
 31
0.0
 40
0.8376295018
 41
6.5111861616
 42
6.522263082
  0
ELLIPSE
  5
4E8
100
AcDbEntity
  8
KONSTRUKTIONSELEMENTE
100
AcDbEllipse
 62
7
  6
CONTINUOUS
 10
142.1176949882
 20
138.2743955695
 30
0.0
 11
16.5
 21
0.0
 31
0.0
 40
0.2512889344
 41
6.4927869727
 42
6.5111861616
  0
ELLIPSE
  5
4E9
100
AcDbEntity
  8
KONSTRUKTIONSELEMENTE
100
AcDbEllipse
 62
7
  6
CONTINUOUS
 10
142.1176949882
 20
122.6722188946
 30
0.0
 11
0.0
 21
62.194064653
 31
0.0
 40
0.2652986276
 41
-1.1785711928
 42
-1.1746808078
  0
ELLIPSE
  5
4EA
100
AcDbEntity
  8
KONSTRUKTIONSELEMENTE
100
AcDbEllipse
 62
7
  6
CONTINUOUS
 10
142.1176949882
 20
136.0037883639
 30
0.0
 11
-0.0
 21
27.6417801512
 31
0.0
 40
0.5969224815
 41
5.1085044994
 42
5.1202140704
  0
ELLIPSE
  5
4EB
100
AcDbEntity
  8
KONSTRUKTIONSELEMENTE
100
AcDbEllipse
 62
7
  6
CONTINUOUS
 10
142.1176949882
 20
142.7551449649
 30
0.0
 11
16.5
 21
0.0
 31
0.0
 40
0.2512889344
 41
-0.2280008544
 42
-0.2096016655
  0
ELLIPSE
  5
4EC
100
AcDbEntity
  8
KONSTRUKTIONSELEMENTE
100
AcDbEllipse
 62
7
  6
CONTINUOUS
 10
142.1176949882
 20
140.8001473315
 30
0.0
 11
16.5
 21
0.0
 31
0.0
 40
0.9423336389
 41
0.40782509
 42
0.4235309154
  0
ELLIPSE
  5
4ED
100
AcDbEntity
  8
KONSTRUKTIONSELEMENTE
100
AcDbEllipse
 62
7
  6
CONTINUOUS
 10
142.1176949882
 20
144.9419046783
 30
0.0
 11
16.5
 21
-0.0
 31
0.0
 40
0.8376295018
 41
-0.2390777748
 42
-0.2280008544
  0
ELLIPSE
  5
4EE
100
AcDbEntity
  8
KONSTRUKTIONSELEMENTE
100
AcDbEllipse
 62
7
  6
CONTINUOUS
 10
142.1176949882
 20
149.0330091199
 30
0.0
 11
-0.0
 21
31.0970190429
 31
0.0
 40
0.5305974819
 41
-1.8246902539
 42
-1.8098741016
  0
ELLIPSE
  5
4EF
100
AcDbEntity
  8
KONSTRUKTIONSELEMENTE
100
AcDbEllipse
 62
7
  6
CONTINUOUS
 10
142.1176949882
 20
145.4862616073
 30
0.0
 11
16.5
 21
-0.0
 31
0.0
 40
0.2512888625
 41
0.4235309154
 42
0.4433214727
  0
ELLIPSE
  5
4F0
100
AcDbEntity
  8
KONSTRUKTIONSELEMENTE
100
AcDbEllipse
 62
7
  6
CONTINUOUS
 10
142.1176949882
 20
172.4653654094
 30
0.0
 11
-0.0
 21
124.3879958521
 31
0.0
 40
0.1326494561
 41
-1.8284030746
 42
-1.8246902539
  0
ELLIPSE
  5
4F1
100
AcDbEntity
  8
KONSTRUKTIONSELEMENTE
100
AcDbEllipse
 62
7
  6
CONTINUOUS
 10
142.1176949882
 20
147.1071086844
 30
0.0
 11
16.5
 21
0.0
 31
0.0
 40
0.2512888625
 41
-0.4433214727
 42
-0.4235309154
  0
ELLIPSE
  5
4F2
100
AcDbEntity
  8
KONSTRUKTIONSELEMENTE
100
AcDbEllipse
 62
7
  6
CONTINUOUS
 10
142.1176949882
 20
151.7932229602
 30
0.0
 11
16.5
 21
-0.0
 31
0.0
 40
0.9423336389
 41
-0.4235309154
 42
-0.40782509
  0
ELLIPSE
  5
4F3
100
AcDbEntity
  8
KONSTRUKTIONSELEMENTE
100
AcDbEllipse
 62
7
  6
CONTINUOUS
 10
142.1176949882
 20
156.5895819278
 30
0.0
 11
-0.0
 21
27.6417801512
 31
0.0
 40
0.5969224815
 41
-1.9786214168
 42
-1.9669118458
  0
ELLIPSE
  5
4F4
100
AcDbEntity
  8
KONSTRUKTIONSELEMENTE
100
AcDbEllipse
 62
7
  6
CONTINUOUS
 10
142.1176949882
 20
169.9211513971
 30
0.0
 11
0.0
 21
62.194064653
 31
0.0
 40
0.2652986276
 41
-1.9669118458
 42
-1.9630214607
  0
ELLIPSE
  5
4F5
100
AcDbEntity
  8
KONSTRUKTIONSELEMENTE
100
AcDbEllipse
 62
7
  6
CONTINUOUS
 10
142.1176949882
 20
141.5458410556
 30
0.0
 11
16.5
 21
-0.0
 31
0.0
 40
0.2094074254
 41
0.1876167259
 42
0.2096016655
  0
ELLIPSE
  5
4F6
100
AcDbEntity
  8
KONSTRUKTIONSELEMENTE
100
AcDbEllipse
 62
7
  6
CONTINUOUS
 10
142.1176949882
 20
139.8702426138
 30
0.0
 11
16.5
 21
-0.0
 31
0.0
 40
0.7538665876
 41
0.1693662511
 42
0.1876167259
  0
ELLIPSE
  5
4F7
100
AcDbEntity
  8
KONSTRUKTIONSELEMENTE
100
AcDbEllipse
 62
7
  6
CONTINUOUS
 10
142.1176949882
 20
138.4724717324
 30
0.0
 11
0.0
 21
20.7313351134
 31
0.0
 40
0.795896642
 41
4.870832627
 42
4.8817552315
  0
ELLIPSE
  5
4F8
100
AcDbEntity
  8
KONSTRUKTIONSELEMENTE
100
AcDbEllipse
 62
7
  6
CONTINUOUS
 10
142.1176949882
 20
135.2014435183
 30
0.0
 11
0.0
 21
41.4627097687
 31
0.0
 40
0.3979479415
 41
4.8635615562
 42
4.870832627
  0
ELLIPSE
  5
4F9
100
AcDbEntity
  8
KONSTRUKTIONSELEMENTE
100
AcDbEllipse
 62
7
  6
CONTINUOUS
 10
142.1176949882
 20
132.0793726269
 30
0.0
 11
0.0
 21
62.1939447918
 31
0.0
 40
0.2652991389
 41
4.8599290529
 42
4.8635615562
  0
ELLIPSE
  5
4FA
100
AcDbEntity
  8
KONSTRUKTIONSELEMENTE
100
AcDbEllipse
 62
7
  6
CONTINUOUS
 10
142.1176949882
 20
125.984113701
 30
0.0
 11
-0.0
 21
103.6567744217
 31
0.0
 40
0.1591791766
 41
-1.4268867872
 42
-1.4232562543
  0
ELLIPSE
  5
4FB
100
AcDbEntity
  8
KONSTRUKTIONSELEMENTE
100
AcDbEllipse
 62
7
  6
CONTINUOUS
 10
142.1176949882
 20
132.7254586659
 30
0.0
 11
-0.0
 21
62.1938867147
 31
0.0
 40
0.2652993867
 41
-1.3483635903
 42
-1.3446792555
  0
ELLIPSE
  5
4FC
100
AcDbEntity
  8
KONSTRUKTIONSELEMENTE
100
AcDbEllipse
 62
7
  6
CONTINUOUS
 10
142.1176949882
 20
155.0454309458
 30
0.0
 11
0.0
 21
103.6568034603
 31
0.0
 40
0.159179132
 41
-1.7183363993
 42
-1.7147058664
  0
ELLIPSE
  5
4FD
100
AcDbEntity
  8
KONSTRUKTIONSELEMENTE
100
AcDbEllipse
 62
7
  6
CONTINUOUS
 10
142.1176949882
 20
148.9501592134
 30
0.0
 11
0.0
 21
62.1938867147
 31
0.0
 40
0.2652993867
 41
-1.7219689026
 42
-1.7183363993
  0
ELLIPSE
  5
4FE
100
AcDbEntity
  8
KONSTRUKTIONSELEMENTE
100
AcDbEllipse
 62
7
  6
CONTINUOUS
 10
142.1176949882
 20
140.4718729377
 30
0.0
 11
0.0
 21
27.6417801512
 31
0.0
 40
0.5969224815
 41
4.9385060517
 42
4.949578021
  0
ELLIPSE
  5
4FF
100
AcDbEntity
  8
KONSTRUKTIONSELEMENTE
100
AcDbEllipse
 62
7
  6
CONTINUOUS
 10
142.1176949882
 20
145.8280981616
 30
0.0
 11
0.0
 21
41.4627170283
 31
0.0
 40
0.3979478718
 41
-1.7292399734
 42
-1.7219689026
  0
ELLIPSE
  5
500
100
AcDbEntity
  8
KONSTRUKTIONSELEMENTE
100
AcDbEllipse
 62
7
  6
CONTINUOUS
 10
142.1176949882
 20
142.5570691838
 30
0.0
 11
-0.0
 21
20.7313375333
 31
0.0
 40
0.7958965491
 41
4.5430227293
 42
4.5539453338
  0
ELLIPSE
  5
501
100
AcDbEntity
  8
KONSTRUKTIONSELEMENTE
100
AcDbEllipse
 62
7
  6
CONTINUOUS
 10
142.1176949882
 20
143.3134481166
 30
0.0
 11
16.5
 21
0.0
 31
0.0
 40
0.9423329649
 41
0.2371890406
 42
0.2519981768
  0
ELLIPSE
  5
502
100
AcDbEntity
  8
KONSTRUKTIONSELEMENTE
100
AcDbEllipse
 62
7
  6
CONTINUOUS
 10
142.1176949882
 20
141.1592980781
 30
0.0
 11
16.5
 21
0.0
 31
0.0
 40
0.7538666536
 41
-0.1876167259
 42
-0.1693662511
  0
ELLIPSE
  5
503
100
AcDbEntity
  8
KONSTRUKTIONSELEMENTE
100
AcDbEllipse
 62
7
  6
CONTINUOUS
 10
142.1176949882
 20
146.1564735314
 30
0.0
 11
16.5
 21
0.0
 31
0.0
 40
0.2512890063
 41
0.2519981768
 42
0.2705897621
  0
ELLIPSE
  5
504
100
AcDbEntity
  8
KONSTRUKTIONSELEMENTE
100
AcDbEllipse
 62
7
  6
CONTINUOUS
 10
142.1176949882
 20
139.4836994896
 30
0.0
 11
16.5
 21
0.0
 31
0.0
 40
0.2094074437
 41
-0.2096016655
 42
-0.1876167259
  0
ELLIPSE
  5
505
100
AcDbEntity
  8
KONSTRUKTIONSELEMENTE
100
AcDbEllipse
 62
7
  6
CONTINUOUS
 10
142.1176949882
 20
146.4368967603
 30
0.0
 11
16.5
 21
-0.0
 31
0.0
 40
0.2512890063
 41
-0.2705897621
 42
-0.2519981768
  0
ELLIPSE
  5
506
100
AcDbEntity
  8
KONSTRUKTIONSELEMENTE
100
AcDbEllipse
 62
7
  6
CONTINUOUS
 10
142.1176949882
 20
149.2799221751
 30
0.0
 11
16.5
 21
-0.0
 31
0.0
 40
0.9423329649
 41
-0.2519981768
 42
-0.2371890406
  0
ELLIPSE
  5
507
100
AcDbEntity
  8
KONSTRUKTIONSELEMENTE
100
AcDbEllipse
 62
7
  6
CONTINUOUS
 10
142.1176949882
 20
152.121497354
 30
0.0
 11
-0.0
 21
27.6417801512
 31
0.0
 40
0.5969224815
 41
-1.8079853674
 42
-1.7969133981
  0
ELLIPSE
  5
508
100
AcDbEntity
  8
KONSTRUKTIONSELEMENTE
100
AcDbEllipse
 62
7
  6
CONTINUOUS
 10
142.1176949882
 20
159.8679116258
 30
0.0
 11
0.0
 21
62.1938867147
 31
0.0
 40
0.2652993867
 41
-1.7969133981
 42
-1.7932290633
  0
ELLIPSE
  5
509
100
AcDbEntity
  8
KONSTRUKTIONSELEMENTE
100
AcDbEllipse
 62
7
  6
CONTINUOUS
 10
142.1176949882
 20
141.7223149931
 30
0.0
 11
0.0
 21
60.7131864058
 31
0.0
 40
0.2717696266
 41
-1.5297844502
 42
-1.4793799016
  0
ELLIPSE
  5
50A
100
AcDbEntity
  8
KONSTRUKTIONSELEMENTE
100
AcDbEllipse
 62
7
  6
CONTINUOUS
 10
142.1176949882
 20
142.2763199896
 30
0.0
 11
16.5
 21
0.0
 31
0.0
 40
0.753867019
 41
-0.0248781095
 42
-0.0069153351
  0
ELLIPSE
  5
50B
100
AcDbEntity
  8
KONSTRUKTIONSELEMENTE
100
AcDbEllipse
 62
7
  6
CONTINUOUS
 10
142.1176949882
 20
146.7008425082
 30
0.0
 11
0.0
 21
60.7131864058
 31
0.0
 40
0.2717696266
 41
-1.6118082034
 42
-1.5707978768
  0
ELLIPSE
  5
50C
100
AcDbEntity
  8
KONSTRUKTIONSELEMENTE
100
AcDbEllipse
 62
7
  6
CONTINUOUS
 10
142.1176949882
 20
141.0199199848
 30
0.0
 11
16.5
 21
0.0
 31
0.0
 40
0.8376297016
 41
-0.0284714507
 42
-0.0069153351
  0
ELLIPSE
  5
50D
100
AcDbEntity
  8
KONSTRUKTIONSELEMENTE
100
AcDbEllipse
 62
7
  6
CONTINUOUS
 10
142.1176949882
 20
140.9530172358
 30
0.0
 11
16.5
 21
0.0
 31
0.0
 40
0.2512887187
 41
-0.0069153351
 42
0.0110452286
  0
ELLIPSE
  5
50E
100
AcDbEntity
  8
KONSTRUKTIONSELEMENTE
100
AcDbEllipse
 62
7
  6
CONTINUOUS
 10
142.1176949882
 20
142.7607802499
 30
0.0
 11
0.0
 21
44.2340458175
 31
0.0
 40
0.3730158455
 41
-1.4346437336
 42
-1.3988646528
  0
ELLIPSE
  5
50F
100
AcDbEntity
  8
KONSTRUKTIONSELEMENTE
100
AcDbEllipse
 62
7
  6
CONTINUOUS
 10
142.1176949882
 20
142.676540309
 30
0.0
 11
-0.0
 21
36.8557291355
 31
0.0
 40
0.4341251788
 41
-1.6893342768
 42
-1.6771340267
  0
ELLIPSE
  5
510
100
AcDbEntity
  8
KONSTRUKTIONSELEMENTE
100
AcDbEllipse
 62
7
  6
CONTINUOUS
 10
142.1176949882
 20
142.676540309
 30
0.0
 11
0.0
 21
38.007470671
 31
0.0
 40
0.4341251788
 41
-1.6857260658
 42
-1.6640560309
  0
ELLIPSE
  5
511
100
AcDbEntity
  8
KONSTRUKTIONSELEMENTE
100
AcDbEllipse
 62
7
  6
CONTINUOUS
 10
142.1176949882
 20
150.9810824272
 30
0.0
 11
16.5
 21
-0.0
 31
0.0
 40
0.3404254913
 41
0.149546696
 42
0.1629678863
  0
ELLIPSE
  5
512
100
AcDbEntity
  8
KONSTRUKTIONSELEMENTE
100
AcDbEllipse
 62
7
  6
CONTINUOUS
 10
142.1176949882
 20
148.7690255334
 30
0.0
 11
16.5
 21
-0.0
 31
0.0
 40
0.2042553906
 41
6.2831853526
 42
6.3040201478
  0
ELLIPSE
  5
513
100
AcDbEntity
  8
KONSTRUKTIONSELEMENTE
100
AcDbEllipse
 62
7
  6
CONTINUOUS
 10
142.1176949882
 20
149.3073249113
 30
0.0
 11
-0.0
 21
16.8510537858
 31
0.0
 40
0.9791672503
 41
-1.4301818882
 42
-1.4212496308
  0
ELLIPSE
  5
514
100
AcDbEntity
  8
KONSTRUKTIONSELEMENTE
100
AcDbEllipse
 62
7
  6
CONTINUOUS
 10
142.1176949882
 20
139.9998257794
 30
0.0
 11
16.5
 21
-0.0
 31
0.0
 40
0.2512889344
 41
-0.2096016655
 42
-0.1912742206
  0
ELLIPSE
  5
515
100
AcDbEntity
  8
KONSTRUKTIONSELEMENTE
100
AcDbEllipse
 62
7
  6
CONTINUOUS
 10
142.1176949882
 20
141.8390673429
 30
0.0
 11
16.5
 21
0.0
 31
0.0
 40
0.8376293021
 41
-0.1912742206
 42
-0.1803092963
  0
ELLIPSE
  5
516
100
AcDbEntity
  8
KONSTRUKTIONSELEMENTE
100
AcDbEllipse
 62
7
  6
CONTINUOUS
 10
142.1176949882
 20
144.583913336
 30
0.0
 11
-0.0
 21
50.5532336743
 31
0.0
 40
0.3263886165
 41
-1.4346437336
 42
-1.4301818882
  0
ELLIPSE
  5
517
100
AcDbEntity
  8
KONSTRUKTIONSELEMENTE
100
AcDbEllipse
 62
7
  6
CONTINUOUS
 10
142.1176949882
 20
144.9372625324
 30
0.0
 11
-0.0
 21
31.097013714
 31
0.0
 40
0.5305975729
 41
-1.7511056231
 42
-1.7365195121
  0
ELLIPSE
  5
518
100
AcDbEntity
  8
KONSTRUKTIONSELEMENTE
100
AcDbEllipse
 62
7
  6
CONTINUOUS
 10
142.1176949882
 20
160.3270969638
 30
0.0
 11
-0.0
 21
124.3881583447
 31
0.0
 40
0.1326492829
 41
-1.7365195121
 42
-1.7328786648
  0
ELLIPSE
  5
519
100
AcDbEntity
  8
KONSTRUKTIONSELEMENTE
100
AcDbEllipse
 62
7
  6
CONTINUOUS
 10
142.1176949882
 20
158.0839250319
 30
0.0
 11
0.0
 21
50.5532336743
 31
0.0
 40
0.3263886165
 41
-1.7114107654
 42
-1.70694892
  0
ELLIPSE
  5
51A
100
AcDbEntity
  8
KONSTRUKTIONSELEMENTE
100
AcDbEllipse
 62
7
  6
CONTINUOUS
 10
142.1176949882
 20
120.7024482046
 30
0.0
 11
0.0
 21
124.3881293061
 31
0.0
 40
0.1326493138
 41
-1.4087139888
 42
-1.4050731415
  0
ELLIPSE
  5
51B
100
AcDbEntity
  8
KONSTRUKTIONSELEMENTE
100
AcDbEllipse
 62
7
  6
CONTINUOUS
 10
142.1176949882
 20
136.0922760492
 30
0.0
 11
-0.0
 21
31.0970246035
 31
0.0
 40
0.5305973871
 41
4.8781121657
 42
4.8926982766
  0
ELLIPSE
  5
51C
100
AcDbEntity
  8
KONSTRUKTIONSELEMENTE
100
AcDbEllipse
 62
7
  6
CONTINUOUS
 10
142.1176949882
 20
153.3605134566
 30
0.0
 11
0.0
 21
16.8510537858
 31
0.0
 40
0.9791672503
 41
-1.7203430227
 42
-1.7114107654
  0
ELLIPSE
  5
51D
100
AcDbEntity
  8
KONSTRUKTIONSELEMENTE
100
AcDbEllipse
 62
7
  6
CONTINUOUS
 10
142.1176949882
 20
139.1904731915
 30
0.0
 11
16.5
 21
0.0
 31
0.0
 40
0.8376293021
 41
6.4634946034
 42
6.4744595278
  0
ELLIPSE
  5
51E
100
AcDbEntity
  8
KONSTRUKTIONSELEMENTE
100
AcDbEllipse
 62
7
  6
CONTINUOUS
 10
142.1176949882
 20
141.029714755
 30
0.0
 11
16.5
 21
-0.0
 31
0.0
 40
0.2512889344
 41
6.4744595278
 42
6.4927869727
  0
ELLIPSE
  5
51F
100
AcDbEntity
  8
KONSTRUKTIONSELEMENTE
100
AcDbEllipse
 62
7
  6
CONTINUOUS
 10
142.1176949882
 20
151.6867559407
 30
0.0
 11
16.5
 21
0.0
 31
0.0
 40
0.3404254913
 41
-0.1629678863
 42
-0.149546696
  0
ELLIPSE
  5
520
100
AcDbEntity
  8
KONSTRUKTIONSELEMENTE
100
AcDbEllipse
 62
7
  6
CONTINUOUS
 10
142.1176949882
 20
142.2189747403
 30
0.0
 11
16.5
 21
0.0
 31
0.0
 40
0.2512887187
 41
-0.0069153351
 42
0.0110452286
  0
ELLIPSE
  5
521
100
AcDbEntity
  8
KONSTRUKTIONSELEMENTE
100
AcDbEllipse
 62
7
  6
CONTINUOUS
 10
142.1176949882
 20
169.119878169
 30
0.0
 11
0.0
 21
100.5155611905
 31
0.0
 40
0.1591793331
 41
-1.855892767
 42
-1.8520348171
  0
ELLIPSE
  5
522
100
AcDbEntity
  8
KONSTRUKTIONSELEMENTE
100
AcDbEllipse
 62
7
  6
CONTINUOUS
 10
142.1176949882
 20
169.119878169
 30
0.0
 11
0.0
 21
103.6566724777
 31
0.0
 40
0.1591793331
 41
-1.8470229576
 42
-1.8432913332
  0
ELLIPSE
  5
523
100
AcDbEntity
  8
KONSTRUKTIONSELEMENTE
100
AcDbEllipse
 62
7
  6
CONTINUOUS
 10
142.1176949882
 20
138.8105657459
 30
0.0
 11
16.5
 21
-0.0
 31
0.0
 40
0.2512887407
 41
6.2721400786
 42
6.2901006423
  0
ELLIPSE
  5
524
100
AcDbEntity
  8
KONSTRUKTIONSELEMENTE
100
AcDbEllipse
 62
7
  6
CONTINUOUS
 10
142.1176949882
 20
157.9608293181
 30
0.0
 11
0.0
 21
60.3093930315
 31
0.0
 40
0.2652986408
 41
-1.8520348171
 42
-1.8481811622
  0
ELLIPSE
  5
525
100
AcDbEntity
  8
KONSTRUKTIONSELEMENTE
100
AcDbEllipse
 62
7
  6
CONTINUOUS
 10
142.1176949882
 20
157.9608293181
 30
0.0
 11
0.0
 21
62.1940615638
 31
0.0
 40
0.2652986408
 41
-1.8432913332
 42
-1.8395635962
  0
ELLIPSE
  5
526
100
AcDbEntity
  8
KONSTRUKTIONSELEMENTE
100
AcDbEllipse
 62
7
  6
CONTINUOUS
 10
142.1176949882
 20
152.4557497316
 30
0.0
 11
0.0
 21
40.2062244762
 31
0.0
 40
0.3979483328
 41
-1.8481811622
 42
-1.8404864531
  0
ELLIPSE
  5
527
100
AcDbEntity
  8
KONSTRUKTIONSELEMENTE
100
AcDbEllipse
 62
7
  6
CONTINUOUS
 10
142.1176949882
 20
152.4557497316
 30
0.0
 11
-0.0
 21
41.4626689911
 31
0.0
 40
0.3979483328
 41
-1.8395635962
 42
-1.8321195293
  0
ELLIPSE
  5
528
100
AcDbEntity
  8
KONSTRUKTIONSELEMENTE
100
AcDbEllipse
 62
7
  6
CONTINUOUS
 10
142.1176949882
 20
147.0996225177
 30
0.0
 11
-0.0
 21
20.1031152337
 31
0.0
 40
0.7958965471
 41
-1.8404864531
 42
-1.8289748409
  0
ELLIPSE
  5
529
100
AcDbEntity
  8
KONSTRUKTIONSELEMENTE
100
AcDbEllipse
 62
7
  6
CONTINUOUS
 10
142.1176949882
 20
147.0996225177
 30
0.0
 11
-0.0
 21
20.7313375848
 31
0.0
 40
0.7958965471
 41
-1.8321195293
 42
-1.8209810083
  0
ELLIPSE
  5
52A
100
AcDbEntity
  8
KONSTRUKTIONSELEMENTE
100
AcDbEllipse
 62
7
  6
CONTINUOUS
 10
142.1176949882
 20
145.0465321711
 30
0.0
 11
16.0
 21
-0.0
 31
0.0
 40
0.7538666954
 41
-0.2581785141
 42
-0.2390691269
  0
ELLIPSE
  5
52B
100
AcDbEntity
  8
KONSTRUKTIONSELEMENTE
100
AcDbEllipse
 62
7
  6
CONTINUOUS
 10
142.1176949882
 20
145.0465321711
 30
0.0
 11
16.5
 21
0.0
 31
0.0
 40
0.7538666954
 41
-0.2501846815
 42
-0.2316899288
  0
ELLIPSE
  5
52C
100
AcDbEntity
  8
KONSTRUKTIONSELEMENTE
100
AcDbEllipse
 62
7
  6
CONTINUOUS
 10
142.1176949882
 20
142.9836994267
 30
0.0
 11
16.0
 21
-0.0
 31
0.0
 40
0.2094074254
 41
-0.2390691269
 42
-0.2162541107
  0
ELLIPSE
  5
52D
100
AcDbEntity
  8
KONSTRUKTIONSELEMENTE
100
AcDbEllipse
 62
7
  6
CONTINUOUS
 10
142.1176949882
 20
142.9836994267
 30
0.0
 11
16.5
 21
0.0
 31
0.0
 40
0.2094074254
 41
-0.2316899288
 42
-0.2096016655
  0
ELLIPSE
  5
52E
100
AcDbEntity
  8
KONSTRUKTIONSELEMENTE
100
AcDbEllipse
 62
7
  6
CONTINUOUS
 10
142.1176949882
 20
143.9530709066
 30
0.0
 11
16.5
 21
0.0
 31
0.0
 40
0.4188148508
 41
0.4274746349
 42
0.4393487634
  0
ELLIPSE
  5
52F
100
AcDbEntity
  8
KONSTRUKTIONSELEMENTE
100
AcDbEllipse
 62
7
  6
CONTINUOUS
 10
142.1176949882
 20
143.9530709066
 30
0.0
 11
16.0
 21
0.0
 31
0.0
 40
0.4188148508
 41
0.4417580923
 42
0.4540873802
  0
ELLIPSE
  5
530
100
AcDbEntity
  8
KONSTRUKTIONSELEMENTE
100
AcDbEllipse
 62
7
  6
CONTINUOUS
 10
142.1176949882
 20
138.2232932506
 30
0.0
 11
-0.0
 21
20.7313252279
 31
0.0
 40
0.7958970215
 41
-1.1512021206
 42
-1.1433216919
  0
ELLIPSE
  5
531
100
AcDbEntity
  8
KONSTRUKTIONSELEMENTE
100
AcDbEllipse
 62
7
  6
CONTINUOUS
 10
142.1176949882
 20
138.2232932506
 30
0.0
 11
0.0
 21
20.1031032513
 31
0.0
 40
0.7958970215
 41
-1.1372178625
 42
-1.1290382345
  0
ELLIPSE
  5
532
100
AcDbEntity
  8
KONSTRUKTIONSELEMENTE
100
AcDbEllipse
 62
7
  6
CONTINUOUS
 10
142.1176949882
 20
121.3317922441
 30
0.0
 11
-0.0
 21
62.194064653
 31
0.0
 40
0.2652986276
 41
-1.1551319285
 42
-1.1512021206
  0
ELLIPSE
  5
533
100
AcDbEntity
  8
KONSTRUKTIONSELEMENTE
100
AcDbEllipse
 62
7
  6
CONTINUOUS
 10
142.1176949882
 20
121.3317922441
 30
0.0
 11
-0.0
 21
60.3093960272
 31
0.0
 40
0.2652986276
 41
-1.1412960428
 42
-1.1372178625
  0
ELLIPSE
  5
534
100
AcDbEntity
  8
KONSTRUKTIONSELEMENTE
100
AcDbEllipse
 62
7
  6
CONTINUOUS
 10
142.1176949882
 20
171.3360461238
 30
0.0
 11
-0.0
 21
62.194064653
 31
0.0
 40
0.2652986276
 41
-1.990390533
 42
-1.9864607251
  0
ELLIPSE
  5
535
100
AcDbEntity
  8
KONSTRUKTIONSELEMENTE
100
AcDbEllipse
 62
7
  6
CONTINUOUS
 10
142.1176949882
 20
171.3360461238
 30
0.0
 11
0.0
 21
60.3093960272
 31
0.0
 40
0.2652986276
 41
-2.0043747911
 42
-2.0002966108
  0
ELLIPSE
  5
536
100
AcDbEntity
  8
KONSTRUKTIONSELEMENTE
100
AcDbEllipse
 62
7
  6
CONTINUOUS
 10
142.1176949882
 20
154.4445451173
 30
0.0
 11
-0.0
 21
20.7313252279
 31
0.0
 40
0.7958970215
 41
-1.9982709617
 42
-1.990390533
  0
ELLIPSE
  5
537
100
AcDbEntity
  8
KONSTRUKTIONSELEMENTE
100
AcDbEllipse
 62
7
  6
CONTINUOUS
 10
142.1176949882
 20
154.4445451173
 30
0.0
 11
-0.0
 21
20.1031032513
 31
0.0
 40
0.7958970215
 41
-2.0125544191
 42
-2.0043747911
  0
ELLIPSE
  5
538
100
AcDbEntity
  8
KONSTRUKTIONSELEMENTE
100
AcDbEllipse
 62
7
  6
CONTINUOUS
 10
142.1176949882
 20
148.7147674613
 30
0.0
 11
16.5
 21
-0.0
 31
0.0
 40
0.4188148508
 41
-0.4393487634
 42
-0.4274746349
  0
ELLIPSE
  5
539
100
AcDbEntity
  8
KONSTRUKTIONSELEMENTE
100
AcDbEllipse
 62
7
  6
CONTINUOUS
 10
142.1176949882
 20
148.7147674613
 30
0.0
 11
16.0
 21
-0.0
 31
0.0
 40
0.4188148508
 41
-0.4540873802
 42
-0.4417580923
  0
ELLIPSE
  5
53A
100
AcDbEntity
  8
KONSTRUKTIONSELEMENTE
100
AcDbEllipse
 62
7
  6
CONTINUOUS
 10
142.1176949882
 20
138.0458409926
 30
0.0
 11
16.0
 21
0.0
 31
0.0
 40
0.2094074437
 41
0.2162541107
 42
0.2390691269
  0
ELLIPSE
  5
53B
100
AcDbEntity
  8
KONSTRUKTIONSELEMENTE
100
AcDbEllipse
 62
7
  6
CONTINUOUS
 10
142.1176949882
 20
138.0458409926
 30
0.0
 11
16.5
 21
-0.0
 31
0.0
 40
0.2094074437
 41
0.2096016655
 42
0.2316899288
  0
ELLIPSE
  5
53C
100
AcDbEntity
  8
KONSTRUKTIONSELEMENTE
100
AcDbEllipse
 62
7
  6
CONTINUOUS
 10
142.1176949882
 20
135.9830080676
 30
0.0
 11
16.0
 21
-0.0
 31
0.0
 40
0.7538667614
 41
0.2390691269
 42
0.2581785141
  0
ELLIPSE
  5
53D
100
AcDbEntity
  8
KONSTRUKTIONSELEMENTE
100
AcDbEllipse
 62
7
  6
CONTINUOUS
 10
142.1176949882
 20
135.9830080676
 30
0.0
 11
16.5
 21
0.0
 31
0.0
 40
0.7538667614
 41
0.2316899288
 42
0.2501846815
  0
ELLIPSE
  5
53E
100
AcDbEntity
  8
KONSTRUKTIONSELEMENTE
100
AcDbEllipse
 62
7
  6
CONTINUOUS
 10
142.1176949882
 20
138.7532204916
 30
0.0
 11
16.5
 21
0.0
 31
0.0
 40
0.753867085
 41
6.2901006423
 42
6.3080634167
  0
ELLIPSE
  5
53F
100
AcDbEntity
  8
KONSTRUKTIONSELEMENTE
100
AcDbEllipse
 62
7
  6
CONTINUOUS
 10
142.1176949882
 20
133.9299173915
 30
0.0
 11
0.0
 21
20.1031175803
 31
0.0
 40
0.7958964542
 41
-1.3126178126
 42
-1.3011062005
  0
ELLIPSE
  5
540
100
AcDbEntity
  8
KONSTRUKTIONSELEMENTE
100
AcDbEllipse
 62
7
  6
CONTINUOUS
 10
142.1176949882
 20
133.9299173915
 30
0.0
 11
0.0
 21
20.7313400046
 31
0.0
 40
0.7958964542
 41
4.9625736619
 42
4.9737121829
  0
ELLIPSE
  5
541
100
AcDbEntity
  8
KONSTRUKTIONSELEMENTE
100
AcDbEllipse
 62
7
  6
CONTINUOUS
 10
142.1176949882
 20
128.5737889272
 30
0.0
 11
-0.0
 21
40.2062315159
 31
0.0
 40
0.3979482632
 41
-1.3011062005
 42
-1.2934114913
  0
ELLIPSE
  5
542
100
AcDbEntity
  8
KONSTRUKTIONSELEMENTE
100
AcDbEllipse
 62
7
  6
CONTINUOUS
 10
142.1176949882
 20
128.5737889272
 30
0.0
 11
0.0
 21
41.4626762507
 31
0.0
 40
0.3979482632
 41
4.9737121829
 42
4.9811562498
  0
ELLIPSE
  5
543
100
AcDbEntity
  8
KONSTRUKTIONSELEMENTE
100
AcDbEllipse
 62
7
  6
CONTINUOUS
 10
142.1176949882
 20
123.0687266904
 30
0.0
 11
-0.0
 21
60.3093367143
 31
0.0
 40
0.2652988886
 41
-1.2934114913
 42
-1.2895578365
  0
ELLIPSE
  5
544
100
AcDbEntity
  8
KONSTRUKTIONSELEMENTE
100
AcDbEllipse
 62
7
  6
CONTINUOUS
 10
142.1176949882
 20
123.0687266904
 30
0.0
 11
0.0
 21
62.1940034866
 31
0.0
 40
0.2652988886
 41
-1.3020290574
 42
-1.2983013204
  0
ELLIPSE
  5
545
100
AcDbEntity
  8
KONSTRUKTIONSELEMENTE
100
AcDbEllipse
 62
7
  6
CONTINUOUS
 10
142.1176949882
 20
144.1052072377
 30
0.0
 11
0.0
 21
84.255148401
 31
0.0
 40
0.1958337302
 41
-1.5057251669
 42
-1.5012959403
  0
ELLIPSE
  5
546
100
AcDbEntity
  8
KONSTRUKTIONSELEMENTE
100
AcDbEllipse
 62
7
  6
CONTINUOUS
 10
142.1176949882
 20
111.9096543937
 30
0.0
 11
-0.0
 21
100.5155893491
 31
0.0
 40
0.1591792885
 41
-1.2895578365
 42
-1.2856998865
  0
ELLIPSE
  5
547
100
AcDbEntity
  8
KONSTRUKTIONSELEMENTE
100
AcDbEllipse
 62
7
  6
CONTINUOUS
 10
142.1176949882
 20
111.9096543937
 30
0.0
 11
-0.0
 21
103.6567015163
 31
0.0
 40
0.1591792885
 41
-1.2983013204
 42
-1.294569696
  0
ELLIPSE
  5
548
100
AcDbEntity
  8
KONSTRUKTIONSELEMENTE
100
AcDbEllipse
 62
7
  6
CONTINUOUS
 10
142.1176949882
 20
147.3924308868
 30
0.0
 11
0.0
 21
33.7021134724
 31
0.0
 40
0.4895835394
 41
-1.5145798612
 42
-1.5057251669
  0
ELLIPSE
  5
549
100
AcDbEntity
  8
KONSTRUKTIONSELEMENTE
100
AcDbEllipse
 62
7
  6
CONTINUOUS
 10
142.1176949882
 20
148.3392375853
 30
0.0
 11
-0.0
 21
16.8510793666
 31
0.0
 40
0.9791657639
 41
-1.5322766924
 42
-1.5145798612
  0
ELLIPSE
  5
54A
100
AcDbEntity
  8
KONSTRUKTIONSELEMENTE
100
AcDbEllipse
 62
7
  6
CONTINUOUS
 10
142.1176949882
 20
145.0700921211
 30
0.0
 11
16.5
 21
0.0
 31
0.0
 40
0.4188148508
 41
0.2557091491
 42
0.2668639796
  0
ELLIPSE
  5
54B
100
AcDbEntity
  8
KONSTRUKTIONSELEMENTE
100
AcDbEllipse
 62
7
  6
CONTINUOUS
 10
142.1176949882
 20
141.574347795
 30
0.0
 11
0.0
 21
20.7313548843
 31
0.0
 40
0.7958958829
 41
4.960679706
 42
4.9680981295
  0
ELLIPSE
  5
54C
100
AcDbEntity
  8
KONSTRUKTIONSELEMENTE
100
AcDbEllipse
 62
7
  6
CONTINUOUS
 10
142.1176949882
 20
131.3850358504
 30
0.0
 11
-0.0
 21
62.1938867147
 31
0.0
 40
0.2652993867
 41
-1.3262095709
 42
-1.3225056011
  0
ELLIPSE
  5
54D
100
AcDbEntity
  8
KONSTRUKTIONSELEMENTE
100
AcDbEllipse
 62
7
  6
CONTINUOUS
 10
142.1176949882
 20
161.2828025175
 30
0.0
 11
0.0
 21
62.1938867147
 31
0.0
 40
0.2652993867
 41
-1.8190870524
 42
-1.8153830827
  0
ELLIPSE
  5
54E
100
AcDbEntity
  8
KONSTRUKTIONSELEMENTE
100
AcDbEllipse
 62
7
  6
CONTINUOUS
 10
142.1176949882
 20
151.0934905729
 30
0.0
 11
-0.0
 21
20.7313548843
 31
0.0
 40
0.7958958829
 41
-1.8265054759
 42
-1.8190870524
  0
ELLIPSE
  5
54F
100
AcDbEntity
  8
KONSTRUKTIONSELEMENTE
100
AcDbEllipse
 62
7
  6
CONTINUOUS
 10
142.1176949882
 20
147.5977462468
 30
0.0
 11
16.5
 21
-0.0
 31
0.0
 40
0.4188148508
 41
-0.2668639796
 42
-0.2557091491
  0
ELLIPSE
  5
550
100
AcDbEntity
  8
KONSTRUKTIONSELEMENTE
100
AcDbEllipse
 62
7
  6
CONTINUOUS
 10
142.1176949882
 20
148.6637064906
 30
0.0
 11
16.5
 21
0.0
 31
0.0
 40
0.5106380606
 41
6.3040201478
 42
6.3217049416
  0
ELLIPSE
  5
551
100
AcDbEntity
  8
KONSTRUKTIONSELEMENTE
100
AcDbEllipse
 62
7
  6
CONTINUOUS
 10
142.1176949882
 20
138.375038211
 30
0.0
 11
0.0
 21
27.6417825711
 31
0.0
 40
0.5969224292
 41
4.7372670899
 42
4.7480482427
  0
ELLIPSE
  5
552
100
AcDbEntity
  8
KONSTRUKTIONSELEMENTE
100
AcDbEllipse
 62
7
  6
CONTINUOUS
 10
142.1176949882
 20
137.5127442463
 30
0.0
 11
-0.0
 21
51.8283944705
 31
0.0
 40
0.3183583086
 41
4.7480482427
 42
4.7552378979
  0
ELLIPSE
  5
553
100
AcDbEntity
  8
KONSTRUKTIONSELEMENTE
100
AcDbEllipse
 62
7
  6
CONTINUOUS
 10
142.1176949882
 20
133.5165616958
 30
0.0
 11
0.0
 21
145.1190980396
 31
0.0
 40
0.1136997144
 41
-1.5279474093
 42
-1.5243517634
  0
ELLIPSE
  5
554
100
AcDbEntity
  8
KONSTRUKTIONSELEMENTE
100
AcDbEllipse
 62
7
  6
CONTINUOUS
 10
142.1176949882
 20
140.3929190277
 30
0.0
 11
-0.0
 21
60.8982751167
 31
0.0
 40
0.2709436346
 41
4.7677858931
 42
4.8254713106
  0
ELLIPSE
  5
555
100
AcDbEntity
  8
KONSTRUKTIONSELEMENTE
100
AcDbEllipse
 62
7
  6
CONTINUOUS
 10
142.1176949882
 20
140.3929190277
 30
0.0
 11
0.0
 21
59.0528728404
 31
0.0
 40
0.2709436346
 41
-1.5136664034
 42
-1.4921786726
  0
ELLIPSE
  5
556
100
AcDbEntity
  8
KONSTRUKTIONSELEMENTE
100
AcDbEllipse
 62
7
  6
CONTINUOUS
 10
142.1176949882
 20
147.5129774383
 30
0.0
 11
-0.0
 21
145.119069001
 31
0.0
 40
0.1136997371
 41
-1.6172408902
 42
-1.6136452443
  0
ELLIPSE
  5
557
100
AcDbEntity
  8
KONSTRUKTIONSELEMENTE
100
AcDbEllipse
 62
7
  6
CONTINUOUS
 10
142.1176949882
 20
143.5167970646
 30
0.0
 11
-0.0
 21
51.8284162495
 31
0.0
 40
0.3183581748
 41
-1.6136452443
 42
-1.6064555891
  0
ELLIPSE
  5
558
100
AcDbEntity
  8
KONSTRUKTIONSELEMENTE
100
AcDbEllipse
 62
7
  6
CONTINUOUS
 10
142.1176949882
 20
142.6545022371
 30
0.0
 11
-0.0
 21
27.6417801512
 31
0.0
 40
0.5969224815
 41
-1.6064555891
 42
-1.5956744363
  0
ENDSEC
  0
SECTION
  2
OBJECTS
  0
DICTIONARY
  5
C
100
AcDbDictionary
280
0
281
1
  3
ACAD_GROUP
350
D
  3
ACAD_MLINESTYLE
350
17
  3
ACAD_LAYOUT
350
1A
  3
ACAD_PLOTSETTINGS
350
19
  3
ACAD_PLOTSTYLENAME
350
E
  0
DICTIONARY
  5
D
102
{ACAD_REACTORS
330
C
102
}
100
AcDbDictionary
280
0
281
1
  0
ACDBDICTIONARYWDFLT
  5
E
102
{ACAD_REACTORS
330
C
102
}
100
AcDbDictionary
281
1
  3
Normal
350
F
100
AcDbDictionaryWithDefault
340
F
  0
DICTIONARY
  5
17
102
{ACAD_REACTORS
330
C
102
}
100
AcDbDictionary
280
0
281
1
  3
Standard
350
18
  0
DICTIONARY
  5
19
102
{ACAD_REACTORS
330
C
102
}
100
AcDbDictionary
281
1
  0
DICTIONARY
  5
1A
102
{ACAD_REACTORS
330
C
102
}
100
AcDbDictionary
281
1
  3
Model
350
559
  3
Layout1
350
55A
  0
ACDBPLACEHOLDER
  5
F
102
{ACAD_REACTORS
330
E
102
}
  0
MLINESTYLE
  5
18
102
{ACAD_REACTORS
330
17
102
}
100
AcDbMlineStyle
  2
STANDARD
 70
0
  3

 62
256
 51
90.0
 52
90.0
 71
2
 49
0.5
 62
256
  6
BYLAYER
 49
-0.5
 62
256
  6
BYLAYER
  0
LAYOUT
  5
559
102
{ACAD_REACTORS
330
1A
102
}
100
AcDbPlotSettings
  1

  2
none_device
  4
ISO_A4_(297.00_x_210.00_MM)
  6

 40
0.0
 41
0.0
 42
0.0
 43
0.0
 44
297.0
 45
210.0
 46
0.0
 47
0.0
 48
0.0
 49
0.0
140
0.0
141
0.0
142
1.0
143
1.0
 70
1024
 72
1
 73
0
 74
0
  7

 75
0
147
1.0
148
0.0
149
0.0
100
AcDbLayout
  1
Model
 70
0
 71
0
 10
0.0
 20
0.0
 11
297.0
 21
210.0
 12
0.0
 22
0.0
 32
0.0
 14
0.0
 24
0.0
 34
0.0
 15
0.0
 25
0.0
 35
0.0
146
0.0
 13
0.0
 23
0.0
 33
0.0
 16
1.0
 26
0.0
 36
0.0
 17
0.0
 27
1.0
 37
0.0
 76
0
330
209
345
0
346
0
  0
LAYOUT
  5
55A
102
{ACAD_REACTORS
330
1A
102
}
100
AcDbPlotSettings
  1

  2
none_device
  4
ISO_A4_(297.00_x_210.00_MM)
  6

 40
0.0
 41
0.0
 42
0.0
 43
0.0
 44
297.0
 45
210.0
 46
0.0
 47
0.0
 48
0.0
 49
0.0
140
0.0
141
0.0
142
1.0
143
1.0
 70
0
 72
1
 73
0
 74
0
  7

 75
0
147
1.0
148
0.0
149
0.0
100
AcDbLayout
  1
Layout1
 70
0
 71
1
 10
0.0
 20
0.0
 11
297.0
 21
210.0
 12
0.0
 22
0.0
 32
0.0
 14
0.0
 24
0.0
 34
0.0
 15
0.0
 25
0.0
 35
0.0
146
0.0
 13
0.0
 23
0.0
 33
0.0
 16
1.0
 26
0.0
 36
0.0
 17
0.0
 27
1.0
 37
0.0
 76
0
330
20A
345
0
346
0
  0
ENDSEC
  0
EOF
