999
DXF file: 001-m35908-p1.dxf
999
Pro/ENGINEER 2011490 by Parametric Technology Corporation
  0
SECTION
  2
HEADER
  9
$ACADVER
  1
AC1015
  9
$DWGCODEPAGE
  3
ANSI_1252
  9
$EXTMAX
 10
420.0
 20
297.0
 30
0.0
  9
$EXTMIN
 10
0.0
 20
0.0
 30
0.0
  9
$LIMMIN
 10
0.0
 20
0.0
  9
$LIMMAX
 10
420.0
 20
297.0
  9
$VIEWCTR
 10
210.0
 20
148.5
  9
$VIEWSIZE
 40
297.0
  9
$CLAYER
  8
0
  9
$LTSCALE
 40
23.1
  9
$CELTYPE
  6
BYLAYER
  9
$DIMSCALE
 40
1.0
  9
$DIMASZ
 40
3.5
  9
$DIMEXO
 40
2.625
  9
$DIMDLI
 40
15.96
  9
$DIMEXE
 40
7.56
  9
$DIMCEN
 40
3.78
  9
$DIMLFAC
 40
1.0
  9
$DIMBLK
  1
_FILLED
  9
$DIMTXT
 40
3.5
  9
$DIMTOL
 70
1
  9
$DIMLIM
 70
0
  9
$DIMTFAC
 40
1.0
  9
$DIMTP
 40
0.005
  9
$DIMTM
 40
0.005
  9
$PDMODE
 70
3
  9
$PDSIZE
 40
0.3125
  9
$HANDSEED
  5
28B
  9
$TILEMODE
 70
1
  9
$MEASUREMENT
 70
1
  9
$INSUNITS
 70
4
  0
ENDSEC
  0
SECTION
  2
CLASSES
  0
CLASS
  1
ACDBDICTIONARYWDFLT
  2
AcDbDictionaryWithDefault
  3
AutoCAD 2000
 90
0
280
0
281
0
  0
CLASS
  1
ACDBPLACEHOLDER
  2
AcDbPlaceHolder
  3
AutoCAD 2000
 90
0
280
0
281
0
  0
CLASS
  1
LAYOUT
  2
AcDbLayout
  3
AutoCAD 2000
 90
0
280
0
281
0
  0
ENDSEC
  0
SECTION
  2
TABLES
  0
TABLE
  2
VPORT
  5
8
100
AcDbSymbolTable
 70
2
  0
VPORT
  5
1F4
100
AcDbSymbolTableRecord
100
AcDbViewportTableRecord
  2
*ACTIVE
 70
0
 10
0.0
 20
0.0
 11
1.0
 21
1.0
 12
210.0
 22
148.5
 13
0.0
 23
0.0
 14
1.0
 24
1.0
 15
0.0
 25
0.0
 16
0.0
 26
0.0
 36
1.0
 17
0.0
 27
0.0
 37
0.0
 40
297.0
 41
1.4141414141
 42
50.0
 43
0.0
 44
0.0
 50
0.0
 51
0.0
 71
0
 72
100
 73
1
 74
1
 75
0
 76
0
 77
0
 78
0
  0
ENDTAB
  0
TABLE
  2
LTYPE
  5
5
100
AcDbSymbolTable
 70
6
  0
LTYPE
  5
14
100
AcDbSymbolTableRecord
100
AcDbLinetypeTableRecord
  2
BYBLOCK
 70
0
  3

 72
65
 73
0
 40
0.0
  0
LTYPE
  5
15
100
AcDbSymbolTableRecord
100
AcDbLinetypeTableRecord
  2
BYLAYER
 70
0
  3

 72
65
 73
0
 40
0.0
  0
LTYPE
  5
16
100
AcDbSymbolTableRecord
100
AcDbLinetypeTableRecord
  2
CONTINUOUS
 70
64
  3
Solid line
 72
65
 73
0
 40
0.0
  0
LTYPE
  5
1F5
100
AcDbSymbolTableRecord
100
AcDbLinetypeTableRecord
  2
CENTER
 70
64
  3
____ _ ____ _ ____ _ ____ _ ____ _ ____ _ ____
 72
65
 73
4
 40
0.6
 49
0.375
 74
0
 49
-0.075
 74
0
 49
0.075
 74
0
 49
-0.075
 74
0
  0
LTYPE
  5
1F6
100
AcDbSymbolTableRecord
100
AcDbLinetypeTableRecord
  2
HIDDEN
 70
64
  3
- - - - - - - - - - - - - - - - - - - -
 72
65
 73
2
 40
0.2
 49
0.1
 74
0
 49
-0.1
 74
0
  0
LTYPE
  5
1F7
100
AcDbSymbolTableRecord
100
AcDbLinetypeTableRecord
  2
PHANTOM
 70
64
  3
_____ _ _ _____ _ _ _____ _ _ _____
 72
65
 73
6
 40
0.8
 49
0.45
 74
0
 49
-0.05
 74
0
 49
0.1
 74
0
 49
-0.05
 74
0
 49
0.1
 74
0
 49
-0.05
 74
0
  0
LTYPE
  5
1F8
100
AcDbSymbolTableRecord
100
AcDbLinetypeTableRecord
  2
DOT
 70
64
  3
. . . . . . . . . . . . . . . . . . . .
 72
65
 73
2
 40
0.2
 49
0.1
 74
0
 49
-0.1
 74
0
  0
LTYPE
  5
1F9
100
AcDbSymbolTableRecord
100
AcDbLinetypeTableRecord
  2
DASHED
 70
64
  3
- - - - - - - - - - - - - - - - - - - -
 72
65
 73
2
 40
0.2
 49
0.1
 74
0
 49
-0.1
 74
0
  0
ENDTAB
  0
TABLE
  2
LAYER
  5
2
100
AcDbSymbolTable
 70
36
  0
LAYER
  5
10
100
AcDbSymbolTableRecord
100
AcDbLayerTableRecord
  2
0
 70
0
 62
7
  6
CONTINUOUS
370
-3
390
F
  0
LAYER
  5
1FA
100
AcDbSymbolTableRecord
100
AcDbLayerTableRecord
  2
DEFAULT_1
 70
0
 62
7
  6
CENTER
370
-3
390
F
  0
LAYER
  5
1FB
100
AcDbSymbolTableRecord
100
AcDbLayerTableRecord
  2
DEFAULT_2
 70
0
 62
8
  6
HIDDEN
370
-3
390
F
  0
LAYER
  5
1FC
100
AcDbSymbolTableRecord
100
AcDbLayerTableRecord
  2
DEFAULT_3
 70
0
 62
7
  6
PHANTOM
370
-3
390
F
  0
LAYER
  5
1FD
100
AcDbSymbolTableRecord
100
AcDbLayerTableRecord
  2
AUSFORMSCHRAEGEN
 70
0
 62
7
  6
CONTINUOUS
370
-3
390
F
  0
LAYER
  5
1FE
100
AcDbSymbolTableRecord
100
AcDbLayerTableRecord
  2
BEZUGSACHSEN
 70
0
 62
7
  6
CONTINUOUS
370
-3
390
F
  0
LAYER
  5
1FF
100
AcDbSymbolTableRecord
100
AcDbLayerTableRecord
  2
BEZUGSEBENEN
 70
0
 62
7
  6
CONTINUOUS
370
-3
390
F
  0
LAYER
  5
200
100
AcDbSymbolTableRecord
100
AcDbLayerTableRecord
  2
BG_STARTBEZUEGE
 70
0
 62
7
  6
CONTINUOUS
370
-3
390
F
  0
LAYER
  5
201
100
AcDbSymbolTableRecord
100
AcDbLayerTableRecord
  2
FASEN
 70
0
 62
7
  6
CONTINUOUS
370
-3
390
F
  0
LAYER
  5
202
100
AcDbSymbolTableRecord
100
AcDbLayerTableRecord
  2
FLAECHENVERBUND
 70
0
 62
7
  6
CONTINUOUS
370
-3
390
F
  0
LAYER
  5
203
100
AcDbSymbolTableRecord
100
AcDbLayerTableRecord
  2
HILFEN
 70
0
 62
7
  6
CONTINUOUS
370
-3
390
F
  0
LAYER
  5
204
100
AcDbSymbolTableRecord
100
AcDbLayerTableRecord
  2
KONSTRUKTIONSELEMENTE
 70
0
 62
7
  6
CONTINUOUS
370
-3
390
F
  0
LAYER
  5
205
100
AcDbSymbolTableRecord
100
AcDbLayerTableRecord
  2
NORM
 70
0
 62
7
  6
CONTINUOUS
370
-3
390
F
  0
LAYER
  5
206
100
AcDbSymbolTableRecord
100
AcDbLayerTableRecord
  2
PLATZIERUNG
 70
0
 62
7
  6
CONTINUOUS
370
-3
390
F
  0
LAYER
  5
207
100
AcDbSymbolTableRecord
100
AcDbLayerTableRecord
  2
RUNDUNGEN
 70
0
 62
7
  6
CONTINUOUS
370
-3
390
F
  0
LAYER
  5
208
100
AcDbSymbolTableRecord
100
AcDbLayerTableRecord
  2
TEIL_STARTBEZUEGE
 70
0
 62
7
  6
CONTINUOUS
370
-3
390
F
  0
LAYER
  5
209
100
AcDbSymbolTableRecord
100
AcDbLayerTableRecord
  2
T_STARTBEZUEGE
 70
0
 62
7
  6
CONTINUOUS
370
-3
390
F
  0
ENDTAB
  0
TABLE
  2
STYLE
  5
3
100
AcDbSymbolTable
 70
1
  0
STYLE
  5
11
100
AcDbSymbolTableRecord
100
AcDbTextStyleTableRecord
  2
STANDARD
 70
0
 40
0.0
 41
0.7
 50
0.0
 71
0
 42
0.2
  3
txt
  4

  0
STYLE
  5
20A
100
AcDbSymbolTableRecord
100
AcDbTextStyleTableRecord
  2
TEXTSTYLE_1
 70
0
 40
0.0
 41
0.8
 50
0.0
 71
0
 42
0.2
  3
gdt
  4

  0
ENDTAB
  0
TABLE
  2
VIEW
  5
6
100
AcDbSymbolTable
 70
0
  0
ENDTAB
  0
TABLE
  2
UCS
  5
7
100
AcDbSymbolTable
 70
0
  0
ENDTAB
  0
TABLE
  2
APPID
  5
9
100
AcDbSymbolTable
 70
1
  0
APPID
  5
20B
100
AcDbSymbolTableRecord
100
AcDbRegAppTableRecord
  2
ACAD
 70
0
  0
ENDTAB
  0
TABLE
  2
BLOCK_RECORD
  5
1
100
AcDbSymbolTable
 70
0
  0
BLOCK_RECORD
  5
20C
100
AcDbSymbolTableRecord
100
AcDbBlockTableRecord
  2
*Model_Space
  0
BLOCK_RECORD
  5
20D
100
AcDbSymbolTableRecord
100
AcDbBlockTableRecord
  2
*Paper_Space
  0
ENDTAB
  0
TABLE
  2
DIMSTYLE
  5
A
100
AcDbSymbolTable
 70
1
100
AcDbDimStyleTable
 71
0
  0
DIMSTYLE
105
20E
100
AcDbSymbolTableRecord
100
AcDbDimStyleTableRecord
  2
STANDARD
 70
0
  3

  4

 40
1.0
 41
3.5
 42
0.0625
 43
0.38
 44
0.18
 45
0.0
 46
0.0
 47
0.005
 48
0.005
140
3.5
141
0.09
142
0.0
143
25.4
144
1.0
145
0.0
146
1.0
147
0.09
 71
1.0
 72
0.0
 73
0
 74
0
 75
0
 76
0
 77
1
 78
8
170
0
171
2
172
0
173
0
174
0
175
0
176
0
177
0
178
5
270
2
271
3
272
3
273
2
274
2
275
0
280
0
281
0
282
0
283
1
284
8
285
0
286
0
287
3
288
0
340
11
  0
ENDTAB
  0
ENDSEC
  0
SECTION
  2
BLOCKS
  0
BLOCK
  5
20
100
AcDbEntity
  8
0
100
AcDbBlockBegin
  2
*Model_Space
 70
0
 10
0.0
 20
0.0
 30
0.0
  3
*Model_Space
  1

  0
ENDBLK
  5
21
100
AcDbEntity
  8
0
100
AcDbBlockEnd
  0
BLOCK
  5
1C
100
AcDbEntity
  8
0
100
AcDbBlockBegin
  2
*Paper_Space
 70
0
 10
0.0
 20
0.0
 30
0.0
  3
*Paper_Space
  1

  0
ENDBLK
  5
1D
100
AcDbEntity
  8
0
100
AcDbBlockEnd
  0
ENDSEC
  0
SECTION
  2
ENTITIES
  0
MTEXT
  5
20F
100
AcDbEntity
  8
0
100
AcDbMText
 62
5
  6
CONTINUOUS
  7
STANDARD
 71
1
 72
1
 10
240.1760371179
 20
138.2332150655
 30
0.0
 11
1.0
 21
0.0
 31
0.0
 44
0.9
  1
VCH 16 VIP\PRUD
 40
5.0
 41
39.1666666667
  0
MTEXT
  5
210
100
AcDbEntity
  8
0
100
AcDbMText
 62
5
  6
CONTINUOUS
  7
STANDARD
 71
1
 72
1
 10
93.1192865727
 20
128.5353919799
 30
0.0
 11
1.0
 21
0.0
 31
0.0
 44
0.9
  1
VCH 16 VIP\PRUD
 40
5.0
 41
39.1666666667
  0
LINE
  5
211
100
AcDbEntity
  8
0
100
AcDbLine
 62
7
  6
CONTINUOUS
 10
0.0
 20
0.0
 11
0.0
 21
297.0
  0
LINE
  5
212
100
AcDbEntity
  8
0
100
AcDbLine
 62
7
  6
CONTINUOUS
 10
0.0
 20
0.0
 11
420.0
 21
0.0
  0
LINE
  5
213
100
AcDbEntity
  8
0
100
AcDbLine
 62
7
  6
CONTINUOUS
 10
0.0
 20
297.0
 11
420.0
 21
297.0
  0
LINE
  5
214
100
AcDbEntity
  8
0
100
AcDbLine
 62
7
  6
CONTINUOUS
 10
420.0
 20
0.0
 11
420.0
 21
297.0
  0
LINE
  5
215
100
AcDbEntity
  8
RUNDUNGEN
100
AcDbLine
 62
7
  6
CONTINUOUS
 10
120.522122093
 20
82.8207401127
 11
118.522122093
 21
82.8207401127
  0
LINE
  5
216
100
AcDbEntity
  8
RUNDUNGEN
100
AcDbLine
 62
7
  6
CONTINUOUS
 10
107.522122093
 20
82.8207401127
 11
105.522122093
 21
82.8207401127
  0
LINE
  5
217
100
AcDbEntity
  8
0
100
AcDbLine
 62
7
  6
CONTINUOUS
 10
107.522122093
 20
82.8207401127
 11
118.522122093
 21
82.8207401127
  0
LINE
  5
218
100
AcDbEntity
  8
BEZUGSACHSEN
100
AcDbLine
 62
7
  6
CONTINUOUS
 10
105.522122093
 20
91.8207401127
 11
120.522122093
 21
91.8207401127
  0
LINE
  5
219
100
AcDbEntity
  8
RUNDUNGEN
100
AcDbLine
 62
7
  6
CONTINUOUS
 10
115.5308052114
 20
98.877148828
 11
133.1126913584
 21
100.725079526
  0
LINE
  5
21A
100
AcDbEntity
  8
BEZUGSACHSEN
100
AcDbLine
 62
7
  6
CONTINUOUS
 10
105.522122093
 20
97.8207401127
 11
120.522122093
 21
97.8207401127
  0
LINE
  5
21B
100
AcDbEntity
  8
0
100
AcDbLine
 62
7
  6
CONTINUOUS
 10
110.5134389746
 20
98.877148828
 11
92.9315528277
 21
100.725079526
  0
LINE
  5
21C
100
AcDbEntity
  8
0
100
AcDbLine
 62
7
  6
CONTINUOUS
 10
107.522122093
 20
82.8207401127
 11
105.522122093
 21
84.8207401127
  0
LINE
  5
21D
100
AcDbEntity
  8
0
100
AcDbLine
 62
7
  6
CONTINUOUS
 10
75.022122093
 20
120.6155174334
 11
75.022122093
 21
123.951958881
  0
LINE
  5
21E
100
AcDbEntity
  8
0
100
AcDbLine
 62
7
  6
CONTINUOUS
 10
78.022122093
 20
206.8636947005
 11
78.022122093
 21
189.7956423679
  0
LINE
  5
21F
100
AcDbEntity
  8
0
100
AcDbLine
 62
7
  6
CONTINUOUS
 10
89.022122093
 20
164.7556743168
 11
89.022122093
 21
139.5506552339
  0
LINE
  5
220
100
AcDbEntity
  8
KONSTRUKTIONSELEMENTE
100
AcDbLine
 62
7
  6
CONTINUOUS
 10
137.022122093
 20
139.8706743168
 11
137.522122093
 21
139.8706743168
  0
LINE
  5
221
100
AcDbEntity
  8
0
100
AcDbLine
 62
7
  6
CONTINUOUS
 10
104.222122093
 20
177.1942864703
 11
104.222122093
 21
216.8207832824
  0
LINE
  5
222
100
AcDbEntity
  8
BEZUGSACHSEN
100
AcDbLine
 62
7
  6
CONTINUOUS
 10
105.522122093
 20
99.4017573718
 11
105.522122093
 21
91.8207401127
  0
LINE
  5
223
100
AcDbEntity
  8
RUNDUNGEN
100
AcDbLine
 62
7
  6
CONTINUOUS
 10
105.522122093
 20
82.8207401127
 11
105.522122093
 21
83.654073446
  0
LINE
  5
224
100
AcDbEntity
  8
0
100
AcDbLine
 62
7
  6
CONTINUOUS
 10
105.522122093
 20
83.654073446
 11
105.522122093
 21
91.8207401127
  0
LINE
  5
225
100
AcDbEntity
  8
KONSTRUKTIONSELEMENTE
100
AcDbLine
 62
7
  6
CONTINUOUS
 10
137.022122093
 20
140.2456743168
 11
137.522122093
 21
140.2456743168
  0
LINE
  5
226
100
AcDbEntity
  8
KONSTRUKTIONSELEMENTE
100
AcDbLine
 62
7
  6
CONTINUOUS
 10
137.022122093
 20
140.3706741976
 11
137.522122093
 21
140.3706741976
  0
LINE
  5
227
100
AcDbEntity
  8
KONSTRUKTIONSELEMENTE
100
AcDbLine
 62
7
  6
CONTINUOUS
 10
137.022122093
 20
140.495674436
 11
137.522122093
 21
140.495674436
  0
LINE
  5
228
100
AcDbEntity
  8
KONSTRUKTIONSELEMENTE
100
AcDbLine
 62
7
  6
CONTINUOUS
 10
137.022122093
 20
141.4956741976
 11
137.522122093
 21
141.4956741976
  0
LINE
  5
229
100
AcDbEntity
  8
KONSTRUKTIONSELEMENTE
100
AcDbLine
 62
7
  6
CONTINUOUS
 10
137.022122093
 20
142.0048413682
 11
137.522122093
 21
142.0048413682
  0
LINE
  5
22A
100
AcDbEntity
  8
KONSTRUKTIONSELEMENTE
100
AcDbLine
 62
7
  6
CONTINUOUS
 10
137.022122093
 20
142.6098402142
 11
137.522122093
 21
142.6098402142
  0
LINE
  5
22B
100
AcDbEntity
  8
KONSTRUKTIONSELEMENTE
100
AcDbLine
 62
7
  6
CONTINUOUS
 10
137.022122093
 20
143.2148402142
 11
137.522122093
 21
143.2148402142
  0
LINE
  5
22C
100
AcDbEntity
  8
KONSTRUKTIONSELEMENTE
100
AcDbLine
 62
7
  6
CONTINUOUS
 10
137.022122093
 20
143.4956740784
 11
137.522122093
 21
143.4956740784
  0
LINE
  5
22D
100
AcDbEntity
  8
KONSTRUKTIONSELEMENTE
100
AcDbLine
 62
7
  6
CONTINUOUS
 10
137.022122093
 20
143.9956743168
 11
137.522122093
 21
143.9956743168
  0
LINE
  5
22E
100
AcDbEntity
  8
KONSTRUKTIONSELEMENTE
100
AcDbLine
 62
7
  6
CONTINUOUS
 10
137.022122093
 20
144.0215084195
 11
137.522122093
 21
144.0215084195
  0
LINE
  5
22F
100
AcDbEntity
  8
KONSTRUKTIONSELEMENTE
100
AcDbLine
 62
7
  6
CONTINUOUS
 10
137.022122093
 20
144.1223402142
 11
137.522122093
 21
144.1223402142
  0
LINE
  5
230
100
AcDbEntity
  8
KONSTRUKTIONSELEMENTE
100
AcDbLine
 62
7
  6
CONTINUOUS
 10
137.022122093
 20
144.3240084195
 11
137.522122093
 21
144.3240084195
  0
LINE
  5
231
100
AcDbEntity
  8
KONSTRUKTIONSELEMENTE
100
AcDbLine
 62
7
  6
CONTINUOUS
 10
137.022122093
 20
144.6265084195
 11
137.522122093
 21
144.6265084195
  0
LINE
  5
232
100
AcDbEntity
  8
KONSTRUKTIONSELEMENTE
100
AcDbLine
 62
7
  6
CONTINUOUS
 10
137.022122093
 20
145.1306743168
 11
137.522122093
 21
145.1306743168
  0
LINE
  5
233
100
AcDbEntity
  8
KONSTRUKTIONSELEMENTE
100
AcDbLine
 62
7
  6
CONTINUOUS
 10
137.022122093
 20
145.6348402142
 11
137.522122093
 21
145.6348402142
  0
LINE
  5
234
100
AcDbEntity
  8
KONSTRUKTIONSELEMENTE
100
AcDbLine
 62
7
  6
CONTINUOUS
 10
137.022122093
 20
146.0381743168
 11
137.522122093
 21
146.0381743168
  0
LINE
  5
235
100
AcDbEntity
  8
KONSTRUKTIONSELEMENTE
100
AcDbLine
 62
7
  6
CONTINUOUS
 10
137.022122093
 20
146.5423402142
 11
137.522122093
 21
146.5423402142
  0
LINE
  5
236
100
AcDbEntity
  8
KONSTRUKTIONSELEMENTE
100
AcDbLine
 62
7
  6
CONTINUOUS
 10
137.022122093
 20
147.0465084195
 11
137.522122093
 21
147.0465084195
  0
LINE
  5
237
100
AcDbEntity
  8
KONSTRUKTIONSELEMENTE
100
AcDbLine
 62
7
  6
CONTINUOUS
 10
137.022122093
 20
147.3490084195
 11
137.522122093
 21
147.3490084195
  0
LINE
  5
238
100
AcDbEntity
  8
KONSTRUKTIONSELEMENTE
100
AcDbLine
 62
7
  6
CONTINUOUS
 10
137.022122093
 20
147.4498402142
 11
137.522122093
 21
147.4498402142
  0
LINE
  5
239
100
AcDbEntity
  8
KONSTRUKTIONSELEMENTE
100
AcDbLine
 62
7
  6
CONTINUOUS
 10
137.022122093
 20
147.6515084195
 11
137.522122093
 21
147.6515084195
  0
LINE
  5
23A
100
AcDbEntity
  8
KONSTRUKTIONSELEMENTE
100
AcDbLine
 62
7
  6
CONTINUOUS
 10
137.022122093
 20
148.4581743168
 11
137.522122093
 21
148.4581743168
  0
LINE
  5
23B
100
AcDbEntity
  8
KONSTRUKTIONSELEMENTE
100
AcDbLine
 62
7
  6
CONTINUOUS
 10
137.022122093
 20
149.7690084195
 11
137.522122093
 21
149.7690084195
  0
LINE
  5
23C
100
AcDbEntity
  8
KONSTRUKTIONSELEMENTE
100
AcDbLine
 62
7
  6
CONTINUOUS
 10
137.022122093
 20
150.0715084195
 11
137.522122093
 21
150.0715084195
  0
LINE
  5
23D
100
AcDbEntity
  8
RUNDUNGEN
100
AcDbLine
 62
7
  6
CONTINUOUS
 10
141.1524242429
 20
138.0473481928
 11
121.2306055328
 21
145.2982972157
  0
LINE
  5
23E
100
AcDbEntity
  8
0
100
AcDbLine
 62
7
  6
CONTINUOUS
 10
84.8918199431
 20
138.0473481928
 11
104.8136386532
 21
145.2982972157
  0
LINE
  5
23F
100
AcDbEntity
  8
KONSTRUKTIONSELEMENTE
100
AcDbLine
 62
7
  6
CONTINUOUS
 10
137.022122093
 20
150.6206747937
 11
137.522122093
 21
150.6206747937
  0
LINE
  5
240
100
AcDbEntity
  8
KONSTRUKTIONSELEMENTE
100
AcDbLine
 62
7
  6
CONTINUOUS
 10
137.022122093
 20
150.8781743168
 11
137.522122093
 21
150.8781743168
  0
LINE
  5
241
100
AcDbEntity
  8
KONSTRUKTIONSELEMENTE
100
AcDbLine
 62
7
  6
CONTINUOUS
 10
137.022122093
 20
151.4831743168
 11
137.522122093
 21
151.4831743168
  0
LINE
  5
242
100
AcDbEntity
  8
KONSTRUKTIONSELEMENTE
100
AcDbLine
 62
7
  6
CONTINUOUS
 10
137.022122093
 20
152.8948402142
 11
137.522122093
 21
152.8948402142
  0
LINE
  5
243
100
AcDbEntity
  8
KONSTRUKTIONSELEMENTE
100
AcDbLine
 62
7
  6
CONTINUOUS
 10
137.022122093
 20
154.3065084195
 11
137.522122093
 21
154.3065084195
  0
LINE
  5
244
100
AcDbEntity
  8
KONSTRUKTIONSELEMENTE
100
AcDbLine
 62
7
  6
CONTINUOUS
 10
137.022122093
 20
154.9115084195
 11
137.522122093
 21
154.9115084195
  0
LINE
  5
245
100
AcDbEntity
  8
BEZUGSACHSEN
100
AcDbLine
 62
7
  6
CONTINUOUS
 10
120.522122093
 20
99.4017573718
 11
120.522122093
 21
91.8207401127
  0
LINE
  5
246
100
AcDbEntity
  8
0
100
AcDbLine
 62
7
  6
CONTINUOUS
 10
120.522122093
 20
91.8207401127
 11
120.522122093
 21
83.654073446
  0
LINE
  5
247
100
AcDbEntity
  8
RUNDUNGEN
100
AcDbLine
 62
7
  6
CONTINUOUS
 10
120.522122093
 20
83.654073446
 11
120.522122093
 21
82.8207401127
  0
LINE
  5
248
100
AcDbEntity
  8
BEZUGSACHSEN
100
AcDbLine
 62
7
  6
CONTINUOUS
 10
121.822122093
 20
177.1942864703
 11
121.822122093
 21
216.8207832824
  0
LINE
  5
249
100
AcDbEntity
  8
KONSTRUKTIONSELEMENTE
100
AcDbLine
 62
7
  6
CONTINUOUS
 10
137.022122093
 20
155.7181743168
 11
137.522122093
 21
155.7181743168
  0
LINE
  5
24A
100
AcDbEntity
  8
KONSTRUKTIONSELEMENTE
100
AcDbLine
 62
7
  6
CONTINUOUS
 10
137.022122093
 20
156.3231743168
 11
137.522122093
 21
156.3231743168
  0
LINE
  5
24B
100
AcDbEntity
  8
KONSTRUKTIONSELEMENTE
100
AcDbLine
 62
7
  6
CONTINUOUS
 10
137.022122093
 20
157.1298402142
 11
137.522122093
 21
157.1298402142
  0
LINE
  5
24C
100
AcDbEntity
  8
KONSTRUKTIONSELEMENTE
100
AcDbLine
 62
7
  6
CONTINUOUS
 10
137.022122093
 20
159.5498402142
 11
137.522122093
 21
159.5498402142
  0
LINE
  5
24D
100
AcDbEntity
  8
KONSTRUKTIONSELEMENTE
100
AcDbLine
 62
7
  6
CONTINUOUS
 10
137.022122093
 20
160.0540084195
 11
137.522122093
 21
160.0540084195
  0
LINE
  5
24E
100
AcDbEntity
  8
KONSTRUKTIONSELEMENTE
100
AcDbLine
 62
7
  6
CONTINUOUS
 10
137.022122093
 20
160.4573402142
 11
137.522122093
 21
160.4573402142
  0
LINE
  5
24F
100
AcDbEntity
  8
KONSTRUKTIONSELEMENTE
100
AcDbLine
 62
7
  6
CONTINUOUS
 10
137.022122093
 20
160.7598402142
 11
137.522122093
 21
160.7598402142
  0
LINE
  5
250
100
AcDbEntity
  8
KONSTRUKTIONSELEMENTE
100
AcDbLine
 62
7
  6
CONTINUOUS
 10
137.022122093
 20
160.8606743168
 11
137.522122093
 21
160.8606743168
  0
LINE
  5
251
100
AcDbEntity
  8
RUNDUNGEN
100
AcDbLine
 62
7
  6
CONTINUOUS
 10
137.022122093
 20
164.7556743168
 11
137.022122093
 21
139.5506552339
  0
LINE
  5
252
100
AcDbEntity
  8
KONSTRUKTIONSELEMENTE
100
AcDbLine
 62
7
  6
CONTINUOUS
 10
137.522122093
 20
160.8606743168
 11
137.522122093
 21
157.1298402142
  0
LINE
  5
253
100
AcDbEntity
  8
KONSTRUKTIONSELEMENTE
100
AcDbLine
 62
7
  6
CONTINUOUS
 10
137.522122093
 20
156.3231743168
 11
137.522122093
 21
155.7181743168
  0
LINE
  5
254
100
AcDbEntity
  8
KONSTRUKTIONSELEMENTE
100
AcDbLine
 62
7
  6
CONTINUOUS
 10
137.522122093
 20
154.9115084195
 11
137.522122093
 21
141.4956741976
  0
LINE
  5
255
100
AcDbEntity
  8
KONSTRUKTIONSELEMENTE
100
AcDbLine
 62
7
  6
CONTINUOUS
 10
137.522122093
 20
140.495674436
 11
137.522122093
 21
139.370674436
  0
LINE
  5
256
100
AcDbEntity
  8
RUNDUNGEN
100
AcDbLine
 62
7
  6
CONTINUOUS
 10
148.022122093
 20
206.8636947005
 11
148.022122093
 21
189.7956423679
  0
LINE
  5
257
100
AcDbEntity
  8
RUNDUNGEN
100
AcDbLine
 62
7
  6
CONTINUOUS
 10
151.022122093
 20
120.6155174334
 11
151.022122093
 21
123.951958881
  0
LINE
  5
258
100
AcDbEntity
  8
BEZUGSACHSEN
100
AcDbLine
 62
7
  6
CONTINUOUS
 10
121.822122093
 20
187.3207401127
 11
104.222122093
 21
187.3207401127
  0
LINE
  5
259
100
AcDbEntity
  8
0
100
AcDbLine
 62
7
  6
CONTINUOUS
 10
118.522122093
 20
82.8207401127
 11
120.522122093
 21
84.8207401127
  0
LINE
  5
25A
100
AcDbEntity
  8
BEZUGSACHSEN
100
AcDbLine
 62
7
  6
CONTINUOUS
 10
121.822122093
 20
206.3207401127
 11
104.222122093
 21
206.3207401127
  0
LINE
  5
25B
100
AcDbEntity
  8
0
100
AcDbLine
 62
7
  6
CONTINUOUS
 10
104.222122093
 20
216.8207570465
 11
85.1858921032
 21
214.8199686511
  0
LINE
  5
25C
100
AcDbEntity
  8
KONSTRUKTIONSELEMENTE
100
AcDbLine
 62
7
  6
CONTINUOUS
 10
140.8583520828
 20
214.8199686511
 11
121.822122093
 21
216.8207570465
  0
LINE
  5
25D
100
AcDbEntity
  8
0
100
AcDbLine
 62
7
  6
CONTINUOUS
 10
277.4636862929
 20
82.8207401127
 11
240.2104806377
 21
82.8207401127
  0
LINE
  5
25E
100
AcDbEntity
  8
RUNDUNGEN
100
AcDbLine
 62
7
  6
CONTINUOUS
 10
220.7168919481
 20
82.8207401127
 11
220.4636862929
 21
82.8207401127
  0
LINE
  5
25F
100
AcDbEntity
  8
0
100
AcDbLine
 62
7
  6
CONTINUOUS
 10
237.6051147215
 20
84.8207401127
 11
279.4636862929
 21
84.8207401127
  0
LINE
  5
260
100
AcDbEntity
  8
0
100
AcDbLine
 62
7
  6
CONTINUOUS
 10
217.3911518146
 20
200.8626097093
 11
218.9812351485
 21
204.3406997551
  0
LINE
  5
261
100
AcDbEntity
  8
BEZUGSACHSEN
100
AcDbLine
 62
7
  6
CONTINUOUS
 10
246.4636862929
 20
97.8207401127
 11
286.4636862929
 21
97.8207401127
  0
LINE
  5
262
100
AcDbEntity
  8
0
100
AcDbLine
 62
7
  6
CONTINUOUS
 10
306.4636862929
 20
98.7456743168
 11
251.6375619168
 21
98.7456743168
  0
LINE
  5
263
100
AcDbEntity
  8
KONSTRUKTIONSELEMENTE
100
AcDbLine
 62
7
  6
CONTINUOUS
 10
251.6375619168
 20
98.7456743168
 11
306.4636862929
 21
98.7456743168
  0
LINE
  5
264
100
AcDbEntity
  8
0
100
AcDbLine
 62
7
  6
CONTINUOUS
 10
215.9636862929
 20
148.47515615
 11
215.9636862929
 21
194.2894471171
  0
LINE
  5
265
100
AcDbEntity
  8
RUNDUNGEN
100
AcDbLine
 62
7
  6
CONTINUOUS
 10
218.4636862929
 20
84.8207401127
 11
218.4636862929
 21
140.1959605115
  0
LINE
  5
266
100
AcDbEntity
  8
0
100
AcDbLine
 62
7
  6
CONTINUOUS
 10
245.0843455625
 20
102.157062826
 11
218.6764056286
 21
139.8715096048
  0
LINE
  5
267
100
AcDbEntity
  8
BEZUGSACHSEN
100
AcDbLine
 62
7
  6
CONTINUOUS
 10
241.4636862929
 20
107.3279001449
 11
241.4636862929
 21
102.8207401127
  0
LINE
  5
268
100
AcDbEntity
  8
0
100
AcDbLine
 62
7
  6
CONTINUOUS
 10
260.9636862929
 20
144.4943003918
 11
260.9636862929
 21
194.2894471171
  0
LINE
  5
269
100
AcDbEntity
  8
0
100
AcDbLine
 62
7
  6
CONTINUOUS
 10
306.4636862929
 20
146.7456743168
 11
263.9636862929
 21
146.7456743168
  0
LINE
  5
26A
100
AcDbEntity
  8
0
100
AcDbLine
 62
7
  6
CONTINUOUS
 10
257.9461374373
 20
204.3406997551
 11
259.5362207712
 21
200.8626097093
  0
LINE
  5
26B
100
AcDbEntity
  8
0
100
AcDbLine
 62
7
  6
CONTINUOUS
 10
285.9636862929
 20
135.3358503314
 11
285.9636862929
 21
104.7587800732
  0
LINE
  5
26C
100
AcDbEntity
  8
BEZUGSACHSEN
100
AcDbLine
 62
7
  6
CONTINUOUS
 10
286.4636862929
 20
97.8207401127
 11
286.4636862929
 21
91.8207401127
  0
LINE
  5
26D
100
AcDbEntity
  8
0
100
AcDbLine
 62
7
  6
CONTINUOUS
 10
308.9636862929
 20
101.2456952116
 11
308.9636862929
 21
144.2456743168
  0
LINE
  5
26E
100
AcDbEntity
  8
0
100
AcDbLine
 62
7
  6
CONTINUOUS
 10
277.4636862929
 20
82.8207401127
 11
286.4636862929
 21
91.8207401127
  0
ARC
  5
26F
100
AcDbEntity
  8
0
100
AcDbCircle
 62
7
  6
CONTINUOUS
 10
95.022122093
 20
120.6155174334
 40
20.0
100
AcDbArc
 50
180.0
 51
264.0
  0
ARC
  5
270
100
AcDbEntity
  8
0
100
AcDbCircle
 62
7
  6
CONTINUOUS
 10
90.022122093
 20
123.951958881
 40
15.0
100
AcDbArc
 50
110.0
 51
180.0
  0
ARC
  5
271
100
AcDbEntity
  8
0
100
AcDbCircle
 62
7
  6
CONTINUOUS
 10
65.022122093
 20
164.7556743168
 40
24.0
100
AcDbArc
 50
0.0
 51
47.4315457967
  0
ARC
  5
272
100
AcDbEntity
  8
0
100
AcDbCircle
 62
7
  6
CONTINUOUS
 10
88.022122093
 20
189.7956423679
 40
10.0
100
AcDbArc
 50
180.0
 51
227.4315457967
  0
ARC
  5
273
100
AcDbEntity
  8
0
100
AcDbCircle
 62
7
  6
CONTINUOUS
 10
86.022122093
 20
206.8637835414
 40
8.0
100
AcDbArc
 50
96.0000088194
 51
180.0
  0
ARC
  5
274
100
AcDbEntity
  8
0
100
AcDbCircle
 62
7
  6
CONTINUOUS
 10
113.022122093
 20
122.7456743168
 40
24.0
100
AcDbArc
 50
70.0
 51
110.0
  0
ARC
  5
275
100
AcDbEntity
  8
0
100
AcDbCircle
 62
7
  6
CONTINUOUS
 10
113.022122093
 20
122.7456743168
 40
24.0
100
AcDbArc
 50
263.9961647086
 51
276.0
  0
ARC
  5
276
100
AcDbEntity
  8
RUNDUNGEN
100
AcDbCircle
 62
7
  6
CONTINUOUS
 10
131.022122093
 20
120.6155174334
 40
20.0
100
AcDbArc
 50
276.0
 51
360.0
  0
ARC
  5
277
100
AcDbEntity
  8
RUNDUNGEN
100
AcDbCircle
 62
7
  6
CONTINUOUS
 10
136.022122093
 20
123.951958881
 40
15.0
100
AcDbArc
 50
0.0
 51
70.0
  0
ARC
  5
278
100
AcDbEntity
  8
RUNDUNGEN
100
AcDbCircle
 62
7
  6
CONTINUOUS
 10
161.022122093
 20
164.7556743168
 40
24.0
100
AcDbArc
 50
132.5684542033
 51
180.0
  0
ARC
  5
279
100
AcDbEntity
  8
RUNDUNGEN
100
AcDbCircle
 62
7
  6
CONTINUOUS
 10
138.022122093
 20
189.7956423679
 40
10.0
100
AcDbArc
 50
312.5684542033
 51
360.0
  0
ARC
  5
27A
100
AcDbEntity
  8
RUNDUNGEN
100
AcDbCircle
 62
7
  6
CONTINUOUS
 10
140.022122093
 20
206.8637835414
 40
8.0
100
AcDbArc
 50
0.0
 51
83.9999911806
  0
ARC
  5
27B
100
AcDbEntity
  8
0
100
AcDbCircle
 62
7
  6
CONTINUOUS
 10
230.9636862929
 20
148.47515615
 40
15.0
100
AcDbArc
 50
180.0
 51
215.0
  0
ARC
  5
27C
100
AcDbEntity
  8
0
100
AcDbCircle
 62
7
  6
CONTINUOUS
 10
230.4636862929
 20
77.8207401127
 40
10.0
100
AcDbArc
 50
35.6853347127
 51
144.3146652873
  0
ARC
  5
27D
100
AcDbEntity
  8
0
100
AcDbCircle
 62
7
  6
CONTINUOUS
 10
251.6375603204
 20
106.7456765967
 40
8.0
100
AcDbArc
 50
215.0000199336
 51
270.0000114334
  0
ARC
  5
27E
100
AcDbEntity
  8
BEZUGSACHSEN
100
AcDbCircle
 62
7
  6
CONTINUOUS
 10
246.4636862929
 20
102.8207401127
 40
5.0
100
AcDbArc
 50
180.0
 51
270.0
  0
ARC
  5
27F
100
AcDbEntity
  8
0
100
AcDbCircle
 62
7
  6
CONTINUOUS
 10
263.9636862929
 20
149.7456743168
 40
3.0
100
AcDbArc
 50
180.0
 51
270.0
  0
ARC
  5
280
100
AcDbEntity
  8
0
100
AcDbCircle
 62
7
  6
CONTINUOUS
 10
306.4636862929
 20
101.2456743168
 40
2.5
100
AcDbArc
 50
270.0
 51
360.0
  0
ARC
  5
281
100
AcDbEntity
  8
0
100
AcDbCircle
 62
7
  6
CONTINUOUS
 10
306.4636862929
 20
144.2456743168
 40
2.5
100
AcDbArc
 50
0.0
 51
90.0
  0
ARC
  5
282
100
AcDbEntity
  8
RUNDUNGEN
100
AcDbCircle
 62
7
  6
CONTINUOUS
 10
220.7168919481
 20
84.8207401127
 40
2.0
100
AcDbArc
 50
270.0
 51
324.3146652873
  0
ARC
  5
283
100
AcDbEntity
  8
RUNDUNGEN
100
AcDbCircle
 62
7
  6
CONTINUOUS
 10
220.4636862929
 20
84.8207401127
 40
2.0
100
AcDbArc
 50
180.0
 51
270.0
  0
ARC
  5
284
100
AcDbEntity
  8
0
100
AcDbCircle
 62
7
  6
CONTINUOUS
 10
240.2104806377
 20
84.8207401127
 40
2.0
100
AcDbArc
 50
215.6853347127
 51
270.0
  0
SPLINE
  5
285
100
AcDbEntity
  8
0
100
AcDbSpline
 62
7
  6
CONTINUOUS
 70
0
 71
3
 72
23
 73
19
 74
0
 42
0.0000001
 43
0.0000001
 44
0.0000000001
 40
0.0
 40
0.0
 40
0.0
 40
0.0
 40
0.0625133337
 40
0.1250206543
 40
0.187527512
 40
0.2500292844
 40
0.3125268626
 40
0.3750204694
 40
0.4375111147
 40
0.5
 40
0.5624888853
 40
0.6249795306
 40
0.6874731374
 40
0.7499707156
 40
0.812472488
 40
0.8749793457
 40
0.9374866663
 40
1.0
 40
1.0
 40
1.0
 40
1.0
 10
104.222122093
 20
177.1942864703
 30
0.0
 10
104.222122093
 20
176.6051012718
 30
0.0
 10
104.329124175
 20
175.4239399102
 30
0.0
 10
104.8095318943
 20
173.7130303809
 30
0.0
 10
105.599790826
 20
172.1202836543
 30
0.0
 10
106.6793494663
 20
170.7070877956
 30
0.0
 10
108.0148354175
 20
169.5319883733
 30
0.0
 10
109.5592050651
 20
168.6482981801
 30
0.0
 10
111.2520379996
 20
168.0991561953
 30
0.0
 10
113.022122093
 20
167.9128228268
 30
0.0
 10
114.7922061865
 20
168.0991561953
 30
0.0
 10
116.485039121
 20
168.6482981801
 30
0.0
 10
118.0294087686
 20
169.5319883733
 30
0.0
 10
119.3648947197
 20
170.7070877956
 30
0.0
 10
120.44445336
 20
172.1202836543
 30
0.0
 10
121.2347122917
 20
173.7130303809
 30
0.0
 10
121.715120011
 20
175.4239399102
 30
0.0
 10
121.822122093
 20
176.6051012718
 30
0.0
 10
121.822122093
 20
177.1942864703
 30
0.0
  0
SPLINE
  5
286
100
AcDbEntity
  8
0
100
AcDbSpline
 62
7
  6
CONTINUOUS
 70
0
 71
3
 72
23
 73
19
 74
0
 42
0.0000001
 43
0.0000001
 44
0.0000000001
 40
0.0
 40
0.0
 40
0.0
 40
0.0
 40
0.0625001301
 40
0.1249987175
 40
0.1874990368
 40
0.2499989555
 40
0.3124990626
 40
0.3749993281
 40
0.4374996254
 40
0.4999999977
 40
0.5625003701
 40
0.6250006674
 40
0.6875009331
 40
0.7500010402
 40
0.8125009602
 40
0.8750012831
 40
0.9374998681
 40
1.0
 40
1.0
 40
1.0
 40
1.0
 10
218.9812351485
 20
204.3406997551
 30
0.0
 10
219.4043331997
 20
205.2661689359
 30
0.0
 10
220.3851615793
 20
207.0588494251
 30
0.0
 10
222.2246447739
 20
209.5076682999
 30
0.0
 10
224.3951213798
 20
211.6693873287
 30
0.0
 10
226.8513207103
 20
213.499685659
 30
0.0
 10
229.5427720755
 20
214.9622141031
 30
0.0
 10
232.4145241541
 20
216.0279191477
 30
0.0
 10
235.4083200884
 20
216.6758149888
 30
0.0
 10
238.4636861836
 20
216.8932027103
 30
0.0
 10
241.5190522803
 20
216.6758150199
 30
0.0
 10
244.5128482263
 20
216.0279192111
 30
0.0
 10
247.3846003166
 20
214.9622141922
 30
0.0
 10
250.0760517182
 20
213.4996857644
 30
0.0
 10
252.5322511309
 20
211.6693874092
 30
0.0
 10
254.7027277619
 20
209.5076683447
 30
0.0
 10
256.5422109996
 20
207.0588494437
 30
0.0
 10
257.5230393743
 20
205.2661689618
 30
0.0
 10
257.9461374373
 20
204.3406997551
 30
0.0
  0
ELLIPSE
  5
287
100
AcDbEntity
  8
0
100
AcDbEllipse
 62
7
  6
CONTINUOUS
 10
245.9636862929
 20
194.2894471171
 30
0.0
 11
0.0
 21
15.4386185747
 31
0.0
 40
0.9715895193
 41
-1.5707963268
 42
-1.1309935056
  0
ELLIPSE
  5
288
100
AcDbEntity
  8
0
100
AcDbEllipse
 62
7
  6
CONTINUOUS
 10
230.9636862929
 20
194.2894471171
 30
0.0
 11
0.0
 21
15.4386185747
 31
0.0
 40
0.9715895193
 41
1.1309935056
 42
1.5707963268
  0
ENDSEC
  0
SECTION
  2
OBJECTS
  0
DICTIONARY
  5
C
100
AcDbDictionary
280
0
281
1
  3
ACAD_GROUP
350
D
  3
ACAD_MLINESTYLE
350
17
  3
ACAD_LAYOUT
350
1A
  3
ACAD_PLOTSETTINGS
350
19
  3
ACAD_PLOTSTYLENAME
350
E
  0
DICTIONARY
  5
D
102
{ACAD_REACTORS
330
C
102
}
100
AcDbDictionary
280
0
281
1
  0
ACDBDICTIONARYWDFLT
  5
E
102
{ACAD_REACTORS
330
C
102
}
100
AcDbDictionary
281
1
  3
Normal
350
F
100
AcDbDictionaryWithDefault
340
F
  0
DICTIONARY
  5
17
102
{ACAD_REACTORS
330
C
102
}
100
AcDbDictionary
280
0
281
1
  3
Standard
350
18
  0
DICTIONARY
  5
19
102
{ACAD_REACTORS
330
C
102
}
100
AcDbDictionary
281
1
  0
DICTIONARY
  5
1A
102
{ACAD_REACTORS
330
C
102
}
100
AcDbDictionary
281
1
  3
Model
350
289
  3
Layout1
350
28A
  0
ACDBPLACEHOLDER
  5
F
102
{ACAD_REACTORS
330
E
102
}
  0
MLINESTYLE
  5
18
102
{ACAD_REACTORS
330
17
102
}
100
AcDbMlineStyle
  2
STANDARD
 70
0
  3

 62
256
 51
90.0
 52
90.0
 71
2
 49
0.5
 62
256
  6
BYLAYER
 49
-0.5
 62
256
  6
BYLAYER
  0
LAYOUT
  5
289
102
{ACAD_REACTORS
330
1A
102
}
100
AcDbPlotSettings
  1

  2
none_device
  4
ISO_A3_(420.00_x_297.00_MM)
  6

 40
0.0
 41
0.0
 42
0.0
 43
0.0
 44
420.0
 45
297.0
 46
0.0
 47
0.0
 48
0.0
 49
0.0
140
0.0
141
0.0
142
1.0
143
1.0
 70
1024
 72
1
 73
0
 74
0
  7

 75
0
147
1.0
148
0.0
149
0.0
100
AcDbLayout
  1
Model
 70
0
 71
0
 10
0.0
 20
0.0
 11
420.0
 21
297.0
 12
0.0
 22
0.0
 32
0.0
 14
0.0
 24
0.0
 34
0.0
 15
0.0
 25
0.0
 35
0.0
146
0.0
 13
0.0
 23
0.0
 33
0.0
 16
1.0
 26
0.0
 36
0.0
 17
0.0
 27
1.0
 37
0.0
 76
0
330
20C
345
0
346
0
  0
LAYOUT
  5
28A
102
{ACAD_REACTORS
330
1A
102
}
100
AcDbPlotSettings
  1

  2
none_device
  4
ISO_A3_(420.00_x_297.00_MM)
  6

 40
0.0
 41
0.0
 42
0.0
 43
0.0
 44
420.0
 45
297.0
 46
0.0
 47
0.0
 48
0.0
 49
0.0
140
0.0
141
0.0
142
1.0
143
1.0
 70
0
 72
1
 73
0
 74
0
  7

 75
0
147
1.0
148
0.0
149
0.0
100
AcDbLayout
  1
Layout1
 70
0
 71
1
 10
0.0
 20
0.0
 11
420.0
 21
297.0
 12
0.0
 22
0.0
 32
0.0
 14
0.0
 24
0.0
 34
0.0
 15
0.0
 25
0.0
 35
0.0
146
0.0
 13
0.0
 23
0.0
 33
0.0
 16
1.0
 26
0.0
 36
0.0
 17
0.0
 27
1.0
 37
0.0
 76
0
330
20D
345
0
346
0
  0
ENDSEC
  0
EOF
