999
DXF file: vle-28.dxf
999
Pro/ENGINEER 2010140 by Parametric Technology Corporation
  0
SECTION
  2
HEADER
  9
$ACADVER
  1
AC1015
  9
$DWGCODEPAGE
  3
ANSI_1252
  9
$EXTMAX
 10
1189.0
 20
841.0
 30
0.0
  9
$EXTMIN
 10
0.0
 20
0.0
 30
0.0
  9
$LIMMIN
 10
0.0
 20
0.0
  9
$LIMMAX
 10
1189.0
 20
841.0
  9
$VIEWCTR
 10
594.5
 20
420.5
  9
$VIEWSIZE
 40
841.0
  9
$CLAYER
  8
0
  9
$LTSCALE
 40
65.395
  9
$CELTYPE
  6
BYLAYER
  9
$DIMSCALE
 40
1.0
  9
$DIMASZ
 40
3.5
  9
$DIMEXO
 40
7.43125
  9
$DIMDLI
 40
45.182
  9
$DIMEXE
 40
21.402
  9
$DIMCEN
 40
10.701
  9
$DIMLFAC
 40
1.0
  9
$DIMBLK
  1
_FILLED
  9
$DIMTXT
 40
3.5
  9
$DIMTOL
 70
1
  9
$DIMLIM
 70
0
  9
$DIMTFAC
 40
1.0
  9
$DIMTP
 40
0.005
  9
$DIMTM
 40
0.005
  9
$PDMODE
 70
3
  9
$PDSIZE
 40
0.3125
  9
$HANDSEED
  5
4D5
  9
$TILEMODE
 70
1
  9
$MEASUREMENT
 70
1
  9
$INSUNITS
 70
4
  0
ENDSEC
  0
SECTION
  2
CLASSES
  0
CLASS
  1
ACDBDICTIONARYWDFLT
  2
AcDbDictionaryWithDefault
  3
AutoCAD 2000
 90
0
280
0
281
0
  0
CLASS
  1
ACDBPLACEHOLDER
  2
AcDbPlaceHolder
  3
AutoCAD 2000
 90
0
280
0
281
0
  0
CLASS
  1
LAYOUT
  2
AcDbLayout
  3
AutoCAD 2000
 90
0
280
0
281
0
  0
ENDSEC
  0
SECTION
  2
TABLES
  0
TABLE
  2
VPORT
  5
8
100
AcDbSymbolTable
 70
2
  0
VPORT
  5
1F4
100
AcDbSymbolTableRecord
100
AcDbViewportTableRecord
  2
*ACTIVE
 70
0
 10
0.0
 20
0.0
 11
1.0
 21
1.0
 12
594.5
 22
420.5
 13
0.0
 23
0.0
 14
1.0
 24
1.0
 15
0.0
 25
0.0
 16
0.0
 26
0.0
 36
1.0
 17
0.0
 27
0.0
 37
0.0
 40
841.0
 41
1.4137931034
 42
50.0
 43
0.0
 44
0.0
 50
0.0
 51
0.0
 71
0
 72
100
 73
1
 74
1
 75
0
 76
0
 77
0
 78
0
  0
ENDTAB
  0
TABLE
  2
LTYPE
  5
5
100
AcDbSymbolTable
 70
6
  0
LTYPE
  5
14
100
AcDbSymbolTableRecord
100
AcDbLinetypeTableRecord
  2
BYBLOCK
 70
0
  3

 72
65
 73
0
 40
0.0
  0
LTYPE
  5
15
100
AcDbSymbolTableRecord
100
AcDbLinetypeTableRecord
  2
BYLAYER
 70
0
  3

 72
65
 73
0
 40
0.0
  0
LTYPE
  5
16
100
AcDbSymbolTableRecord
100
AcDbLinetypeTableRecord
  2
CONTINUOUS
 70
64
  3
Solid line
 72
65
 73
0
 40
0.0
  0
LTYPE
  5
1F5
100
AcDbSymbolTableRecord
100
AcDbLinetypeTableRecord
  2
CENTER
 70
64
  3
____ _ ____ _ ____ _ ____ _ ____ _ ____ _ ____
 72
65
 73
4
 40
0.6
 49
0.375
 74
0
 49
-0.075
 74
0
 49
0.075
 74
0
 49
-0.075
 74
0
  0
LTYPE
  5
1F6
100
AcDbSymbolTableRecord
100
AcDbLinetypeTableRecord
  2
HIDDEN
 70
64
  3
- - - - - - - - - - - - - - - - - - - -
 72
65
 73
2
 40
0.2
 49
0.1
 74
0
 49
-0.1
 74
0
  0
LTYPE
  5
1F7
100
AcDbSymbolTableRecord
100
AcDbLinetypeTableRecord
  2
PHANTOM
 70
64
  3
_____ _ _ _____ _ _ _____ _ _ _____
 72
65
 73
6
 40
0.8
 49
0.45
 74
0
 49
-0.05
 74
0
 49
0.1
 74
0
 49
-0.05
 74
0
 49
0.1
 74
0
 49
-0.05
 74
0
  0
LTYPE
  5
1F8
100
AcDbSymbolTableRecord
100
AcDbLinetypeTableRecord
  2
DOT
 70
64
  3
. . . . . . . . . . . . . . . . . . . .
 72
65
 73
2
 40
0.2
 49
0.1
 74
0
 49
-0.1
 74
0
  0
LTYPE
  5
1F9
100
AcDbSymbolTableRecord
100
AcDbLinetypeTableRecord
  2
DASHED
 70
64
  3
- - - - - - - - - - - - - - - - - - - -
 72
65
 73
2
 40
0.2
 49
0.1
 74
0
 49
-0.1
 74
0
  0
ENDTAB
  0
TABLE
  2
LAYER
  5
2
100
AcDbSymbolTable
 70
36
  0
LAYER
  5
10
100
AcDbSymbolTableRecord
100
AcDbLayerTableRecord
  2
0
 70
0
 62
7
  6
CONTINUOUS
370
-3
390
F
  0
LAYER
  5
1FA
100
AcDbSymbolTableRecord
100
AcDbLayerTableRecord
  2
DEFAULT_1
 70
0
 62
7
  6
CENTER
370
-3
390
F
  0
LAYER
  5
1FB
100
AcDbSymbolTableRecord
100
AcDbLayerTableRecord
  2
DEFAULT_2
 70
0
 62
8
  6
HIDDEN
370
-3
390
F
  0
LAYER
  5
1FC
100
AcDbSymbolTableRecord
100
AcDbLayerTableRecord
  2
DEFAULT_3
 70
0
 62
7
  6
PHANTOM
370
-3
390
F
  0
LAYER
  5
1FD
100
AcDbSymbolTableRecord
100
AcDbLayerTableRecord
  2
BEZUGSACHSEN
 70
0
 62
7
  6
CONTINUOUS
370
-3
390
F
  0
LAYER
  5
1FE
100
AcDbSymbolTableRecord
100
AcDbLayerTableRecord
  2
BEZUGSEBENEN
 70
0
 62
7
  6
CONTINUOUS
370
-3
390
F
  0
LAYER
  5
1FF
100
AcDbSymbolTableRecord
100
AcDbLayerTableRecord
  2
BG_STARTBEZUEGE
 70
0
 62
7
  6
CONTINUOUS
370
-3
390
F
  0
LAYER
  5
200
100
AcDbSymbolTableRecord
100
AcDbLayerTableRecord
  2
BOHRUNGEN
 70
0
 62
7
  6
CONTINUOUS
370
-3
390
F
  0
LAYER
  5
201
100
AcDbSymbolTableRecord
100
AcDbLayerTableRecord
  2
FASEN
 70
0
 62
7
  6
CONTINUOUS
370
-3
390
F
  0
LAYER
  5
202
100
AcDbSymbolTableRecord
100
AcDbLayerTableRecord
  2
FLAECHEN
 70
0
 62
7
  6
CONTINUOUS
370
-3
390
F
  0
LAYER
  5
203
100
AcDbSymbolTableRecord
100
AcDbLayerTableRecord
  2
GEWINDE
 70
0
 62
7
  6
CONTINUOUS
370
-3
390
F
  0
LAYER
  5
204
100
AcDbSymbolTableRecord
100
AcDbLayerTableRecord
  2
HILFEN
 70
0
 62
7
  6
CONTINUOUS
370
-3
390
F
  0
LAYER
  5
205
100
AcDbSymbolTableRecord
100
AcDbLayerTableRecord
  2
KONSTRUKTIONSELEMENTE
 70
0
 62
7
  6
CONTINUOUS
370
-3
390
F
  0
LAYER
  5
206
100
AcDbSymbolTableRecord
100
AcDbLayerTableRecord
  2
NORM
 70
0
 62
7
  6
CONTINUOUS
370
-3
390
F
  0
LAYER
  5
207
100
AcDbSymbolTableRecord
100
AcDbLayerTableRecord
  2
PLATZIERUNG
 70
0
 62
7
  6
CONTINUOUS
370
-3
390
F
  0
LAYER
  5
208
100
AcDbSymbolTableRecord
100
AcDbLayerTableRecord
  2
RUNDUNGEN
 70
0
 62
7
  6
CONTINUOUS
370
-3
390
F
  0
LAYER
  5
209
100
AcDbSymbolTableRecord
100
AcDbLayerTableRecord
  2
TEIL_STARTBEZUEGE
 70
0
 62
7
  6
CONTINUOUS
370
-3
390
F
  0
LAYER
  5
20A
100
AcDbSymbolTableRecord
100
AcDbLayerTableRecord
  2
XSEC_DATUMS
 70
0
 62
7
  6
CONTINUOUS
370
-3
390
F
  0
ENDTAB
  0
TABLE
  2
STYLE
  5
3
100
AcDbSymbolTable
 70
1
  0
STYLE
  5
11
100
AcDbSymbolTableRecord
100
AcDbTextStyleTableRecord
  2
STANDARD
 70
0
 40
0.0
 41
0.7
 50
0.0
 71
0
 42
0.2
  3
txt
  4

  0
STYLE
  5
20B
100
AcDbSymbolTableRecord
100
AcDbTextStyleTableRecord
  2
TEXTSTYLE_1
 70
0
 40
0.0
 41
0.8
 50
0.0
 71
0
 42
0.2
  3
gdt
  4

  0
ENDTAB
  0
TABLE
  2
VIEW
  5
6
100
AcDbSymbolTable
 70
0
  0
ENDTAB
  0
TABLE
  2
UCS
  5
7
100
AcDbSymbolTable
 70
0
  0
ENDTAB
  0
TABLE
  2
APPID
  5
9
100
AcDbSymbolTable
 70
1
  0
APPID
  5
20C
100
AcDbSymbolTableRecord
100
AcDbRegAppTableRecord
  2
ACAD
 70
0
  0
ENDTAB
  0
TABLE
  2
BLOCK_RECORD
  5
1
100
AcDbSymbolTable
 70
0
  0
BLOCK_RECORD
  5
20D
100
AcDbSymbolTableRecord
100
AcDbBlockTableRecord
  2
*Model_Space
  0
BLOCK_RECORD
  5
20E
100
AcDbSymbolTableRecord
100
AcDbBlockTableRecord
  2
*Paper_Space
  0
ENDTAB
  0
TABLE
  2
DIMSTYLE
  5
A
100
AcDbSymbolTable
 70
1
100
AcDbDimStyleTable
 71
0
  0
DIMSTYLE
105
20F
100
AcDbSymbolTableRecord
100
AcDbDimStyleTableRecord
  2
STANDARD
 70
0
  3

  4

 40
1.0
 41
3.5
 42
0.0625
 43
0.38
 44
0.18
 45
0.0
 46
0.0
 47
0.005
 48
0.005
140
3.5
141
0.09
142
0.0
143
25.4
144
1.0
145
0.0
146
1.0
147
0.09
 71
1.0
 72
0.0
 73
0
 74
0
 75
0
 76
0
 77
1
 78
8
170
0
171
2
172
0
173
0
174
0
175
0
176
0
177
0
178
5
270
2
271
3
272
3
273
2
274
2
275
0
280
0
281
0
282
0
283
1
284
8
285
0
286
0
287
3
288
0
340
11
  0
ENDTAB
  0
ENDSEC
  0
SECTION
  2
BLOCKS
  0
BLOCK
  5
20
100
AcDbEntity
  8
0
100
AcDbBlockBegin
  2
*Model_Space
 70
0
 10
0.0
 20
0.0
 30
0.0
  3
*Model_Space
  1

  0
ENDBLK
  5
21
100
AcDbEntity
  8
0
100
AcDbBlockEnd
  0
BLOCK
  5
1C
100
AcDbEntity
  8
0
100
AcDbBlockBegin
  2
*Paper_Space
 70
0
 10
0.0
 20
0.0
 30
0.0
  3
*Paper_Space
  1

  0
ENDBLK
  5
1D
100
AcDbEntity
  8
0
100
AcDbBlockEnd
  0
ENDSEC
  0
SECTION
  2
ENTITIES
  0
LINE
  5
210
100
AcDbEntity
  8
0
100
AcDbLine
 62
7
  6
CONTINUOUS
 10
0.0
 20
0.0
 11
0.0
 21
841.0
  0
LINE
  5
211
100
AcDbEntity
  8
0
100
AcDbLine
 62
7
  6
CONTINUOUS
 10
0.0
 20
0.0
 11
1189.0
 21
0.0
  0
LINE
  5
212
100
AcDbEntity
  8
0
100
AcDbLine
 62
7
  6
CONTINUOUS
 10
0.0
 20
841.0
 11
1189.0
 21
841.0
  0
LINE
  5
213
100
AcDbEntity
  8
0
100
AcDbLine
 62
7
  6
CONTINUOUS
 10
1189.0
 20
0.0
 11
1189.0
 21
841.0
  0
LINE
  5
214
100
AcDbEntity
  8
KONSTRUKTIONSELEMENTE
100
AcDbLine
 62
7
  6
CONTINUOUS
 10
83.7661635163
 20
211.7099543663
 11
94.6956554406
 21
211.7099543663
  0
LINE
  5
215
100
AcDbEntity
  8
KONSTRUKTIONSELEMENTE
100
AcDbLine
 62
7
  6
CONTINUOUS
 10
160.836671592
 20
211.7099543663
 11
171.7661635163
 21
211.7099543663
  0
LINE
  5
216
100
AcDbEntity
  8
0
100
AcDbLine
 62
7
  6
CONTINUOUS
 10
183.6298368649
 20
237.0949091204
 11
160.836671592
 21
237.0949091204
  0
LINE
  5
217
100
AcDbEntity
  8
0
100
AcDbLine
 62
7
  6
CONTINUOUS
 10
94.6956554406
 20
237.0949091204
 11
71.9024901677
 21
237.0949091203
  0
LINE
  5
218
100
AcDbEntity
  8
0
100
AcDbLine
 62
7
  6
CONTINUOUS
 10
112.0161635163
 20
238.3599543663
 11
143.5161635163
 21
238.3599543663
  0
LINE
  5
219
100
AcDbEntity
  8
0
100
AcDbLine
 62
7
  6
CONTINUOUS
 10
143.5161635163
 20
809.7099543663
 11
160.836671592
 21
819.7099543663
  0
LINE
  5
21A
100
AcDbEntity
  8
KONSTRUKTIONSELEMENTE
100
AcDbLine
 62
7
  6
CONTINUOUS
 10
171.5994971278
 20
270.603571281
 11
171.0161635163
 21
270.4546351286
  0
LINE
  5
21B
100
AcDbEntity
  8
KONSTRUKTIONSELEMENTE
100
AcDbLine
 62
7
  6
CONTINUOUS
 10
178.1619968149
 20
270.603571281
 11
177.4328301135
 21
270.4546351286
  0
LINE
  5
21C
100
AcDbEntity
  8
KONSTRUKTIONSELEMENTE
100
AcDbLine
 62
7
  6
CONTINUOUS
 10
171.0161635163
 20
269.7099543663
 11
171.7453299048
 21
269.8588905187
  0
LINE
  5
21D
100
AcDbEntity
  8
KONSTRUKTIONSELEMENTE
100
AcDbLine
 62
7
  6
CONTINUOUS
 10
177.2869969192
 20
269.7099543663
 11
178.3078302178
 21
269.8588905187
  0
LINE
  5
21E
100
AcDbEntity
  8
0
100
AcDbLine
 62
7
  6
CONTINUOUS
 10
143.5161635163
 20
221.7099543663
 11
160.836671592
 21
211.7099543663
  0
LINE
  5
21F
100
AcDbEntity
  8
KONSTRUKTIONSELEMENTE
100
AcDbLine
 62
7
  6
CONTINUOUS
 10
169.8494971278
 20
272.6886778327
 11
170.4328299048
 21
272.8376139851
  0
LINE
  5
220
100
AcDbEntity
  8
KONSTRUKTIONSELEMENTE
100
AcDbLine
 62
7
  6
CONTINUOUS
 10
171.5994971278
 20
273.5822947474
 11
171.0161635163
 21
273.433358595
  0
LINE
  5
221
100
AcDbEntity
  8
KONSTRUKTIONSELEMENTE
100
AcDbLine
 62
7
  6
CONTINUOUS
 10
169.8494971278
 20
275.8163373472
 11
170.4328299048
 21
275.9652734997
  0
LINE
  5
222
100
AcDbEntity
  8
KONSTRUKTIONSELEMENTE
100
AcDbLine
 62
7
  6
CONTINUOUS
 10
170.2869971278
 20
276.7099543663
 11
169.5578299048
 21
276.5610182008
  0
LINE
  5
223
100
AcDbEntity
  8
KONSTRUKTIONSELEMENTE
100
AcDbLine
 62
7
  6
CONTINUOUS
 10
150.8911635163
 20
273.5822947474
 11
150.1619979623
 21
273.433358595
  0
LINE
  5
224
100
AcDbEntity
  8
KONSTRUKTIONSELEMENTE
100
AcDbLine
 62
7
  6
CONTINUOUS
 10
150.8911635163
 20
269.7099543663
 11
154.3911635163
 21
269.7099543663
  0
LINE
  5
225
100
AcDbEntity
  8
KONSTRUKTIONSELEMENTE
100
AcDbLine
 62
7
  6
CONTINUOUS
 10
155.5578307393
 20
269.7099543663
 11
156.4328307393
 21
269.7099543663
  0
LINE
  5
226
100
AcDbEntity
  8
KONSTRUKTIONSELEMENTE
100
AcDbLine
 62
7
  6
CONTINUOUS
 10
157.5994962933
 20
269.7099543663
 11
158.4744962933
 21
269.7099543663
  0
LINE
  5
227
100
AcDbEntity
  8
KONSTRUKTIONSELEMENTE
100
AcDbLine
 62
7
  6
CONTINUOUS
 10
162.5578307393
 20
269.7099543663
 11
163.4328307393
 21
269.7099543663
  0
LINE
  5
228
100
AcDbEntity
  8
KONSTRUKTIONSELEMENTE
100
AcDbLine
 62
7
  6
CONTINUOUS
 10
170.4328299048
 20
269.7099543663
 11
171.0161635163
 21
269.7099543663
  0
LINE
  5
229
100
AcDbEntity
  8
KONSTRUKTIONSELEMENTE
100
AcDbLine
 62
7
  6
CONTINUOUS
 10
176.7036635163
 20
269.7099543663
 11
177.2869969192
 21
269.7099543663
  0
LINE
  5
22A
100
AcDbEntity
  8
KONSTRUKTIONSELEMENTE
100
AcDbLine
 62
7
  6
CONTINUOUS
 10
177.4328301135
 20
270.4546351286
 11
176.8494969192
 21
270.4546351286
  0
LINE
  5
22B
100
AcDbEntity
  8
KONSTRUKTIONSELEMENTE
100
AcDbLine
 62
7
  6
CONTINUOUS
 10
171.0161635163
 20
270.4546351286
 11
170.4328299048
 21
270.4546351286
  0
LINE
  5
22C
100
AcDbEntity
  8
KONSTRUKTIONSELEMENTE
100
AcDbLine
 62
7
  6
CONTINUOUS
 10
153.5161635163
 20
270.4546351286
 11
150.7453290704
 21
270.4546351286
  0
LINE
  5
22D
100
AcDbEntity
  8
KONSTRUKTIONSELEMENTE
100
AcDbLine
 62
7
  6
CONTINUOUS
 10
179.6203301786
 20
271.3482520433
 11
178.8911635163
 21
271.3482520433
  0
LINE
  5
22E
100
AcDbEntity
  8
KONSTRUKTIONSELEMENTE
100
AcDbLine
 62
7
  6
CONTINUOUS
 10
150.7453290704
 20
272.6886778327
 11
153.5161635163
 21
272.6886778327
  0
LINE
  5
22F
100
AcDbEntity
  8
KONSTRUKTIONSELEMENTE
100
AcDbLine
 62
7
  6
CONTINUOUS
 10
170.4328299048
 20
272.8376139851
 11
171.0161635163
 21
272.8376139851
  0
LINE
  5
230
100
AcDbEntity
  8
KONSTRUKTIONSELEMENTE
100
AcDbLine
 62
7
  6
CONTINUOUS
 10
171.0161635163
 20
273.433358595
 11
170.4328299048
 21
273.433358595
  0
LINE
  5
231
100
AcDbEntity
  8
KONSTRUKTIONSELEMENTE
100
AcDbLine
 62
7
  6
CONTINUOUS
 10
153.5161635163
 20
273.5822947474
 11
150.8911635163
 21
273.5822947474
  0
LINE
  5
232
100
AcDbEntity
  8
KONSTRUKTIONSELEMENTE
100
AcDbLine
 62
7
  6
CONTINUOUS
 10
170.4328299048
 20
275.9652734997
 11
171.0161635163
 21
275.9652734997
  0
LINE
  5
233
100
AcDbEntity
  8
KONSTRUKTIONSELEMENTE
100
AcDbLine
 62
7
  6
CONTINUOUS
 10
174.5161635163
 20
275.9652734997
 11
178.5994968149
 21
275.9652734997
  0
LINE
  5
234
100
AcDbEntity
  8
KONSTRUKTIONSELEMENTE
100
AcDbLine
 62
7
  6
CONTINUOUS
 10
179.7661635163
 20
276.7099543663
 11
174.5161635163
 21
276.7099543663
  0
LINE
  5
235
100
AcDbEntity
  8
KONSTRUKTIONSELEMENTE
100
AcDbLine
 62
7
  6
CONTINUOUS
 10
171.1619971278
 20
276.7099543663
 11
170.2869971278
 21
276.7099543663
  0
LINE
  5
236
100
AcDbEntity
  8
KONSTRUKTIONSELEMENTE
100
AcDbLine
 62
7
  6
CONTINUOUS
 10
161.0994962933
 20
276.7099543663
 11
159.9328307393
 21
276.7099543663
  0
LINE
  5
237
100
AcDbEntity
  8
KONSTRUKTIONSELEMENTE
100
AcDbLine
 62
7
  6
CONTINUOUS
 10
156.4328307393
 20
276.7099543663
 11
155.5578307393
 21
276.7099543663
  0
LINE
  5
238
100
AcDbEntity
  8
KONSTRUKTIONSELEMENTE
100
AcDbLine
 62
7
  6
CONTINUOUS
 10
154.3911635163
 20
276.7099543663
 11
153.5161635163
 21
276.7099543663
  0
LINE
  5
239
100
AcDbEntity
  8
0
100
AcDbLine
 62
7
  6
CONTINUOUS
 10
143.5161635163
 20
277.8599543663
 11
112.0161635163
 21
277.8599543663
  0
LINE
  5
23A
100
AcDbEntity
  8
KONSTRUKTIONSELEMENTE
100
AcDbLine
 62
7
  6
CONTINUOUS
 10
175.8286635163
 20
269.8588905187
 11
176.7036635163
 21
269.7099543663
  0
LINE
  5
23B
100
AcDbEntity
  8
KONSTRUKTIONSELEMENTE
100
AcDbLine
 62
7
  6
CONTINUOUS
 10
150.1619979623
 20
269.8588905187
 11
150.8911635163
 21
269.7099543663
  0
LINE
  5
23C
100
AcDbEntity
  8
KONSTRUKTIONSELEMENTE
100
AcDbLine
 62
7
  6
CONTINUOUS
 10
169.7036635163
 20
269.8588905187
 11
170.4328299048
 21
269.7099543663
  0
LINE
  5
23D
100
AcDbEntity
  8
KONSTRUKTIONSELEMENTE
100
AcDbLine
 62
7
  6
CONTINUOUS
 10
176.8494969192
 20
270.4546351286
 11
176.1203303221
 21
270.603571281
  0
LINE
  5
23E
100
AcDbEntity
  8
KONSTRUKTIONSELEMENTE
100
AcDbLine
 62
7
  6
CONTINUOUS
 10
170.4328299048
 20
270.4546351286
 11
169.8494971278
 21
270.603571281
  0
LINE
  5
23F
100
AcDbEntity
  8
KONSTRUKTIONSELEMENTE
100
AcDbLine
 62
7
  6
CONTINUOUS
 10
171.8911635163
 20
276.5610182008
 11
171.1619971278
 21
276.7099543663
  0
LINE
  5
240
100
AcDbEntity
  8
KONSTRUKTIONSELEMENTE
100
AcDbLine
 62
7
  6
CONTINUOUS
 10
171.0161635163
 20
272.8376139851
 11
171.5994971278
 21
272.6886778327
  0
LINE
  5
241
100
AcDbEntity
  8
KONSTRUKTIONSELEMENTE
100
AcDbLine
 62
7
  6
CONTINUOUS
 10
170.4328299048
 20
273.433358595
 11
169.8494971278
 21
273.5822947474
  0
LINE
  5
242
100
AcDbEntity
  8
KONSTRUKTIONSELEMENTE
100
AcDbLine
 62
7
  6
CONTINUOUS
 10
171.0161635163
 20
275.9652734997
 11
171.5994971278
 21
275.8163373472
  0
LINE
  5
243
100
AcDbEntity
  8
KONSTRUKTIONSELEMENTE
100
AcDbLine
 62
7
  6
CONTINUOUS
 10
150.7453290704
 20
270.4546351286
 11
150.3078290704
 21
270.603571281
  0
LINE
  5
244
100
AcDbEntity
  8
KONSTRUKTIONSELEMENTE
100
AcDbLine
 62
7
  6
CONTINUOUS
 10
122.0161635163
 20
316.7099543663
 11
133.5161635163
 21
316.7099543663
  0
LINE
  5
245
100
AcDbEntity
  8
0
100
AcDbLine
 62
7
  6
CONTINUOUS
 10
93.6927134415
 20
319.8124453591
 11
161.8396135911
 21
319.8124453591
  0
LINE
  5
246
100
AcDbEntity
  8
KONSTRUKTIONSELEMENTE
100
AcDbLine
 62
7
  6
CONTINUOUS
 10
168.9744971278
 20
273.2844224425
 11
169.2661635163
 21
273.1354862901
  0
LINE
  5
247
100
AcDbEntity
  8
KONSTRUKTIONSELEMENTE
100
AcDbLine
 62
7
  6
CONTINUOUS
 10
175.2453303221
 20
270.1567628237
 11
175.8286635163
 21
269.8588905187
  0
LINE
  5
248
100
AcDbEntity
  8
KONSTRUKTIONSELEMENTE
100
AcDbLine
 62
7
  6
CONTINUOUS
 10
169.8494971278
 20
273.5822947474
 11
169.2661635163
 21
273.8801670523
  0
LINE
  5
249
100
AcDbEntity
  8
KONSTRUKTIONSELEMENTE
100
AcDbLine
 62
7
  6
CONTINUOUS
 10
172.4744971278
 20
272.9865501376
 11
172.1828299048
 21
273.1354862901
  0
LINE
  5
24A
100
AcDbEntity
  8
KONSTRUKTIONSELEMENTE
100
AcDbLine
 62
7
  6
CONTINUOUS
 10
171.5994971278
 20
275.8163373472
 11
172.1828299048
 21
275.5184650423
  0
LINE
  5
24B
100
AcDbEntity
  8
KONSTRUKTIONSELEMENTE
100
AcDbLine
 62
7
  6
CONTINUOUS
 10
168.9744971278
 20
270.3056989761
 11
169.7036635163
 21
269.8588905187
  0
LINE
  5
24C
100
AcDbEntity
  8
0
100
AcDbLine
 62
7
  6
CONTINUOUS
 10
196.7661635163
 20
336.7099543663
 11
161.8396135911
 21
336.7099543663
  0
LINE
  5
24D
100
AcDbEntity
  8
0
100
AcDbLine
 62
7
  6
CONTINUOUS
 10
93.6927134415
 20
336.7099543663
 11
58.7661635163
 21
336.7099543663
  0
LINE
  5
24E
100
AcDbEntity
  8
FASEN
100
AcDbLine
 62
7
  6
CONTINUOUS
 10
186.7661635163
 20
346.7099543663
 11
68.7661635163
 21
346.7099543663
  0
LINE
  5
24F
100
AcDbEntity
  8
FASEN
100
AcDbLine
 62
7
  6
CONTINUOUS
 10
68.7661635163
 20
347.2099543663
 11
186.7661635163
 21
347.2099543663
  0
LINE
  5
250
100
AcDbEntity
  8
KONSTRUKTIONSELEMENTE
100
AcDbLine
 62
7
  6
CONTINUOUS
 10
172.6203299048
 20
276.1142097043
 11
171.8911635163
 21
276.5610182008
  0
LINE
  5
251
100
AcDbEntity
  8
KONSTRUKTIONSELEMENTE
100
AcDbLine
 62
7
  6
CONTINUOUS
 10
164.5994962933
 20
271.497188613
 11
165.0369962933
 21
271.1993158909
  0
LINE
  5
252
100
AcDbEntity
  8
KONSTRUKTIONSELEMENTE
100
AcDbLine
 62
7
  6
CONTINUOUS
 10
166.9328299048
 20
274.9227203282
 11
166.4953299048
 21
275.2205926331
  0
LINE
  5
253
100
AcDbEntity
  8
KONSTRUKTIONSELEMENTE
100
AcDbLine
 62
7
  6
CONTINUOUS
 10
176.1203303221
 20
270.603571281
 11
175.6828303221
 21
270.9014435859
  0
LINE
  5
254
100
AcDbEntity
  8
KONSTRUKTIONSELEMENTE
100
AcDbLine
 62
7
  6
CONTINUOUS
 10
149.5786635163
 20
270.3056989761
 11
150.1619979623
 21
269.8588905187
  0
LINE
  5
255
100
AcDbEntity
  8
KONSTRUKTIONSELEMENTE
100
AcDbLine
 62
7
  6
CONTINUOUS
 10
169.8494971278
 20
270.603571281
 11
169.2661635163
 21
271.0503797384
  0
LINE
  5
256
100
AcDbEntity
  8
KONSTRUKTIONSELEMENTE
100
AcDbLine
 62
7
  6
CONTINUOUS
 10
168.3911635163
 20
273.7312308999
 11
168.9744971278
 21
273.2844224425
  0
LINE
  5
257
100
AcDbEntity
  8
KONSTRUKTIONSELEMENTE
100
AcDbLine
 62
7
  6
CONTINUOUS
 10
171.5994971278
 20
272.6886778327
 11
172.1828299048
 21
272.2418693753
  0
LINE
  5
258
100
AcDbEntity
  8
BEZUGSACHSEN
100
AcDbLine
 62
7
  6
CONTINUOUS
 10
68.7661635163
 20
684.2099543663
 11
58.7661635163
 21
674.2099543663
  0
LINE
  5
259
100
AcDbEntity
  8
0
100
AcDbLine
 62
7
  6
CONTINUOUS
 10
58.7661635163
 20
357.2099543663
 11
93.6927134415
 21
357.2099543663
  0
LINE
  5
25A
100
AcDbEntity
  8
0
100
AcDbLine
 62
7
  6
CONTINUOUS
 10
161.8396135911
 20
357.2099543663
 11
196.7661635163
 21
357.2099543663
  0
LINE
  5
25B
100
AcDbEntity
  8
FASEN
100
AcDbLine
 62
7
  6
CONTINUOUS
 10
68.7661635163
 20
347.2099543663
 11
58.7661635163
 21
357.2099543663
  0
LINE
  5
25C
100
AcDbEntity
  8
KONSTRUKTIONSELEMENTE
100
AcDbLine
 62
7
  6
CONTINUOUS
 10
150.3078290704
 20
270.603571281
 11
150.0161635163
 21
270.9014435859
  0
LINE
  5
25D
100
AcDbEntity
  8
0
100
AcDbLine
 62
7
  6
CONTINUOUS
 10
143.5161635163
 20
771.2170322418
 11
160.7053332443
 21
794.1504072721
  0
LINE
  5
25E
100
AcDbEntity
  8
KONSTRUKTIONSELEMENTE
100
AcDbLine
 62
7
  6
CONTINUOUS
 10
168.5369971278
 20
270.7525074335
 11
168.9744971278
 21
270.3056989761
  0
LINE
  5
25F
100
AcDbEntity
  8
KONSTRUKTIONSELEMENTE
100
AcDbLine
 62
7
  6
CONTINUOUS
 10
174.6619967106
 20
270.7525074335
 11
175.2453303221
 21
270.1567628237
  0
LINE
  5
260
100
AcDbEntity
  8
KONSTRUKTIONSELEMENTE
100
AcDbLine
 62
7
  6
CONTINUOUS
 10
172.9119967106
 20
272.5397416802
 11
172.4744971278
 21
272.9865501376
  0
LINE
  5
261
100
AcDbEntity
  8
KONSTRUKTIONSELEMENTE
100
AcDbLine
 62
7
  6
CONTINUOUS
 10
173.0578303221
 20
275.6674011948
 11
172.6203299048
 21
276.1142097043
  0
LINE
  5
262
100
AcDbEntity
  8
0
100
AcDbLine
 62
7
  6
CONTINUOUS
 10
143.5161635163
 20
260.4953725466
 11
160.4804897562
 21
237.571392837
  0
LINE
  5
263
100
AcDbEntity
  8
KONSTRUKTIONSELEMENTE
100
AcDbLine
 62
7
  6
CONTINUOUS
 10
149.1411635163
 20
270.9014435859
 11
149.5786635163
 21
270.3056989761
  0
LINE
  5
264
100
AcDbEntity
  8
0
100
AcDbLine
 62
7
  6
CONTINUOUS
 10
102.7661635163
 20
402.2099543663
 11
152.7661635163
 21
402.2099543663
  0
LINE
  5
265
100
AcDbEntity
  8
KONSTRUKTIONSELEMENTE
100
AcDbLine
 62
7
  6
CONTINUOUS
 10
169.2661635163
 20
273.8801670523
 11
168.8286635163
 21
274.4759118708
  0
LINE
  5
266
100
AcDbEntity
  8
KONSTRUKTIONSELEMENTE
100
AcDbLine
 62
7
  6
CONTINUOUS
 10
172.1828299048
 20
275.5184650423
 11
172.6203299048
 21
274.9227203282
  0
LINE
  5
267
100
AcDbEntity
  8
0
100
AcDbLine
 62
7
  6
CONTINUOUS
 10
59.1749833253
 20
427.2099543663
 11
58.7661635163
 21
427.2099543663
  0
LINE
  5
268
100
AcDbEntity
  8
0
100
AcDbLine
 62
7
  6
CONTINUOUS
 10
59.1749833253
 20
429.0849543663
 11
58.7707767149
 21
429.0849543663
  0
LINE
  5
269
100
AcDbEntity
  8
0
100
AcDbLine
 62
7
  6
CONTINUOUS
 10
58.7752056757
 20
435.0224540683
 11
58.8127821428
 21
435.0224540683
  0
LINE
  5
26A
100
AcDbEntity
  8
KONSTRUKTIONSELEMENTE
100
AcDbLine
 62
7
  6
CONTINUOUS
 10
169.2661635163
 20
271.0503797384
 11
168.9744971278
 21
271.497188613
  0
LINE
  5
26B
100
AcDbEntity
  8
KONSTRUKTIONSELEMENTE
100
AcDbLine
 62
7
  6
CONTINUOUS
 10
172.1828299048
 20
272.2418693753
 11
172.4744971278
 21
271.7950609179
  0
LINE
  5
26C
100
AcDbEntity
  8
KONSTRUKTIONSELEMENTE
100
AcDbLine
 62
7
  6
CONTINUOUS
 10
175.6828303221
 20
270.9014435859
 11
175.3911635163
 21
271.3482520433
  0
LINE
  5
26D
100
AcDbEntity
  8
0
100
AcDbLine
 62
7
  6
CONTINUOUS
 10
58.7661635163
 20
674.2099543663
 11
58.7661635163
 21
559.0849591347
  0
LINE
  5
26E
100
AcDbEntity
  8
BEZUGSACHSEN
100
AcDbLine
 62
7
  6
CONTINUOUS
 10
58.7661635163
 20
674.2099543663
 11
58.7661635163
 21
559.0849591347
  0
LINE
  5
26F
100
AcDbEntity
  8
BEZUGSACHSEN
100
AcDbLine
 62
7
  6
CONTINUOUS
 10
58.7661635163
 20
549.0849543663
 11
58.7661635163
 21
543.7795551321
  0
LINE
  5
270
100
AcDbEntity
  8
BEZUGSACHSEN
100
AcDbLine
 62
7
  6
CONTINUOUS
 10
58.7661635163
 20
541.1849539376
 11
58.7661635163
 21
532.2099543663
  0
LINE
  5
271
100
AcDbEntity
  8
BEZUGSACHSEN
100
AcDbLine
 62
7
  6
CONTINUOUS
 10
58.7661635163
 20
527.8349567505
 11
58.7661635163
 21
524.0849567505
  0
LINE
  5
272
100
AcDbEntity
  8
BEZUGSACHSEN
100
AcDbLine
 62
7
  6
CONTINUOUS
 10
58.7661635163
 20
514.0849519821
 11
58.7661635163
 21
502.2099543663
  0
LINE
  5
273
100
AcDbEntity
  8
BEZUGSACHSEN
100
AcDbLine
 62
7
  6
CONTINUOUS
 10
58.7661635163
 20
500.3349543663
 11
58.7661635163
 21
495.3349555584
  0
LINE
  5
274
100
AcDbEntity
  8
BEZUGSACHSEN
100
AcDbLine
 62
7
  6
CONTINUOUS
 10
58.7661635163
 20
493.4522454214
 11
58.7661635163
 21
489.7176615955
  0
LINE
  5
275
100
AcDbEntity
  8
BEZUGSACHSEN
100
AcDbLine
 62
7
  6
CONTINUOUS
 10
58.7661635163
 20
487.8349555584
 11
58.7661635163
 21
467.8349531742
  0
LINE
  5
276
100
AcDbEntity
  8
BEZUGSACHSEN
100
AcDbLine
 62
7
  6
CONTINUOUS
 10
58.7661635163
 20
465.9599531742
 11
58.7661635163
 21
457.2099543663
  0
LINE
  5
277
100
AcDbEntity
  8
BEZUGSACHSEN
100
AcDbLine
 62
7
  6
CONTINUOUS
 10
58.7661635163
 20
455.3349543663
 11
58.7661635163
 21
452.8349549623
  0
LINE
  5
278
100
AcDbEntity
  8
BEZUGSACHSEN
100
AcDbLine
 62
7
  6
CONTINUOUS
 10
58.7661635163
 20
450.9599549623
 11
58.7661635163
 21
443.4599549623
  0
LINE
  5
279
100
AcDbEntity
  8
BEZUGSACHSEN
100
AcDbLine
 62
7
  6
CONTINUOUS
 10
58.7661635163
 20
441.5849540683
 11
58.7661635163
 21
436.5849545898
  0
LINE
  5
27A
100
AcDbEntity
  8
BEZUGSACHSEN
100
AcDbLine
 62
7
  6
CONTINUOUS
 10
58.7661635163
 20
427.2099543663
 11
58.7661635163
 21
357.2099543663
  0
LINE
  5
27B
100
AcDbEntity
  8
KONSTRUKTIONSELEMENTE
100
AcDbLine
 62
7
  6
CONTINUOUS
 10
58.7661635163
 20
336.7099543663
 11
58.7661635163
 21
278.1099543663
  0
LINE
  5
27C
100
AcDbEntity
  8
KONSTRUKTIONSELEMENTE
100
AcDbLine
 62
7
  6
CONTINUOUS
 10
58.7661635163
 20
238.1099543663
 11
58.7661635163
 21
236.7099543663
  0
LINE
  5
27D
100
AcDbEntity
  8
KONSTRUKTIONSELEMENTE
100
AcDbLine
 62
7
  6
CONTINUOUS
 10
58.7661635163
 20
694.2099543663
 11
58.7661635163
 21
753.3099543663
  0
LINE
  5
27E
100
AcDbEntity
  8
KONSTRUKTIONSELEMENTE
100
AcDbLine
 62
7
  6
CONTINUOUS
 10
58.7661635163
 20
793.3099543663
 11
58.7661635163
 21
794.7099543663
  0
LINE
  5
27F
100
AcDbEntity
  8
0
100
AcDbLine
 62
7
  6
CONTINUOUS
 10
58.7678242323
 20
554.7099543663
 11
58.7678242323
 21
553.4599591347
  0
LINE
  5
280
100
AcDbEntity
  8
0
100
AcDbLine
 62
7
  6
CONTINUOUS
 10
58.7678242323
 20
532.2099543663
 11
58.7678242323
 21
527.8349567505
  0
LINE
  5
281
100
AcDbEntity
  8
0
100
AcDbLine
 62
7
  6
CONTINUOUS
 10
58.7678242323
 20
524.0849567505
 11
58.7678242323
 21
515.9599519821
  0
LINE
  5
282
100
AcDbEntity
  8
0
100
AcDbLine
 62
7
  6
CONTINUOUS
 10
58.7707767149
 20
434.3974542173
 11
58.7707767149
 21
429.0849543663
  0
LINE
  5
283
100
AcDbEntity
  8
0
100
AcDbLine
 62
7
  6
CONTINUOUS
 10
58.7752056757
 20
435.0224540683
 11
58.7752056757
 21
434.481389097
  0
LINE
  5
284
100
AcDbEntity
  8
0
100
AcDbLine
 62
7
  6
CONTINUOUS
 10
58.7973547595
 20
532.2099543663
 11
58.7973547595
 21
527.8349567505
  0
LINE
  5
285
100
AcDbEntity
  8
0
100
AcDbLine
 62
7
  6
CONTINUOUS
 10
58.9925742059
 20
525.3349519821
 11
58.9925742059
 21
515.9599519821
  0
LINE
  5
286
100
AcDbEntity
  8
0
100
AcDbLine
 62
7
  6
CONTINUOUS
 10
58.9925742059
 20
511.5849543663
 11
58.9925742059
 21
502.2099543663
  0
LINE
  5
287
100
AcDbEntity
  8
0
100
AcDbLine
 62
7
  6
CONTINUOUS
 10
58.9925742059
 20
462.8349543663
 11
58.9925742059
 21
457.2099543663
  0
LINE
  5
288
100
AcDbEntity
  8
0
100
AcDbLine
 62
7
  6
CONTINUOUS
 10
58.9925742059
 20
447.8349543663
 11
58.9925742059
 21
446.5849537702
  0
LINE
  5
289
100
AcDbEntity
  8
0
100
AcDbLine
 62
7
  6
CONTINUOUS
 10
59.0192379886
 20
554.7099543663
 11
59.0192379886
 21
553.4599591347
  0
LINE
  5
28A
100
AcDbEntity
  8
0
100
AcDbLine
 62
7
  6
CONTINUOUS
 10
59.0192379886
 20
545.9599519821
 11
59.0192379886
 21
537.2099567505
  0
LINE
  5
28B
100
AcDbEntity
  8
0
100
AcDbLine
 62
7
  6
CONTINUOUS
 10
59.1749833253
 20
555.0224495979
 11
59.1749833253
 21
553.1474495979
  0
LINE
  5
28C
100
AcDbEntity
  8
0
100
AcDbLine
 62
7
  6
CONTINUOUS
 10
59.1749833253
 20
545.9599519821
 11
59.1749833253
 21
534.7099519821
  0
LINE
  5
28D
100
AcDbEntity
  8
0
100
AcDbLine
 62
7
  6
CONTINUOUS
 10
59.1749833253
 20
525.3349519821
 11
59.1749833253
 21
514.0849519821
  0
LINE
  5
28E
100
AcDbEntity
  8
0
100
AcDbLine
 62
7
  6
CONTINUOUS
 10
59.1749833253
 20
511.5849543663
 11
59.1749833253
 21
500.3349543663
  0
LINE
  5
28F
100
AcDbEntity
  8
0
100
AcDbLine
 62
7
  6
CONTINUOUS
 10
59.1749833253
 20
492.8349543663
 11
59.1749833253
 21
490.3349567505
  0
LINE
  5
290
100
AcDbEntity
  8
0
100
AcDbLine
 62
7
  6
CONTINUOUS
 10
59.1749833253
 20
462.8349543663
 11
59.1749833253
 21
455.3349543663
  0
LINE
  5
291
100
AcDbEntity
  8
0
100
AcDbLine
 62
7
  6
CONTINUOUS
 10
59.1749833253
 20
447.8349543663
 11
59.1749833253
 21
446.5849537702
  0
LINE
  5
292
100
AcDbEntity
  8
0
100
AcDbLine
 62
7
  6
CONTINUOUS
 10
59.1749833253
 20
439.0849546643
 11
59.1749833253
 21
436.8974540683
  0
LINE
  5
293
100
AcDbEntity
  8
0
100
AcDbLine
 62
7
  6
CONTINUOUS
 10
59.1749833253
 20
429.0849543663
 11
59.1749833253
 21
427.2099543663
  0
LINE
  5
294
100
AcDbEntity
  8
FASEN
100
AcDbLine
 62
7
  6
CONTINUOUS
 10
186.7661635163
 20
684.2099543663
 11
196.7661635163
 21
694.2099543663
  0
LINE
  5
295
100
AcDbEntity
  8
0
100
AcDbLine
 62
7
  6
CONTINUOUS
 10
107.7661635163
 20
589.7099543663
 11
109.7661635163
 21
591.7099543663
  0
LINE
  5
296
100
AcDbEntity
  8
0
100
AcDbLine
 62
7
  6
CONTINUOUS
 10
58.7811113991
 20
435.9599540683
 11
58.9483290028
 21
435.9599540683
  0
LINE
  5
297
100
AcDbEntity
  8
0
100
AcDbLine
 62
7
  6
CONTINUOUS
 10
58.7663480383
 20
436.2724546643
 11
59.014705275
 21
436.2724546643
  0
LINE
  5
298
100
AcDbEntity
  8
0
100
AcDbLine
 62
7
  6
CONTINUOUS
 10
58.807693429
 20
441.5849540683
 11
58.7661635163
 21
441.5849540683
  0
LINE
  5
299
100
AcDbEntity
  8
0
100
AcDbLine
 62
7
  6
CONTINUOUS
 10
58.7661658954
 20
443.4599549623
 11
59.0473945915
 21
443.4599549623
  0
LINE
  5
29A
100
AcDbEntity
  8
0
100
AcDbLine
 62
7
  6
CONTINUOUS
 10
58.8638447006
 20
443.7724537702
 11
59.0770450353
 21
443.7724537702
  0
LINE
  5
29B
100
AcDbEntity
  8
0
100
AcDbLine
 62
7
  6
CONTINUOUS
 10
58.9215212569
 20
444.3974549623
 11
59.1081922313
 21
444.3974549623
  0
LINE
  5
29C
100
AcDbEntity
  8
0
100
AcDbLine
 62
7
  6
CONTINUOUS
 10
58.967401233
 20
445.3349549623
 11
59.147554051
 21
445.3349549623
  0
LINE
  5
29D
100
AcDbEntity
  8
0
100
AcDbLine
 62
7
  6
CONTINUOUS
 10
58.9925742059
 20
446.5849537702
 11
59.1749833253
 21
446.5849537702
  0
LINE
  5
29E
100
AcDbEntity
  8
0
100
AcDbLine
 62
7
  6
CONTINUOUS
 10
58.9925742059
 20
447.8349543663
 11
59.1749833253
 21
447.8349543663
  0
LINE
  5
29F
100
AcDbEntity
  8
0
100
AcDbLine
 62
7
  6
CONTINUOUS
 10
58.967401233
 20
449.0849549623
 11
59.1475540126
 21
449.0849549623
  0
LINE
  5
2A0
100
AcDbEntity
  8
0
100
AcDbLine
 62
7
  6
CONTINUOUS
 10
58.9215212569
 20
450.0224549623
 11
59.1081921412
 21
450.0224549623
  0
LINE
  5
2A1
100
AcDbEntity
  8
0
100
AcDbLine
 62
7
  6
CONTINUOUS
 10
58.8638447006
 20
450.6474543663
 11
59.0770450353
 21
450.6474543663
  0
LINE
  5
2A2
100
AcDbEntity
  8
0
100
AcDbLine
 62
7
  6
CONTINUOUS
 10
58.7661658954
 20
450.9599549623
 11
59.0473944707
 21
450.9599549623
  0
LINE
  5
2A3
100
AcDbEntity
  8
0
100
AcDbLine
 62
7
  6
CONTINUOUS
 10
58.807693429
 20
452.8349549623
 11
58.7661635163
 21
452.8349549623
  0
LINE
  5
2A4
100
AcDbEntity
  8
0
100
AcDbLine
 62
7
  6
CONTINUOUS
 10
59.1749833253
 20
455.3349543663
 11
58.7661635163
 21
455.3349543663
  0
LINE
  5
2A5
100
AcDbEntity
  8
FASEN
100
AcDbLine
 62
7
  6
CONTINUOUS
 10
186.7661635163
 20
346.7099543663
 11
196.7661635163
 21
336.7099543663
  0
LINE
  5
2A6
100
AcDbEntity
  8
KONSTRUKTIONSELEMENTE
100
AcDbLine
 62
7
  6
CONTINUOUS
 10
173.2036635163
 20
271.9439970704
 11
172.9119967106
 21
272.5397416802
  0
LINE
  5
2A7
100
AcDbEntity
  8
KONSTRUKTIONSELEMENTE
100
AcDbLine
 62
7
  6
CONTINUOUS
 10
71.9024901677
 20
291.7099543663
 11
71.9024901677
 21
237.0949091203
  0
LINE
  5
2A8
100
AcDbEntity
  8
KONSTRUKTIONSELEMENTE
100
AcDbLine
 62
7
  6
CONTINUOUS
 10
71.9024901677
 20
739.7099543663
 11
71.9024901677
 21
794.3249996122
  0
LINE
  5
2A9
100
AcDbEntity
  8
0
100
AcDbLine
 62
7
  6
CONTINUOUS
 10
103.7661635163
 20
572.7099543663
 11
107.7661635163
 21
576.7099543663
  0
LINE
  5
2AA
100
AcDbEntity
  8
0
100
AcDbLine
 62
7
  6
CONTINUOUS
 10
58.7661772863
 20
457.2099543663
 11
59.1749833253
 21
457.2099543663
  0
LINE
  5
2AB
100
AcDbEntity
  8
0
100
AcDbLine
 62
7
  6
CONTINUOUS
 10
58.9925742059
 20
462.8349543663
 11
59.1749833253
 21
462.8349543663
  0
LINE
  5
2AC
100
AcDbEntity
  8
0
100
AcDbLine
 62
7
  6
CONTINUOUS
 10
58.967401233
 20
464.0849531742
 11
59.1475540818
 21
464.0849531742
  0
LINE
  5
2AD
100
AcDbEntity
  8
0
100
AcDbLine
 62
7
  6
CONTINUOUS
 10
58.9215212569
 20
465.0224531742
 11
59.1081922764
 21
465.0224531742
  0
LINE
  5
2AE
100
AcDbEntity
  8
0
100
AcDbLine
 62
7
  6
CONTINUOUS
 10
58.8638447006
 20
465.6474543663
 11
59.0770450353
 21
465.6474543663
  0
LINE
  5
2AF
100
AcDbEntity
  8
0
100
AcDbLine
 62
7
  6
CONTINUOUS
 10
58.7661639938
 20
465.9599531742
 11
59.0473945915
 21
465.9599531742
  0
LINE
  5
2B0
100
AcDbEntity
  8
0
100
AcDbLine
 62
7
  6
CONTINUOUS
 10
58.807693429
 20
467.8349531742
 11
58.7661635163
 21
467.8349531742
  0
LINE
  5
2B1
100
AcDbEntity
  8
KONSTRUKTIONSELEMENTE
100
AcDbLine
 62
7
  6
CONTINUOUS
 10
168.2453299048
 20
271.497188613
 11
168.5369971278
 21
270.7525074335
  0
LINE
  5
2B2
100
AcDbEntity
  8
KONSTRUKTIONSELEMENTE
100
AcDbLine
 62
7
  6
CONTINUOUS
 10
168.0994971278
 20
274.4759118708
 11
168.3911635163
 21
273.7312308999
  0
LINE
  5
2B3
100
AcDbEntity
  8
KONSTRUKTIONSELEMENTE
100
AcDbLine
 62
7
  6
CONTINUOUS
 10
173.3494967106
 20
274.9227203282
 11
173.0578303221
 21
275.6674011948
  0
LINE
  5
2B4
100
AcDbEntity
  8
KONSTRUKTIONSELEMENTE
100
AcDbLine
 62
7
  6
CONTINUOUS
 10
160.5161635163
 20
275.8163373472
 11
162.5578307393
 21
269.7099543663
  0
LINE
  5
2B5
100
AcDbEntity
  8
KONSTRUKTIONSELEMENTE
100
AcDbLine
 62
7
  6
CONTINUOUS
 10
163.4328307393
 20
269.7099543663
 11
161.0994962933
 21
276.7099543663
  0
LINE
  5
2B6
100
AcDbEntity
  8
KONSTRUKTIONSELEMENTE
100
AcDbLine
 62
7
  6
CONTINUOUS
 10
148.9953290704
 20
271.3482520433
 11
149.1411635163
 21
270.9014435859
  0
LINE
  5
2B7
100
AcDbEntity
  8
KONSTRUKTIONSELEMENTE
100
AcDbLine
 62
7
  6
CONTINUOUS
 10
150.0161635163
 20
270.9014435859
 11
149.8703290704
 21
271.3482520433
  0
LINE
  5
2B8
100
AcDbEntity
  8
0
100
AcDbLine
 62
7
  6
CONTINUOUS
 10
92.7661635163
 20
592.2099543663
 11
92.7661635163
 21
412.2099543663
  0
LINE
  5
2B9
100
AcDbEntity
  8
0
100
AcDbLine
 62
7
  6
CONTINUOUS
 10
93.6927134415
 20
408.0060866543
 11
93.6927134415
 21
357.2099543663
  0
LINE
  5
2BA
100
AcDbEntity
  8
0
100
AcDbLine
 62
7
  6
CONTINUOUS
 10
93.6927134415
 20
336.7099543663
 11
93.6927134415
 21
319.8124453591
  0
LINE
  5
2BB
100
AcDbEntity
  8
0
100
AcDbLine
 62
7
  6
CONTINUOUS
 10
93.6927134415
 20
694.2099543663
 11
93.6927134415
 21
711.6074633735
  0
LINE
  5
2BC
100
AcDbEntity
  8
0
100
AcDbLine
 62
7
  6
CONTINUOUS
 10
94.6956554406
 20
819.7099543663
 11
94.6956554406
 21
794.3249996122
  0
LINE
  5
2BD
100
AcDbEntity
  8
0
100
AcDbLine
 62
7
  6
CONTINUOUS
 10
94.6956554406
 20
237.0949091204
 11
94.6956554406
 21
211.7099543663
  0
LINE
  5
2BE
100
AcDbEntity
  8
KONSTRUKTIONSELEMENTE
100
AcDbLine
 62
7
  6
CONTINUOUS
 10
103.7661635163
 20
572.7099543663
 11
103.7661635163
 21
402.2099543663
  0
LINE
  5
2BF
100
AcDbEntity
  8
0
100
AcDbLine
 62
7
  6
CONTINUOUS
 10
103.7661635163
 20
402.2099543663
 11
103.7661635163
 21
572.7099543663
  0
LINE
  5
2C0
100
AcDbEntity
  8
0
100
AcDbLine
 62
7
  6
CONTINUOUS
 10
107.7661635163
 20
576.7099543663
 11
107.7661635163
 21
589.7099543663
  0
LINE
  5
2C1
100
AcDbEntity
  8
0
100
AcDbLine
 62
7
  6
CONTINUOUS
 10
58.9925742059
 20
491.5849519821
 11
59.1749833253
 21
491.5849519821
  0
LINE
  5
2C2
100
AcDbEntity
  8
0
100
AcDbLine
 62
7
  6
CONTINUOUS
 10
112.0161635163
 20
221.7100640411
 11
112.0161635163
 21
291.7099543663
  0
LINE
  5
2C3
100
AcDbEntity
  8
KONSTRUKTIONSELEMENTE
100
AcDbLine
 62
7
  6
CONTINUOUS
 10
112.0161635163
 20
291.7099543663
 11
112.0161635163
 21
306.7099543663
  0
LINE
  5
2C4
100
AcDbEntity
  8
KONSTRUKTIONSELEMENTE
100
AcDbLine
 62
7
  6
CONTINUOUS
 10
112.0161635163
 20
719.7099543663
 11
112.0161635163
 21
739.7099543663
  0
LINE
  5
2C5
100
AcDbEntity
  8
0
100
AcDbLine
 62
7
  6
CONTINUOUS
 10
112.0161635163
 20
739.7099543663
 11
112.0161635163
 21
809.7099543663
  0
LINE
  5
2C6
100
AcDbEntity
  8
BG_STARTBEZUEGE
100
AcDbLine
 62
7
  6
CENTER
 10
127.7661635163
 20
208.7099543663
 11
127.7661635163
 21
822.7099543663
  0
LINE
  5
2C7
100
AcDbEntity
  8
0
100
AcDbLine
 62
7
  6
CONTINUOUS
 10
59.1749833253
 20
500.3349543663
 11
58.7661635163
 21
500.3349543663
  0
LINE
  5
2C8
100
AcDbEntity
  8
0
100
AcDbLine
 62
7
  6
CONTINUOUS
 10
58.7661635163
 20
502.2099543663
 11
59.1749833253
 21
502.2099543663
  0
LINE
  5
2C9
100
AcDbEntity
  8
0
100
AcDbLine
 62
7
  6
CONTINUOUS
 10
59.1749833253
 20
511.5849543663
 11
58.9925742059
 21
511.5849543663
  0
LINE
  5
2CA
100
AcDbEntity
  8
0
100
AcDbLine
 62
7
  6
CONTINUOUS
 10
59.1749833253
 20
514.0849519821
 11
58.7661635163
 21
514.0849519821
  0
LINE
  5
2CB
100
AcDbEntity
  8
0
100
AcDbLine
 62
7
  6
CONTINUOUS
 10
58.7678242323
 20
515.9599519821
 11
59.1749833253
 21
515.9599519821
  0
LINE
  5
2CC
100
AcDbEntity
  8
KONSTRUKTIONSELEMENTE
100
AcDbLine
 62
7
  6
CONTINUOUS
 10
174.5161635163
 20
271.3482520433
 11
174.6619967106
 21
270.7525074335
  0
LINE
  5
2CD
100
AcDbEntity
  8
0
100
AcDbLine
 62
7
  6
CONTINUOUS
 10
143.5161635163
 20
221.7100640411
 11
143.5161635163
 21
291.7099543663
  0
LINE
  5
2CE
100
AcDbEntity
  8
KONSTRUKTIONSELEMENTE
100
AcDbLine
 62
7
  6
CONTINUOUS
 10
143.5161635163
 20
291.7099543663
 11
143.5161635163
 21
306.7099543663
  0
LINE
  5
2CF
100
AcDbEntity
  8
KONSTRUKTIONSELEMENTE
100
AcDbLine
 62
7
  6
CONTINUOUS
 10
143.5161635163
 20
719.7099543663
 11
143.5161635163
 21
739.7099543663
  0
LINE
  5
2D0
100
AcDbEntity
  8
0
100
AcDbLine
 62
7
  6
CONTINUOUS
 10
143.5161635163
 20
739.7099543663
 11
143.5161635163
 21
809.7099543663
  0
LINE
  5
2D1
100
AcDbEntity
  8
0
100
AcDbLine
 62
7
  6
CONTINUOUS
 10
147.7661635163
 20
576.7099543663
 11
147.7661635163
 21
589.7099543663
  0
LINE
  5
2D2
100
AcDbEntity
  8
KONSTRUKTIONSELEMENTE
100
AcDbLine
 62
7
  6
CONTINUOUS
 10
148.9953290704
 20
271.9439970704
 11
148.9953290704
 21
271.3482520433
  0
LINE
  5
2D3
100
AcDbEntity
  8
KONSTRUKTIONSELEMENTE
100
AcDbLine
 62
7
  6
CONTINUOUS
 10
149.8703290704
 20
271.3482520433
 11
149.8703290704
 21
271.7950609179
  0
LINE
  5
2D4
100
AcDbEntity
  8
0
100
AcDbLine
 62
7
  6
CONTINUOUS
 10
58.7678242323
 20
524.0849567505
 11
58.7661635163
 21
524.0849567505
  0
LINE
  5
2D5
100
AcDbEntity
  8
0
100
AcDbLine
 62
7
  6
CONTINUOUS
 10
59.1749833253
 20
525.3349519821
 11
58.9925742059
 21
525.3349519821
  0
LINE
  5
2D6
100
AcDbEntity
  8
0
100
AcDbLine
 62
7
  6
CONTINUOUS
 10
58.7973547595
 20
527.8349567505
 11
58.7678242323
 21
527.8349567505
  0
LINE
  5
2D7
100
AcDbEntity
  8
0
100
AcDbLine
 62
7
  6
CONTINUOUS
 10
58.7973547595
 20
532.2099543663
 11
58.7678242323
 21
532.2099543663
  0
LINE
  5
2D8
100
AcDbEntity
  8
0
100
AcDbLine
 62
7
  6
CONTINUOUS
 10
59.1749833253
 20
534.7099519821
 11
59.0192379886
 21
534.7099519821
  0
LINE
  5
2D9
100
AcDbEntity
  8
0
100
AcDbLine
 62
7
  6
CONTINUOUS
 10
59.0192379886
 20
537.2099567505
 11
59.1749833253
 21
537.2099567505
  0
LINE
  5
2DA
100
AcDbEntity
  8
KONSTRUKTIONSELEMENTE
100
AcDbLine
 62
7
  6
CONTINUOUS
 10
151.7661635163
 20
572.7099543663
 11
151.7661635163
 21
402.2099543663
  0
LINE
  5
2DB
100
AcDbEntity
  8
0
100
AcDbLine
 62
7
  6
CONTINUOUS
 10
151.7661635163
 20
402.2099543663
 11
151.7661635163
 21
572.7099543663
  0
LINE
  5
2DC
100
AcDbEntity
  8
KONSTRUKTIONSELEMENTE
100
AcDbLine
 62
7
  6
CONTINUOUS
 10
153.5161635163
 20
276.7099543663
 11
153.5161635163
 21
273.5822947474
  0
LINE
  5
2DD
100
AcDbEntity
  8
KONSTRUKTIONSELEMENTE
100
AcDbLine
 62
7
  6
CONTINUOUS
 10
153.5161635163
 20
272.6886778327
 11
153.5161635163
 21
270.4546351286
  0
LINE
  5
2DE
100
AcDbEntity
  8
KONSTRUKTIONSELEMENTE
100
AcDbLine
 62
7
  6
CONTINUOUS
 10
154.3911635163
 20
269.7099543663
 11
154.3911635163
 21
276.7099543663
  0
LINE
  5
2DF
100
AcDbEntity
  8
KONSTRUKTIONSELEMENTE
100
AcDbLine
 62
7
  6
CONTINUOUS
 10
155.5578307393
 20
276.7099543663
 11
155.5578307393
 21
269.7099543663
  0
LINE
  5
2E0
100
AcDbEntity
  8
KONSTRUKTIONSELEMENTE
100
AcDbLine
 62
7
  6
CONTINUOUS
 10
156.4328307393
 20
269.7099543663
 11
156.4328307393
 21
276.7099543663
  0
LINE
  5
2E1
100
AcDbEntity
  8
0
100
AcDbLine
 62
7
  6
CONTINUOUS
 10
160.836671592
 20
819.7099543663
 11
160.836671592
 21
794.3249996122
  0
LINE
  5
2E2
100
AcDbEntity
  8
0
100
AcDbLine
 62
7
  6
CONTINUOUS
 10
160.836671592
 20
237.0949091204
 11
160.836671592
 21
211.7099543663
  0
LINE
  5
2E3
100
AcDbEntity
  8
0
100
AcDbLine
 62
7
  6
CONTINUOUS
 10
161.8396135911
 20
408.0060866543
 11
161.8396135911
 21
357.2099543663
  0
LINE
  5
2E4
100
AcDbEntity
  8
0
100
AcDbLine
 62
7
  6
CONTINUOUS
 10
161.8396135911
 20
336.7099543663
 11
161.8396135911
 21
319.8124453591
  0
LINE
  5
2E5
100
AcDbEntity
  8
0
100
AcDbLine
 62
7
  6
CONTINUOUS
 10
161.8396135911
 20
694.2099543663
 11
161.8396135911
 21
711.6074633735
  0
LINE
  5
2E6
100
AcDbEntity
  8
0
100
AcDbLine
 62
7
  6
CONTINUOUS
 10
162.7661635163
 20
592.2099543663
 11
162.7661635163
 21
412.2099543663
  0
LINE
  5
2E7
100
AcDbEntity
  8
KONSTRUKTIONSELEMENTE
100
AcDbLine
 62
7
  6
CONTINUOUS
 10
168.0994971278
 20
274.9227203282
 11
168.0994971278
 21
274.4759118708
  0
LINE
  5
2E8
100
AcDbEntity
  8
KONSTRUKTIONSELEMENTE
100
AcDbLine
 62
7
  6
CONTINUOUS
 10
168.2453299048
 20
271.9439970704
 11
168.2453299048
 21
271.497188613
  0
LINE
  5
2E9
100
AcDbEntity
  8
KONSTRUKTIONSELEMENTE
100
AcDbLine
 62
7
  6
CONTINUOUS
 10
168.8286635163
 20
274.4759118708
 11
168.8286635163
 21
274.9227203282
  0
LINE
  5
2EA
100
AcDbEntity
  8
KONSTRUKTIONSELEMENTE
100
AcDbLine
 62
7
  6
CONTINUOUS
 10
168.9744971278
 20
271.497188613
 11
168.9744971278
 21
271.7950609179
  0
LINE
  5
2EB
100
AcDbEntity
  8
0
100
AcDbLine
 62
7
  6
CONTINUOUS
 10
59.1749833253
 20
545.9599519821
 11
59.0192379886
 21
545.9599519821
  0
LINE
  5
2EC
100
AcDbEntity
  8
0
100
AcDbLine
 62
7
  6
CONTINUOUS
 10
58.8638447006
 20
548.4599495979
 11
58.8195109494
 21
548.4599495979
  0
LINE
  5
2ED
100
AcDbEntity
  8
0
100
AcDbLine
 62
7
  6
CONTINUOUS
 10
58.7752056757
 20
549.0849543663
 11
58.967401233
 21
549.0849543663
  0
LINE
  5
2EE
100
AcDbEntity
  8
0
100
AcDbLine
 62
7
  6
CONTINUOUS
 10
58.8195109494
 20
550.0224543663
 11
59.0473943264
 21
550.0224543663
  0
LINE
  5
2EF
100
AcDbEntity
  8
0
100
AcDbLine
 62
7
  6
CONTINUOUS
 10
58.7663480383
 20
550.3349495979
 11
58.8042473788
 21
550.3349495979
  0
LINE
  5
2F0
100
AcDbEntity
  8
0
100
AcDbLine
 62
7
  6
CONTINUOUS
 10
58.7663480383
 20
550.9599543663
 11
58.7811113991
 21
550.9599543663
  0
LINE
  5
2F1
100
AcDbEntity
  8
0
100
AcDbLine
 62
7
  6
CONTINUOUS
 10
58.943717434
 20
550.9599543663
 11
59.1019436242
 21
550.9599543663
  0
LINE
  5
2F2
100
AcDbEntity
  8
0
100
AcDbLine
 62
7
  6
CONTINUOUS
 10
58.9925742059
 20
552.2099495979
 11
59.1543267612
 21
552.2099495979
  0
LINE
  5
2F3
100
AcDbEntity
  8
0
100
AcDbLine
 62
7
  6
CONTINUOUS
 10
59.0192379886
 20
553.4599591347
 11
59.1749833253
 21
553.4599591347
  0
LINE
  5
2F4
100
AcDbEntity
  8
0
100
AcDbLine
 62
7
  6
CONTINUOUS
 10
59.0192379886
 20
554.7099543663
 11
59.1749833253
 21
554.7099543663
  0
LINE
  5
2F5
100
AcDbEntity
  8
0
100
AcDbLine
 62
7
  6
CONTINUOUS
 10
58.9925742059
 20
555.9599495979
 11
59.1543269477
 21
555.9599495979
  0
LINE
  5
2F6
100
AcDbEntity
  8
0
100
AcDbLine
 62
7
  6
CONTINUOUS
 10
58.7663480383
 20
557.2099591347
 11
58.7811113991
 21
557.2099591347
  0
LINE
  5
2F7
100
AcDbEntity
  8
0
100
AcDbLine
 62
7
  6
CONTINUOUS
 10
58.943717434
 20
557.2099591347
 11
59.1019436242
 21
557.2099591347
  0
LINE
  5
2F8
100
AcDbEntity
  8
0
100
AcDbLine
 62
7
  6
CONTINUOUS
 10
58.7663480383
 20
557.8349495979
 11
58.8042467478
 21
557.8349495979
  0
LINE
  5
2F9
100
AcDbEntity
  8
0
100
AcDbLine
 62
7
  6
CONTINUOUS
 10
58.8195109494
 20
558.1474591347
 11
59.0473943264
 21
558.1474591347
  0
LINE
  5
2FA
100
AcDbEntity
  8
0
100
AcDbLine
 62
7
  6
CONTINUOUS
 10
58.7752056757
 20
559.0849591347
 11
58.967401233
 21
559.0849591347
  0
LINE
  5
2FB
100
AcDbEntity
  8
0
100
AcDbLine
 62
7
  6
CONTINUOUS
 10
58.8638447006
 20
559.7099495979
 11
58.8195109494
 21
559.7099495979
  0
LINE
  5
2FC
100
AcDbEntity
  8
KONSTRUKTIONSELEMENTE
100
AcDbLine
 62
7
  6
CONTINUOUS
 10
172.4744971278
 20
271.7950609179
 11
172.4744971278
 21
271.497188613
  0
LINE
  5
2FD
100
AcDbEntity
  8
KONSTRUKTIONSELEMENTE
100
AcDbLine
 62
7
  6
CONTINUOUS
 10
172.6203299048
 20
274.9227203282
 11
172.6203299048
 21
274.4759118708
  0
LINE
  5
2FE
100
AcDbEntity
  8
KONSTRUKTIONSELEMENTE
100
AcDbLine
 62
7
  6
CONTINUOUS
 10
173.2036635163
 20
271.497188613
 11
173.2036635163
 21
271.9439970704
  0
LINE
  5
2FF
100
AcDbEntity
  8
KONSTRUKTIONSELEMENTE
100
AcDbLine
 62
7
  6
CONTINUOUS
 10
173.3494967106
 20
274.4759118708
 11
173.3494967106
 21
274.9227203282
  0
LINE
  5
300
100
AcDbEntity
  8
KONSTRUKTIONSELEMENTE
100
AcDbLine
 62
7
  6
CONTINUOUS
 10
174.5161635163
 20
276.7099543663
 11
174.5161635163
 21
275.9652734997
  0
LINE
  5
301
100
AcDbEntity
  8
KONSTRUKTIONSELEMENTE
100
AcDbLine
 62
7
  6
CONTINUOUS
 10
174.5161635163
 20
271.6461247655
 11
174.5161635163
 21
271.3482520433
  0
LINE
  5
302
100
AcDbEntity
  8
KONSTRUKTIONSELEMENTE
100
AcDbLine
 62
7
  6
CONTINUOUS
 10
175.3911635163
 20
271.3482520433
 11
175.3911635163
 21
271.6461247655
  0
LINE
  5
303
100
AcDbEntity
  8
KONSTRUKTIONSELEMENTE
100
AcDbLine
 62
7
  6
CONTINUOUS
 10
179.7661635163
 20
275.9652734997
 11
179.7661635163
 21
276.7099543663
  0
LINE
  5
304
100
AcDbEntity
  8
KONSTRUKTIONSELEMENTE
100
AcDbLine
 62
7
  6
CONTINUOUS
 10
183.6298368649
 20
291.7099543663
 11
183.6298368649
 21
237.0949091204
  0
LINE
  5
305
100
AcDbEntity
  8
KONSTRUKTIONSELEMENTE
100
AcDbLine
 62
7
  6
CONTINUOUS
 10
183.6298368649
 20
739.7099543663
 11
183.6298368649
 21
794.3249996122
  0
LINE
  5
306
100
AcDbEntity
  8
0
100
AcDbLine
 62
7
  6
CONTINUOUS
 10
151.7661635163
 20
572.7099543663
 11
103.7661635163
 21
572.7099543663
  0
LINE
  5
307
100
AcDbEntity
  8
0
100
AcDbLine
 62
7
  6
CONTINUOUS
 10
107.7661635163
 20
576.7099543663
 11
147.7661635163
 21
576.7099543663
  0
LINE
  5
308
100
AcDbEntity
  8
0
100
AcDbLine
 62
7
  6
CONTINUOUS
 10
151.7661635163
 20
572.7099543663
 11
147.7661635163
 21
576.7099543663
  0
LINE
  5
309
100
AcDbEntity
  8
BEZUGSACHSEN
100
AcDbLine
 62
7
  6
CONTINUOUS
 10
196.7661635163
 20
674.2099543663
 11
196.7661635163
 21
357.2099543663
  0
LINE
  5
30A
100
AcDbEntity
  8
KONSTRUKTIONSELEMENTE
100
AcDbLine
 62
7
  6
CONTINUOUS
 10
196.7661635163
 20
336.7099543663
 11
196.7661635163
 21
273.1099543663
  0
LINE
  5
30B
100
AcDbEntity
  8
KONSTRUKTIONSELEMENTE
100
AcDbLine
 62
7
  6
CONTINUOUS
 10
196.7661635163
 20
243.1099543663
 11
196.7661635163
 21
236.7099543663
  0
LINE
  5
30C
100
AcDbEntity
  8
FASEN
100
AcDbLine
 62
7
  6
CONTINUOUS
 10
196.7661635163
 20
357.2099543663
 11
196.7661635163
 21
674.2099543663
  0
LINE
  5
30D
100
AcDbEntity
  8
KONSTRUKTIONSELEMENTE
100
AcDbLine
 62
7
  6
CONTINUOUS
 10
196.7661635163
 20
694.2099543663
 11
196.7661635163
 21
758.3099543663
  0
LINE
  5
30E
100
AcDbEntity
  8
KONSTRUKTIONSELEMENTE
100
AcDbLine
 62
7
  6
CONTINUOUS
 10
196.7661635163
 20
788.3099543663
 11
196.7661635163
 21
794.7099543663
  0
LINE
  5
30F
100
AcDbEntity
  8
FASEN
100
AcDbLine
 62
7
  6
CONTINUOUS
 10
68.7661635163
 20
346.7099543663
 11
58.7661635163
 21
336.7099543663
  0
LINE
  5
310
100
AcDbEntity
  8
0
100
AcDbLine
 62
7
  6
CONTINUOUS
 10
107.7661635163
 20
589.7099543663
 11
147.7661635163
 21
589.7099543663
  0
LINE
  5
311
100
AcDbEntity
  8
0
100
AcDbLine
 62
7
  6
CONTINUOUS
 10
109.7661635163
 20
591.7099543663
 11
145.7661635163
 21
591.7099543663
  0
LINE
  5
312
100
AcDbEntity
  8
0
100
AcDbLine
 62
7
  6
CONTINUOUS
 10
147.7661635163
 20
589.7099543663
 11
145.7661635163
 21
591.7099543663
  0
LINE
  5
313
100
AcDbEntity
  8
FASEN
100
AcDbLine
 62
7
  6
CONTINUOUS
 10
68.7661635163
 20
684.2099543663
 11
58.7661635163
 21
694.2099543663
  0
LINE
  5
314
100
AcDbEntity
  8
KONSTRUKTIONSELEMENTE
100
AcDbLine
 62
7
  6
CONTINUOUS
 10
174.6619967106
 20
272.2418693753
 11
174.5161635163
 21
271.6461247655
  0
LINE
  5
315
100
AcDbEntity
  8
KONSTRUKTIONSELEMENTE
100
AcDbLine
 62
7
  6
CONTINUOUS
 10
149.1411635163
 20
272.3908055278
 11
148.9953290704
 21
271.9439970704
  0
LINE
  5
316
100
AcDbEntity
  8
KONSTRUKTIONSELEMENTE
100
AcDbLine
 62
7
  6
CONTINUOUS
 10
149.8703290704
 20
271.7950609179
 11
150.0161635163
 21
272.2418693753
  0
LINE
  5
317
100
AcDbEntity
  8
KONSTRUKTIONSELEMENTE
100
AcDbLine
 62
7
  6
CONTINUOUS
 10
159.9328307393
 20
276.7099543663
 11
157.5994962933
 21
269.7099543663
  0
LINE
  5
318
100
AcDbEntity
  8
0
100
AcDbLine
 62
7
  6
CONTINUOUS
 10
152.7661635163
 20
602.2099543663
 11
102.7661635163
 21
602.2099543663
  0
LINE
  5
319
100
AcDbEntity
  8
KONSTRUKTIONSELEMENTE
100
AcDbLine
 62
7
  6
CONTINUOUS
 10
179.474496841
 20
270.7525074335
 11
179.6203301786
 21
271.3482520433
  0
LINE
  5
31A
100
AcDbEntity
  8
KONSTRUKTIONSELEMENTE
100
AcDbLine
 62
7
  6
CONTINUOUS
 10
158.4744962933
 20
269.7099543663
 11
160.5161635163
 21
275.8163373472
  0
LINE
  5
31B
100
AcDbEntity
  8
KONSTRUKTIONSELEMENTE
100
AcDbLine
 62
7
  6
CONTINUOUS
 10
168.3911635163
 20
275.6674011948
 11
168.0994971278
 21
274.9227203282
  0
LINE
  5
31C
100
AcDbEntity
  8
KONSTRUKTIONSELEMENTE
100
AcDbLine
 62
7
  6
CONTINUOUS
 10
173.0578303221
 20
273.7312308999
 11
173.3494967106
 21
274.4759118708
  0
LINE
  5
31D
100
AcDbEntity
  8
KONSTRUKTIONSELEMENTE
100
AcDbLine
 62
7
  6
CONTINUOUS
 10
172.9119967106
 20
270.7525074335
 11
173.2036635163
 21
271.497188613
  0
LINE
  5
31E
100
AcDbEntity
  8
KONSTRUKTIONSELEMENTE
100
AcDbLine
 62
7
  6
CONTINUOUS
 10
168.5369971278
 20
272.5397416802
 11
168.2453299048
 21
271.9439970704
  0
LINE
  5
31F
100
AcDbEntity
  8
KONSTRUKTIONSELEMENTE
100
AcDbLine
 62
7
  6
CONTINUOUS
 10
166.4953299048
 20
275.2205926331
 11
164.5994962933
 21
271.497188613
  0
LINE
  5
320
100
AcDbEntity
  8
KONSTRUKTIONSELEMENTE
100
AcDbLine
 62
7
  6
CONTINUOUS
 10
165.0369962933
 20
271.1993158909
 11
166.9328299048
 21
274.9227203282
  0
LINE
  5
321
100
AcDbEntity
  8
0
100
AcDbLine
 62
7
  6
CONTINUOUS
 10
112.0161635163
 20
260.4953725466
 11
95.0518372764
 21
237.571392837
  0
LINE
  5
322
100
AcDbEntity
  8
0
100
AcDbLine
 62
7
  6
CONTINUOUS
 10
112.0161635163
 20
771.2170322418
 11
94.8269937883
 21
794.1504072721
  0
LINE
  5
323
100
AcDbEntity
  8
KONSTRUKTIONSELEMENTE
100
AcDbLine
 62
7
  6
CONTINUOUS
 10
175.3911635163
 20
271.6461247655
 11
175.6828303221
 21
272.2418693753
  0
LINE
  5
324
100
AcDbEntity
  8
KONSTRUKTIONSELEMENTE
100
AcDbLine
 62
7
  6
CONTINUOUS
 10
168.9744971278
 20
271.7950609179
 11
169.2661635163
 21
272.2418693753
  0
LINE
  5
325
100
AcDbEntity
  8
KONSTRUKTIONSELEMENTE
100
AcDbLine
 62
7
  6
CONTINUOUS
 10
149.5786635163
 20
272.9865501376
 11
149.1411635163
 21
272.3908055278
  0
LINE
  5
326
100
AcDbEntity
  8
FASEN
100
AcDbLine
 62
7
  6
CONTINUOUS
 10
186.7661635163
 20
347.2099543663
 11
196.7661635163
 21
357.2099543663
  0
LINE
  5
327
100
AcDbEntity
  8
BEZUGSACHSEN
100
AcDbLine
 62
7
  6
CONTINUOUS
 10
196.7661635163
 20
674.2099543663
 11
58.7661635163
 21
674.2099543663
  0
LINE
  5
328
100
AcDbEntity
  8
BEZUGSACHSEN
100
AcDbLine
 62
7
  6
CONTINUOUS
 10
186.7661635163
 20
684.2099543663
 11
68.7661635163
 21
684.2099543663
  0
LINE
  5
329
100
AcDbEntity
  8
FASEN
100
AcDbLine
 62
7
  6
CONTINUOUS
 10
68.7661635163
 20
684.2099543663
 11
186.7661635163
 21
684.2099543663
  0
LINE
  5
32A
100
AcDbEntity
  8
BEZUGSACHSEN
100
AcDbLine
 62
7
  6
CONTINUOUS
 10
186.7661635163
 20
684.2099543663
 11
196.7661635163
 21
674.2099543663
  0
LINE
  5
32B
100
AcDbEntity
  8
KONSTRUKTIONSELEMENTE
100
AcDbLine
 62
7
  6
CONTINUOUS
 10
172.4744971278
 20
271.497188613
 11
172.1828299048
 21
271.0503797384
  0
LINE
  5
32C
100
AcDbEntity
  8
KONSTRUKTIONSELEMENTE
100
AcDbLine
 62
7
  6
CONTINUOUS
 10
174.9536635163
 20
272.6886778327
 11
174.6619967106
 21
272.2418693753
  0
LINE
  5
32D
100
AcDbEntity
  8
KONSTRUKTIONSELEMENTE
100
AcDbLine
 62
7
  6
CONTINUOUS
 10
178.8911635163
 20
271.3482520433
 11
178.5994968149
 21
270.9014435859
  0
LINE
  5
32E
100
AcDbEntity
  8
KONSTRUKTIONSELEMENTE
100
AcDbLine
 62
7
  6
CONTINUOUS
 10
168.8286635163
 20
274.9227203282
 11
169.2661635163
 21
275.5184650423
  0
LINE
  5
32F
100
AcDbEntity
  8
KONSTRUKTIONSELEMENTE
100
AcDbLine
 62
7
  6
CONTINUOUS
 10
172.6203299048
 20
274.4759118708
 11
172.1828299048
 21
273.8801670523
  0
LINE
  5
330
100
AcDbEntity
  8
KONSTRUKTIONSELEMENTE
100
AcDbLine
 62
7
  6
CONTINUOUS
 10
150.0161635163
 20
272.2418693753
 11
150.3078290704
 21
272.5397416802
  0
LINE
  5
331
100
AcDbEntity
  8
0
100
AcDbLine
 62
7
  6
CONTINUOUS
 10
58.7661635163
 20
694.2099543663
 11
93.6927134415
 21
694.2099543663
  0
LINE
  5
332
100
AcDbEntity
  8
0
100
AcDbLine
 62
7
  6
CONTINUOUS
 10
161.8396135911
 20
694.2099543663
 11
196.7661635163
 21
694.2099543663
  0
LINE
  5
333
100
AcDbEntity
  8
KONSTRUKTIONSELEMENTE
100
AcDbLine
 62
7
  6
CONTINUOUS
 10
168.8286635163
 20
276.1142097043
 11
168.3911635163
 21
275.6674011948
  0
LINE
  5
334
100
AcDbEntity
  8
KONSTRUKTIONSELEMENTE
100
AcDbLine
 62
7
  6
CONTINUOUS
 10
168.9744971278
 20
272.9865501376
 11
168.5369971278
 21
272.5397416802
  0
LINE
  5
335
100
AcDbEntity
  8
KONSTRUKTIONSELEMENTE
100
AcDbLine
 62
7
  6
CONTINUOUS
 10
172.4744971278
 20
270.3056989761
 11
172.9119967106
 21
270.7525074335
  0
LINE
  5
336
100
AcDbEntity
  8
KONSTRUKTIONSELEMENTE
100
AcDbLine
 62
7
  6
CONTINUOUS
 10
178.8911635163
 20
270.1567628237
 11
179.474496841
 21
270.7525074335
  0
LINE
  5
337
100
AcDbEntity
  8
KONSTRUKTIONSELEMENTE
100
AcDbLine
 62
7
  6
CONTINUOUS
 10
150.1619979623
 20
273.433358595
 11
149.5786635163
 21
272.9865501376
  0
LINE
  5
338
100
AcDbEntity
  8
0
100
AcDbLine
 62
7
  6
CONTINUOUS
 10
93.6927134415
 20
711.6074633735
 11
161.8396135911
 21
711.6074633735
  0
LINE
  5
339
100
AcDbEntity
  8
KONSTRUKTIONSELEMENTE
100
AcDbLine
 62
7
  6
CONTINUOUS
 10
117.0161635163
 20
714.7099543663
 11
138.5161635163
 21
714.7099543663
  0
LINE
  5
33A
100
AcDbEntity
  8
KONSTRUKTIONSELEMENTE
100
AcDbLine
 62
7
  6
CONTINUOUS
 10
175.6828303221
 20
272.2418693753
 11
179.7661635163
 21
275.9652734997
  0
LINE
  5
33B
100
AcDbEntity
  8
KONSTRUKTIONSELEMENTE
100
AcDbLine
 62
7
  6
CONTINUOUS
 10
178.5994968149
 20
275.9652734997
 11
174.9536635163
 21
272.6886778327
  0
LINE
  5
33C
100
AcDbEntity
  8
KONSTRUKTIONSELEMENTE
100
AcDbLine
 62
7
  6
CONTINUOUS
 10
169.2661635163
 20
272.2418693753
 11
169.8494971278
 21
272.6886778327
  0
LINE
  5
33D
100
AcDbEntity
  8
KONSTRUKTIONSELEMENTE
100
AcDbLine
 62
7
  6
CONTINUOUS
 10
172.4744971278
 20
273.2844224425
 11
173.0578303221
 21
273.7312308999
  0
LINE
  5
33E
100
AcDbEntity
  8
KONSTRUKTIONSELEMENTE
100
AcDbLine
 62
7
  6
CONTINUOUS
 10
172.1828299048
 20
271.0503797384
 11
171.5994971278
 21
270.603571281
  0
LINE
  5
33F
100
AcDbEntity
  8
KONSTRUKTIONSELEMENTE
100
AcDbLine
 62
7
  6
CONTINUOUS
 10
178.5994968149
 20
270.9014435859
 11
178.1619968149
 21
270.603571281
  0
LINE
  5
340
100
AcDbEntity
  8
KONSTRUKTIONSELEMENTE
100
AcDbLine
 62
7
  6
CONTINUOUS
 10
169.5578299048
 20
276.5610182008
 11
168.8286635163
 21
276.1142097043
  0
LINE
  5
341
100
AcDbEntity
  8
KONSTRUKTIONSELEMENTE
100
AcDbLine
 62
7
  6
CONTINUOUS
 10
171.7453299048
 20
269.8588905187
 11
172.4744971278
 21
270.3056989761
  0
LINE
  5
342
100
AcDbEntity
  8
0
100
AcDbLine
 62
7
  6
CONTINUOUS
 10
94.6956554406
 20
211.7099543663
 11
112.0161635163
 21
221.7099543663
  0
LINE
  5
343
100
AcDbEntity
  8
KONSTRUKTIONSELEMENTE
100
AcDbLine
 62
7
  6
CONTINUOUS
 10
169.2661635163
 20
275.5184650423
 11
169.8494971278
 21
275.8163373472
  0
LINE
  5
344
100
AcDbEntity
  8
KONSTRUKTIONSELEMENTE
100
AcDbLine
 62
7
  6
CONTINUOUS
 10
169.2661635163
 20
273.1354862901
 11
168.9744971278
 21
272.9865501376
  0
LINE
  5
345
100
AcDbEntity
  8
KONSTRUKTIONSELEMENTE
100
AcDbLine
 62
7
  6
CONTINUOUS
 10
172.1828299048
 20
273.8801670523
 11
171.5994971278
 21
273.5822947474
  0
LINE
  5
346
100
AcDbEntity
  8
KONSTRUKTIONSELEMENTE
100
AcDbLine
 62
7
  6
CONTINUOUS
 10
172.1828299048
 20
273.1354862901
 11
172.4744971278
 21
273.2844224425
  0
LINE
  5
347
100
AcDbEntity
  8
KONSTRUKTIONSELEMENTE
100
AcDbLine
 62
7
  6
CONTINUOUS
 10
178.3078302178
 20
269.8588905187
 11
178.8911635163
 21
270.1567628237
  0
LINE
  5
348
100
AcDbEntity
  8
KONSTRUKTIONSELEMENTE
100
AcDbLine
 62
7
  6
CONTINUOUS
 10
150.3078290704
 20
272.5397416802
 11
150.7453290704
 21
272.6886778327
  0
LINE
  5
349
100
AcDbEntity
  8
0
100
AcDbLine
 62
7
  6
CONTINUOUS
 10
112.0161635163
 20
753.5599543663
 11
143.5161635163
 21
753.5599543663
  0
LINE
  5
34A
100
AcDbEntity
  8
0
100
AcDbLine
 62
7
  6
CONTINUOUS
 10
94.6956554406
 20
819.7099543663
 11
112.0161635163
 21
809.7099543663
  0
LINE
  5
34B
100
AcDbEntity
  8
0
100
AcDbLine
 62
7
  6
CONTINUOUS
 10
143.5161635163
 20
793.0599543663
 11
112.0161635163
 21
793.0599543663
  0
LINE
  5
34C
100
AcDbEntity
  8
0
100
AcDbLine
 62
7
  6
CONTINUOUS
 10
183.6298368649
 20
794.3249996122
 11
160.836671592
 21
794.3249996122
  0
LINE
  5
34D
100
AcDbEntity
  8
0
100
AcDbLine
 62
7
  6
CONTINUOUS
 10
94.6956554406
 20
794.3249996122
 11
71.9024901677
 21
794.3249996122
  0
LINE
  5
34E
100
AcDbEntity
  8
KONSTRUKTIONSELEMENTE
100
AcDbLine
 62
7
  6
CONTINUOUS
 10
83.7661635163
 20
819.7099543663
 11
94.6956554406
 21
819.7099543663
  0
LINE
  5
34F
100
AcDbEntity
  8
KONSTRUKTIONSELEMENTE
100
AcDbLine
 62
7
  6
CONTINUOUS
 10
160.836671592
 20
819.7099543663
 11
171.7661635163
 21
819.7099543663
  0
LINE
  5
350
100
AcDbEntity
  8
0
100
AcDbLine
 62
7
  6
CONTINUOUS
 10
415.0852667454
 20
336.7099543663
 11
295.0852667454
 21
336.7099543663
  0
LINE
  5
351
100
AcDbEntity
  8
FASEN
100
AcDbLine
 62
7
  6
CONTINUOUS
 10
414.0852667454
 20
346.7099543663
 11
296.0852667454
 21
346.7099543663
  0
LINE
  5
352
100
AcDbEntity
  8
FASEN
100
AcDbLine
 62
7
  6
CONTINUOUS
 10
296.0852667454
 20
347.2099543663
 11
414.0852667454
 21
347.2099543663
  0
LINE
  5
353
100
AcDbEntity
  8
BEZUGSACHSEN
100
AcDbLine
 62
7
  6
CONTINUOUS
 10
296.0852667454
 20
684.2099543663
 11
286.0852667454
 21
674.2099543663
  0
LINE
  5
354
100
AcDbEntity
  8
0
100
AcDbLine
 62
7
  6
CONTINUOUS
 10
295.0852667454
 20
357.2099543663
 11
415.0852667454
 21
357.2099543663
  0
LINE
  5
355
100
AcDbEntity
  8
FASEN
100
AcDbLine
 62
7
  6
CONTINUOUS
 10
296.0852667454
 20
347.2099543663
 11
295.0466747825
 21
348.2485463292
  0
LINE
  5
356
100
AcDbEntity
  8
0
100
AcDbLine
 62
7
  6
CONTINUOUS
 10
362.5852667454
 20
427.2099543663
 11
347.5852667454
 21
427.2099543663
  0
LINE
  5
357
100
AcDbEntity
  8
0
100
AcDbLine
 62
7
  6
CONTINUOUS
 10
362.5852667454
 20
429.0849543663
 11
355.8831389907
 21
429.0849543663
  0
LINE
  5
358
100
AcDbEntity
  8
0
100
AcDbLine
 62
7
  6
CONTINUOUS
 10
353.968245602
 20
429.0849543663
 11
349.181011236
 21
429.0849543663
  0
LINE
  5
359
100
AcDbEntity
  8
BEZUGSACHSEN
100
AcDbLine
 62
7
  6
CONTINUOUS
 10
286.0852667454
 20
674.2099543663
 11
286.0852667454
 21
602.2099543663
  0
LINE
  5
35A
100
AcDbEntity
  8
0
100
AcDbLine
 62
7
  6
CONTINUOUS
 10
295.0852667454
 20
319.8124453591
 11
295.0852667454
 21
345.7099561863
  0
LINE
  5
35B
100
AcDbEntity
  8
0
100
AcDbLine
 62
7
  6
CONTINUOUS
 10
295.0852667454
 20
348.2099525463
 11
295.0852667454
 21
408.0060866543
  0
LINE
  5
35C
100
AcDbEntity
  8
0
100
AcDbLine
 62
7
  6
CONTINUOUS
 10
295.0852667454
 20
685.2099496119
 11
295.0852667454
 21
711.6074633735
  0
LINE
  5
35D
100
AcDbEntity
  8
FASEN
100
AcDbLine
 62
7
  6
CONTINUOUS
 10
414.0852667454
 20
684.2099543663
 11
415.13666096
 21
685.2613485809
  0
LINE
  5
35E
100
AcDbEntity
  8
0
100
AcDbLine
 62
7
  6
CONTINUOUS
 10
358.7554795209
 20
443.7724537702
 11
357.4788839284
 21
443.4599549623
  0
LINE
  5
35F
100
AcDbEntity
  8
0
100
AcDbLine
 62
7
  6
CONTINUOUS
 10
359.074628419
 20
441.8974546643
 11
357.4788839284
 21
441.5849540683
  0
LINE
  5
360
100
AcDbEntity
  8
0
100
AcDbLine
 62
7
  6
CONTINUOUS
 10
352.0533522132
 20
436.8974540683
 11
351.0959046248
 21
436.8974540683
  0
LINE
  5
361
100
AcDbEntity
  8
0
100
AcDbLine
 62
7
  6
CONTINUOUS
 10
352.3725011113
 20
438.7724540683
 11
351.0959046248
 21
438.7724540683
  0
LINE
  5
362
100
AcDbEntity
  8
0
100
AcDbLine
 62
7
  6
CONTINUOUS
 10
357.4788839284
 20
441.5849540683
 11
347.5852667454
 21
441.5849540683
  0
LINE
  5
363
100
AcDbEntity
  8
0
100
AcDbLine
 62
7
  6
CONTINUOUS
 10
357.4788839284
 20
443.4599549623
 11
347.5852667454
 21
443.4599549623
  0
LINE
  5
364
100
AcDbEntity
  8
0
100
AcDbLine
 62
7
  6
CONTINUOUS
 10
347.5852667454
 20
450.9599549623
 11
357.4788839284
 21
450.9599549623
  0
LINE
  5
365
100
AcDbEntity
  8
0
100
AcDbLine
 62
7
  6
CONTINUOUS
 10
357.4788839284
 20
452.8349549623
 11
347.5852667454
 21
452.8349549623
  0
LINE
  5
366
100
AcDbEntity
  8
0
100
AcDbLine
 62
7
  6
CONTINUOUS
 10
362.5852667454
 20
455.3349543663
 11
347.5852667454
 21
455.3349543663
  0
LINE
  5
367
100
AcDbEntity
  8
0
100
AcDbLine
 62
7
  6
CONTINUOUS
 10
359.074628419
 20
452.5224543663
 11
357.4788839284
 21
452.8349549623
  0
LINE
  5
368
100
AcDbEntity
  8
0
100
AcDbLine
 62
7
  6
CONTINUOUS
 10
358.7554795209
 20
450.6474543663
 11
357.4788839284
 21
450.9599549623
  0
LINE
  5
369
100
AcDbEntity
  8
0
100
AcDbLine
 62
7
  6
CONTINUOUS
 10
353.0107989076
 20
436.5849543663
 11
352.0533522132
 21
436.8974540683
  0
LINE
  5
36A
100
AcDbEntity
  8
0
100
AcDbLine
 62
7
  6
CONTINUOUS
 10
353.3299478057
 20
438.4599543663
 11
352.3725011113
 21
438.7724540683
  0
LINE
  5
36B
100
AcDbEntity
  8
0
100
AcDbLine
 62
7
  6
CONTINUOUS
 10
354.6065433982
 20
437.5224543663
 11
353.3299478057
 21
438.4599543663
  0
LINE
  5
36C
100
AcDbEntity
  8
FASEN
100
AcDbLine
 62
7
  6
CONTINUOUS
 10
414.0852667454
 20
346.7099543663
 11
415.1238587083
 21
345.6713624034
  0
LINE
  5
36D
100
AcDbEntity
  8
0
100
AcDbLine
 62
7
  6
CONTINUOUS
 10
295.6209917561
 20
592.2099543663
 11
295.6209917561
 21
412.2099543663
  0
LINE
  5
36E
100
AcDbEntity
  8
KONSTRUKTIONSELEMENTE
100
AcDbLine
 62
7
  6
CONTINUOUS
 10
314.5852667454
 20
291.7099543663
 11
314.5852667454
 21
237.0949091203
  0
LINE
  5
36F
100
AcDbEntity
  8
KONSTRUKTIONSELEMENTE
100
AcDbLine
 62
7
  6
CONTINUOUS
 10
314.5852667454
 20
739.7099543663
 11
314.5852667454
 21
794.3249996122
  0
LINE
  5
370
100
AcDbEntity
  8
0
100
AcDbLine
 62
7
  6
CONTINUOUS
 10
351.415054417
 20
559.3974543663
 11
349.8193090323
 21
558.7724495979
  0
LINE
  5
371
100
AcDbEntity
  8
0
100
AcDbLine
 62
7
  6
CONTINUOUS
 10
357.7980328265
 20
559.7099495979
 11
356.2022878888
 21
559.0849591347
  0
LINE
  5
372
100
AcDbEntity
  8
0
100
AcDbLine
 62
7
  6
CONTINUOUS
 10
352.6916500095
 20
465.9599531742
 11
351.415054417
 21
465.6474543663
  0
LINE
  5
373
100
AcDbEntity
  8
0
100
AcDbLine
 62
7
  6
CONTINUOUS
 10
352.6916500095
 20
467.8349531742
 11
351.0959046248
 21
467.5224543663
  0
LINE
  5
374
100
AcDbEntity
  8
0
100
AcDbLine
 62
7
  6
CONTINUOUS
 10
360.6703731331
 20
457.2099543663
 11
349.5001601341
 21
457.2099543663
  0
LINE
  5
375
100
AcDbEntity
  8
0
100
AcDbLine
 62
7
  6
CONTINUOUS
 10
352.6916500095
 20
465.9599531742
 11
357.4788839284
 21
465.9599531742
  0
LINE
  5
376
100
AcDbEntity
  8
0
100
AcDbLine
 62
7
  6
CONTINUOUS
 10
357.4788839284
 20
467.8349531742
 11
352.6916500095
 21
467.8349531742
  0
LINE
  5
377
100
AcDbEntity
  8
0
100
AcDbLine
 62
7
  6
CONTINUOUS
 10
359.074628419
 20
467.5224543663
 11
357.4788839284
 21
467.8349531742
  0
LINE
  5
378
100
AcDbEntity
  8
0
100
AcDbLine
 62
7
  6
CONTINUOUS
 10
358.7554795209
 20
465.6474543663
 11
357.4788839284
 21
465.9599531742
  0
LINE
  5
379
100
AcDbEntity
  8
0
100
AcDbLine
 62
7
  6
CONTINUOUS
 10
360.351224235
 20
451.8974549623
 11
359.074628419
 21
452.5224543663
  0
LINE
  5
37A
100
AcDbEntity
  8
0
100
AcDbLine
 62
7
  6
CONTINUOUS
 10
360.351224235
 20
466.8974531742
 11
359.074628419
 21
467.5224543663
  0
LINE
  5
37B
100
AcDbEntity
  8
0
100
AcDbLine
 62
7
  6
CONTINUOUS
 10
359.7129262152
 20
450.0224549623
 11
358.7554795209
 21
450.6474543663
  0
LINE
  5
37C
100
AcDbEntity
  8
0
100
AcDbLine
 62
7
  6
CONTINUOUS
 10
359.7129262152
 20
465.0224531742
 11
358.7554795209
 21
465.6474543663
  0
LINE
  5
37D
100
AcDbEntity
  8
0
100
AcDbLine
 62
7
  6
CONTINUOUS
 10
353.6490967038
 20
435.9599540683
 11
353.0107989076
 21
436.5849543663
  0
LINE
  5
37E
100
AcDbEntity
  8
0
100
AcDbLine
 62
7
  6
CONTINUOUS
 10
361.6278199393
 20
450.6474543663
 11
360.351224235
 21
451.8974549623
  0
LINE
  5
37F
100
AcDbEntity
  8
0
100
AcDbLine
 62
7
  6
CONTINUOUS
 10
355.2448411945
 20
557.8349495979
 11
354.9256922963
 21
557.2099591347
  0
LINE
  5
380
100
AcDbEntity
  8
0
100
AcDbLine
 62
7
  6
CONTINUOUS
 10
348.5427134398
 20
544.3974543663
 11
347.9044156435
 21
543.1474519821
  0
LINE
  5
381
100
AcDbEntity
  8
0
100
AcDbLine
 62
7
  6
CONTINUOUS
 10
348.8618623379
 20
557.8349495979
 11
347.9044156435
 21
556.2724591347
  0
LINE
  5
382
100
AcDbEntity
  8
0
100
AcDbLine
 62
7
  6
CONTINUOUS
 10
350.1384579304
 20
543.4599543663
 11
349.5001601341
 21
542.5224543663
  0
LINE
  5
383
100
AcDbEntity
  8
0
100
AcDbLine
 62
7
  6
CONTINUOUS
 10
350.4576068285
 20
557.2099591347
 11
349.5001601341
 21
555.9599495979
  0
LINE
  5
384
100
AcDbEntity
  8
0
100
AcDbLine
 62
7
  6
CONTINUOUS
 10
356.2022878888
 20
559.0849591347
 11
355.2448411945
 21
557.8349495979
  0
LINE
  5
385
100
AcDbEntity
  8
0
100
AcDbLine
 62
7
  6
CONTINUOUS
 10
353.968245602
 20
552.2099495979
 11
353.0107989076
 21
550.9599543663
  0
LINE
  5
386
100
AcDbEntity
  8
0
100
AcDbLine
 62
7
  6
CONTINUOUS
 10
349.8193090323
 20
558.7724495979
 11
348.8618623379
 21
557.8349495979
  0
LINE
  5
387
100
AcDbEntity
  8
0
100
AcDbLine
 62
7
  6
CONTINUOUS
 10
354.6065433982
 20
550.3349495979
 11
353.6490967038
 21
549.3974495979
  0
LINE
  5
388
100
AcDbEntity
  8
0
100
AcDbLine
 62
7
  6
CONTINUOUS
 10
349.8193090323
 20
545.6474567505
 11
348.5427134398
 21
544.3974543663
  0
LINE
  5
389
100
AcDbEntity
  8
0
100
AcDbLine
 62
7
  6
CONTINUOUS
 10
361.3086710411
 20
550.0224543663
 11
360.351224235
 21
549.0849543663
  0
LINE
  5
38A
100
AcDbEntity
  8
0
100
AcDbLine
 62
7
  6
CONTINUOUS
 10
357.7980328265
 20
558.1474591347
 11
356.521436787
 21
557.2099591347
  0
LINE
  5
38B
100
AcDbEntity
  8
0
100
AcDbLine
 62
7
  6
CONTINUOUS
 10
360.0320753369
 20
550.9599543663
 11
358.7554795209
 21
550.0224543663
  0
LINE
  5
38C
100
AcDbEntity
  8
0
100
AcDbLine
 62
7
  6
CONTINUOUS
 10
351.415054417
 20
557.8349495979
 11
350.4576068285
 21
557.2099591347
  0
LINE
  5
38D
100
AcDbEntity
  8
0
100
AcDbLine
 62
7
  6
CONTINUOUS
 10
353.0107989076
 20
550.9599543663
 11
352.0533522132
 21
550.3349495979
  0
LINE
  5
38E
100
AcDbEntity
  8
0
100
AcDbLine
 62
7
  6
CONTINUOUS
 10
351.0959046248
 20
544.0849519821
 11
350.1384579304
 21
543.4599543663
  0
LINE
  5
38F
100
AcDbEntity
  8
0
100
AcDbLine
 62
7
  6
CONTINUOUS
 10
353.6490967038
 20
549.3974495979
 11
352.3725011113
 21
548.7724591347
  0
LINE
  5
390
100
AcDbEntity
  8
0
100
AcDbLine
 62
7
  6
CONTINUOUS
 10
360.351224235
 20
549.0849543663
 11
358.7554795209
 21
548.4599495979
  0
LINE
  5
391
100
AcDbEntity
  8
0
100
AcDbLine
 62
7
  6
CONTINUOUS
 10
362.5852667454
 20
492.8349543663
 11
347.5852667454
 21
497.8349567505
  0
LINE
  5
392
100
AcDbEntity
  8
0
100
AcDbLine
 62
7
  6
CONTINUOUS
 10
347.5852667454
 20
495.9599567505
 11
360.6703731331
 21
491.5849519821
  0
LINE
  5
393
100
AcDbEntity
  8
0
100
AcDbLine
 62
7
  6
CONTINUOUS
 10
361.6278199393
 20
465.6474543663
 11
360.351224235
 21
466.8974531742
  0
LINE
  5
394
100
AcDbEntity
  8
0
100
AcDbLine
 62
7
  6
CONTINUOUS
 10
360.351224235
 20
449.0849549623
 11
359.7129262152
 21
450.0224549623
  0
LINE
  5
395
100
AcDbEntity
  8
0
100
AcDbLine
 62
7
  6
CONTINUOUS
 10
360.351224235
 20
464.0849531742
 11
359.7129262152
 21
465.0224531742
  0
LINE
  5
396
100
AcDbEntity
  8
0
100
AcDbLine
 62
7
  6
CONTINUOUS
 10
355.2448411945
 20
436.2724546643
 11
354.6065433982
 21
437.5224543663
  0
LINE
  5
397
100
AcDbEntity
  8
0
100
AcDbLine
 62
7
  6
CONTINUOUS
 10
362.2661178193
 20
449.3974537702
 11
361.6278199393
 21
450.6474543663
  0
LINE
  5
398
100
AcDbEntity
  8
0
100
AcDbLine
 62
7
  6
CONTINUOUS
 10
353.968245602
 20
435.0224540683
 11
353.6490967038
 21
435.9599540683
  0
LINE
  5
399
100
AcDbEntity
  8
0
100
AcDbLine
 62
7
  6
CONTINUOUS
 10
347.5852667454
 20
554.7099543663
 11
347.5852667454
 21
553.4599591347
  0
LINE
  5
39A
100
AcDbEntity
  8
0
100
AcDbLine
 62
7
  6
CONTINUOUS
 10
347.5852667454
 20
541.2724519821
 11
347.5852667454
 21
540.0224567505
  0
LINE
  5
39B
100
AcDbEntity
  8
0
100
AcDbLine
 62
7
  6
CONTINUOUS
 10
347.5852667454
 20
525.3349519821
 11
347.5852667454
 21
514.0849519821
  0
LINE
  5
39C
100
AcDbEntity
  8
0
100
AcDbLine
 62
7
  6
CONTINUOUS
 10
347.5852667454
 20
502.2099543663
 11
347.5852667454
 21
500.3349543663
  0
LINE
  5
39D
100
AcDbEntity
  8
0
100
AcDbLine
 62
7
  6
CONTINUOUS
 10
347.5852667454
 20
497.8349567505
 11
347.5852667454
 21
495.9599567505
  0
LINE
  5
39E
100
AcDbEntity
  8
0
100
AcDbLine
 62
7
  6
CONTINUOUS
 10
347.5852667454
 20
487.2099543663
 11
347.5852667454
 21
485.3349543663
  0
LINE
  5
39F
100
AcDbEntity
  8
0
100
AcDbLine
 62
7
  6
CONTINUOUS
 10
347.5852667454
 20
462.8349543663
 11
347.5852667454
 21
455.3349543663
  0
LINE
  5
3A0
100
AcDbEntity
  8
0
100
AcDbLine
 62
7
  6
CONTINUOUS
 10
347.5852667454
 20
452.8349549623
 11
347.5852667454
 21
450.9599549623
  0
LINE
  5
3A1
100
AcDbEntity
  8
0
100
AcDbLine
 62
7
  6
CONTINUOUS
 10
347.5852667454
 20
443.4599549623
 11
347.5852667454
 21
441.5849540683
  0
LINE
  5
3A2
100
AcDbEntity
  8
0
100
AcDbLine
 62
7
  6
CONTINUOUS
 10
347.5852667454
 20
434.7099543663
 11
347.5852667454
 21
427.2099543663
  0
LINE
  5
3A3
100
AcDbEntity
  8
0
100
AcDbLine
 62
7
  6
CONTINUOUS
 10
349.181011236
 20
554.7099543663
 11
349.181011236
 21
553.4599591347
  0
LINE
  5
3A4
100
AcDbEntity
  8
0
100
AcDbLine
 62
7
  6
CONTINUOUS
 10
349.181011236
 20
540.9599567505
 11
349.181011236
 21
539.7099543663
  0
LINE
  5
3A5
100
AcDbEntity
  8
0
100
AcDbLine
 62
7
  6
CONTINUOUS
 10
349.181011236
 20
435.0224540683
 11
349.181011236
 21
429.0849543663
  0
LINE
  5
3A6
100
AcDbEntity
  8
0
100
AcDbLine
 62
7
  6
CONTINUOUS
 10
349.5001601341
 20
525.3349519821
 11
349.5001601341
 21
515.9599519821
  0
LINE
  5
3A7
100
AcDbEntity
  8
0
100
AcDbLine
 62
7
  6
CONTINUOUS
 10
349.5001601341
 20
462.8349543663
 11
349.5001601341
 21
457.2099543663
  0
LINE
  5
3A8
100
AcDbEntity
  8
0
100
AcDbLine
 62
7
  6
CONTINUOUS
 10
351.0959046248
 20
536.5849519821
 11
351.0959046248
 21
535.0224543663
  0
LINE
  5
3A9
100
AcDbEntity
  8
0
100
AcDbLine
 62
7
  6
CONTINUOUS
 10
353.6490967038
 20
524.0849567505
 11
353.6490967038
 21
515.9599519821
  0
LINE
  5
3AA
100
AcDbEntity
  8
0
100
AcDbLine
 62
7
  6
CONTINUOUS
 10
353.968245602
 20
435.0224540683
 11
353.968245602
 21
429.0849543663
  0
LINE
  5
3AB
100
AcDbEntity
  8
0
100
AcDbLine
 62
7
  6
CONTINUOUS
 10
354.2873945001
 20
554.7099543663
 11
354.2873945001
 21
553.4599591347
  0
LINE
  5
3AC
100
AcDbEntity
  8
BG_STARTBEZUEGE
100
AcDbLine
 62
7
  6
CENTER
 10
355.0852667454
 20
208.7099543663
 11
355.0852667454
 21
822.7099543663
  0
LINE
  5
3AD
100
AcDbEntity
  8
0
100
AcDbLine
 62
7
  6
CONTINUOUS
 10
355.5639900926
 20
554.7099543663
 11
355.5639900926
 21
553.4599591347
  0
LINE
  5
3AE
100
AcDbEntity
  8
0
100
AcDbLine
 62
7
  6
CONTINUOUS
 10
355.5639900926
 20
532.2099543663
 11
355.5639900926
 21
527.8349567505
  0
LINE
  5
3AF
100
AcDbEntity
  8
0
100
AcDbLine
 62
7
  6
CONTINUOUS
 10
355.5639900926
 20
524.0849567505
 11
355.5639900926
 21
515.9599519821
  0
LINE
  5
3B0
100
AcDbEntity
  8
0
100
AcDbLine
 62
7
  6
CONTINUOUS
 10
355.8831389907
 20
434.3974542173
 11
355.8831389907
 21
429.0849543663
  0
LINE
  5
3B1
100
AcDbEntity
  8
0
100
AcDbLine
 62
7
  6
CONTINUOUS
 10
357.1597350302
 20
532.2099543663
 11
357.1597350302
 21
527.8349567505
  0
LINE
  5
3B2
100
AcDbEntity
  8
0
100
AcDbLine
 62
7
  6
CONTINUOUS
 10
347.9044156435
 20
543.1474519821
 11
347.5852667454
 21
541.2724519821
  0
LINE
  5
3B3
100
AcDbEntity
  8
0
100
AcDbLine
 62
7
  6
CONTINUOUS
 10
347.9044156435
 20
556.2724591347
 11
347.5852667454
 21
554.7099543663
  0
LINE
  5
3B4
100
AcDbEntity
  8
0
100
AcDbLine
 62
7
  6
CONTINUOUS
 10
349.5001601341
 20
542.5224543663
 11
349.181011236
 21
540.9599567505
  0
LINE
  5
3B5
100
AcDbEntity
  8
0
100
AcDbLine
 62
7
  6
CONTINUOUS
 10
362.5852667454
 20
553.1474495979
 11
362.2661178193
 21
551.5849591347
  0
LINE
  5
3B6
100
AcDbEntity
  8
0
100
AcDbLine
 62
7
  6
CONTINUOUS
 10
354.2873945001
 20
553.4599591347
 11
353.968245602
 21
552.2099495979
  0
LINE
  5
3B7
100
AcDbEntity
  8
0
100
AcDbLine
 62
7
  6
CONTINUOUS
 10
360.9895220313
 20
553.4599591347
 11
360.6703731331
 21
552.2099495979
  0
LINE
  5
3B8
100
AcDbEntity
  8
0
100
AcDbLine
 62
7
  6
CONTINUOUS
 10
349.5001601341
 20
555.9599495979
 11
349.181011236
 21
554.7099543663
  0
LINE
  5
3B9
100
AcDbEntity
  8
0
100
AcDbLine
 62
7
  6
CONTINUOUS
 10
355.8831389907
 20
555.9599495979
 11
355.5639900926
 21
554.7099543663
  0
LINE
  5
3BA
100
AcDbEntity
  8
0
100
AcDbLine
 62
7
  6
CONTINUOUS
 10
356.521436787
 20
557.2099591347
 11
355.8831389907
 21
555.9599495979
  0
LINE
  5
3BB
100
AcDbEntity
  8
0
100
AcDbLine
 62
7
  6
CONTINUOUS
 10
354.9256922963
 20
550.9599543663
 11
354.6065433982
 21
550.3349495979
  0
LINE
  5
3BC
100
AcDbEntity
  8
0
100
AcDbLine
 62
7
  6
CONTINUOUS
 10
360.6703731331
 20
552.2099495979
 11
360.0320753369
 21
550.9599543663
  0
LINE
  5
3BD
100
AcDbEntity
  8
0
100
AcDbLine
 62
7
  6
CONTINUOUS
 10
362.2661178193
 20
551.5849591347
 11
361.3086710411
 21
550.0224543663
  0
LINE
  5
3BE
100
AcDbEntity
  8
0
100
AcDbLine
 62
7
  6
CONTINUOUS
 10
362.5852667454
 20
500.3349543663
 11
347.5852667454
 21
500.3349543663
  0
LINE
  5
3BF
100
AcDbEntity
  8
0
100
AcDbLine
 62
7
  6
CONTINUOUS
 10
360.6703731331
 20
502.2099543663
 11
347.5852667454
 21
502.2099543663
  0
LINE
  5
3C0
100
AcDbEntity
  8
0
100
AcDbLine
 62
7
  6
CONTINUOUS
 10
362.5852667454
 20
511.5849543663
 11
360.6703731331
 21
511.5849543663
  0
LINE
  5
3C1
100
AcDbEntity
  8
0
100
AcDbLine
 62
7
  6
CONTINUOUS
 10
362.5852667454
 20
514.0849519821
 11
347.5852667454
 21
514.0849519821
  0
LINE
  5
3C2
100
AcDbEntity
  8
0
100
AcDbLine
 62
7
  6
CONTINUOUS
 10
360.6703731331
 20
515.9599519821
 11
355.5639900926
 21
515.9599519821
  0
LINE
  5
3C3
100
AcDbEntity
  8
0
100
AcDbLine
 62
7
  6
CONTINUOUS
 10
353.6490967038
 20
515.9599519821
 11
349.5001601341
 21
515.9599519821
  0
LINE
  5
3C4
100
AcDbEntity
  8
0
100
AcDbLine
 62
7
  6
CONTINUOUS
 10
362.2661178193
 20
464.3974555584
 11
361.6278199393
 21
465.6474543663
  0
LINE
  5
3C5
100
AcDbEntity
  8
0
100
AcDbLine
 62
7
  6
CONTINUOUS
 10
360.6703731331
 20
447.8349543663
 11
360.351224235
 21
449.0849549623
  0
LINE
  5
3C6
100
AcDbEntity
  8
0
100
AcDbLine
 62
7
  6
CONTINUOUS
 10
360.6703731331
 20
462.8349543663
 11
360.351224235
 21
464.0849531742
  0
LINE
  5
3C7
100
AcDbEntity
  8
0
100
AcDbLine
 62
7
  6
CONTINUOUS
 10
362.5852667454
 20
447.8349543663
 11
362.2661178193
 21
449.3974537702
  0
LINE
  5
3C8
100
AcDbEntity
  8
0
100
AcDbLine
 62
7
  6
CONTINUOUS
 10
362.5852667454
 20
462.8349543663
 11
362.2661178193
 21
464.3974555584
  0
LINE
  5
3C9
100
AcDbEntity
  8
0
100
AcDbLine
 62
7
  6
CONTINUOUS
 10
349.5001601341
 20
538.1474567505
 11
349.181011236
 21
539.7099543663
  0
LINE
  5
3CA
100
AcDbEntity
  8
0
100
AcDbLine
 62
7
  6
CONTINUOUS
 10
347.9044156435
 20
551.8974543663
 11
347.5852667454
 21
553.4599591347
  0
LINE
  5
3CB
100
AcDbEntity
  8
0
100
AcDbLine
 62
7
  6
CONTINUOUS
 10
347.9044156435
 20
537.8349543663
 11
347.5852667454
 21
540.0224567505
  0
LINE
  5
3CC
100
AcDbEntity
  8
0
100
AcDbLine
 62
7
  6
CONTINUOUS
 10
360.6703731331
 20
525.3349519821
 11
360.6703731331
 21
515.9599519821
  0
LINE
  5
3CD
100
AcDbEntity
  8
0
100
AcDbLine
 62
7
  6
CONTINUOUS
 10
360.6703731331
 20
511.5849543663
 11
360.6703731331
 21
502.2099543663
  0
LINE
  5
3CE
100
AcDbEntity
  8
0
100
AcDbLine
 62
7
  6
CONTINUOUS
 10
360.6703731331
 20
462.8349543663
 11
360.6703731331
 21
457.2099543663
  0
LINE
  5
3CF
100
AcDbEntity
  8
0
100
AcDbLine
 62
7
  6
CONTINUOUS
 10
360.6703731331
 20
447.8349543663
 11
360.6703731331
 21
446.5849537702
  0
LINE
  5
3D0
100
AcDbEntity
  8
0
100
AcDbLine
 62
7
  6
CONTINUOUS
 10
360.9895220313
 20
554.7099543663
 11
360.9895220313
 21
553.4599591347
  0
LINE
  5
3D1
100
AcDbEntity
  8
0
100
AcDbLine
 62
7
  6
CONTINUOUS
 10
360.9895220313
 20
545.9599519821
 11
360.9895220313
 21
537.2099567505
  0
LINE
  5
3D2
100
AcDbEntity
  8
0
100
AcDbLine
 62
7
  6
CONTINUOUS
 10
362.5852667454
 20
555.0224495979
 11
362.5852667454
 21
553.1474495979
  0
LINE
  5
3D3
100
AcDbEntity
  8
0
100
AcDbLine
 62
7
  6
CONTINUOUS
 10
362.5852667454
 20
545.9599519821
 11
362.5852667454
 21
534.7099519821
  0
LINE
  5
3D4
100
AcDbEntity
  8
0
100
AcDbLine
 62
7
  6
CONTINUOUS
 10
362.5852667454
 20
525.3349519821
 11
362.5852667454
 21
514.0849519821
  0
LINE
  5
3D5
100
AcDbEntity
  8
0
100
AcDbLine
 62
7
  6
CONTINUOUS
 10
362.5852667454
 20
511.5849543663
 11
362.5852667454
 21
500.3349543663
  0
LINE
  5
3D6
100
AcDbEntity
  8
0
100
AcDbLine
 62
7
  6
CONTINUOUS
 10
362.5852667454
 20
492.8349543663
 11
362.5852667454
 21
490.3349567505
  0
LINE
  5
3D7
100
AcDbEntity
  8
0
100
AcDbLine
 62
7
  6
CONTINUOUS
 10
362.5852667454
 20
462.8349543663
 11
362.5852667454
 21
455.3349543663
  0
LINE
  5
3D8
100
AcDbEntity
  8
0
100
AcDbLine
 62
7
  6
CONTINUOUS
 10
362.5852667454
 20
447.8349543663
 11
362.5852667454
 21
446.5849537702
  0
LINE
  5
3D9
100
AcDbEntity
  8
0
100
AcDbLine
 62
7
  6
CONTINUOUS
 10
362.5852667454
 20
439.0849546643
 11
362.5852667454
 21
436.8974540683
  0
LINE
  5
3DA
100
AcDbEntity
  8
0
100
AcDbLine
 62
7
  6
CONTINUOUS
 10
362.5852667454
 20
429.0849543663
 11
362.5852667454
 21
427.2099543663
  0
LINE
  5
3DB
100
AcDbEntity
  8
0
100
AcDbLine
 62
7
  6
CONTINUOUS
 10
347.9044156435
 20
464.3974555584
 11
347.5852667454
 21
462.8349543663
  0
LINE
  5
3DC
100
AcDbEntity
  8
0
100
AcDbLine
 62
7
  6
CONTINUOUS
 10
347.9044156435
 20
436.2724546643
 11
347.5852667454
 21
434.7099543663
  0
LINE
  5
3DD
100
AcDbEntity
  8
0
100
AcDbLine
 62
7
  6
CONTINUOUS
 10
362.5852667454
 20
446.5849537702
 11
362.2661178193
 21
445.0224543663
  0
LINE
  5
3DE
100
AcDbEntity
  8
0
100
AcDbLine
 62
7
  6
CONTINUOUS
 10
349.8193090323
 20
464.0849531742
 11
349.5001601341
 21
462.8349543663
  0
LINE
  5
3DF
100
AcDbEntity
  8
0
100
AcDbLine
 62
7
  6
CONTINUOUS
 10
360.6703731331
 20
446.5849537702
 11
360.351224235
 21
445.3349549623
  0
LINE
  5
3E0
100
AcDbEntity
  8
0
100
AcDbLine
 62
7
  6
CONTINUOUS
 10
349.5001601341
 20
435.9599540683
 11
349.181011236
 21
435.0224540683
  0
LINE
  5
3E1
100
AcDbEntity
  8
0
100
AcDbLine
 62
7
  6
CONTINUOUS
 10
348.5427134398
 20
465.6474543663
 11
347.9044156435
 21
464.3974555584
  0
LINE
  5
3E2
100
AcDbEntity
  8
0
100
AcDbLine
 62
7
  6
CONTINUOUS
 10
355.5639900926
 20
524.0849567505
 11
353.6490967038
 21
524.0849567505
  0
LINE
  5
3E3
100
AcDbEntity
  8
0
100
AcDbLine
 62
7
  6
CONTINUOUS
 10
362.5852667454
 20
525.3349519821
 11
360.6703731331
 21
525.3349519821
  0
LINE
  5
3E4
100
AcDbEntity
  8
0
100
AcDbLine
 62
7
  6
CONTINUOUS
 10
349.5001601341
 20
525.3349519821
 11
347.5852667454
 21
525.3349519821
  0
LINE
  5
3E5
100
AcDbEntity
  8
0
100
AcDbLine
 62
7
  6
CONTINUOUS
 10
357.1597350302
 20
527.8349567505
 11
355.5639900926
 21
527.8349567505
  0
LINE
  5
3E6
100
AcDbEntity
  8
0
100
AcDbLine
 62
7
  6
CONTINUOUS
 10
357.1597350302
 20
532.2099543663
 11
355.5639900926
 21
532.2099543663
  0
LINE
  5
3E7
100
AcDbEntity
  8
0
100
AcDbLine
 62
7
  6
CONTINUOUS
 10
362.5852667454
 20
534.7099519821
 11
360.9895220313
 21
534.7099519821
  0
LINE
  5
3E8
100
AcDbEntity
  8
0
100
AcDbLine
 62
7
  6
CONTINUOUS
 10
351.0959046248
 20
535.0224543663
 11
349.8193090323
 21
535.3349567505
  0
LINE
  5
3E9
100
AcDbEntity
  8
0
100
AcDbLine
 62
7
  6
CONTINUOUS
 10
351.0959046248
 20
536.5849519821
 11
350.1384579304
 21
537.2099567505
  0
LINE
  5
3EA
100
AcDbEntity
  8
0
100
AcDbLine
 62
7
  6
CONTINUOUS
 10
349.8193090323
 20
535.3349567505
 11
348.5427134398
 21
536.5849519821
  0
LINE
  5
3EB
100
AcDbEntity
  8
0
100
AcDbLine
 62
7
  6
CONTINUOUS
 10
349.8193090323
 20
549.3974495979
 11
348.8618623379
 21
550.3349495979
  0
LINE
  5
3EC
100
AcDbEntity
  8
0
100
AcDbLine
 62
7
  6
CONTINUOUS
 10
360.9895220313
 20
534.7099519821
 11
353.0107989076
 21
543.4599543663
  0
LINE
  5
3ED
100
AcDbEntity
  8
0
100
AcDbLine
 62
7
  6
CONTINUOUS
 10
360.9895220313
 20
537.2099567505
 11
353.968245602
 21
545.0224519821
  0
LINE
  5
3EE
100
AcDbEntity
  8
0
100
AcDbLine
 62
7
  6
CONTINUOUS
 10
350.4576068285
 20
550.9599543663
 11
349.5001601341
 21
552.2099495979
  0
LINE
  5
3EF
100
AcDbEntity
  8
0
100
AcDbLine
 62
7
  6
CONTINUOUS
 10
356.2022878888
 20
549.0849543663
 11
355.2448411945
 21
550.3349495979
  0
LINE
  5
3F0
100
AcDbEntity
  8
0
100
AcDbLine
 62
7
  6
CONTINUOUS
 10
350.1384579304
 20
537.2099567505
 11
349.5001601341
 21
538.1474567505
  0
LINE
  5
3F1
100
AcDbEntity
  8
0
100
AcDbLine
 62
7
  6
CONTINUOUS
 10
348.8618623379
 20
550.3349495979
 11
347.9044156435
 21
551.8974543663
  0
LINE
  5
3F2
100
AcDbEntity
  8
0
100
AcDbLine
 62
7
  6
CONTINUOUS
 10
348.5427134398
 20
536.5849519821
 11
347.9044156435
 21
537.8349543663
  0
LINE
  5
3F3
100
AcDbEntity
  8
0
100
AcDbLine
 62
7
  6
CONTINUOUS
 10
355.2448411945
 20
550.3349495979
 11
354.9256922963
 21
550.9599543663
  0
LINE
  5
3F4
100
AcDbEntity
  8
0
100
AcDbLine
 62
7
  6
CONTINUOUS
 10
356.521436787
 20
550.9599543663
 11
355.8831389907
 21
552.2099495979
  0
LINE
  5
3F5
100
AcDbEntity
  8
0
100
AcDbLine
 62
7
  6
CONTINUOUS
 10
354.9256922963
 20
557.2099591347
 11
354.6065433982
 21
557.8349495979
  0
LINE
  5
3F6
100
AcDbEntity
  8
0
100
AcDbLine
 62
7
  6
CONTINUOUS
 10
360.6703731331
 20
555.9599495979
 11
360.0320753369
 21
557.2099591347
  0
LINE
  5
3F7
100
AcDbEntity
  8
0
100
AcDbLine
 62
7
  6
CONTINUOUS
 10
349.5001601341
 20
552.2099495979
 11
349.181011236
 21
553.4599591347
  0
LINE
  5
3F8
100
AcDbEntity
  8
0
100
AcDbLine
 62
7
  6
CONTINUOUS
 10
354.2873945001
 20
554.7099543663
 11
353.968245602
 21
555.9599495979
  0
LINE
  5
3F9
100
AcDbEntity
  8
0
100
AcDbLine
 62
7
  6
CONTINUOUS
 10
355.8831389907
 20
552.2099495979
 11
355.5639900926
 21
553.4599591347
  0
LINE
  5
3FA
100
AcDbEntity
  8
0
100
AcDbLine
 62
7
  6
CONTINUOUS
 10
360.9895220313
 20
554.7099543663
 11
360.6703731331
 21
555.9599495979
  0
LINE
  5
3FB
100
AcDbEntity
  8
0
100
AcDbLine
 62
7
  6
CONTINUOUS
 10
362.5852667454
 20
555.0224495979
 11
362.2661178193
 21
556.5849543663
  0
LINE
  5
3FC
100
AcDbEntity
  8
KONSTRUKTIONSELEMENTE
100
AcDbLine
 62
7
  6
CONTINUOUS
 10
395.5852667454
 20
291.7099543663
 11
395.5852667454
 21
237.0949091203
  0
LINE
  5
3FD
100
AcDbEntity
  8
KONSTRUKTIONSELEMENTE
100
AcDbLine
 62
7
  6
CONTINUOUS
 10
395.5852667454
 20
739.7099543663
 11
395.5852667454
 21
794.3249996122
  0
LINE
  5
3FE
100
AcDbEntity
  8
0
100
AcDbLine
 62
7
  6
CONTINUOUS
 10
362.2661178193
 20
445.0224543663
 11
361.6278199393
 21
443.7724537702
  0
LINE
  5
3FF
100
AcDbEntity
  8
0
100
AcDbLine
 62
7
  6
CONTINUOUS
 10
350.4576068285
 20
465.0224531742
 11
349.8193090323
 21
464.0849531742
  0
LINE
  5
400
100
AcDbEntity
  8
0
100
AcDbLine
 62
7
  6
CONTINUOUS
 10
360.351224235
 20
445.3349549623
 11
359.7129262152
 21
444.3974549623
  0
LINE
  5
401
100
AcDbEntity
  8
0
100
AcDbLine
 62
7
  6
CONTINUOUS
 10
348.8618623379
 20
437.5224543663
 11
347.9044156435
 21
436.2724546643
  0
LINE
  5
402
100
AcDbEntity
  8
0
100
AcDbLine
 62
7
  6
CONTINUOUS
 10
349.8193090323
 20
466.8974531742
 11
348.5427134398
 21
465.6474543663
  0
LINE
  5
403
100
AcDbEntity
  8
0
100
AcDbLine
 62
7
  6
CONTINUOUS
 10
351.415054417
 20
465.6474543663
 11
350.4576068285
 21
465.0224531742
  0
LINE
  5
404
100
AcDbEntity
  8
0
100
AcDbLine
 62
7
  6
CONTINUOUS
 10
351.0959046248
 20
467.5224543663
 11
349.8193090323
 21
466.8974531742
  0
LINE
  5
405
100
AcDbEntity
  8
0
100
AcDbLine
 62
7
  6
CONTINUOUS
 10
360.6703731331
 20
491.5849519821
 11
347.5852667454
 21
487.2099543663
  0
LINE
  5
406
100
AcDbEntity
  8
0
100
AcDbLine
 62
7
  6
CONTINUOUS
 10
362.5852667454
 20
490.3349567505
 11
347.5852667454
 21
485.3349543663
  0
LINE
  5
407
100
AcDbEntity
  8
0
100
AcDbLine
 62
7
  6
CONTINUOUS
 10
351.0959046248
 20
545.9599519821
 11
349.8193090323
 21
545.6474567505
  0
LINE
  5
408
100
AcDbEntity
  8
0
100
AcDbLine
 62
7
  6
CONTINUOUS
 10
351.7342033151
 20
544.0849519821
 11
351.0959046248
 21
544.0849519821
  0
LINE
  5
409
100
AcDbEntity
  8
0
100
AcDbLine
 62
7
  6
CONTINUOUS
 10
362.5852667454
 20
545.9599519821
 11
360.9895220313
 21
545.9599519821
  0
LINE
  5
40A
100
AcDbEntity
  8
0
100
AcDbLine
 62
7
  6
CONTINUOUS
 10
351.7342033151
 20
545.9599519821
 11
351.0959046248
 21
545.9599519821
  0
LINE
  5
40B
100
AcDbEntity
  8
0
100
AcDbLine
 62
7
  6
CONTINUOUS
 10
358.7554795209
 20
548.4599495979
 11
357.7980328265
 21
548.4599495979
  0
LINE
  5
40C
100
AcDbEntity
  8
0
100
AcDbLine
 62
7
  6
CONTINUOUS
 10
352.3725011113
 20
548.7724591347
 11
351.415054417
 21
548.7724591347
  0
LINE
  5
40D
100
AcDbEntity
  8
0
100
AcDbLine
 62
7
  6
CONTINUOUS
 10
358.7554795209
 20
550.0224543663
 11
357.7980328265
 21
550.0224543663
  0
LINE
  5
40E
100
AcDbEntity
  8
0
100
AcDbLine
 62
7
  6
CONTINUOUS
 10
352.0533522132
 20
550.3349495979
 11
351.415054417
 21
550.3349495979
  0
LINE
  5
40F
100
AcDbEntity
  8
0
100
AcDbLine
 62
7
  6
CONTINUOUS
 10
352.0533522132
 20
557.8349495979
 11
351.415054417
 21
557.8349495979
  0
LINE
  5
410
100
AcDbEntity
  8
0
100
AcDbLine
 62
7
  6
CONTINUOUS
 10
358.7554795209
 20
558.1474591347
 11
357.7980328265
 21
558.1474591347
  0
LINE
  5
411
100
AcDbEntity
  8
0
100
AcDbLine
 62
7
  6
CONTINUOUS
 10
352.3725011113
 20
559.3974543663
 11
351.415054417
 21
559.3974543663
  0
LINE
  5
412
100
AcDbEntity
  8
0
100
AcDbLine
 62
7
  6
CONTINUOUS
 10
358.7554795209
 20
559.7099495979
 11
357.7980328265
 21
559.7099495979
  0
LINE
  5
413
100
AcDbEntity
  8
0
100
AcDbLine
 62
7
  6
CONTINUOUS
 10
353.0107989076
 20
545.6474567505
 11
351.7342033151
 21
545.9599519821
  0
LINE
  5
414
100
AcDbEntity
  8
0
100
AcDbLine
 62
7
  6
CONTINUOUS
 10
351.415054417
 20
548.7724591347
 11
349.8193090323
 21
549.3974495979
  0
LINE
  5
415
100
AcDbEntity
  8
0
100
AcDbLine
 62
7
  6
CONTINUOUS
 10
357.7980328265
 20
548.4599495979
 11
356.2022878888
 21
549.0849543663
  0
LINE
  5
416
100
AcDbEntity
  8
0
100
AcDbLine
 62
7
  6
CONTINUOUS
 10
360.351224235
 20
559.0849591347
 11
358.7554795209
 21
559.7099495979
  0
LINE
  5
417
100
AcDbEntity
  8
0
100
AcDbLine
 62
7
  6
CONTINUOUS
 10
353.0107989076
 20
543.4599543663
 11
351.7342033151
 21
544.0849519821
  0
LINE
  5
418
100
AcDbEntity
  8
0
100
AcDbLine
 62
7
  6
CONTINUOUS
 10
353.6490967038
 20
558.7724495979
 11
352.3725011113
 21
559.3974543663
  0
LINE
  5
419
100
AcDbEntity
  8
0
100
AcDbLine
 62
7
  6
CONTINUOUS
 10
353.968245602
 20
545.0224519821
 11
353.0107989076
 21
545.6474567505
  0
LINE
  5
41A
100
AcDbEntity
  8
0
100
AcDbLine
 62
7
  6
CONTINUOUS
 10
351.415054417
 20
550.3349495979
 11
350.4576068285
 21
550.9599543663
  0
LINE
  5
41B
100
AcDbEntity
  8
0
100
AcDbLine
 62
7
  6
CONTINUOUS
 10
353.0107989076
 20
557.2099591347
 11
352.0533522132
 21
557.8349495979
  0
LINE
  5
41C
100
AcDbEntity
  8
0
100
AcDbLine
 62
7
  6
CONTINUOUS
 10
357.7980328265
 20
550.0224543663
 11
356.521436787
 21
550.9599543663
  0
LINE
  5
41D
100
AcDbEntity
  8
0
100
AcDbLine
 62
7
  6
CONTINUOUS
 10
360.0320753369
 20
557.2099591347
 11
358.7554795209
 21
558.1474591347
  0
LINE
  5
41E
100
AcDbEntity
  8
0
100
AcDbLine
 62
7
  6
CONTINUOUS
 10
354.6065433982
 20
557.8349495979
 11
353.6490967038
 21
558.7724495979
  0
LINE
  5
41F
100
AcDbEntity
  8
0
100
AcDbLine
 62
7
  6
CONTINUOUS
 10
361.3086710411
 20
558.1474591347
 11
360.351224235
 21
559.0849591347
  0
LINE
  5
420
100
AcDbEntity
  8
0
100
AcDbLine
 62
7
  6
CONTINUOUS
 10
353.968245602
 20
555.9599495979
 11
353.0107989076
 21
557.2099591347
  0
LINE
  5
421
100
AcDbEntity
  8
0
100
AcDbLine
 62
7
  6
CONTINUOUS
 10
362.2661178193
 20
556.5849543663
 11
361.3086710411
 21
558.1474591347
  0
LINE
  5
422
100
AcDbEntity
  8
0
100
AcDbLine
 62
7
  6
CONTINUOUS
 10
414.5495417347
 20
592.2099543663
 11
414.5495417347
 21
412.2099543663
  0
LINE
  5
423
100
AcDbEntity
  8
0
100
AcDbLine
 62
7
  6
CONTINUOUS
 10
415.0852667454
 20
408.0060866543
 11
415.0852667454
 21
348.2099525463
  0
LINE
  5
424
100
AcDbEntity
  8
0
100
AcDbLine
 62
7
  6
CONTINUOUS
 10
415.0852667454
 20
345.7099561863
 11
415.0852667454
 21
319.8124453591
  0
LINE
  5
425
100
AcDbEntity
  8
0
100
AcDbLine
 62
7
  6
CONTINUOUS
 10
415.0852667454
 20
685.2099496119
 11
415.0852667454
 21
711.6074633735
  0
LINE
  5
426
100
AcDbEntity
  8
0
100
AcDbLine
 62
7
  6
CONTINUOUS
 10
350.1384579304
 20
436.5849543663
 11
349.5001601341
 21
435.9599540683
  0
LINE
  5
427
100
AcDbEntity
  8
0
100
AcDbLine
 62
7
  6
CONTINUOUS
 10
361.6278199393
 20
443.7724537702
 11
360.351224235
 21
442.5224549623
  0
LINE
  5
428
100
AcDbEntity
  8
0
100
AcDbLine
 62
7
  6
CONTINUOUS
 10
350.1384579304
 20
438.4599543663
 11
348.8618623379
 21
437.5224543663
  0
LINE
  5
429
100
AcDbEntity
  8
0
100
AcDbLine
 62
7
  6
CONTINUOUS
 10
359.7129262152
 20
444.3974549623
 11
358.7554795209
 21
443.7724537702
  0
LINE
  5
42A
100
AcDbEntity
  8
BEZUGSACHSEN
100
AcDbLine
 62
7
  6
CONTINUOUS
 10
424.0852667454
 20
674.2099543663
 11
424.0852667454
 21
602.2099543663
  0
LINE
  5
42B
100
AcDbEntity
  8
FASEN
100
AcDbLine
 62
7
  6
CONTINUOUS
 10
296.0852667454
 20
346.7099543663
 11
295.0466747825
 21
345.6713624034
  0
LINE
  5
42C
100
AcDbEntity
  8
0
100
AcDbLine
 62
7
  6
CONTINUOUS
 10
360.351224235
 20
442.5224549623
 11
359.074628419
 21
441.8974546643
  0
LINE
  5
42D
100
AcDbEntity
  8
0
100
AcDbLine
 62
7
  6
CONTINUOUS
 10
362.5852667454
 20
439.0849546643
 11
355.2448411945
 21
436.2724546643
  0
LINE
  5
42E
100
AcDbEntity
  8
0
100
AcDbLine
 62
7
  6
CONTINUOUS
 10
362.5852667454
 20
436.8974540683
 11
355.8831389907
 21
434.3974542173
  0
LINE
  5
42F
100
AcDbEntity
  8
0
100
AcDbLine
 62
7
  6
CONTINUOUS
 10
351.0959046248
 20
438.7724540683
 11
350.1384579304
 21
438.4599543663
  0
LINE
  5
430
100
AcDbEntity
  8
0
100
AcDbLine
 62
7
  6
CONTINUOUS
 10
351.0959046248
 20
436.8974540683
 11
350.1384579304
 21
436.5849543663
  0
LINE
  5
431
100
AcDbEntity
  8
FASEN
100
AcDbLine
 62
7
  6
CONTINUOUS
 10
296.0852667454
 20
684.2099543663
 11
295.0338725308
 21
685.2613485809
  0
LINE
  5
432
100
AcDbEntity
  8
0
100
AcDbLine
 62
7
  6
CONTINUOUS
 10
424.0851903387
 20
602.2099543663
 11
419.3970075087
 21
602.2099543663
  0
LINE
  5
433
100
AcDbEntity
  8
0
100
AcDbLine
 62
7
  6
CONTINUOUS
 10
290.7735259821
 20
602.2099543663
 11
286.0853431521
 21
602.2099543663
  0
LINE
  5
434
100
AcDbEntity
  8
FASEN
100
AcDbLine
 62
7
  6
CONTINUOUS
 10
414.0852667454
 20
347.2099543663
 11
415.1238587083
 21
348.2485463292
  0
LINE
  5
435
100
AcDbEntity
  8
BEZUGSACHSEN
100
AcDbLine
 62
7
  6
CONTINUOUS
 10
286.0852667454
 20
674.2099543663
 11
424.0852667454
 21
674.2099543663
  0
LINE
  5
436
100
AcDbEntity
  8
BEZUGSACHSEN
100
AcDbLine
 62
7
  6
CONTINUOUS
 10
296.0852667454
 20
684.2099543663
 11
414.0852667454
 21
684.2099543663
  0
LINE
  5
437
100
AcDbEntity
  8
FASEN
100
AcDbLine
 62
7
  6
CONTINUOUS
 10
296.087444237
 20
684.2099543663
 11
414.0830892538
 21
684.2099543663
  0
LINE
  5
438
100
AcDbEntity
  8
BEZUGSACHSEN
100
AcDbLine
 62
7
  6
CONTINUOUS
 10
414.0852667454
 20
684.2099543663
 11
424.0852667454
 21
674.2099543663
  0
LINE
  5
439
100
AcDbEntity
  8
0
100
AcDbLine
 62
7
  6
CONTINUOUS
 10
295.0852667454
 20
694.2099543663
 11
415.0852667454
 21
694.2099543663
  0
LINE
  5
43A
100
AcDbEntity
  8
0
100
AcDbLine
 62
7
  6
CONTINUOUS
 10
93.6927134415
 20
29.5831010643
 11
161.8396135911
 21
29.5831010643
  0
LINE
  5
43B
100
AcDbEntity
  8
KONSTRUKTIONSELEMENTE
100
AcDbLine
 62
7
  6
CONTINUOUS
 10
117.0161635163
 20
35.6662250161
 11
138.5161635163
 21
35.6662250161
  0
LINE
  5
43C
100
AcDbEntity
  8
0
100
AcDbLine
 62
7
  6
CONTINUOUS
 10
71.9024901677
 20
49.0831010643
 11
112.0161635163
 21
49.0831010643
  0
LINE
  5
43D
100
AcDbEntity
  8
0
100
AcDbLine
 62
7
  6
CONTINUOUS
 10
143.5161635163
 20
49.0831010643
 11
183.6298368649
 21
49.0831010643
  0
LINE
  5
43E
100
AcDbEntity
  8
0
100
AcDbLine
 62
7
  6
CONTINUOUS
 10
94.6956554406
 20
130.0831010643
 11
94.6956554406
 21
49.0831010643
  0
LINE
  5
43F
100
AcDbEntity
  8
KONSTRUKTIONSELEMENTE
100
AcDbLine
 62
7
  6
CONTINUOUS
 10
112.0161635163
 20
41.4437808393
 11
112.0161635163
 21
49.0831010643
  0
LINE
  5
440
100
AcDbEntity
  8
0
100
AcDbLine
 62
7
  6
CONTINUOUS
 10
112.0161635163
 20
49.0831010643
 11
112.0161635163
 21
130.0831010643
  0
LINE
  5
441
100
AcDbEntity
  8
KONSTRUKTIONSELEMENTE
100
AcDbLine
 62
7
  6
CONTINUOUS
 10
112.0161635163
 20
130.0831010643
 11
112.0161635163
 21
137.7224212893
  0
LINE
  5
442
100
AcDbEntity
  8
0
100
AcDbLine
 62
7
  6
CONTINUOUS
 10
143.5161635163
 20
72.6831010643
 11
112.0161635163
 21
72.6831010643
  0
LINE
  5
443
100
AcDbEntity
  8
BG_STARTBEZUEGE
100
AcDbLine
 62
7
  6
CENTER
 10
127.7661635163
 20
17.5656322998
 11
127.7661635163
 21
161.6005698289
  0
LINE
  5
444
100
AcDbEntity
  8
BG_STARTBEZUEGE
100
AcDbLine
 62
7
  6
CENTER
 10
55.7586307229
 20
89.5831010643
 11
199.7661635163
 21
89.5831010643
  0
LINE
  5
445
100
AcDbEntity
  8
KONSTRUKTIONSELEMENTE
100
AcDbLine
 62
7
  6
CONTINUOUS
 10
143.5161635163
 20
41.4437808393
 11
143.5161635163
 21
49.0831010643
  0
LINE
  5
446
100
AcDbEntity
  8
0
100
AcDbLine
 62
7
  6
CONTINUOUS
 10
143.5161635163
 20
49.0831010643
 11
143.5161635163
 21
130.0831010643
  0
LINE
  5
447
100
AcDbEntity
  8
KONSTRUKTIONSELEMENTE
100
AcDbLine
 62
7
  6
CONTINUOUS
 10
143.5161635163
 20
130.0831010643
 11
143.5161635163
 21
137.7224212893
  0
LINE
  5
448
100
AcDbEntity
  8
0
100
AcDbLine
 62
7
  6
CONTINUOUS
 10
143.5161635163
 20
106.4831010643
 11
112.0161635163
 21
106.4831010643
  0
LINE
  5
449
100
AcDbEntity
  8
0
100
AcDbLine
 62
7
  6
CONTINUOUS
 10
160.836671592
 20
130.0831010643
 11
160.836671592
 21
49.0831010643
  0
LINE
  5
44A
100
AcDbEntity
  8
0
100
AcDbLine
 62
7
  6
CONTINUOUS
 10
112.0161635163
 20
130.0831010643
 11
71.9024901677
 21
130.0831010643
  0
LINE
  5
44B
100
AcDbEntity
  8
0
100
AcDbLine
 62
7
  6
CONTINUOUS
 10
143.5161635163
 20
130.0831010643
 11
183.6298368649
 21
130.0831010643
  0
LINE
  5
44C
100
AcDbEntity
  8
KONSTRUKTIONSELEMENTE
100
AcDbLine
 62
7
  6
CONTINUOUS
 10
117.0161635163
 20
143.4999771126
 11
138.5161635163
 21
143.4999771126
  0
LINE
  5
44D
100
AcDbEntity
  8
0
100
AcDbLine
 62
7
  6
CONTINUOUS
 10
93.6927134415
 20
149.5831010643
 11
161.8396135911
 21
149.5831010643
  0
ARC
  5
44E
100
AcDbEntity
  8
KONSTRUKTIONSELEMENTE
100
AcDbCircle
 62
7
  6
CONTINUOUS
 10
255.6705069259
 20
769.0293625243
 40
76.3526515487
100
AcDbArc
 50
160.3458443649
 51
160.652297914
  0
ARC
  5
44F
100
AcDbEntity
  8
KONSTRUKTIONSELEMENTE
100
AcDbCircle
 62
7
  6
CONTINUOUS
 10
-0.1381798847
 20
262.3905462052
 40
76.3526515396
100
AcDbArc
 50
340.3458443649
 51
340.6522979141
  0
ARC
  5
450
100
AcDbEntity
  8
KONSTRUKTIONSELEMENTE
100
AcDbCircle
 62
7
  6
CONTINUOUS
 10
255.6705069152
 20
262.3905462045
 40
76.3526515374
100
AcDbArc
 50
199.3477020859
 51
199.6541556351
  0
ARC
  5
451
100
AcDbEntity
  8
KONSTRUKTIONSELEMENTE
100
AcDbCircle
 62
7
  6
CONTINUOUS
 10
-0.1381798796
 20
769.0293625291
 40
76.3526515342
100
AcDbArc
 50
19.3477020859
 51
19.6541556351
  0
ARC
  5
452
100
AcDbEntity
  8
0
100
AcDbCircle
 62
7
  6
CONTINUOUS
 10
210.8697491674
 20
756.5505596834
 40
62.691444102
100
AcDbArc
 50
142.9475846924
 51
143.1472582321
  0
ARC
  5
453
100
AcDbEntity
  8
0
100
AcDbCircle
 62
7
  6
CONTINUOUS
 10
44.6625778707
 20
756.5505596875
 40
62.6914440952
100
AcDbArc
 50
36.8527417679
 51
37.0524153076
  0
ARC
  5
454
100
AcDbEntity
  8
0
100
AcDbCircle
 62
7
  6
CONTINUOUS
 10
210.3119747396
 20
274.450131966
 40
61.9936956101
100
AcDbArc
 50
216.5039969663
 51
217.0538142948
  0
ARC
  5
455
100
AcDbEntity
  8
0
100
AcDbCircle
 62
7
  6
CONTINUOUS
 10
45.2203522949
 20
274.4501319646
 40
61.9936956077
100
AcDbArc
 50
322.9461857052
 51
323.4960030337
  0
ARC
  5
456
100
AcDbEntity
  8
KONSTRUKTIONSELEMENTE
100
AcDbCircle
 62
7
  6
CONTINUOUS
 10
83.7661635163
 20
794.7099543663
 40
25.0
100
AcDbArc
 50
90.0
 51
180.0
  0
ARC
  5
457
100
AcDbEntity
  8
KONSTRUKTIONSELEMENTE
100
AcDbCircle
 62
7
  6
CONTINUOUS
 10
171.7661635163
 20
794.7099543663
 40
25.0
100
AcDbArc
 50
0.0
 51
90.0
  0
ARC
  5
458
100
AcDbEntity
  8
KONSTRUKTIONSELEMENTE
100
AcDbCircle
 62
7
  6
CONTINUOUS
 10
171.7661635163
 20
236.7099543663
 40
25.0
100
AcDbArc
 50
270.0
 51
360.0
  0
ARC
  5
459
100
AcDbEntity
  8
KONSTRUKTIONSELEMENTE
100
AcDbCircle
 62
7
  6
CONTINUOUS
 10
83.7661635163
 20
236.7099543663
 40
25.0
100
AcDbArc
 50
180.0
 51
270.0
  0
ARC
  5
45A
100
AcDbEntity
  8
0
100
AcDbCircle
 62
7
  6
CONTINUOUS
 10
152.7661635163
 20
592.2099543663
 40
10.0
100
AcDbArc
 50
0.0
 51
90.0
  0
ARC
  5
45B
100
AcDbEntity
  8
0
100
AcDbCircle
 62
7
  6
CONTINUOUS
 10
102.7661635163
 20
592.2099543663
 40
10.0
100
AcDbArc
 50
90.0
 51
180.0
  0
ARC
  5
45C
100
AcDbEntity
  8
0
100
AcDbCircle
 62
7
  6
CONTINUOUS
 10
102.7661635163
 20
412.2099543663
 40
10.0
100
AcDbArc
 50
180.0
 51
270.0
  0
ARC
  5
45D
100
AcDbEntity
  8
0
100
AcDbCircle
 62
7
  6
CONTINUOUS
 10
152.7661635163
 20
412.2099543663
 40
10.0
100
AcDbArc
 50
270.0
 51
360.0
  0
ARC
  5
45E
100
AcDbEntity
  8
KONSTRUKTIONSELEMENTE
100
AcDbCircle
 62
7
  6
CONTINUOUS
 10
133.5161635163
 20
306.7099543663
 40
10.0
100
AcDbArc
 50
0.0
 51
90.0
  0
ARC
  5
45F
100
AcDbEntity
  8
KONSTRUKTIONSELEMENTE
100
AcDbCircle
 62
7
  6
CONTINUOUS
 10
122.0161635163
 20
306.7099543663
 40
10.0
100
AcDbArc
 50
90.0
 51
180.0
  0
ARC
  5
460
100
AcDbEntity
  8
KONSTRUKTIONSELEMENTE
100
AcDbCircle
 62
7
  6
CONTINUOUS
 10
138.5161635163
 20
719.7099543663
 40
5.0
100
AcDbArc
 50
270.0
 51
360.0
  0
ARC
  5
461
100
AcDbEntity
  8
KONSTRUKTIONSELEMENTE
100
AcDbCircle
 62
7
  6
CONTINUOUS
 10
117.0161635163
 20
719.7099543663
 40
5.0
100
AcDbArc
 50
180.0
 51
270.0
  0
ARC
  5
462
100
AcDbEntity
  8
KONSTRUKTIONSELEMENTE
100
AcDbCircle
 62
7
  6
CONTINUOUS
 10
155.7661635163
 20
350.7099543663
 40
4.0
100
AcDbArc
 50
241.1139595592
 51
270.0
  0
ARC
  5
463
100
AcDbEntity
  8
KONSTRUKTIONSELEMENTE
100
AcDbCircle
 62
7
  6
CONTINUOUS
 10
99.7661635163
 20
350.7099543663
 40
4.0
100
AcDbArc
 50
270.0
 51
298.8860404408
  0
ARC
  5
464
100
AcDbEntity
  8
KONSTRUKTIONSELEMENTE
100
AcDbCircle
 62
7
  6
CONTINUOUS
 10
355.0852667454
 20
774.7099543663
 40
45.0
100
AcDbArc
 50
25.8419327632
 51
154.1580672368
  0
ARC
  5
465
100
AcDbEntity
  8
KONSTRUKTIONSELEMENTE
100
AcDbCircle
 62
7
  6
CONTINUOUS
 10
355.0852667454
 20
256.7099543663
 40
45.0
100
AcDbArc
 50
205.8419327632
 51
334.1580672368
  0
ARC
  5
466
100
AcDbEntity
  8
0
100
AcDbCircle
 62
7
  6
CONTINUOUS
 10
284.5852667454
 20
739.7099543663
 40
30.0
100
AcDbArc
 50
290.4873151147
 51
360.0
  0
ARC
  5
467
100
AcDbEntity
  8
0
100
AcDbCircle
 62
7
  6
CONTINUOUS
 10
425.5852667454
 20
739.7099543663
 40
30.0
100
AcDbArc
 50
180.0
 51
249.5126848853
  0
ARC
  5
468
100
AcDbEntity
  8
0
100
AcDbCircle
 62
7
  6
CONTINUOUS
 10
425.5852667454
 20
291.7099543663
 40
30.0
100
AcDbArc
 50
110.4873151147
 51
180.0
  0
ARC
  5
469
100
AcDbEntity
  8
0
100
AcDbCircle
 62
7
  6
CONTINUOUS
 10
284.5852667454
 20
291.7099543663
 40
30.0
100
AcDbArc
 50
0.0
 51
69.5126848853
  0
CIRCLE
  5
46A
100
AcDbEntity
  8
BEZUGSACHSEN
100
AcDbCircle
 62
7
  6
CONTINUOUS
 10
355.0852667454
 20
773.3099543663
 40
20.0
  0
CIRCLE
  5
46B
100
AcDbEntity
  8
BEZUGSACHSEN
100
AcDbCircle
 62
7
  6
CONTINUOUS
 10
355.0852667454
 20
258.1099543663
 40
20.0
  0
ARC
  5
46C
100
AcDbEntity
  8
KONSTRUKTIONSELEMENTE
100
AcDbCircle
 62
7
  6
CONTINUOUS
 10
383.0852667454
 20
350.7099543663
 40
4.0
100
AcDbArc
 50
241.1139595592
 51
269.9999999715
  0
ARC
  5
46D
100
AcDbEntity
  8
KONSTRUKTIONSELEMENTE
100
AcDbCircle
 62
7
  6
CONTINUOUS
 10
327.0852667454
 20
350.7099543663
 40
4.0
100
AcDbArc
 50
270.0000000285
 51
298.8860404408
  0
ARC
  5
46E
100
AcDbEntity
  8
BEZUGSACHSEN
100
AcDbCircle
 62
7
  6
CONTINUOUS
 10
127.7661635163
 20
89.5831010643
 40
69.0
100
AcDbArc
 50
240.4081287805
 51
299.5918712195
  0
ARC
  5
46F
100
AcDbEntity
  8
BEZUGSACHSEN
100
AcDbCircle
 62
7
  6
CONTINUOUS
 10
127.7661635163
 20
89.5831010643
 40
69.0
100
AcDbArc
 50
60.4081287805
 51
119.5918712195
  0
ARC
  5
470
100
AcDbEntity
  8
0
100
AcDbCircle
 62
7
  6
CONTINUOUS
 10
127.7661635163
 20
89.5831010643
 40
69.0
100
AcDbArc
 50
144.2519830598
 51
215.7480169402
  0
ARC
  5
471
100
AcDbEntity
  8
0
100
AcDbCircle
 62
7
  6
CONTINUOUS
 10
127.7661635163
 20
89.5831010643
 40
69.0
100
AcDbArc
 50
215.9413298912
 51
240.408154206
  0
ARC
  5
472
100
AcDbEntity
  8
0
100
AcDbCircle
 62
7
  6
CONTINUOUS
 10
127.7661635163
 20
89.5831010643
 40
69.0
100
AcDbArc
 50
324.2519830598
 51
35.7480169402
  0
ARC
  5
473
100
AcDbEntity
  8
KONSTRUKTIONSELEMENTE
100
AcDbCircle
 62
7
  6
CONTINUOUS
 10
127.7661635163
 20
89.5831010643
 40
69.0
100
AcDbArc
 50
35.7480169402
 51
35.9413298912
  0
ARC
  5
474
100
AcDbEntity
  8
0
100
AcDbCircle
 62
7
  6
CONTINUOUS
 10
127.7661635163
 20
89.5831010643
 40
69.0
100
AcDbArc
 50
35.9413298912
 51
60.408154206
  0
ARC
  5
475
100
AcDbEntity
  8
0
100
AcDbCircle
 62
7
  6
CONTINUOUS
 10
127.7661635163
 20
89.5831010643
 40
69.0
100
AcDbArc
 50
119.591845794
 51
144.0586701088
  0
ARC
  5
476
100
AcDbEntity
  8
0
100
AcDbCircle
 62
7
  6
CONTINUOUS
 10
127.7661635163
 20
89.5831010643
 40
69.0
100
AcDbArc
 50
299.591845794
 51
324.0586701088
  0
ARC
  5
477
100
AcDbEntity
  8
KONSTRUKTIONSELEMENTE
100
AcDbCircle
 62
7
  6
CONTINUOUS
 10
127.7661635163
 20
89.5831010643
 40
69.0
100
AcDbArc
 50
324.0586701088
 51
324.2519830598
  0
ARC
  5
478
100
AcDbEntity
  8
KONSTRUKTIONSELEMENTE
100
AcDbCircle
 62
7
  6
CONTINUOUS
 10
127.7661635163
 20
89.5831010643
 40
69.0
100
AcDbArc
 50
144.0586701088
 51
215.9413298912
  0
SPLINE
  5
479
100
AcDbEntity
  8
BEZUGSACHSEN
100
AcDbSpline
 62
7
  6
CONTINUOUS
 70
0
 71
3
 72
11
 73
7
 74
0
 42
0.0000001
 43
0.0000001
 44
0.0000000001
 40
0.0
 40
0.0
 40
0.0
 40
0.0
 40
0.1479179523
 40
0.5000032344
 40
0.8520857746
 40
1.0
 40
1.0
 40
1.0
 40
1.0
 10
196.7661635163
 20
758.3099543663
 30
0.0
 10
196.4486420488
 20
759.7647758605
 30
0.0
 10
195.5222032017
 20
764.7190086958
 30
0.0
 10
194.8299846023
 20
773.3100250727
 30
0.0
 10
195.5222194506
 20
781.9010016712
 30
0.0
 10
196.4486500896
 20
786.8551694955
 30
0.0
 10
196.7661635163
 20
788.3099543663
 30
0.0
  0
SPLINE
  5
47A
100
AcDbEntity
  8
BEZUGSACHSEN
100
AcDbSpline
 62
7
  6
CONTINUOUS
 70
0
 71
3
 72
15
 73
11
 74
0
 42
0.0000001
 43
0.0000001
 44
0.0000000001
 40
0.0
 40
0.0
 40
0.0
 40
0.0
 40
0.0392488416
 40
0.1489262487
 40
0.3103683663
 40
0.4999999749
 40
0.6896316027
 40
0.8510737292
 40
0.9607511486
 40
1.0
 40
1.0
 40
1.0
 40
1.0
 10
58.7661635163
 20
793.3099543663
 30
0.0
 10
58.9138904668
 20
792.8003294321
 30
0.0
 10
59.4563199116
 20
790.86122459
 30
0.0
 10
60.4378482922
 20
786.7793966398
 30
0.0
 10
61.4492321239
 20
780.6240882842
 30
0.0
 10
61.8790309924
 20
773.3099551281
 30
0.0
 10
61.4492322945
 20
765.9958218364
 30
0.0
 10
60.4378484668
 20
759.8405129259
 30
0.0
 10
59.4563200345
 20
755.7586845562
 30
0.0
 10
58.913890507
 20
753.8195794274
 30
0.0
 10
58.7661635163
 20
753.3099543663
 30
0.0
  0
SPLINE
  5
47B
100
AcDbEntity
  8
KONSTRUKTIONSELEMENTE
100
AcDbSpline
 62
7
  6
CONTINUOUS
 70
0
 71
3
 72
15
 73
11
 74
0
 42
0.0000001
 43
0.0000001
 44
0.0000000001
 40
0.0
 40
0.0
 40
0.0
 40
0.0
 40
0.1128494747
 40
0.216319936
 40
0.3162044016
 40
0.4206351659
 40
0.5376915801
 40
0.6727796712
 40
0.8275233045
 40
1.0
 40
1.0
 40
1.0
 40
1.0
 10
171.7661635163
 20
819.7099543663
 30
0.0
 10
173.026920606
 20
819.7099543663
 30
0.0
 10
175.4532307063
 20
819.5299842699
 30
0.0
 10
178.8661876874
 20
818.4742442588
 30
0.0
 10
181.7579299836
 20
816.5071529233
 30
0.0
 10
183.9530723557
 20
813.589812502
 30
0.0
 10
185.3313413122
 20
809.8015093851
 30
0.0
 10
185.8277682253
 20
805.2473736113
 30
0.0
 10
185.3685104799
 20
800.0751599737
 30
0.0
 10
184.4142547806
 20
796.5246099061
 30
0.0
 10
183.7661635163
 20
794.7099543663
 30
0.0
  0
SPLINE
  5
47C
100
AcDbEntity
  8
KONSTRUKTIONSELEMENTE
100
AcDbSpline
 62
7
  6
CONTINUOUS
 70
0
 71
3
 72
15
 73
11
 74
0
 42
0.0000001
 43
0.0000001
 44
0.0000000001
 40
0.0
 40
0.0
 40
0.0
 40
0.0
 40
0.1724766859
 40
0.3272203065
 40
0.4623084018
 40
0.5793648222
 40
0.6837955896
 40
0.7836800581
 40
0.8871505217
 40
1.0
 40
1.0
 40
1.0
 40
1.0
 10
71.7661635163
 20
794.7099543663
 30
0.0
 10
71.1180722884
 20
796.5246098045
 30
0.0
 10
70.1638166318
 20
800.0751596217
 30
0.0
 10
69.704558821
 20
805.2473730435
 30
0.0
 10
70.2009855884
 20
809.8015088046
 30
0.0
 10
71.5792544521
 20
813.5898121199
 30
0.0
 10
73.7743968248
 20
816.507152716
 30
0.0
 10
76.6661391535
 20
818.4742441761
 30
0.0
 10
80.0790962195
 20
819.5299842621
 30
0.0
 10
82.5054063873
 20
819.7099543663
 30
0.0
 10
83.7661635163
 20
819.7099543663
 30
0.0
  0
SPLINE
  5
47D
100
AcDbEntity
  8
0
100
AcDbSpline
 62
7
  6
CONTINUOUS
 70
0
 71
3
 72
16
 73
12
 74
0
 42
0.0000001
 43
0.0000001
 44
0.0000000001
 40
0.0
 40
0.0
 40
0.0
 40
0.0
 40
0.1412084104
 40
0.2104058652
 40
0.2780085378
 40
0.4072392789
 40
0.5287827271
 40
0.6452463232
 40
0.7605929695
 40
0.878208274
 40
1.0
 40
1.0
 40
1.0
 40
1.0
 10
183.6298368649
 20
739.7099543663
 30
0.0
 10
183.6298368649
 20
737.869831351
 30
0.0
 10
183.4490409314
 20
735.1226292898
 30
0.0
 10
182.8271032642
 20
731.5508826245
 30
0.0
 10
181.9729366434
 20
728.1882960375
 30
0.0
 10
180.4598929591
 20
724.2993760332
 30
0.0
 10
177.8641406123
 20
720.2367425164
 30
0.0
 10
174.5704399335
 20
716.9652653879
 30
0.0
 10
170.7089816978
 20
714.4963530231
 30
0.0
 10
166.4175961846
 20
712.7288774413
 30
0.0
 10
163.3921489249
 20
711.9368840344
 30
0.0
 10
161.8396135911
 20
711.6074633735
 30
0.0
  0
SPLINE
  5
47E
100
AcDbEntity
  8
0
100
AcDbSpline
 62
7
  6
CONTINUOUS
 70
0
 71
3
 72
16
 73
12
 74
0
 42
0.0000001
 43
0.0000001
 44
0.0000000001
 40
0.0
 40
0.0
 40
0.0
 40
0.0
 40
0.1217917273
 40
0.2394070317
 40
0.3547536778
 40
0.4712172732
 40
0.5927607187
 40
0.7219914601
 40
0.7895941334
 40
0.8587915888
 40
1.0
 40
1.0
 40
1.0
 40
1.0
 10
93.6927134415
 20
711.6074633735
 30
0.0
 10
92.1401780902
 20
711.9368840382
 30
0.0
 10
89.1147308162
 20
712.7288774528
 30
0.0
 10
84.8233452897
 20
714.4963530404
 30
0.0
 10
80.961887077
 20
716.9652654146
 30
0.0
 10
77.6681864296
 20
720.2367425048
 30
0.0
 10
75.072434099
 20
724.2993759828
 30
0.0
 10
73.5593904137
 20
728.188295963
 30
0.0
 10
72.7052237803
 20
731.5508825693
 30
0.0
 10
72.0832861026
 20
735.1226292604
 30
0.0
 10
71.9024901677
 20
737.8698313406
 30
0.0
 10
71.9024901677
 20
739.7099543663
 30
0.0
  0
SPLINE
  5
47F
100
AcDbEntity
  8
0
100
AcDbSpline
 62
7
  6
CONTINUOUS
 70
0
 71
3
 72
15
 73
11
 74
0
 42
0.0000001
 43
0.0000001
 44
0.0000000001
 40
0.0
 40
0.0
 40
0.0
 40
0.0
 40
0.1250296212
 40
0.2500405263
 40
0.3750297302
 40
0.5000000148
 40
0.6249702962
 40
0.7499594869
 40
0.8749703819
 40
1.0
 40
1.0
 40
1.0
 40
1.0
 10
93.6927134415
 20
694.2099543663
 30
0.0
 10
96.3489555312
 20
692.8982538992
 30
0.0
 10
101.7558317651
 20
690.4589462803
 30
0.0
 10
110.1707886713
 20
687.5562835193
 30
0.0
 10
118.8751287487
 20
685.6549483815
 30
0.0
 10
127.7661644998
 20
684.9875561108
 30
0.0
 10
136.6571999489
 20
685.6549484534
 30
0.0
 10
145.3615393046
 20
687.5562839083
 30
0.0
 10
153.7764956174
 20
690.4589464293
 30
0.0
 10
159.1833715667
 20
692.8982539314
 30
0.0
 10
161.8396135911
 20
694.2099543663
 30
0.0
  0
SPLINE
  5
480
100
AcDbEntity
  8
0
100
AcDbSpline
 62
7
  6
CONTINUOUS
 70
0
 71
3
 72
15
 73
11
 74
0
 42
0.0000001
 43
0.0000001
 44
0.0000000001
 40
0.0
 40
0.0
 40
0.0
 40
0.0
 40
0.125031453
 40
0.2500438485
 40
0.3750318321
 40
0.5000000083
 40
0.6249681816
 40
0.7499561596
 40
0.8749685489
 40
1.0
 40
1.0
 40
1.0
 40
1.0
 10
93.6927134415
 20
357.2099543663
 30
0.0
 10
96.3489944982
 20
355.8982346566
 30
0.0
 10
101.755945744
 20
353.4589011717
 30
0.0
 10
110.1709578576
 20
350.5562409285
 30
0.0
 10
118.8752592731
 20
348.654946046
 30
0.0
 10
127.7661640417
 20
347.9875215867
 30
0.0
 10
136.6570686618
 20
348.6549461891
 30
0.0
 10
145.3613697209
 20
350.5562410725
 30
0.0
 10
153.7763814989
 20
353.458901286
 30
0.0
 10
159.1833325757
 20
355.898234677
 30
0.0
 10
161.8396135911
 20
357.2099543663
 30
0.0
  0
SPLINE
  5
481
100
AcDbEntity
  8
BEZUGSACHSEN
100
AcDbSpline
 62
7
  6
CONTINUOUS
 70
0
 71
3
 72
15
 73
11
 74
0
 42
0.0000001
 43
0.0000001
 44
0.0000000001
 40
0.0
 40
0.0
 40
0.0
 40
0.0
 40
0.03924838
 40
0.148926112
 40
0.3103691733
 40
0.4999999842
 40
0.6896308082
 40
0.8510738712
 40
0.9607516121
 40
1.0
 40
1.0
 40
1.0
 40
1.0
 10
58.7661635163
 20
278.1099543663
 30
0.0
 10
58.9138873803
 20
277.6003350314
 30
0.0
 10
59.4563134717
 20
275.6612311436
 30
0.0
 10
60.4378504877
 20
271.5793942084
 30
0.0
 10
61.4492411547
 20
265.4240796329
 30
0.0
 10
61.8790254325
 20
258.1099548332
 30
0.0
 10
61.4492412721
 20
250.795829999
 30
0.0
 10
60.4378506032
 20
244.6405150978
 30
0.0
 10
59.4563135578
 20
240.5586779117
 30
0.0
 10
58.91388741
 20
238.6195738042
 30
0.0
 10
58.7661635163
 20
238.1099543663
 30
0.0
  0
SPLINE
  5
482
100
AcDbEntity
  8
BEZUGSACHSEN
100
AcDbSpline
 62
7
  6
CONTINUOUS
 70
0
 71
3
 72
11
 73
7
 74
0
 42
0.0000001
 43
0.0000001
 44
0.0000000001
 40
0.0
 40
0.0
 40
0.0
 40
0.0
 40
0.147913353
 40
0.5000016584
 40
0.8520885593
 40
1.0
 40
1.0
 40
1.0
 40
1.0
 10
196.7661635163
 20
243.1099543663
 30
0.0
 10
196.4486534462
 20
244.5647306972
 30
0.0
 10
195.5222095411
 20
249.5189469046
 30
0.0
 10
194.8299483779
 20
258.1099906369
 30
0.0
 10
195.5222181563
 20
266.7010139028
 30
0.0
 10
196.4486576701
 20
271.6551968086
 30
0.0
 10
196.7661635163
 20
273.1099543663
 30
0.0
  0
SPLINE
  5
483
100
AcDbEntity
  8
KONSTRUKTIONSELEMENTE
100
AcDbSpline
 62
7
  6
CONTINUOUS
 70
0
 71
3
 72
15
 73
11
 74
0
 42
0.0000001
 43
0.0000001
 44
0.0000000001
 40
0.0
 40
0.0
 40
0.0
 40
0.0
 40
0.172474019
 40
0.3272158302
 40
0.4623026972
 40
0.5793592191
 40
0.6837898848
 40
0.7836761691
 40
0.8871481244
 40
1.0
 40
1.0
 40
1.0
 40
1.0
 10
183.7661635163
 20
236.7099543663
 30
0.0
 10
184.4142448255
 20
234.8953267007
 30
0.0
 10
185.3684816029
 20
231.34482539
 30
0.0
 10
185.8277745979
 20
226.1726777139
 30
0.0
 10
185.3313712446
 20
221.6185764591
 30
0.0
 10
183.9531765221
 20
217.830256643
 30
0.0
 10
181.7580417398
 20
214.9128920009
 30
0.0
 10
178.8663311637
 20
212.9456825714
 30
0.0
 10
175.4532970619
 20
211.8899466487
 30
0.0
 10
173.0269476267
 20
211.7099543663
 30
0.0
 10
171.7661635163
 20
211.7099543663
 30
0.0
  0
SPLINE
  5
484
100
AcDbEntity
  8
0
100
AcDbSpline
 62
7
  6
CONTINUOUS
 70
0
 71
3
 72
16
 73
12
 74
0
 42
0.0000001
 43
0.0000001
 44
0.0000000001
 40
0.0
 40
0.0
 40
0.0
 40
0.0
 40
0.1412048578
 40
0.2104026451
 40
0.2780041216
 40
0.4072342951
 40
0.5287784156
 40
0.6452424788
 40
0.7605890237
 40
0.8782053051
 40
1.0
 40
1.0
 40
1.0
 40
1.0
 10
71.9024901677
 20
291.7099543663
 30
0.0
 10
71.9024901677
 20
293.5500313369
 30
0.0
 10
72.0832933206
 20
296.2971895006
 30
0.0
 10
72.705184641
 20
299.8688861372
 30
0.0
 10
73.5593294971
 20
303.2314594995
 30
0.0
 10
75.0723513199
 20
307.120375942
 30
0.0
 10
77.6681032422
 20
311.1830122221
 30
0.0
 10
80.9617349978
 20
314.4545803167
 30
0.0
 10
84.8232196088
 20
316.9234945978
 30
0.0
 10
89.1146414719
 20
318.6910090097
 30
0.0
 10
92.1401400503
 20
319.483016623
 30
0.0
 10
93.6927134415
 20
319.8124453591
 30
0.0
  0
SPLINE
  5
485
100
AcDbEntity
  8
0
100
AcDbSpline
 62
7
  6
CONTINUOUS
 70
0
 71
3
 72
16
 73
12
 74
0
 42
0.0000001
 43
0.0000001
 44
0.0000000001
 40
0.0
 40
0.0
 40
0.0
 40
0.0
 40
0.1217946981
 40
0.2394109818
 40
0.3547575295
 40
0.4712215897
 40
0.5927656993
 40
0.7219958703
 40
0.7895973485
 40
0.8587951379
 40
1.0
 40
1.0
 40
1.0
 40
1.0
 10
161.8396135911
 20
319.8124453591
 30
0.0
 10
163.3921870237
 20
319.4830166142
 30
0.0
 10
166.4176856715
 20
318.6910089797
 30
0.0
 10
170.7091076247
 20
316.9234944942
 30
0.0
 10
174.5705922308
 20
314.454580155
 30
0.0
 10
177.8642238638
 20
311.1830121438
 30
0.0
 10
180.4599756382
 20
307.1203760321
 30
0.0
 10
181.9729974509
 20
303.231459753
 30
0.0
 10
182.8271423401
 20
299.8688863801
 30
0.0
 10
183.4490337044
 20
296.2971896429
 30
0.0
 10
183.6298368649
 20
293.5500313934
 30
0.0
 10
183.6298368649
 20
291.7099543663
 30
0.0
  0
SPLINE
  5
486
100
AcDbEntity
  8
0
100
AcDbSpline
 62
7
  6
CONTINUOUS
 70
0
 71
3
 72
15
 73
11
 74
0
 42
0.0000001
 43
0.0000001
 44
0.0000000001
 40
0.0
 40
0.0
 40
0.0
 40
0.0
 40
0.125031453
 40
0.2500438485
 40
0.3750318321
 40
0.5000000083
 40
0.6249681816
 40
0.7499561596
 40
0.8749685489
 40
1.0
 40
1.0
 40
1.0
 40
1.0
 10
161.8396135911
 20
336.7099543663
 30
0.0
 10
159.1833325344
 20
338.021674076
 30
0.0
 10
153.7763812886
 20
340.4610075609
 30
0.0
 10
145.361369175
 20
343.3636678041
 30
0.0
 10
136.6570677595
 20
345.2649626865
 30
0.0
 10
127.766162991
 20
345.9323871459
 30
0.0
 10
118.8752583709
 20
345.2649625435
 30
0.0
 10
110.1709573118
 20
343.3636676601
 30
0.0
 10
101.7559455338
 20
340.4610074465
 30
0.0
 10
96.348994457
 20
338.0216740556
 30
0.0
 10
93.6927134415
 20
336.7099543663
 30
0.0
  0
SPLINE
  5
487
100
AcDbEntity
  8
KONSTRUKTIONSELEMENTE
100
AcDbSpline
 62
7
  6
CONTINUOUS
 70
0
 71
3
 72
15
 73
11
 74
0
 42
0.0000001
 43
0.0000001
 44
0.0000000001
 40
0.0
 40
0.0
 40
0.0
 40
0.0
 40
0.112851875
 40
0.2163238301
 40
0.3162101143
 40
0.4206407797
 40
0.537697301
 40
0.6727841709
 40
0.8275259796
 40
1.0
 40
1.0
 40
1.0
 40
1.0
 10
83.7661635163
 20
211.7099543663
 30
0.0
 10
82.5053794126
 20
211.7099543663
 30
0.0
 10
80.0790299861
 20
211.8899466473
 30
0.0
 10
76.6659958932
 20
212.9456825603
 30
0.0
 10
73.7742853179
 20
214.9128919778
 30
0.0
 10
71.5791505337
 20
217.8302566035
 30
0.0
 10
70.2009557888
 20
221.6185764367
 30
0.0
 10
69.7045524355
 20
226.1726776923
 30
0.0
 10
70.1638454294
 20
231.3448253871
 30
0.0
 10
71.1180822021
 20
234.8953266865
 30
0.0
 10
71.7661635163
 20
236.7099543663
 30
0.0
  0
SPLINE
  5
488
100
AcDbEntity
  8
0
100
AcDbSpline
 62
7
  6
CONTINUOUS
 70
0
 71
3
 72
14
 73
10
 74
0
 42
0.0000001
 43
0.0000001
 44
0.0000000001
 40
0.0
 40
0.0
 40
0.0
 40
0.0
 40
0.340110574
 40
0.4943868888
 40
0.6324773997
 40
0.7522767598
 40
0.8050314685
 40
0.8529785439
 40
1.0
 40
1.0
 40
1.0
 40
1.0
 10
414.5495417347
 20
592.2099543663
 30
0.0
 10
414.5495417347
 20
593.5488814427
 30
0.0
 10
414.7791930481
 20
595.5073035602
 30
0.0
 10
415.5178955305
 20
597.8895723029
 30
0.0
 10
416.1885361466
 20
599.3724399507
 30
0.0
 10
416.8399715493
 20
600.4119941919
 30
0.0
 10
417.3958350547
 20
601.0834643024
 30
0.0
 10
418.0795777336
 20
601.7655081147
 30
0.0
 10
418.8182221856
 20
602.2099543663
 30
0.0
 10
419.3970075087
 20
602.2099543663
 30
0.0
  0
SPLINE
  5
489
100
AcDbEntity
  8
0
100
AcDbSpline
 62
7
  6
CONTINUOUS
 70
0
 71
3
 72
9
 73
5
 74
0
 42
0.0000001
 43
0.0000001
 44
0.0000000001
 40
0.0
 40
0.0
 40
0.0
 40
0.0
 40
0.2403357403
 40
1.0
 40
1.0
 40
1.0
 40
1.0
 10
415.0852667454
 20
408.0060866543
 30
0.0
 10
414.998747634
 20
408.3349160266
 30
0.0
 10
414.6837359774
 20
409.7146131057
 30
0.0
 10
414.5495417347
 20
411.1352002036
 30
0.0
 10
414.5495417347
 20
412.2099543663
 30
0.0
  0
SPLINE
  5
48A
100
AcDbEntity
  8
0
100
AcDbSpline
 62
7
  6
CONTINUOUS
 70
0
 71
3
 72
9
 73
5
 74
0
 42
0.0000001
 43
0.0000001
 44
0.0000000001
 40
0.0
 40
0.0
 40
0.0
 40
0.0
 40
0.2575494586
 40
1.0
 40
1.0
 40
1.0
 40
1.0
 10
295.6209917561
 20
412.2099543663
 30
0.0
 10
295.6209917561
 20
411.8455700724
 30
0.0
 10
295.5755197439
 20
410.431199084
 30
0.0
 10
295.3525506367
 20
409.0219407565
 30
0.0
 10
295.0852667454
 20
408.0060866543
 30
0.0
  0
SPLINE
  5
48B
100
AcDbEntity
  8
0
100
AcDbSpline
 62
7
  6
CONTINUOUS
 70
0
 71
3
 72
14
 73
10
 74
0
 42
0.0000001
 43
0.0000001
 44
0.0000000001
 40
0.0
 40
0.0
 40
0.0
 40
0.0
 40
0.1470214492
 40
0.1949685304
 40
0.2477232455
 40
0.3675226105
 40
0.5056131163
 40
0.659889426
 40
1.0
 40
1.0
 40
1.0
 40
1.0
 10
290.7735259821
 20
602.2099543663
 30
0.0
 10
291.352311278
 20
602.2099543663
 30
0.0
 10
292.0909557289
 20
601.7655081354
 30
0.0
 10
292.7746984295
 20
601.0834643149
 30
0.0
 10
293.3305619746
 20
600.4119941485
 30
0.0
 10
293.9819973802
 20
599.3724398799
 30
0.0
 10
294.6526379791
 20
597.8895722476
 30
0.0
 10
295.3913404448
 20
595.5073035412
 30
0.0
 10
295.6209917561
 20
593.5488814434
 30
0.0
 10
295.6209917561
 20
592.2099543663
 30
0.0
  0
SPLINE
  5
48C
100
AcDbEntity
  8
KONSTRUKTIONSELEMENTE
100
AcDbSpline
 62
7
  6
CONTINUOUS
 70
0
 71
3
 72
17
 73
13
 74
0
 42
0.0000001
 43
0.0000001
 44
0.0000000001
 40
0.0
 40
0.0
 40
0.0
 40
0.0
 40
0.040128914
 40
0.0825402473
 40
0.1283248662
 40
0.1780747156
 40
0.2897536504
 40
0.4161694952
 40
0.5538516086
 40
0.6990880892
 40
0.8486394815
 40
1.0
 40
1.0
 40
1.0
 40
1.0
 10
183.7661635163
 20
129.8943898058
 30
0.0
 10
184.1096558792
 20
129.4172139844
 30
0.0
 10
184.7107252458
 20
128.3562348253
 30
0.0
 10
185.3079664043
 20
126.5637388719
 30
0.0
 10
185.6332441652
 20
124.56170997
 30
0.0
 10
185.7285486715
 20
121.5207279891
 30
0.0
 10
185.1917148238
 20
117.3139591286
 30
0.0
 10
183.7639915701
 20
111.9863821713
 30
0.0
 10
181.6270129413
 20
106.3730082897
 30
0.0
 10
178.8754838796
 20
100.6578675411
 30
0.0
 10
175.5899938869
 20
94.999854351
 30
0.0
 10
173.0914680334
 20
91.361183659
 30
0.0
 10
171.7661635163
 20
89.5831010643
 30
0.0
  0
SPLINE
  5
48D
100
AcDbEntity
  8
KONSTRUKTIONSELEMENTE
100
AcDbSpline
 62
7
  6
CONTINUOUS
 70
0
 71
3
 72
17
 73
13
 74
0
 42
0.0000001
 43
0.0000001
 44
0.0000000001
 40
0.0
 40
0.0
 40
0.0
 40
0.0
 40
0.1513605154
 40
0.3009119068
 40
0.4461483884
 40
0.5838305038
 40
0.7102463467
 40
0.8219252828
 40
0.8716751328
 40
0.9174597522
 40
0.9598710859
 40
1.0
 40
1.0
 40
1.0
 40
1.0
 10
83.7661635163
 20
89.5831010643
 30
0.0
 10
82.4408590265
 20
91.3611836225
 30
0.0
 10
79.9423332028
 20
94.9998542636
 30
0.0
 10
76.6568432229
 20
100.6578674101
 30
0.0
 10
73.9053141374
 20
106.3730081798
 30
0.0
 10
71.7683354926
 20
111.9863820725
 30
0.0
 10
70.3406122284
 20
117.3139590464
 30
0.0
 10
69.8037783634
 20
121.520727906
 30
0.0
 10
69.8990828634
 20
124.5617099223
 30
0.0
 10
70.2243606215
 20
126.5637388481
 30
0.0
 10
70.821601783
 20
128.3562348166
 30
0.0
 10
71.4226711526
 20
129.4172139831
 30
0.0
 10
71.7661635163
 20
129.8943898058
 30
0.0
  0
SPLINE
  5
48E
100
AcDbEntity
  8
KONSTRUKTIONSELEMENTE
100
AcDbSpline
 62
7
  6
CONTINUOUS
 70
0
 71
3
 72
17
 73
13
 74
0
 42
0.0000001
 43
0.0000001
 44
0.0000000001
 40
0.0
 40
0.0
 40
0.0
 40
0.0
 40
0.0401280019
 40
0.0825380534
 40
0.1283223507
 40
0.1780720323
 40
0.2897507762
 40
0.4161671781
 40
0.5538502033
 40
0.699086835
 40
0.8486386789
 40
1.0
 40
1.0
 40
1.0
 40
1.0
 10
71.7661635163
 20
49.2718123229
 30
0.0
 10
71.4226789536
 20
49.7489773085
 30
0.0
 10
70.8216160515
 20
50.8099227471
 30
0.0
 10
70.2243839622
 20
52.6023827811
 30
0.0
 10
69.8990902629
 20
54.6043823855
 30
0.0
 10
69.8037735289
 20
57.6453546743
 30
0.0
 10
70.3405864001
 20
61.8521290358
 30
0.0
 10
71.768304684
 20
67.1797276355
 30
0.0
 10
73.9052837
 20
72.7931269065
 30
0.0
 10
76.6568192787
 20
78.5082894338
 30
0.0
 10
79.9423162829
 20
84.1663225289
 30
0.0
 10
82.4408519443
 20
87.8050090045
 30
0.0
 10
83.7661635163
 20
89.5831010643
 30
0.0
  0
SPLINE
  5
48F
100
AcDbEntity
  8
KONSTRUKTIONSELEMENTE
100
AcDbSpline
 62
7
  6
CONTINUOUS
 70
0
 71
3
 72
17
 73
13
 74
0
 42
0.0000001
 43
0.0000001
 44
0.0000000001
 40
0.0
 40
0.0
 40
0.0
 40
0.0
 40
0.1513613162
 40
0.3009131563
 40
0.4461497844
 40
0.5838328073
 40
0.7102492069
 40
0.8219279517
 40
0.8716776375
 40
0.9174619408
 40
0.9598719987
 40
1.0
 40
1.0
 40
1.0
 40
1.0
 10
171.7661635163
 20
89.5831010643
 30
0.0
 10
173.0914750448
 20
87.8050090629
 30
0.0
 10
175.5900106384
 20
84.1663226964
 30
0.0
 10
178.8755075728
 20
78.5082897697
 30
0.0
 10
181.6270431174
 20
72.7931273847
 30
0.0
 10
183.764022147
 20
67.179728247
 30
0.0
 10
185.191740484
 20
61.8521297187
 30
0.0
 10
185.7285534671
 20
57.6453553334
 30
0.0
 10
185.6332368184
 20
54.604382878
 30
0.0
 10
185.3079431253
 20
52.6023830269
 30
0.0
 10
184.7107110313
 20
50.8099228065
 30
0.0
 10
184.1096480737
 20
49.7489773011
 30
0.0
 10
183.7661635163
 20
49.2718123229
 30
0.0
  0
SPLINE
  5
490
100
AcDbEntity
  8
KONSTRUKTIONSELEMENTE
100
AcDbSpline
 62
7
  6
CONTINUOUS
 70
0
 71
3
 72
13
 73
9
 74
0
 42
0.0000001
 43
0.0000001
 44
0.0000000001
 40
0.0
 40
0.0
 40
0.0
 40
0.0
 40
0.1480819161
 40
0.2902523994
 40
0.425282568
 40
0.5535265927
 40
0.7897340824
 40
1.0
 40
1.0
 40
1.0
 40
1.0
 10
138.5161635163
 20
35.6662250161
 30
0.0
 10
138.9253368178
 20
35.6662250161
 30
0.0
 10
139.7329277306
 20
35.8223190675
 30
0.0
 10
140.7712992984
 20
36.398341765
 30
0.0
 10
141.6167794614
 20
37.1430766241
 30
0.0
 10
142.4936492866
 20
38.2143915619
 30
0.0
 10
143.2508039529
 20
39.6292053581
 30
0.0
 10
143.5161635163
 20
40.8627834972
 30
0.0
 10
143.5161635163
 20
41.4437808393
 30
0.0
  0
SPLINE
  5
491
100
AcDbEntity
  8
KONSTRUKTIONSELEMENTE
100
AcDbSpline
 62
7
  6
CONTINUOUS
 70
0
 71
3
 72
13
 73
9
 74
0
 42
0.0000001
 43
0.0000001
 44
0.0000000001
 40
0.0
 40
0.0
 40
0.0
 40
0.0
 40
0.148081567
 40
0.2902516857
 40
0.4252818983
 40
0.5535261232
 40
0.7897339117
 40
1.0
 40
1.0
 40
1.0
 40
1.0
 10
117.0161635163
 20
143.4999771126
 30
0.0
 10
116.6069911785
 20
143.4999771126
 30
0.0
 10
115.7994021324
 20
143.343884223
 30
0.0
 10
114.7610320184
 20
142.7678627737
 30
0.0
 10
113.9155511267
 20
142.0231292986
 30
0.0
 10
113.0386794916
 20
140.9518138156
 30
0.0
 10
112.2815235901
 20
139.5369985143
 30
0.0
 10
112.0161635163
 20
138.3034191045
 30
0.0
 10
112.0161635163
 20
137.7224212893
 30
0.0
  0
SPLINE
  5
492
100
AcDbEntity
  8
KONSTRUKTIONSELEMENTE
100
AcDbSpline
 62
7
  6
CONTINUOUS
 70
0
 71
3
 72
13
 73
9
 74
0
 42
0.0000001
 43
0.0000001
 44
0.0000000001
 40
0.0
 40
0.0
 40
0.0
 40
0.0
 40
0.2102578419
 40
0.4464525467
 40
0.5746890479
 40
0.7097170818
 40
0.8518922512
 40
1.0
 40
1.0
 40
1.0
 40
1.0
 10
112.0161635163
 20
41.4437808393
 30
0.0
 10
112.0161635163
 20
40.8628056959
 30
0.0
 10
112.2814956643
 20
39.6292846196
 30
0.0
 10
113.0385884872
 20
38.2145245591
 30
0.0
 10
113.9154031286
 20
37.1432495966
 30
0.0
 10
114.7608152678
 20
36.3984554056
 30
0.0
 10
115.7992490034
 20
35.8223837365
 30
0.0
 10
116.6069187538
 20
35.6662250161
 30
0.0
 10
117.0161635163
 20
35.6662250161
 30
0.0
  0
SPLINE
  5
493
100
AcDbEntity
  8
KONSTRUKTIONSELEMENTE
100
AcDbSpline
 62
7
  6
CONTINUOUS
 70
0
 71
3
 72
13
 73
9
 74
0
 42
0.0000001
 43
0.0000001
 44
0.0000000001
 40
0.0
 40
0.0
 40
0.0
 40
0.0
 40
0.2102576341
 40
0.446452001
 40
0.5746882539
 40
0.7097161879
 40
0.8518918235
 40
1.0
 40
1.0
 40
1.0
 40
1.0
 10
143.5161635163
 20
137.7224212893
 30
0.0
 10
143.5161635163
 20
138.3033958533
 30
0.0
 10
143.2508318233
 20
139.5369153352
 30
0.0
 10
142.4937411072
 20
140.9516740652
 30
0.0
 10
141.6169278048
 20
142.0229475407
 30
0.0
 10
140.7715170372
 20
142.7677437704
 30
0.0
 10
139.7330815099
 20
143.3438168728
 30
0.0
 10
138.9254094569
 20
143.4999771126
 30
0.0
 10
138.5161635163
 20
143.4999771126
 30
0.0
  0
ELLIPSE
  5
494
100
AcDbEntity
  8
0
100
AcDbEllipse
 62
7
  6
CONTINUOUS
 10
127.7661635163
 20
434.0998352271
 30
0.0
 11
69.0
 21
-0.0
 31
0.0
 40
0.3730158455
 41
9.3158671273
 42
9.4132143372
  0
ELLIPSE
  5
495
100
AcDbEntity
  8
0
100
AcDbEllipse
 62
7
  6
CONTINUOUS
 10
127.7661635163
 20
441.1162030866
 30
0.0
 11
69.0
 21
-0.0
 31
0.0
 40
0.1958337302
 41
3.0837435576
 42
3.106895588
  0
ELLIPSE
  5
496
100
AcDbEntity
  8
0
100
AcDbEllipse
 62
7
  6
CONTINUOUS
 10
127.7661635163
 20
439.9443288561
 30
0.0
 11
69.0
 21
-0.0
 31
0.0
 40
0.4895835394
 41
3.0652001487
 42
3.0837435576
  0
ELLIPSE
  5
497
100
AcDbEntity
  8
0
100
AcDbEllipse
 62
7
  6
CONTINUOUS
 10
127.7661635163
 20
437.3662096745
 30
0.0
 11
69.0
 21
-0.0
 31
0.0
 40
0.9791657639
 41
3.0466303808
 42
3.0652001487
  0
ELLIPSE
  5
498
100
AcDbEntity
  8
0
100
AcDbEllipse
 62
7
  6
CONTINUOUS
 10
127.7661635163
 20
430.9599478112
 30
0.0
 11
0.0
 21
135.1250627966
 31
0.0
 40
0.5106380606
 41
1.466537242
 42
1.475834054
  0
ELLIPSE
  5
499
100
AcDbEntity
  8
0
100
AcDbEllipse
 62
7
  6
CONTINUOUS
 10
127.7661635163
 20
409.8662166146
 30
0.0
 11
0.0
 21
337.8123818316
 31
0.0
 40
0.2042553906
 41
1.4618854934
 42
1.466537242
  0
ELLIPSE
  5
49A
100
AcDbEntity
  8
0
100
AcDbEllipse
 62
7
  6
CONTINUOUS
 10
127.7661635163
 20
484.5536915219
 30
0.0
 11
0.0
 21
337.8123818316
 31
0.0
 40
0.2042553906
 41
-4.6081298956
 42
-4.603478147
  0
ELLIPSE
  5
49B
100
AcDbEntity
  8
0
100
AcDbEllipse
 62
7
  6
CONTINUOUS
 10
127.7661635163
 20
463.4599603253
 30
0.0
 11
0.0
 21
135.1250627966
 31
0.0
 40
0.5106380606
 41
-4.6174267076
 42
-4.6081298956
  0
ELLIPSE
  5
49C
100
AcDbEntity
  8
0
100
AcDbEllipse
 62
7
  6
CONTINUOUS
 10
127.7661635163
 20
457.0537076262
 30
0.0
 11
69.0
 21
-0.0
 31
0.0
 40
0.9791671646
 41
-3.0652001487
 42
-3.0466303808
  0
ELLIPSE
  5
49D
100
AcDbEntity
  8
0
100
AcDbEllipse
 62
7
  6
CONTINUOUS
 10
127.7661635163
 20
454.4755773805
 30
0.0
 11
69.0
 21
0.0
 31
0.0
 40
0.4895828391
 41
-3.0837435576
 42
-3.0652001487
  0
ELLIPSE
  5
49E
100
AcDbEntity
  8
0
100
AcDbEllipse
 62
7
  6
CONTINUOUS
 10
127.7661635163
 20
453.3037059439
 30
0.0
 11
69.0
 21
0.0
 31
0.0
 40
0.1958337302
 41
-3.106895588
 42
-3.0837435576
  0
ELLIPSE
  5
49F
100
AcDbEntity
  8
0
100
AcDbEllipse
 62
7
  6
CONTINUOUS
 10
127.7661635163
 20
499.5537335432
 30
0.0
 11
-0.0
 21
337.8127684273
 31
0.0
 40
0.2042551568
 41
-4.6081298956
 42
-4.603478147
  0
ELLIPSE
  5
4A0
100
AcDbEntity
  8
0
100
AcDbEllipse
 62
7
  6
CONTINUOUS
 10
127.7661635163
 20
478.4599419969
 30
0.0
 11
0.0
 21
135.1248694988
 31
0.0
 40
0.510638791
 41
-4.6174267076
 42
-4.6081298956
  0
ELLIPSE
  5
4A1
100
AcDbEntity
  8
0
100
AcDbEllipse
 62
7
  6
CONTINUOUS
 10
127.7661635163
 20
472.053698462
 30
0.0
 11
69.0
 21
0.0
 31
0.0
 40
0.9791657639
 41
-3.0652001487
 42
-3.0466303808
  0
ELLIPSE
  5
4A2
100
AcDbEntity
  8
0
100
AcDbEllipse
 62
7
  6
CONTINUOUS
 10
127.7661635163
 20
469.4755829685
 30
0.0
 11
69.0
 21
-0.0
 31
0.0
 40
0.4895842398
 41
-3.0837435576
 42
-3.0652001487
  0
ELLIPSE
  5
4A3
100
AcDbEntity
  8
0
100
AcDbEllipse
 62
7
  6
CONTINUOUS
 10
127.7661635163
 20
468.3037014736
 30
0.0
 11
69.0
 21
0.0
 31
0.0
 40
0.1958326096
 41
-3.106895588
 42
-3.0837435576
  0
ELLIPSE
  5
4A4
100
AcDbEntity
  8
0
100
AcDbEllipse
 62
7
  6
CONTINUOUS
 10
127.7661635163
 20
487.8349555584
 30
0.0
 11
69.0
 21
-0.0
 31
0.0
 40
0.3333334923
 41
9.3158671273
 42
9.4247779608
  0
ELLIPSE
  5
4A5
100
AcDbEntity
  8
0
100
AcDbEllipse
 62
7
  6
CONTINUOUS
 10
127.7661635163
 20
495.3349555584
 30
0.0
 11
69.0
 21
-0.0
 31
0.0
 40
0.3333334923
 41
-3.1415926536
 42
-3.0326818202
  0
ELLIPSE
  5
4A6
100
AcDbEntity
  8
0
100
AcDbEllipse
 62
7
  6
CONTINUOUS
 10
127.7661635163
 20
543.7795551321
 30
0.0
 11
-0.0
 21
76.7755231418
 31
0.0
 40
0.8987239315
 41
-4.7123889804
 42
-4.6267152945
  0
ELLIPSE
  5
4A7
100
AcDbEntity
  8
0
100
AcDbEllipse
 62
7
  6
CONTINUOUS
 10
127.7661635163
 20
547.0224386569
 30
0.0
 11
69.0
 21
-0.0
 31
0.0
 40
0.3916696467
 41
3.0652001487
 42
3.0883760493
  0
ELLIPSE
  5
4A8
100
AcDbEntity
  8
0
100
AcDbEllipse
 62
7
  6
CONTINUOUS
 10
127.7661635163
 20
543.9287043116
 30
0.0
 11
69.0
 21
-0.0
 31
0.0
 40
0.9791666691
 41
3.0512756501
 42
3.0652001487
  0
ELLIPSE
  5
4A9
100
AcDbEntity
  8
0
100
AcDbEllipse
 62
7
  6
CONTINUOUS
 10
127.7661635163
 20
539.8661729843
 30
0.0
 11
0.0
 21
112.6045138729
 31
0.0
 40
0.612764068
 41
1.466537242
 42
1.4804793233
  0
ELLIPSE
  5
4AA
100
AcDbEntity
  8
0
100
AcDbEllipse
 62
7
  6
CONTINUOUS
 10
127.7661635163
 20
516.4289225487
 30
0.0
 11
-0.0
 21
337.8104488529
 31
0.0
 40
0.2042565594
 41
1.4618854934
 42
1.466537242
  0
ELLIPSE
  5
4AB
100
AcDbEntity
  8
0
100
AcDbEllipse
 62
7
  6
CONTINUOUS
 10
127.7661635163
 20
591.7413128173
 30
0.0
 11
-0.0
 21
337.8135416188
 31
0.0
 40
0.2042546893
 41
-4.6081298956
 42
-4.603478147
  0
ELLIPSE
  5
4AC
100
AcDbEntity
  8
0
100
AcDbEllipse
 62
7
  6
CONTINUOUS
 10
127.7661635163
 20
568.3037405166
 30
0.0
 11
-0.0
 21
112.6045138729
 31
0.0
 40
0.612764068
 41
-4.6220719769
 42
-4.6081298956
  0
ELLIPSE
  5
4AD
100
AcDbEntity
  8
0
100
AcDbEllipse
 62
7
  6
CONTINUOUS
 10
127.7661635163
 20
564.2412091894
 30
0.0
 11
69.0
 21
0.0
 31
0.0
 40
0.9791666691
 41
-3.0652001487
 42
-3.0512756501
  0
ELLIPSE
  5
4AE
100
AcDbEntity
  8
0
100
AcDbEllipse
 62
7
  6
CONTINUOUS
 10
127.7661635163
 20
561.1474276371
 30
0.0
 11
69.0
 21
-0.0
 31
0.0
 40
0.3916606821
 41
-3.0883760493
 42
-3.0652001487
  0
ELLIPSE
  5
4AF
100
AcDbEntity
  8
0
100
AcDbEllipse
 62
7
  6
CONTINUOUS
 10
127.7661635163
 20
552.014641497
 30
0.0
 11
69.0
 21
0.0
 31
0.0
 40
0.7343748304
 41
-3.1207770919
 42
-3.1022670677
  0
ELLIPSE
  5
4B0
100
AcDbEntity
  8
0
100
AcDbEllipse
 62
7
  6
CONTINUOUS
 10
127.7661635163
 20
553.7724436374
 30
0.0
 11
-0.0
 21
135.1245006471
 31
0.0
 40
0.5106401849
 41
-4.7008253568
 42
-4.6915734187
  0
ELLIPSE
  5
4B1
100
AcDbEntity
  8
0
100
AcDbEllipse
 62
7
  6
CONTINUOUS
 10
127.7661635163
 20
555.3349734398
 30
0.0
 11
-0.0
 21
270.2520940604
 31
0.0
 40
0.2553171706
 41
-4.7054509052
 42
-4.7008253568
  0
ELLIPSE
  5
4B2
100
AcDbEntity
  8
0
100
AcDbEllipse
 62
7
  6
CONTINUOUS
 10
127.7661635163
 20
552.8349615188
 30
0.0
 11
0.0
 21
270.2490012943
 31
0.0
 40
0.2553200925
 41
1.5592327032
 42
1.5638582516
  0
ELLIPSE
  5
4B3
100
AcDbEntity
  8
0
100
AcDbEllipse
 62
7
  6
CONTINUOUS
 10
127.7661635163
 20
554.397437677
 30
0.0
 11
0.0
 21
135.1260470302
 31
0.0
 40
0.5106343412
 41
1.5499807651
 42
1.5592327032
  0
ELLIPSE
  5
4B4
100
AcDbEntity
  8
0
100
AcDbEllipse
 62
7
  6
CONTINUOUS
 10
127.7661635163
 20
556.155272004
 30
0.0
 11
69.0
 21
0.0
 31
0.0
 40
0.7343748304
 41
3.1022670677
 42
3.1207770919
  0
ELLIPSE
  5
4B5
100
AcDbEntity
  8
0
100
AcDbEllipse
 62
7
  6
CONTINUOUS
 10
127.7661635163
 20
434.5537033977
 30
0.0
 11
69.0
 21
-0.0
 31
0.0
 40
0.9791672503
 41
3.1161500654
 42
3.1207770919
  0
ELLIPSE
  5
4B6
100
AcDbEntity
  8
0
100
AcDbEllipse
 62
7
  6
CONTINUOUS
 10
127.7661635163
 20
431.7412040683
 30
0.0
 11
-0.0
 21
202.6875241622
 31
0.0
 40
0.3404254913
 41
1.5499807651
 42
1.5546069074
  0
ELLIPSE
  5
4B7
100
AcDbEntity
  8
0
100
AcDbEllipse
 62
7
  6
CONTINUOUS
 10
127.7661635163
 20
424.7099720055
 30
0.0
 11
0.0
 21
270.2497744858
 31
0.0
 40
0.255319362
 41
1.4897641058
 42
1.4944038219
  0
ELLIPSE
  5
4B8
100
AcDbEntity
  8
0
100
AcDbEllipse
 62
7
  6
CONTINUOUS
 10
127.7661635163
 20
437.6005816859
 30
0.0
 11
-0.0
 21
101.3437265928
 31
0.0
 40
0.6808512211
 41
1.4944038219
 42
1.5036784173
  0
ELLIPSE
  5
4B9
100
AcDbEntity
  8
0
100
AcDbEllipse
 62
7
  6
CONTINUOUS
 10
127.7661635163
 20
441.3766155754
 30
0.0
 11
69.0
 21
0.0
 31
0.0
 40
0.6527791007
 41
3.0744747441
 42
3.0883760493
  0
ELLIPSE
  5
4BA
100
AcDbEntity
  8
0
100
AcDbEllipse
 62
7
  6
CONTINUOUS
 10
127.7661635163
 20
442.8740195881
 30
0.0
 11
69.0
 21
-0.0
 31
0.0
 40
0.244790762
 41
3.0883760493
 42
3.106895588
  0
ELLIPSE
  5
4BB
100
AcDbEntity
  8
0
100
AcDbEllipse
 62
7
  6
CONTINUOUS
 10
127.7661635163
 20
557.5224543663
 30
0.0
 11
0.0
 21
135.122954264
 31
0.0
 40
0.5106460288
 41
1.5684836516
 42
1.573109002
  0
ELLIPSE
  5
4BC
100
AcDbEntity
  8
0
100
AcDbEllipse
 62
7
  6
CONTINUOUS
 10
127.7661635163
 20
560.842771491
 30
0.0
 11
69.0
 21
-0.0
 31
0.0
 40
0.734374959
 41
-3.0883760493
 42
-3.0698382176
  0
ELLIPSE
  5
4BD
100
AcDbEntity
  8
0
100
AcDbEllipse
 62
7
  6
CONTINUOUS
 10
127.7661635163
 20
566.8975343576
 30
0.0
 11
0.0
 21
135.1260470302
 31
0.0
 40
0.5106343412
 41
-4.6406345444
 42
-4.6313567594
  0
ELLIPSE
  5
4BE
100
AcDbEntity
  8
0
100
AcDbEllipse
 62
7
  6
CONTINUOUS
 10
127.7661635163
 20
577.8348687777
 30
0.0
 11
0.0
 21
270.2490012943
 31
0.0
 40
0.2553200925
 41
-4.6313567594
 42
-4.6267152945
  0
ELLIPSE
  5
4BF
100
AcDbEntity
  8
0
100
AcDbEllipse
 62
7
  6
CONTINUOUS
 10
127.7661635163
 20
541.1849539376
 30
0.0
 11
-0.0
 21
75.6700232795
 31
0.0
 40
0.9118538228
 41
7.8367012725
 42
7.9396553199
  0
ELLIPSE
  5
4C0
100
AcDbEntity
  8
0
100
AcDbEllipse
 62
7
  6
CONTINUOUS
 10
127.7661635163
 20
550.6474519821
 30
0.0
 11
0.0
 21
135.1260470302
 31
0.0
 40
0.5106343412
 41
1.5684836516
 42
1.573109002
  0
ELLIPSE
  5
4C1
100
AcDbEntity
  8
0
100
AcDbEllipse
 62
7
  6
CONTINUOUS
 10
127.7661635163
 20
550.5432821365
 30
0.0
 11
-0.0
 21
90.0830004314
 31
0.0
 40
0.7659602774
 41
-4.7100763051
 42
-4.696199561
  0
ELLIPSE
  5
4C2
100
AcDbEntity
  8
0
100
AcDbEllipse
 62
7
  6
CONTINUOUS
 10
127.7661635163
 20
530.3347800786
 30
0.0
 11
-0.0
 21
270.2520940604
 31
0.0
 40
0.2553171706
 41
1.4851226409
 42
1.4897641058
  0
ELLIPSE
  5
4C3
100
AcDbEntity
  8
0
100
AcDbEllipse
 62
7
  6
CONTINUOUS
 10
127.7661635163
 20
466.5458885484
 30
0.0
 11
69.0
 21
-0.0
 31
0.0
 40
0.244790762
 41
-3.106895588
 42
-3.0883760493
  0
ELLIPSE
  5
4C4
100
AcDbEntity
  8
0
100
AcDbEllipse
 62
7
  6
CONTINUOUS
 10
127.7661635163
 20
493.4523320671
 30
0.0
 11
69.0
 21
-0.0
 31
0.0
 40
0.3343499578
 41
3.1011501231
 42
3.2226248746
  0
ELLIPSE
  5
4C5
100
AcDbEntity
  8
0
100
AcDbEllipse
 62
7
  6
CONTINUOUS
 10
127.7661635163
 20
468.0432925611
 30
0.0
 11
69.0
 21
-0.0
 31
0.0
 40
0.6527791007
 41
-3.0883760493
 42
-3.0744747441
  0
ELLIPSE
  5
4C6
100
AcDbEntity
  8
0
100
AcDbEllipse
 62
7
  6
CONTINUOUS
 10
127.7661635163
 20
489.71757495
 30
0.0
 11
69.0
 21
-0.0
 31
0.0
 40
0.3343494112
 41
3.0605604326
 42
3.1820351165
  0
ELLIPSE
  5
4C7
100
AcDbEntity
  8
0
100
AcDbEllipse
 62
7
  6
CONTINUOUS
 10
127.7661635163
 20
471.8193264507
 30
0.0
 11
-0.0
 21
101.3437265928
 31
0.0
 40
0.6808512211
 41
-4.6452710709
 42
-4.6359964755
  0
ELLIPSE
  5
4C8
100
AcDbEntity
  8
0
100
AcDbEllipse
 62
7
  6
CONTINUOUS
 10
127.7661635163
 20
484.709936131
 30
0.0
 11
-0.0
 21
270.2497744858
 31
0.0
 40
0.255319362
 41
-4.6359964755
 42
-4.6313567594
  0
ELLIPSE
  5
4C9
100
AcDbEntity
  8
0
100
AcDbEllipse
 62
7
  6
CONTINUOUS
 10
127.7661635163
 20
541.272490008
 30
0.0
 11
0.0
 21
135.1245006471
 31
0.0
 40
0.5106401849
 41
1.4897641058
 42
1.4990418908
  0
ELLIPSE
  5
4CA
100
AcDbEntity
  8
0
100
AcDbEllipse
 62
7
  6
CONTINUOUS
 10
127.7661635163
 20
547.3271420099
 30
0.0
 11
69.0
 21
-0.0
 31
0.0
 40
0.734374959
 41
9.3530235248
 42
9.3715613565
  0
ELLIPSE
  5
4CB
100
AcDbEntity
  8
0
100
AcDbEllipse
 62
7
  6
CONTINUOUS
 10
127.7661635163
 20
549.5224575816
 30
0.0
 11
69.0
 21
0.0
 31
0.0
 40
0.3916695918
 41
-3.1254032342
 42
-3.1022670677
  0
ELLIPSE
  5
4CC
100
AcDbEntity
  8
0
100
AcDbEllipse
 62
7
  6
CONTINUOUS
 10
127.7661635163
 20
436.2113133674
 30
0.0
 11
69.0
 21
-0.0
 31
0.0
 40
0.3831521729
 41
9.3158671273
 42
9.4224652855
  0
ELLIPSE
  5
4CD
100
AcDbEntity
  8
0
100
AcDbEllipse
 62
7
  6
CONTINUOUS
 10
127.7661635163
 20
558.6474659329
 30
0.0
 11
69.0
 21
0.0
 31
0.0
 40
0.3916606273
 41
9.3854523749
 42
9.4085885414
  0
ELLIPSE
  5
4CE
100
AcDbEntity
  8
0
100
AcDbEllipse
 62
7
  6
CONTINUOUS
 10
127.7661635163
 20
557.6266146751
 30
0.0
 11
-0.0
 21
90.0840313535
 31
0.0
 40
0.7659515118
 41
7.8377922146
 42
7.8516689587
  0
ELLIPSE
  5
4CF
100
AcDbEntity
  8
0
100
AcDbEllipse
 62
7
  6
CONTINUOUS
 10
127.7661635163
 20
451.5458936893
 30
0.0
 11
69.0
 21
-0.0
 31
0.0
 40
0.2447921628
 41
-3.106895588
 42
-3.0883760493
  0
ELLIPSE
  5
4D0
100
AcDbEntity
  8
0
100
AcDbEllipse
 62
7
  6
CONTINUOUS
 10
127.7661635163
 20
453.0432857066
 30
0.0
 11
69.0
 21
-0.0
 31
0.0
 40
0.6527772331
 41
-3.0883760493
 42
-3.0744747441
  0
ELLIPSE
  5
4D1
100
AcDbEntity
  8
0
100
AcDbEllipse
 62
7
  6
CONTINUOUS
 10
127.7661635163
 20
456.8193282388
 30
0.0
 11
-0.0
 21
101.3437265928
 31
0.0
 40
0.6808512211
 41
-4.6452710709
 42
-4.6359964755
  0
ELLIPSE
  5
4D2
100
AcDbEntity
  8
0
100
AcDbEllipse
 62
7
  6
CONTINUOUS
 10
127.7661635163
 20
469.7099674234
 30
0.0
 11
0.0
 21
270.2501610816
 31
0.0
 40
0.2553189968
 41
-4.6359964755
 42
-4.6313567594
  0
ENDSEC
  0
SECTION
  2
OBJECTS
  0
DICTIONARY
  5
C
100
AcDbDictionary
280
0
281
1
  3
ACAD_GROUP
350
D
  3
ACAD_MLINESTYLE
350
17
  3
ACAD_LAYOUT
350
1A
  3
ACAD_PLOTSETTINGS
350
19
  3
ACAD_PLOTSTYLENAME
350
E
  0
DICTIONARY
  5
D
102
{ACAD_REACTORS
330
C
102
}
100
AcDbDictionary
280
0
281
1
  0
ACDBDICTIONARYWDFLT
  5
E
102
{ACAD_REACTORS
330
C
102
}
100
AcDbDictionary
281
1
  3
Normal
350
F
100
AcDbDictionaryWithDefault
340
F
  0
DICTIONARY
  5
17
102
{ACAD_REACTORS
330
C
102
}
100
AcDbDictionary
280
0
281
1
  3
Standard
350
18
  0
DICTIONARY
  5
19
102
{ACAD_REACTORS
330
C
102
}
100
AcDbDictionary
281
1
  0
DICTIONARY
  5
1A
102
{ACAD_REACTORS
330
C
102
}
100
AcDbDictionary
281
1
  3
Model
350
4D3
  3
Layout1
350
4D4
  0
ACDBPLACEHOLDER
  5
F
102
{ACAD_REACTORS
330
E
102
}
  0
MLINESTYLE
  5
18
102
{ACAD_REACTORS
330
17
102
}
100
AcDbMlineStyle
  2
STANDARD
 70
0
  3

 62
256
 51
90.0
 52
90.0
 71
2
 49
0.5
 62
256
  6
BYLAYER
 49
-0.5
 62
256
  6
BYLAYER
  0
LAYOUT
  5
4D3
102
{ACAD_REACTORS
330
1A
102
}
100
AcDbPlotSettings
  1

  2
none_device
  4
ISO_A0_(1189.00_x_841.00_MM)
  6

 40
0.0
 41
0.0
 42
0.0
 43
0.0
 44
1189.0
 45
841.0
 46
0.0
 47
0.0
 48
0.0
 49
0.0
140
0.0
141
0.0
142
1.0
143
1.0
 70
1024
 72
1
 73
0
 74
0
  7

 75
0
147
1.0
148
0.0
149
0.0
100
AcDbLayout
  1
Model
 70
0
 71
0
 10
0.0
 20
0.0
 11
1189.0
 21
841.0
 12
0.0
 22
0.0
 32
0.0
 14
0.0
 24
0.0
 34
0.0
 15
0.0
 25
0.0
 35
0.0
146
0.0
 13
0.0
 23
0.0
 33
0.0
 16
1.0
 26
0.0
 36
0.0
 17
0.0
 27
1.0
 37
0.0
 76
0
330
20D
345
0
346
0
  0
LAYOUT
  5
4D4
102
{ACAD_REACTORS
330
1A
102
}
100
AcDbPlotSettings
  1

  2
none_device
  4
ISO_A0_(1189.00_x_841.00_MM)
  6

 40
0.0
 41
0.0
 42
0.0
 43
0.0
 44
1189.0
 45
841.0
 46
0.0
 47
0.0
 48
0.0
 49
0.0
140
0.0
141
0.0
142
1.0
143
1.0
 70
0
 72
1
 73
0
 74
0
  7

 75
0
147
1.0
148
0.0
149
0.0
100
AcDbLayout
  1
Layout1
 70
0
 71
1
 10
0.0
 20
0.0
 11
1189.0
 21
841.0
 12
0.0
 22
0.0
 32
0.0
 14
0.0
 24
0.0
 34
0.0
 15
0.0
 25
0.0
 35
0.0
146
0.0
 13
0.0
 23
0.0
 33
0.0
 16
1.0
 26
0.0
 36
0.0
 17
0.0
 27
1.0
 37
0.0
 76
0
330
20E
345
0
346
0
  0
ENDSEC
  0
EOF
