999
DXF file: 2vle20.dxf
999
Pro/ENGINEER 2010140 by Parametric Technology Corporation
  0
SECTION
  2
HEADER
  9
$ACADVER
  1
AC1021
  9
$DWGCODEPAGE
  3
ANSI_1252
  9
$EXTMAX
 10
420.0
 20
297.0
 30
0.0
  9
$EXTMIN
 10
0.0
 20
0.0
 30
0.0
  9
$LIMMIN
 10
0.0
 20
0.0
  9
$LIMMAX
 10
420.0
 20
297.0
  9
$VIEWCTR
 10
210.0
 20
148.5
  9
$VIEWSIZE
 40
297.0
  9
$CLAYER
  8
0
  9
$LTSCALE
 40
23.1
  9
$CELTYPE
  6
BYLAYER
  9
$DIMSCALE
 40
1.0
  9
$DIMASZ
 40
3.5
  9
$DIMEXO
 40
2.625
  9
$DIMDLI
 40
15.96
  9
$DIMEXE
 40
7.56
  9
$DIMCEN
 40
3.78
  9
$DIMLFAC
 40
1.0
  9
$DIMBLK
  1
_FILLED
  9
$DIMTXT
 40
3.5
  9
$DIMTOL
 70
1
  9
$DIMLIM
 70
0
  9
$DIMTFAC
 40
1.0
  9
$DIMTP
 40
0.005
  9
$DIMTM
 40
0.005
  9
$PDMODE
 70
3
  9
$PDSIZE
 40
0.3125
  9
$HANDSEED
  5
455
  9
$TILEMODE
 70
1
  9
$MEASUREMENT
 70
1
  9
$INSUNITS
 70
4
  0
ENDSEC
  0
SECTION
  2
CLASSES
  0
CLASS
  1
ACDBDICTIONARYWDFLT
  2
AcDbDictionaryWithDefault
  3
AutoCAD 2000
 90
0
 91
1
280
0
281
0
  0
CLASS
  1
ACDBPLACEHOLDER
  2
AcDbPlaceHolder
  3
AutoCAD 2000
 90
0
 91
1
280
0
281
0
  0
CLASS
  1
LAYOUT
  2
AcDbLayout
  3
AutoCAD 2000
 90
0
 91
0
280
0
281
0
  0
ENDSEC
  0
SECTION
  2
TABLES
  0
TABLE
  2
VPORT
  5
8
100
AcDbSymbolTable
 70
2
  0
VPORT
  5
1F4
100
AcDbSymbolTableRecord
100
AcDbViewportTableRecord
  2
*ACTIVE
 70
0
 10
0.0
 20
0.0
 11
1.0
 21
1.0
 12
210.0
 22
148.5
 13
0.0
 23
0.0
 14
1.0
 24
1.0
 15
0.0
 25
0.0
 16
0.0
 26
0.0
 36
1.0
 17
0.0
 27
0.0
 37
0.0
 40
297.0
 41
1.4141414141
 42
50.0
 43
0.0
 44
0.0
 50
0.0
 51
0.0
 71
0
 72
100
 73
1
 74
1
 75
0
 76
0
 77
0
 78
0
  0
ENDTAB
  0
TABLE
  2
LTYPE
  5
5
100
AcDbSymbolTable
 70
6
  0
LTYPE
  5
14
100
AcDbSymbolTableRecord
100
AcDbLinetypeTableRecord
  2
BYBLOCK
 70
0
  3

 72
65
 73
0
 40
0.0
  0
LTYPE
  5
15
100
AcDbSymbolTableRecord
100
AcDbLinetypeTableRecord
  2
BYLAYER
 70
0
  3

 72
65
 73
0
 40
0.0
  0
LTYPE
  5
16
100
AcDbSymbolTableRecord
100
AcDbLinetypeTableRecord
  2
CONTINUOUS
 70
64
  3
Solid line
 72
65
 73
0
 40
0.0
  0
LTYPE
  5
1F5
100
AcDbSymbolTableRecord
100
AcDbLinetypeTableRecord
  2
CENTER
 70
64
  3
____ _ ____ _ ____ _ ____ _ ____ _ ____ _ ____
 72
65
 73
4
 40
0.6
 49
0.375
 74
0
 49
-0.075
 74
0
 49
0.075
 74
0
 49
-0.075
 74
0
  0
LTYPE
  5
1F6
100
AcDbSymbolTableRecord
100
AcDbLinetypeTableRecord
  2
HIDDEN
 70
64
  3
- - - - - - - - - - - - - - - - - - - -
 72
65
 73
2
 40
0.2
 49
0.1
 74
0
 49
-0.1
 74
0
  0
LTYPE
  5
1F7
100
AcDbSymbolTableRecord
100
AcDbLinetypeTableRecord
  2
PHANTOM
 70
64
  3
_____ _ _ _____ _ _ _____ _ _ _____
 72
65
 73
6
 40
0.8
 49
0.45
 74
0
 49
-0.05
 74
0
 49
0.1
 74
0
 49
-0.05
 74
0
 49
0.1
 74
0
 49
-0.05
 74
0
  0
LTYPE
  5
1F8
100
AcDbSymbolTableRecord
100
AcDbLinetypeTableRecord
  2
DOT
 70
64
  3
. . . . . . . . . . . . . . . . . . . .
 72
65
 73
2
 40
0.2
 49
0.1
 74
0
 49
-0.1
 74
0
  0
LTYPE
  5
1F9
100
AcDbSymbolTableRecord
100
AcDbLinetypeTableRecord
  2
DASHED
 70
64
  3
- - - - - - - - - - - - - - - - - - - -
 72
65
 73
2
 40
0.2
 49
0.1
 74
0
 49
-0.1
 74
0
  0
ENDTAB
  0
TABLE
  2
LAYER
  5
2
100
AcDbSymbolTable
 70
36
  0
LAYER
  5
10
100
AcDbSymbolTableRecord
100
AcDbLayerTableRecord
  2
0
 70
0
 62
7
  6
CONTINUOUS
370
-3
390
F
  0
LAYER
  5
1FA
100
AcDbSymbolTableRecord
100
AcDbLayerTableRecord
  2
DEFAULT_1
 70
0
 62
7
  6
CENTER
370
-3
390
F
  0
LAYER
  5
1FB
100
AcDbSymbolTableRecord
100
AcDbLayerTableRecord
  2
DEFAULT_2
 70
0
 62
8
  6
HIDDEN
370
-3
390
F
  0
LAYER
  5
1FC
100
AcDbSymbolTableRecord
100
AcDbLayerTableRecord
  2
DEFAULT_3
 70
0
 62
7
  6
PHANTOM
370
-3
390
F
  0
LAYER
  5
1FD
100
AcDbSymbolTableRecord
100
AcDbLayerTableRecord
  2
BEZUGSACHSEN
 70
0
 62
7
  6
CONTINUOUS
370
-3
390
F
  0
LAYER
  5
1FE
100
AcDbSymbolTableRecord
100
AcDbLayerTableRecord
  2
BEZUGSEBENEN
 70
0
 62
7
  6
CONTINUOUS
370
-3
390
F
  0
LAYER
  5
1FF
100
AcDbSymbolTableRecord
100
AcDbLayerTableRecord
  2
FASEN
 70
0
 62
7
  6
CONTINUOUS
370
-3
390
F
  0
LAYER
  5
200
100
AcDbSymbolTableRecord
100
AcDbLayerTableRecord
  2
HILFEN
 70
0
 62
7
  6
CONTINUOUS
370
-3
390
F
  0
LAYER
  5
201
100
AcDbSymbolTableRecord
100
AcDbLayerTableRecord
  2
KONSTRUKTIONSELEMENTE
 70
0
 62
7
  6
CONTINUOUS
370
-3
390
F
  0
LAYER
  5
202
100
AcDbSymbolTableRecord
100
AcDbLayerTableRecord
  2
PLATZIERUNG
 70
0
 62
7
  6
CONTINUOUS
370
-3
390
F
  0
LAYER
  5
203
100
AcDbSymbolTableRecord
100
AcDbLayerTableRecord
  2
RUNDUNGEN
 70
0
 62
7
  6
CONTINUOUS
370
-3
390
F
  0
LAYER
  5
204
100
AcDbSymbolTableRecord
100
AcDbLayerTableRecord
  2
TEIL_STARTBEZUEGE
 70
0
 62
7
  6
CONTINUOUS
370
-3
390
F
  0
LAYER
  5
205
100
AcDbSymbolTableRecord
100
AcDbLayerTableRecord
  2
ZEICHNUNGSBEMASSUNGEN
 70
0
 62
7
  6
CONTINUOUS
370
-3
390
F
  0
ENDTAB
  0
TABLE
  2
STYLE
  5
3
100
AcDbSymbolTable
 70
1
  0
STYLE
  5
11
100
AcDbSymbolTableRecord
100
AcDbTextStyleTableRecord
  2
STANDARD
 70
0
 40
0.0
 41
0.7
 50
0.0
 71
0
 42
0.2
  3
txt
  4

  0
STYLE
  5
206
100
AcDbSymbolTableRecord
100
AcDbTextStyleTableRecord
  2
TEXTSTYLE_1
 70
0
 40
0.0
 41
0.8
 50
0.0
 71
0
 42
0.2
  3
gdt
  4

  0
ENDTAB
  0
TABLE
  2
VIEW
  5
6
100
AcDbSymbolTable
 70
0
  0
ENDTAB
  0
TABLE
  2
UCS
  5
7
100
AcDbSymbolTable
 70
0
  0
ENDTAB
  0
TABLE
  2
APPID
  5
9
100
AcDbSymbolTable
 70
1
  0
APPID
  5
207
100
AcDbSymbolTableRecord
100
AcDbRegAppTableRecord
  2
ACAD
 70
0
  0
ENDTAB
  0
TABLE
  2
BLOCK_RECORD
  5
1
100
AcDbSymbolTable
 70
0
  0
BLOCK_RECORD
  5
208
100
AcDbSymbolTableRecord
100
AcDbBlockTableRecord
  2
*Model_Space
  0
BLOCK_RECORD
  5
209
100
AcDbSymbolTableRecord
100
AcDbBlockTableRecord
  2
*Paper_Space
  0
ENDTAB
  0
TABLE
  2
DIMSTYLE
  5
A
100
AcDbSymbolTable
 70
1
100
AcDbDimStyleTable
 71
0
  0
DIMSTYLE
105
20A
100
AcDbSymbolTableRecord
100
AcDbDimStyleTableRecord
  2
STANDARD
 70
0
  3

  4

 40
1.0
 41
3.5
 42
0.0625
 43
0.38
 44
0.18
 45
0.0
 46
0.0
 47
0.005
 48
0.005
140
3.5
141
0.09
142
0.0
143
25.4
144
1.0
145
0.0
146
1.0
147
0.09
 71
1.0
 72
0.0
 73
0
 74
0
 75
0
 76
0
 77
1
 78
8
170
0
171
2
172
0
173
0
174
0
175
0
176
0
177
0
178
5
270
2
271
3
272
3
273
2
274
2
275
0
280
0
281
0
282
0
283
1
284
8
285
0
286
0
287
3
288
0
340
11
  0
ENDTAB
  0
ENDSEC
  0
SECTION
  2
BLOCKS
  0
BLOCK
  5
20
100
AcDbEntity
  8
0
100
AcDbBlockBegin
  2
*Model_Space
 70
0
 10
0.0
 20
0.0
 30
0.0
  3
*Model_Space
  1

  0
ENDBLK
  5
21
100
AcDbEntity
  8
0
100
AcDbBlockEnd
  0
BLOCK
  5
1C
100
AcDbEntity
  8
0
100
AcDbBlockBegin
  2
*Paper_Space
 70
0
 10
0.0
 20
0.0
 30
0.0
  3
*Paper_Space
  1

  0
ENDBLK
  5
1D
100
AcDbEntity
  8
0
100
AcDbBlockEnd
  0
ENDSEC
  0
SECTION
  2
ENTITIES
  0
MTEXT
  5
20B
100
AcDbEntity
  8
0
100
AcDbMText
 62
5
  6
CONTINUOUS
  7
STANDARD
 71
1
 72
1
 10
207.5196948997
 20
159.5432236804
 30
0.0
 11
1.0
 21
0.0
 31
0.0
 44
0.9
  1
RUD VLE 20/VIP
 40
12.0
 41
130.0
  0
LINE
  5
20C
100
AcDbEntity
  8
0
100
AcDbLine
 62
7
  6
CONTINUOUS
 10
0.0
 20
0.0
 11
0.0
 21
297.0
  0
LINE
  5
20D
100
AcDbEntity
  8
0
100
AcDbLine
 62
7
  6
CONTINUOUS
 10
0.0
 20
0.0
 11
420.0
 21
0.0
  0
LINE
  5
20E
100
AcDbEntity
  8
0
100
AcDbLine
 62
7
  6
CONTINUOUS
 10
0.0
 20
297.0
 11
420.0
 21
297.0
  0
LINE
  5
20F
100
AcDbEntity
  8
0
100
AcDbLine
 62
7
  6
CONTINUOUS
 10
420.0
 20
0.0
 11
420.0
 21
297.0
  0
LINE
  5
210
100
AcDbEntity
  8
BEZUGSACHSEN
100
AcDbLine
 62
2
  6
CENTER
 10
65.2201943316
 20
276.1478646669
 11
65.2201943316
 21
260.8978646669
  0
LINE
  5
211
100
AcDbEntity
  8
BEZUGSACHSEN
100
AcDbLine
 62
2
  6
CENTER
 10
65.2201943316
 20
276.1478646669
 11
65.2201943316
 21
291.3978646669
  0
LINE
  5
212
100
AcDbEntity
  8
FASEN
100
AcDbLine
 62
7
  6
CONTINUOUS
 10
133.7201943316
 20
221.1478646669
 11
125.7201943316
 21
229.1478646669
  0
LINE
  5
213
100
AcDbEntity
  8
0
100
AcDbLine
 62
7
  6
CONTINUOUS
 10
387.7201943316
 20
221.1478646669
 11
355.7201943316
 21
221.1478646669
  0
LINE
  5
214
100
AcDbEntity
  8
0
100
AcDbLine
 62
7
  6
CONTINUOUS
 10
190.7201943316
 20
221.1478646669
 11
133.7201943316
 21
221.1478646669
  0
LINE
  5
215
100
AcDbEntity
  8
0
100
AcDbLine
 62
7
  6
CONTINUOUS
 10
414.9008470396
 20
226.1478646669
 11
400.7201943316
 21
226.1478646669
  0
LINE
  5
216
100
AcDbEntity
  8
0
100
AcDbLine
 62
7
  6
CONTINUOUS
 10
120.7201943316
 20
226.1478646669
 11
106.5395416236
 21
226.1478646669
  0
LINE
  5
217
100
AcDbEntity
  8
FASEN
100
AcDbLine
 62
7
  6
CONTINUOUS
 10
120.7201943316
 20
226.1478646669
 11
120.7201943316
 21
326.1478646669
  0
LINE
  5
218
100
AcDbEntity
  8
FASEN
100
AcDbLine
 62
7
  6
CONTINUOUS
 10
125.7201943316
 20
229.1478646669
 11
125.7201943316
 21
323.1478646669
  0
LINE
  5
219
100
AcDbEntity
  8
FASEN
100
AcDbLine
 62
7
  6
CONTINUOUS
 10
133.7201943316
 20
221.1478646669
 11
133.7201943316
 21
331.1478646669
  0
LINE
  5
21A
100
AcDbEntity
  8
RUNDUNGEN
100
AcDbLine
 62
7
  6
CONTINUOUS
 10
340.7201943316
 20
230.0501423804
 11
205.7201943316
 21
230.0501423804
  0
LINE
  5
21B
100
AcDbEntity
  8
FASEN
100
AcDbLine
 62
7
  6
CONTINUOUS
 10
125.7201943316
 20
321.1478646669
 11
120.7201943316
 21
326.1478646669
  0
LINE
  5
21C
100
AcDbEntity
  8
0
100
AcDbLine
 62
7
  6
CONTINUOUS
 10
139.7201943316
 20
325.6478646669
 11
139.7201943316
 21
366.6478646669
  0
LINE
  5
21D
100
AcDbEntity
  8
BEZUGSACHSEN
100
AcDbLine
 62
7
  6
CONTINUOUS
 10
144.2201943316
 20
366.6478646669
 11
144.2201943316
 21
516.6478646669
  0
LINE
  5
21E
100
AcDbEntity
  8
0
100
AcDbLine
 62
7
  6
CONTINUOUS
 10
81.7201943316
 20
248.1478646669
 11
54.4160596359
 21
248.1478646669
  0
LINE
  5
21F
100
AcDbEntity
  8
0
100
AcDbLine
 62
7
  6
CONTINUOUS
 10
439.7201943316
 20
248.1478646669
 11
467.0243290272
 21
248.1478646669
  0
LINE
  5
220
100
AcDbEntity
  8
BEZUGSACHSEN
100
AcDbLine
 62
2
  6
CENTER
 10
156.7201943316
 20
519.6478646669
 11
156.7201943316
 21
363.6478646669
  0
LINE
  5
221
100
AcDbEntity
  8
BEZUGSACHSEN
100
AcDbLine
 62
7
  6
CONTINUOUS
 10
169.2201943316
 20
366.6478646669
 11
169.2201943316
 21
516.6478646669
  0
LINE
  5
222
100
AcDbEntity
  8
0
100
AcDbLine
 62
7
  6
CONTINUOUS
 10
170.7201943316
 20
325.6478646669
 11
170.7201943316
 21
366.6478646669
  0
LINE
  5
223
100
AcDbEntity
  8
0
100
AcDbLine
 62
7
  6
CONTINUOUS
 10
285.7048123963
 20
270.1478646669
 11
286.6732937398
 21
270.4031838077
  0
LINE
  5
224
100
AcDbEntity
  8
0
100
AcDbLine
 62
7
  6
CONTINUOUS
 10
284.7363310527
 20
281.8925455484
 11
285.7048123963
 21
282.1478646669
  0
LINE
  5
225
100
AcDbEntity
  8
0
100
AcDbLine
 62
7
  6
CONTINUOUS
 10
277.3113061873
 20
281.8925455484
 11
278.4412023196
 21
282.1478646669
  0
LINE
  5
226
100
AcDbEntity
  8
0
100
AcDbLine
 62
7
  6
CONTINUOUS
 10
304.7516096898
 20
270.1478646669
 11
303.7831283462
 21
270.1478646669
  0
LINE
  5
227
100
AcDbEntity
  8
0
100
AcDbLine
 62
7
  6
CONTINUOUS
 10
302.4918248141
 20
270.1478646669
 11
301.5233434706
 21
270.1478646669
  0
LINE
  5
228
100
AcDbEntity
  8
0
100
AcDbLine
 62
7
  6
CONTINUOUS
 10
297.6494180964
 20
270.1478646669
 11
296.3581071753
 21
270.1478646669
  0
LINE
  5
229
100
AcDbEntity
  8
0
100
AcDbLine
 62
7
  6
CONTINUOUS
 10
281.5080574446
 20
270.1478646669
 11
275.6971730777
 21
270.1478646669
  0
LINE
  5
22A
100
AcDbEntity
  8
0
100
AcDbLine
 62
7
  6
CONTINUOUS
 10
266.6580114082
 20
270.1478646669
 11
260.8471233469
 21
270.1478646669
  0
LINE
  5
22B
100
AcDbEntity
  8
0
100
AcDbLine
 62
7
  6
CONTINUOUS
 10
259.5558161203
 20
270.1478646669
 11
253.744928059
 21
270.1478646669
  0
LINE
  5
22C
100
AcDbEntity
  8
0
100
AcDbLine
 62
7
  6
CONTINUOUS
 10
249.8710026848
 20
270.1478646669
 11
248.5796954582
 21
270.1478646669
  0
LINE
  5
22D
100
AcDbEntity
  8
0
100
AcDbLine
 62
7
  6
CONTINUOUS
 10
234.375301188
 20
270.1478646669
 11
230.5013758138
 21
270.1478646669
  0
LINE
  5
22E
100
AcDbEntity
  8
0
100
AcDbLine
 62
7
  6
CONTINUOUS
 10
226.6274504396
 20
270.1478646669
 11
225.9817959027
 21
270.1478646669
  0
LINE
  5
22F
100
AcDbEntity
  8
0
100
AcDbLine
 62
7
  6
CONTINUOUS
 10
222.1078709903
 20
270.1478646669
 11
220.9779757816
 21
270.1478646669
  0
LINE
  5
230
100
AcDbEntity
  8
0
100
AcDbLine
 62
7
  6
CONTINUOUS
 10
216.9426370041
 20
270.1478646669
 11
215.9741556605
 21
270.1478646669
  0
LINE
  5
231
100
AcDbEntity
  8
0
100
AcDbLine
 62
7
  6
CONTINUOUS
 10
281.5080574446
 20
271.4244604382
 11
276.9884803043
 21
271.4244604382
  0
LINE
  5
232
100
AcDbEntity
  8
0
100
AcDbLine
 62
7
  6
CONTINUOUS
 10
266.6580114082
 20
271.6797795567
 11
261.8156046905
 21
271.6797795567
  0
LINE
  5
233
100
AcDbEntity
  8
0
100
AcDbLine
 62
7
  6
CONTINUOUS
 10
259.5558161203
 20
271.6797795567
 11
254.7134094026
 21
271.6797795567
  0
LINE
  5
234
100
AcDbEntity
  8
0
100
AcDbLine
 62
7
  6
CONTINUOUS
 10
234.375301188
 20
271.6797795567
 11
231.4698571573
 21
271.6797795567
  0
LINE
  5
235
100
AcDbEntity
  8
0
100
AcDbLine
 62
7
  6
CONTINUOUS
 10
226.6274504396
 20
271.6797795567
 11
225.9817959027
 21
271.6797795567
  0
LINE
  5
236
100
AcDbEntity
  8
0
100
AcDbLine
 62
7
  6
CONTINUOUS
 10
307.6570537205
 20
275.5095668706
 11
304.7516096898
 21
275.5095668706
  0
LINE
  5
237
100
AcDbEntity
  8
0
100
AcDbLine
 62
7
  6
CONTINUOUS
 10
219.6866674005
 20
275.5095668706
 11
216.9426370041
 21
275.5095668706
  0
LINE
  5
238
100
AcDbEntity
  8
0
100
AcDbLine
 62
7
  6
CONTINUOUS
 10
266.0123596422
 20
275.7648859891
 11
261.8156046905
 21
275.7648859891
  0
LINE
  5
239
100
AcDbEntity
  8
BEZUGSACHSEN
100
AcDbLine
 62
2
  6
CENTER
 10
456.2201943316
 20
276.1478646669
 11
317.2709486586
 21
276.1478646669
  0
LINE
  5
23A
100
AcDbEntity
  8
BEZUGSACHSEN
100
AcDbLine
 62
2
  6
CENTER
 10
65.2201943316
 20
276.1478646669
 11
49.9701943316
 21
276.1478646669
  0
LINE
  5
23B
100
AcDbEntity
  8
BEZUGSACHSEN
100
AcDbLine
 62
2
  6
CENTER
 10
65.2201943316
 20
276.1478646669
 11
207.5618345527
 21
276.1478646669
  0
LINE
  5
23C
100
AcDbEntity
  8
BEZUGSACHSEN
100
AcDbLine
 62
2
  6
CENTER
 10
456.2201943316
 20
276.1478646669
 11
471.4701943316
 21
276.1478646669
  0
LINE
  5
23D
100
AcDbEntity
  8
0
100
AcDbLine
 62
7
  6
CONTINUOUS
 10
307.8184722037
 20
277.0414815816
 11
304.7516096898
 21
277.0414815816
  0
LINE
  5
23E
100
AcDbEntity
  8
0
100
AcDbLine
 62
7
  6
CONTINUOUS
 10
220.009494438
 20
277.0414815816
 11
216.9426370041
 21
277.0414815816
  0
LINE
  5
23F
100
AcDbEntity
  8
0
100
AcDbLine
 62
7
  6
CONTINUOUS
 10
266.0123596422
 20
277.2968007001
 11
261.8156046905
 21
277.2968007001
  0
LINE
  5
240
100
AcDbEntity
  8
0
100
AcDbLine
 62
7
  6
CONTINUOUS
 10
276.6656544213
 20
279.3393543634
 11
275.858584172
 21
279.3393543634
  0
LINE
  5
241
100
AcDbEntity
  8
0
100
AcDbLine
 62
7
  6
CONTINUOUS
 10
266.6580114082
 20
280.6159499559
 11
261.8156046905
 21
280.6159499559
  0
LINE
  5
242
100
AcDbEntity
  8
0
100
AcDbLine
 62
7
  6
CONTINUOUS
 10
234.375301188
 20
280.6159499559
 11
231.4698571573
 21
280.6159499559
  0
LINE
  5
243
100
AcDbEntity
  8
0
100
AcDbLine
 62
7
  6
CONTINUOUS
 10
307.8184722037
 20
280.8712690744
 11
304.7516096898
 21
280.8712690744
  0
LINE
  5
244
100
AcDbEntity
  8
0
100
AcDbLine
 62
7
  6
CONTINUOUS
 10
278.9254429914
 20
280.8712690744
 11
278.2797912253
 21
280.8712690744
  0
LINE
  5
245
100
AcDbEntity
  8
0
100
AcDbLine
 62
7
  6
CONTINUOUS
 10
220.009494438
 20
280.8712690744
 11
216.9426370041
 21
280.8712690744
  0
LINE
  5
246
100
AcDbEntity
  8
0
100
AcDbLine
 62
7
  6
CONTINUOUS
 10
285.7048123963
 20
270.1478646669
 11
284.7363310527
 21
270.4031838077
  0
LINE
  5
247
100
AcDbEntity
  8
0
100
AcDbLine
 62
7
  6
CONTINUOUS
 10
225.9817959027
 20
270.1478646669
 11
225.1747284243
 21
270.4031838077
  0
LINE
  5
248
100
AcDbEntity
  8
0
100
AcDbLine
 62
7
  6
CONTINUOUS
 10
220.6551489749
 20
281.8925455484
 11
219.8480810347
 21
282.1478646669
  0
LINE
  5
249
100
AcDbEntity
  8
0
100
AcDbLine
 62
7
  6
CONTINUOUS
 10
235.18236959
 20
281.8925455484
 11
234.375301188
 21
282.1478646669
  0
LINE
  5
24A
100
AcDbEntity
  8
0
100
AcDbLine
 62
7
  6
CONTINUOUS
 10
225.9817959027
 20
271.6797795567
 11
225.3361422894
 21
271.9350986752
  0
LINE
  5
24B
100
AcDbEntity
  8
0
100
AcDbLine
 62
7
  6
CONTINUOUS
 10
235.0209548013
 20
280.3606308374
 11
234.375301188
 21
280.6159499559
  0
LINE
  5
24C
100
AcDbEntity
  8
0
100
AcDbLine
 62
7
  6
CONTINUOUS
 10
220.4937351098
 20
280.6159499559
 11
220.009494438
 21
280.8712690744
  0
LINE
  5
24D
100
AcDbEntity
  8
0
100
AcDbLine
 62
7
  6
CONTINUOUS
 10
225.1747284243
 20
270.4031838077
 11
224.5290738873
 21
270.9138221118
  0
LINE
  5
24E
100
AcDbEntity
  8
0
100
AcDbLine
 62
7
  6
CONTINUOUS
 10
225.3361422894
 20
271.9350986752
 11
224.8519016176
 21
272.445737091
  0
LINE
  5
24F
100
AcDbEntity
  8
RUNDUNGEN
100
AcDbLine
 62
7
  6
CONTINUOUS
 10
190.7201943316
 20
221.1478646669
 11
190.7201943316
 21
223.2328384456
  0
LINE
  5
250
100
AcDbEntity
  8
RUNDUNGEN
100
AcDbLine
 62
7
  6
CONTINUOUS
 10
190.7201943316
 20
329.0628908881
 11
190.7201943316
 21
331.1478646669
  0
LINE
  5
251
100
AcDbEntity
  8
0
100
AcDbLine
 62
7
  6
CONTINUOUS
 10
307.6570537205
 20
282.1478646669
 11
303.7831283462
 21
282.1478646669
  0
LINE
  5
252
100
AcDbEntity
  8
0
100
AcDbLine
 62
7
  6
CONTINUOUS
 10
302.4918248141
 20
282.1478646669
 11
301.5233434706
 21
282.1478646669
  0
LINE
  5
253
100
AcDbEntity
  8
0
100
AcDbLine
 62
7
  6
CONTINUOUS
 10
300.2320325495
 20
282.1478646669
 11
299.263551206
 21
282.1478646669
  0
LINE
  5
254
100
AcDbEntity
  8
0
100
AcDbLine
 62
7
  6
CONTINUOUS
 10
294.7439740657
 20
282.1478646669
 11
293.7754927222
 21
282.1478646669
  0
LINE
  5
255
100
AcDbEntity
  8
0
100
AcDbLine
 62
7
  6
CONTINUOUS
 10
279.0868540857
 20
282.1478646669
 11
278.4412023196
 21
282.1478646669
  0
LINE
  5
256
100
AcDbEntity
  8
0
100
AcDbLine
 62
7
  6
CONTINUOUS
 10
266.6580114082
 20
282.1478646669
 11
260.8471233469
 21
282.1478646669
  0
LINE
  5
257
100
AcDbEntity
  8
0
100
AcDbLine
 62
7
  6
CONTINUOUS
 10
254.7134094026
 20
282.1478646669
 11
253.744928059
 21
282.1478646669
  0
LINE
  5
258
100
AcDbEntity
  8
0
100
AcDbLine
 62
7
  6
CONTINUOUS
 10
252.4536208325
 20
282.1478646669
 11
251.4851394889
 21
282.1478646669
  0
LINE
  5
259
100
AcDbEntity
  8
0
100
AcDbLine
 62
7
  6
CONTINUOUS
 10
246.9655586542
 20
282.1478646669
 11
245.9970773106
 21
282.1478646669
  0
LINE
  5
25A
100
AcDbEntity
  8
0
100
AcDbLine
 62
7
  6
CONTINUOUS
 10
234.375301188
 20
282.1478646669
 11
230.5013758138
 21
282.1478646669
  0
LINE
  5
25B
100
AcDbEntity
  8
0
100
AcDbLine
 62
7
  6
CONTINUOUS
 10
229.2100676636
 20
282.1478646669
 11
228.24158632
 21
282.1478646669
  0
LINE
  5
25C
100
AcDbEntity
  8
0
100
AcDbLine
 62
7
  6
CONTINUOUS
 10
224.3676609458
 20
282.1478646669
 11
223.3991791405
 21
282.1478646669
  0
LINE
  5
25D
100
AcDbEntity
  8
0
100
AcDbLine
 62
7
  6
CONTINUOUS
 10
219.8480810347
 20
282.1478646669
 11
215.9741556605
 21
282.1478646669
  0
LINE
  5
25E
100
AcDbEntity
  8
0
100
AcDbLine
 62
7
  6
CONTINUOUS
 10
280.0553354292
 20
281.8925455484
 11
279.0868540857
 21
282.1478646669
  0
LINE
  5
25F
100
AcDbEntity
  8
0
100
AcDbLine
 62
7
  6
CONTINUOUS
 10
286.6732937398
 20
281.8925455484
 11
285.7048123963
 21
282.1478646669
  0
LINE
  5
260
100
AcDbEntity
  8
0
100
AcDbLine
 62
7
  6
CONTINUOUS
 10
285.7048123963
 20
271.4244604382
 11
284.897742147
 21
271.6797795567
  0
LINE
  5
261
100
AcDbEntity
  8
0
100
AcDbLine
 62
7
  6
CONTINUOUS
 10
279.7325132407
 20
280.6159499559
 11
278.9254429914
 21
280.8712690744
  0
LINE
  5
262
100
AcDbEntity
  8
0
100
AcDbLine
 62
7
  6
CONTINUOUS
 10
286.5118826455
 20
280.6159499559
 11
285.7048123963
 21
280.8712690744
  0
LINE
  5
263
100
AcDbEntity
  8
0
100
AcDbLine
 62
7
  6
CONTINUOUS
 10
235.8280232033
 20
281.3819073114
 11
235.18236959
 21
281.8925455484
  0
LINE
  5
264
100
AcDbEntity
  8
0
100
AcDbLine
 62
7
  6
CONTINUOUS
 10
235.5051954731
 20
279.8499926004
 11
235.0209548013
 21
280.3606308374
  0
LINE
  5
265
100
AcDbEntity
  8
0
100
AcDbLine
 62
7
  6
CONTINUOUS
 10
221.30080305
 20
281.1265881929
 11
220.6551489749
 21
281.8925455484
  0
LINE
  5
266
100
AcDbEntity
  8
0
100
AcDbLine
 62
7
  6
CONTINUOUS
 10
224.5290738873
 20
270.9138221118
 11
223.8834202741
 21
271.9350986752
  0
LINE
  5
267
100
AcDbEntity
  8
0
100
AcDbLine
 62
7
  6
CONTINUOUS
 10
220.8165623783
 20
280.1053117189
 11
220.4937351098
 21
280.6159499559
  0
LINE
  5
268
100
AcDbEntity
  8
0
100
AcDbLine
 62
7
  6
CONTINUOUS
 10
221.7850437218
 20
280.1053117189
 11
221.30080305
 21
281.1265881929
  0
LINE
  5
269
100
AcDbEntity
  8
0
100
AcDbLine
 62
7
  6
CONTINUOUS
 10
224.8519016176
 20
272.445737091
 11
224.5290738873
 21
273.2116944465
  0
LINE
  5
26A
100
AcDbEntity
  8
FASEN
100
AcDbLine
 62
7
  6
CONTINUOUS
 10
133.7201943316
 20
331.1478646669
 11
125.7201943316
 21
323.1478646669
  0
LINE
  5
26B
100
AcDbEntity
  8
0
100
AcDbLine
 62
7
  6
CONTINUOUS
 10
81.7201943316
 20
304.1478646669
 11
54.4160596359
 21
304.1478646669
  0
LINE
  5
26C
100
AcDbEntity
  8
0
100
AcDbLine
 62
7
  6
CONTINUOUS
 10
439.7201943316
 20
304.1478646669
 11
467.0243290272
 21
304.1478646669
  0
LINE
  5
26D
100
AcDbEntity
  8
0
100
AcDbLine
 62
7
  6
CONTINUOUS
 10
308.4641239697
 20
281.8925455484
 11
307.6570537205
 21
282.1478646669
  0
LINE
  5
26E
100
AcDbEntity
  8
0
100
AcDbLine
 62
7
  6
CONTINUOUS
 10
308.3027128754
 20
280.6159499559
 11
307.8184722037
 21
280.8712690744
  0
LINE
  5
26F
100
AcDbEntity
  8
0
100
AcDbLine
 62
7
  6
CONTINUOUS
 10
280.7009945842
 20
281.3819073114
 11
280.0553354292
 21
281.8925455484
  0
LINE
  5
270
100
AcDbEntity
  8
0
100
AcDbLine
 62
7
  6
CONTINUOUS
 10
284.7363310527
 20
270.4031838077
 11
283.9292608034
 21
271.1691412303
  0
LINE
  5
271
100
AcDbEntity
  8
0
100
AcDbLine
 62
7
  6
CONTINUOUS
 10
236.4736768166
 20
280.3606308374
 11
235.8280232033
 21
281.3819073114
  0
LINE
  5
272
100
AcDbEntity
  8
0
100
AcDbLine
 62
7
  6
CONTINUOUS
 10
235.8280232033
 20
279.0840345296
 11
235.5051954731
 21
279.8499926004
  0
LINE
  5
273
100
AcDbEntity
  8
0
100
AcDbLine
 62
7
  6
CONTINUOUS
 10
223.8834202741
 20
271.9350986752
 11
223.5605930056
 21
272.956375328
  0
LINE
  5
274
100
AcDbEntity
  8
0
100
AcDbLine
 62
7
  6
CONTINUOUS
 10
222.1078709903
 20
270.1478646669
 11
220.6551489749
 21
276.0202051076
  0
LINE
  5
275
100
AcDbEntity
  8
0
100
AcDbLine
 62
7
  6
CONTINUOUS
 10
220.9779757816
 20
270.1478646669
 11
219.6866674005
 21
275.5095668706
  0
LINE
  5
276
100
AcDbEntity
  8
0
100
AcDbLine
 62
7
  6
CONTINUOUS
 10
220.9779757816
 20
279.3393543634
 11
220.8165623783
 21
280.1053117189
  0
LINE
  5
277
100
AcDbEntity
  8
0
100
AcDbLine
 62
7
  6
CONTINUOUS
 10
221.9464571251
 20
279.3393543634
 11
221.7850437218
 21
280.1053117189
  0
LINE
  5
278
100
AcDbEntity
  8
0
100
AcDbLine
 62
7
  6
CONTINUOUS
 10
215.9741556605
 20
282.1478646669
 11
215.9741556605
 21
270.1478646669
  0
LINE
  5
279
100
AcDbEntity
  8
0
100
AcDbLine
 62
7
  6
CONTINUOUS
 10
216.9426370041
 20
270.1478646669
 11
216.9426370041
 21
275.5095668706
  0
LINE
  5
27A
100
AcDbEntity
  8
0
100
AcDbLine
 62
7
  6
CONTINUOUS
 10
216.9426370041
 20
277.0414815816
 11
216.9426370041
 21
280.8712690744
  0
LINE
  5
27B
100
AcDbEntity
  8
0
100
AcDbLine
 62
7
  6
CONTINUOUS
 10
220.9779757816
 20
278.5733962926
 11
220.9779757816
 21
279.3393543634
  0
LINE
  5
27C
100
AcDbEntity
  8
0
100
AcDbLine
 62
7
  6
CONTINUOUS
 10
221.9464571251
 20
278.3180771741
 11
221.9464571251
 21
279.3393543634
  0
LINE
  5
27D
100
AcDbEntity
  8
0
100
AcDbLine
 62
7
  6
CONTINUOUS
 10
223.3991791405
 20
282.1478646669
 11
223.3991791405
 21
274.2329709205
  0
LINE
  5
27E
100
AcDbEntity
  8
0
100
AcDbLine
 62
7
  6
CONTINUOUS
 10
224.3676609458
 20
274.2329709205
 11
224.3676609458
 21
282.1478646669
  0
LINE
  5
27F
100
AcDbEntity
  8
RUNDUNGEN
100
AcDbLine
 62
7
  6
CONTINUOUS
 10
340.7201943316
 20
322.2455869533
 11
205.7201943316
 21
322.2455869533
  0
LINE
  5
280
100
AcDbEntity
  8
0
100
AcDbLine
 62
7
  6
CONTINUOUS
 10
170.7201943316
 20
325.6478646669
 11
139.7201943316
 21
325.6478646669
  0
LINE
  5
281
100
AcDbEntity
  8
0
100
AcDbLine
 62
7
  6
CONTINUOUS
 10
414.9008470396
 20
326.1478646669
 11
400.7201943316
 21
326.1478646669
  0
LINE
  5
282
100
AcDbEntity
  8
0
100
AcDbLine
 62
7
  6
CONTINUOUS
 10
120.7201943316
 20
326.1478646669
 11
106.5395416236
 21
326.1478646669
  0
LINE
  5
283
100
AcDbEntity
  8
0
100
AcDbLine
 62
7
  6
CONTINUOUS
 10
387.7201943316
 20
331.1478646669
 11
355.7201943316
 21
331.1478646669
  0
LINE
  5
284
100
AcDbEntity
  8
0
100
AcDbLine
 62
7
  6
CONTINUOUS
 10
190.7201943316
 20
331.1478646669
 11
170.7201943316
 21
331.1478646669
  0
LINE
  5
285
100
AcDbEntity
  8
0
100
AcDbLine
 62
7
  6
CONTINUOUS
 10
139.7201943316
 20
331.1478646669
 11
133.7201943316
 21
331.1478646669
  0
LINE
  5
286
100
AcDbEntity
  8
0
100
AcDbLine
 62
7
  6
CONTINUOUS
 10
287.4803639891
 20
281.1265881929
 11
286.6732937398
 21
281.8925455484
  0
LINE
  5
287
100
AcDbEntity
  8
0
100
AcDbLine
 62
7
  6
CONTINUOUS
 10
284.897742147
 20
271.6797795567
 11
284.4135014752
 21
272.1904177937
  0
LINE
  5
288
100
AcDbEntity
  8
0
100
AcDbLine
 62
7
  6
CONTINUOUS
 10
280.2167539124
 20
280.1053117189
 11
279.7325132407
 21
280.6159499559
  0
LINE
  5
289
100
AcDbEntity
  8
0
100
AcDbLine
 62
7
  6
CONTINUOUS
 10
290.3858080197
 20
272.7010562095
 11
289.901567348
 21
273.2116944465
  0
LINE
  5
28A
100
AcDbEntity
  8
0
100
AcDbLine
 62
7
  6
CONTINUOUS
 10
286.9961233173
 20
280.1053117189
 11
286.5118826455
 21
280.6159499559
  0
LINE
  5
28B
100
AcDbEntity
  8
0
100
AcDbLine
 62
7
  6
CONTINUOUS
 10
292.4841818011
 20
279.0840345296
 11
291.9999411293
 21
279.5946734819
  0
LINE
  5
28C
100
AcDbEntity
  8
0
100
AcDbLine
 62
7
  6
CONTINUOUS
 10
236.7965045469
 20
279.3393543634
 11
236.4736768166
 21
280.3606308374
  0
LINE
  5
28D
100
AcDbEntity
  8
0
100
AcDbLine
 62
7
  6
CONTINUOUS
 10
224.5290738873
 20
273.2116944465
 11
224.3676609458
 21
274.2329709205
  0
LINE
  5
28E
100
AcDbEntity
  8
0
100
AcDbLine
 62
7
  6
CONTINUOUS
 10
235.9894361448
 20
278.0627580556
 11
235.8280232033
 21
279.0840345296
  0
LINE
  5
28F
100
AcDbEntity
  8
0
100
AcDbLine
 62
7
  6
CONTINUOUS
 10
223.5605930056
 20
272.956375328
 11
223.3991791405
 21
274.2329709205
  0
LINE
  5
290
100
AcDbEntity
  8
0
100
AcDbLine
 62
7
  6
CONTINUOUS
 10
236.9579174884
 20
278.0627580556
 11
236.7965045469
 21
279.3393543634
  0
LINE
  5
291
100
AcDbEntity
  8
0
100
AcDbLine
 62
7
  6
CONTINUOUS
 10
228.24158632
 20
282.1478646669
 11
228.24158632
 21
274.2329709205
  0
LINE
  5
292
100
AcDbEntity
  8
0
100
AcDbLine
 62
7
  6
CONTINUOUS
 10
229.2100676636
 20
274.2329709205
 11
229.2100676636
 21
282.1478646669
  0
LINE
  5
293
100
AcDbEntity
  8
0
100
AcDbLine
 62
7
  6
CONTINUOUS
 10
230.5013758138
 20
282.1478646669
 11
230.5013758138
 21
270.1478646669
  0
LINE
  5
294
100
AcDbEntity
  8
0
100
AcDbLine
 62
7
  6
CONTINUOUS
 10
231.4698571573
 20
271.6797795567
 11
231.4698571573
 21
280.6159499559
  0
LINE
  5
295
100
AcDbEntity
  8
0
100
AcDbLine
 62
7
  6
CONTINUOUS
 10
235.9894361448
 20
278.0627580556
 11
235.9894361448
 21
274.2329709205
  0
LINE
  5
296
100
AcDbEntity
  8
0
100
AcDbLine
 62
7
  6
CONTINUOUS
 10
236.9579174884
 20
274.2329709205
 11
236.9579174884
 21
278.0627580556
  0
LINE
  5
297
100
AcDbEntity
  8
0
100
AcDbLine
 62
7
  6
CONTINUOUS
 10
229.0486537985
 20
272.956375328
 11
229.2100676636
 21
274.2329709205
  0
LINE
  5
298
100
AcDbEntity
  8
0
100
AcDbLine
 62
7
  6
CONTINUOUS
 10
228.0801724549
 20
273.2116944465
 11
228.24158632
 21
274.2329709205
  0
LINE
  5
299
100
AcDbEntity
  8
0
100
AcDbLine
 62
7
  6
CONTINUOUS
 10
220.8165623783
 20
277.8074389371
 11
220.9779757816
 21
278.5733962926
  0
LINE
  5
29A
100
AcDbEntity
  8
0
100
AcDbLine
 62
7
  6
CONTINUOUS
 10
221.7850437218
 20
277.5521198186
 11
221.9464571251
 21
278.3180771741
  0
LINE
  5
29B
100
AcDbEntity
  8
0
100
AcDbLine
 62
7
  6
CONTINUOUS
 10
309.1097757358
 20
281.1265881929
 11
308.4641239697
 21
281.8925455484
  0
LINE
  5
29C
100
AcDbEntity
  8
0
100
AcDbLine
 62
7
  6
CONTINUOUS
 10
283.9292608034
 20
271.1691412303
 11
283.4450201317
 21
271.9350986752
  0
LINE
  5
29D
100
AcDbEntity
  8
0
100
AcDbLine
 62
7
  6
CONTINUOUS
 10
281.3466463503
 20
280.3606308374
 11
280.7009945842
 21
281.3819073114
  0
LINE
  5
29E
100
AcDbEntity
  8
0
100
AcDbLine
 62
7
  6
CONTINUOUS
 10
287.9646046608
 20
280.3606308374
 11
287.4803639891
 21
281.1265881929
  0
LINE
  5
29F
100
AcDbEntity
  8
0
100
AcDbLine
 62
7
  6
CONTINUOUS
 10
280.539576101
 20
279.3393543634
 11
280.2167539124
 21
280.1053117189
  0
LINE
  5
2A0
100
AcDbEntity
  8
0
100
AcDbLine
 62
7
  6
CONTINUOUS
 10
284.4135014752
 20
272.1904177937
 11
283.7678497091
 21
273.7223326835
  0
LINE
  5
2A1
100
AcDbEntity
  8
0
100
AcDbLine
 62
7
  6
CONTINUOUS
 10
249.2253472243
 20
271.6797795567
 11
246.9655586542
 21
282.1478646669
  0
LINE
  5
2A2
100
AcDbEntity
  8
0
100
AcDbLine
 62
7
  6
CONTINUOUS
 10
245.9970773106
 20
282.1478646669
 11
248.5796954582
 21
270.1478646669
  0
LINE
  5
2A3
100
AcDbEntity
  8
0
100
AcDbLine
 62
7
  6
CONTINUOUS
 10
253.744928059
 20
282.1478646669
 11
253.744928059
 21
270.1478646669
  0
LINE
  5
2A4
100
AcDbEntity
  8
0
100
AcDbLine
 62
7
  6
CONTINUOUS
 10
254.7134094026
 20
271.6797795567
 11
254.7134094026
 21
282.1478646669
  0
LINE
  5
2A5
100
AcDbEntity
  8
0
100
AcDbLine
 62
7
  6
CONTINUOUS
 10
259.5558161203
 20
270.1478646669
 11
259.5558161203
 21
271.6797795567
  0
LINE
  5
2A6
100
AcDbEntity
  8
0
100
AcDbLine
 62
7
  6
CONTINUOUS
 10
260.8471233469
 20
282.1478646669
 11
260.8471233469
 21
270.1478646669
  0
LINE
  5
2A7
100
AcDbEntity
  8
0
100
AcDbLine
 62
7
  6
CONTINUOUS
 10
261.8156046905
 20
271.6797795567
 11
261.8156046905
 21
275.7648859891
  0
LINE
  5
2A8
100
AcDbEntity
  8
0
100
AcDbLine
 62
7
  6
CONTINUOUS
 10
261.8156046905
 20
277.2968007001
 11
261.8156046905
 21
280.6159499559
  0
LINE
  5
2A9
100
AcDbEntity
  8
0
100
AcDbLine
 62
7
  6
CONTINUOUS
 10
236.7965045469
 20
272.956375328
 11
236.9579174884
 21
274.2329709205
  0
LINE
  5
2AA
100
AcDbEntity
  8
0
100
AcDbLine
 62
7
  6
CONTINUOUS
 10
235.8280232033
 20
273.2116944465
 11
235.9894361448
 21
274.2329709205
  0
LINE
  5
2AB
100
AcDbEntity
  8
0
100
AcDbLine
 62
7
  6
CONTINUOUS
 10
228.7258269918
 20
271.9350986752
 11
229.0486537985
 21
272.956375328
  0
LINE
  5
2AC
100
AcDbEntity
  8
FASEN
100
AcDbLine
 62
7
  6
CONTINUOUS
 10
125.7201943316
 20
231.1478646669
 11
120.7201943316
 21
226.1478646669
  0
LINE
  5
2AD
100
AcDbEntity
  8
0
100
AcDbLine
 62
7
  6
CONTINUOUS
 10
170.7201943316
 20
366.6478646669
 11
139.7201943316
 21
366.6478646669
  0
LINE
  5
2AE
100
AcDbEntity
  8
0
100
AcDbLine
 62
7
  6
CONTINUOUS
 10
400.7201943316
 20
226.1478646669
 11
395.7201943316
 21
231.1478646669
  0
LINE
  5
2AF
100
AcDbEntity
  8
0
100
AcDbLine
 62
7
  6
CONTINUOUS
 10
308.625535064
 20
280.1053117189
 11
308.3027128754
 21
280.6159499559
  0
LINE
  5
2B0
100
AcDbEntity
  8
0
100
AcDbLine
 62
7
  6
CONTINUOUS
 10
287.6417750834
 20
278.5733962926
 11
286.9961233173
 21
280.1053117189
  0
LINE
  5
2B1
100
AcDbEntity
  8
0
100
AcDbLine
 62
7
  6
CONTINUOUS
 10
283.4450201317
 20
271.9350986752
 11
283.1221979431
 21
272.956375328
  0
LINE
  5
2B2
100
AcDbEntity
  8
0
100
AcDbLine
 62
7
  6
CONTINUOUS
 10
288.2874268494
 20
279.3393543634
 11
287.9646046608
 21
280.3606308374
  0
LINE
  5
2B3
100
AcDbEntity
  8
0
100
AcDbLine
 62
7
  6
CONTINUOUS
 10
283.1221979431
 20
272.956375328
 11
282.9607794599
 21
273.7223326835
  0
LINE
  5
2B4
100
AcDbEntity
  8
0
100
AcDbLine
 62
7
  6
CONTINUOUS
 10
283.7678497091
 20
273.7223326835
 11
283.6064386149
 21
275.2542477521
  0
LINE
  5
2B5
100
AcDbEntity
  8
0
100
AcDbLine
 62
7
  6
CONTINUOUS
 10
287.8031861776
 20
277.0414815816
 11
287.6417750834
 21
278.5733962926
  0
LINE
  5
2B6
100
AcDbEntity
  8
0
100
AcDbLine
 62
7
  6
CONTINUOUS
 10
266.0123596422
 20
275.7648859891
 11
266.0123596422
 21
277.2968007001
  0
LINE
  5
2B7
100
AcDbEntity
  8
0
100
AcDbLine
 62
7
  6
CONTINUOUS
 10
266.6580114082
 20
270.1478646669
 11
266.6580114082
 21
271.6797795567
  0
LINE
  5
2B8
100
AcDbEntity
  8
0
100
AcDbLine
 62
7
  6
CONTINUOUS
 10
266.6580114082
 20
280.6159499559
 11
266.6580114082
 21
282.1478646669
  0
LINE
  5
2B9
100
AcDbEntity
  8
0
100
AcDbLine
 62
7
  6
CONTINUOUS
 10
275.6971730777
 20
270.1478646669
 11
275.6971730777
 21
271.4244604382
  0
LINE
  5
2BA
100
AcDbEntity
  8
0
100
AcDbLine
 62
7
  6
CONTINUOUS
 10
280.539576101
 20
278.8287154111
 11
280.539576101
 21
279.3393543634
  0
LINE
  5
2BB
100
AcDbEntity
  8
0
100
AcDbLine
 62
7
  6
CONTINUOUS
 10
249.8710026848
 20
270.1478646669
 11
252.4536208325
 21
282.1478646669
  0
LINE
  5
2BC
100
AcDbEntity
  8
0
100
AcDbLine
 62
7
  6
CONTINUOUS
 10
251.4851394889
 20
282.1478646669
 11
249.2253472243
 21
271.6797795567
  0
LINE
  5
2BD
100
AcDbEntity
  8
0
100
AcDbLine
 62
7
  6
CONTINUOUS
 10
236.4736768166
 20
271.9350986752
 11
236.7965045469
 21
272.956375328
  0
LINE
  5
2BE
100
AcDbEntity
  8
0
100
AcDbLine
 62
7
  6
CONTINUOUS
 10
227.7573456483
 20
272.445737091
 11
228.0801724549
 21
273.2116944465
  0
LINE
  5
2BF
100
AcDbEntity
  8
0
100
AcDbLine
 62
7
  6
CONTINUOUS
 10
235.5051954731
 20
272.445737091
 11
235.8280232033
 21
273.2116944465
  0
LINE
  5
2C0
100
AcDbEntity
  8
0
100
AcDbLine
 62
7
  6
CONTINUOUS
 10
221.30080305
 20
276.5308433446
 11
221.7850437218
 21
277.5521198186
  0
LINE
  5
2C1
100
AcDbEntity
  8
0
100
AcDbLine
 62
7
  6
CONTINUOUS
 10
220.4937351098
 20
277.2968007001
 11
220.8165623783
 21
277.8074389371
  0
LINE
  5
2C2
100
AcDbEntity
  8
0
100
AcDbLine
 62
7
  6
CONTINUOUS
 10
309.5940164076
 20
280.1053117189
 11
309.1097757358
 21
281.1265881929
  0
LINE
  5
2C3
100
AcDbEntity
  8
0
100
AcDbLine
 62
7
  6
CONTINUOUS
 10
297.0037589414
 20
271.6797795567
 11
294.7439740657
 21
282.1478646669
  0
LINE
  5
2C4
100
AcDbEntity
  8
0
100
AcDbLine
 62
7
  6
CONTINUOUS
 10
293.7754927222
 20
282.1478646669
 11
296.3581071753
 21
270.1478646669
  0
LINE
  5
2C5
100
AcDbEntity
  8
0
100
AcDbLine
 62
7
  6
CONTINUOUS
 10
288.4488453326
 20
278.5733962926
 11
288.2874268494
 21
279.3393543634
  0
LINE
  5
2C6
100
AcDbEntity
  8
0
100
AcDbLine
 62
7
  6
CONTINUOUS
 10
281.5080574446
 20
279.3393543634
 11
281.3466463503
 21
280.3606308374
  0
LINE
  5
2C7
100
AcDbEntity
  8
0
100
AcDbLine
 62
7
  6
CONTINUOUS
 10
282.9607794599
 20
273.7223326835
 11
282.7993683656
 21
274.9989286336
  0
LINE
  5
2C8
100
AcDbEntity
  8
0
100
AcDbLine
 62
7
  6
CONTINUOUS
 10
288.6102564269
 20
277.2968007001
 11
288.4488453326
 21
278.5733962926
  0
LINE
  5
2C9
100
AcDbEntity
  8
0
100
AcDbLine
 62
7
  6
CONTINUOUS
 10
281.5080574446
 20
270.1478646669
 11
281.5080574446
 21
271.4244604382
  0
LINE
  5
2CA
100
AcDbEntity
  8
0
100
AcDbLine
 62
7
  6
CONTINUOUS
 10
281.5080574446
 20
278.8287154111
 11
281.5080574446
 21
279.3393543634
  0
LINE
  5
2CB
100
AcDbEntity
  8
0
100
AcDbLine
 62
7
  6
CONTINUOUS
 10
282.7993683656
 20
277.2968007001
 11
282.7993683656
 21
274.9989286336
  0
LINE
  5
2CC
100
AcDbEntity
  8
0
100
AcDbLine
 62
7
  6
CONTINUOUS
 10
283.6064386149
 20
275.2542477521
 11
283.6064386149
 21
277.0414815816
  0
LINE
  5
2CD
100
AcDbEntity
  8
0
100
AcDbLine
 62
7
  6
CONTINUOUS
 10
287.8031861776
 20
275.2542477521
 11
287.8031861776
 21
277.0414815816
  0
LINE
  5
2CE
100
AcDbEntity
  8
0
100
AcDbLine
 62
7
  6
CONTINUOUS
 10
288.6102564269
 20
274.9989286336
 11
288.6102564269
 21
277.2968007001
  0
LINE
  5
2CF
100
AcDbEntity
  8
0
100
AcDbLine
 62
7
  6
CONTINUOUS
 10
283.6064386149
 20
277.0414815816
 11
283.7678497091
 21
278.5733962926
  0
LINE
  5
2D0
100
AcDbEntity
  8
0
100
AcDbLine
 62
7
  6
CONTINUOUS
 10
287.6417750834
 20
273.7223326835
 11
287.8031861776
 21
275.2542477521
  0
LINE
  5
2D1
100
AcDbEntity
  8
0
100
AcDbLine
 62
7
  6
CONTINUOUS
 10
282.7993683656
 20
277.2968007001
 11
282.9607794599
 21
278.5733962926
  0
LINE
  5
2D2
100
AcDbEntity
  8
0
100
AcDbLine
 62
7
  6
CONTINUOUS
 10
275.858584172
 20
279.3393543634
 11
276.0199989607
 21
280.3606308374
  0
LINE
  5
2D3
100
AcDbEntity
  8
0
100
AcDbLine
 62
7
  6
CONTINUOUS
 10
281.3466463503
 20
277.8074389371
 11
281.5080574446
 21
278.8287154111
  0
LINE
  5
2D4
100
AcDbEntity
  8
0
100
AcDbLine
 62
7
  6
CONTINUOUS
 10
228.0801724549
 20
270.9138221118
 11
228.7258269918
 21
271.9350986752
  0
LINE
  5
2D5
100
AcDbEntity
  8
0
100
AcDbLine
 62
7
  6
CONTINUOUS
 10
235.8280232033
 20
270.9138221118
 11
236.4736768166
 21
271.9350986752
  0
LINE
  5
2D6
100
AcDbEntity
  8
0
100
AcDbLine
 62
7
  6
CONTINUOUS
 10
308.7869535472
 20
279.3393543634
 11
308.625535064
 21
280.1053117189
  0
LINE
  5
2D7
100
AcDbEntity
  8
0
100
AcDbLine
 62
7
  6
CONTINUOUS
 10
309.7554348908
 20
279.3393543634
 11
309.5940164076
 21
280.1053117189
  0
LINE
  5
2D8
100
AcDbEntity
  8
0
100
AcDbLine
 62
7
  6
CONTINUOUS
 10
301.5233434706
 20
282.1478646669
 11
301.5233434706
 21
270.1478646669
  0
LINE
  5
2D9
100
AcDbEntity
  8
0
100
AcDbLine
 62
7
  6
CONTINUOUS
 10
302.4918248141
 20
270.1478646669
 11
302.4918248141
 21
282.1478646669
  0
LINE
  5
2DA
100
AcDbEntity
  8
0
100
AcDbLine
 62
7
  6
CONTINUOUS
 10
303.7831283462
 20
282.1478646669
 11
303.7831283462
 21
270.1478646669
  0
LINE
  5
2DB
100
AcDbEntity
  8
0
100
AcDbLine
 62
7
  6
CONTINUOUS
 10
304.7516096898
 20
270.1478646669
 11
304.7516096898
 21
275.5095668706
  0
LINE
  5
2DC
100
AcDbEntity
  8
0
100
AcDbLine
 62
7
  6
CONTINUOUS
 10
304.7516096898
 20
277.0414815816
 11
304.7516096898
 21
280.8712690744
  0
LINE
  5
2DD
100
AcDbEntity
  8
0
100
AcDbLine
 62
7
  6
CONTINUOUS
 10
308.7869535472
 20
278.5733962926
 11
308.7869535472
 21
279.3393543634
  0
LINE
  5
2DE
100
AcDbEntity
  8
0
100
AcDbLine
 62
7
  6
CONTINUOUS
 10
309.7554348908
 20
278.3180771741
 11
309.7554348908
 21
279.3393543634
  0
LINE
  5
2DF
100
AcDbEntity
  8
0
100
AcDbLine
 62
7
  6
CONTINUOUS
 10
288.4488453326
 20
273.7223326835
 11
288.6102564269
 21
274.9989286336
  0
LINE
  5
2E0
100
AcDbEntity
  8
0
100
AcDbLine
 62
7
  6
CONTINUOUS
 10
282.9607794599
 20
278.5733962926
 11
283.1221979431
 21
279.3393543634
  0
LINE
  5
2E1
100
AcDbEntity
  8
0
100
AcDbLine
 62
7
  6
CONTINUOUS
 10
288.2874268494
 20
272.956375328
 11
288.4488453326
 21
273.7223326835
  0
LINE
  5
2E2
100
AcDbEntity
  8
0
100
AcDbLine
 62
7
  6
CONTINUOUS
 10
299.263551206
 20
282.1478646669
 11
297.0037589414
 21
271.6797795567
  0
LINE
  5
2E3
100
AcDbEntity
  8
0
100
AcDbLine
 62
7
  6
CONTINUOUS
 10
280.2167539124
 20
277.8074389371
 11
280.539576101
 21
278.8287154111
  0
LINE
  5
2E4
100
AcDbEntity
  8
0
100
AcDbLine
 62
7
  6
CONTINUOUS
 10
283.1221979431
 20
279.3393543634
 11
283.4450201317
 21
280.3606308374
  0
LINE
  5
2E5
100
AcDbEntity
  8
0
100
AcDbLine
 62
7
  6
CONTINUOUS
 10
287.9646046608
 20
271.9350986752
 11
288.2874268494
 21
272.956375328
  0
LINE
  5
2E6
100
AcDbEntity
  8
0
100
AcDbLine
 62
7
  6
CONTINUOUS
 10
276.6656544213
 20
279.3393543634
 11
276.9884803043
 21
280.1053117189
  0
LINE
  5
2E7
100
AcDbEntity
  8
0
100
AcDbLine
 62
7
  6
CONTINUOUS
 10
281.0238167728
 20
277.0414815816
 11
281.3466463503
 21
277.8074389371
  0
LINE
  5
2E8
100
AcDbEntity
  8
0
100
AcDbLine
 62
7
  6
CONTINUOUS
 10
227.2731049765
 20
271.9350986752
 11
227.7573456483
 21
272.445737091
  0
LINE
  5
2E9
100
AcDbEntity
  8
0
100
AcDbLine
 62
7
  6
CONTINUOUS
 10
235.0209548013
 20
271.9350986752
 11
235.5051954731
 21
272.445737091
  0
LINE
  5
2EA
100
AcDbEntity
  8
0
100
AcDbLine
 62
7
  6
CONTINUOUS
 10
220.6551489749
 20
276.0202051076
 11
221.30080305
 21
276.5308433446
  0
LINE
  5
2EB
100
AcDbEntity
  8
0
100
AcDbLine
 62
7
  6
CONTINUOUS
 10
308.625535064
 20
277.8074389371
 11
308.7869535472
 21
278.5733962926
  0
LINE
  5
2EC
100
AcDbEntity
  8
0
100
AcDbLine
 62
7
  6
CONTINUOUS
 10
309.5940164076
 20
277.5521198186
 11
309.7554348908
 21
278.3180771741
  0
LINE
  5
2ED
100
AcDbEntity
  8
0
100
AcDbLine
 62
7
  6
CONTINUOUS
 10
297.6494180964
 20
270.1478646669
 11
300.2320325495
 21
282.1478646669
  0
LINE
  5
2EE
100
AcDbEntity
  8
0
100
AcDbLine
 62
7
  6
CONTINUOUS
 10
291.9999411293
 20
279.5946734819
 11
289.901567348
 21
273.2116944465
  0
LINE
  5
2EF
100
AcDbEntity
  8
0
100
AcDbLine
 62
7
  6
CONTINUOUS
 10
290.3858080197
 20
272.7010562095
 11
292.4841818011
 21
279.0840345296
  0
LINE
  5
2F0
100
AcDbEntity
  8
0
100
AcDbLine
 62
7
  6
CONTINUOUS
 10
283.7678497091
 20
278.5733962926
 11
284.4135014752
 21
280.1053117189
  0
LINE
  5
2F1
100
AcDbEntity
  8
0
100
AcDbLine
 62
7
  6
CONTINUOUS
 10
286.9961233173
 20
272.1904177937
 11
287.6417750834
 21
273.7223326835
  0
LINE
  5
2F2
100
AcDbEntity
  8
0
100
AcDbLine
 62
7
  6
CONTINUOUS
 10
276.0199989607
 20
280.3606308374
 11
276.6656544213
 21
281.3819073114
  0
LINE
  5
2F3
100
AcDbEntity
  8
0
100
AcDbLine
 62
7
  6
CONTINUOUS
 10
283.4450201317
 20
280.3606308374
 11
283.9292608034
 21
281.1265881929
  0
LINE
  5
2F4
100
AcDbEntity
  8
0
100
AcDbLine
 62
7
  6
CONTINUOUS
 10
280.2167539124
 20
277.8074389371
 11
275.6971730777
 21
271.4244604382
  0
LINE
  5
2F5
100
AcDbEntity
  8
0
100
AcDbLine
 62
7
  6
CONTINUOUS
 10
276.9884803043
 20
271.4244604382
 11
281.0238167728
 21
277.0414815816
  0
LINE
  5
2F6
100
AcDbEntity
  8
0
100
AcDbLine
 62
7
  6
CONTINUOUS
 10
276.9884803043
 20
280.1053117189
 11
277.4727209761
 21
280.6159499559
  0
LINE
  5
2F7
100
AcDbEntity
  8
0
100
AcDbLine
 62
7
  6
CONTINUOUS
 10
227.434517918
 20
270.4031838077
 11
228.0801724549
 21
270.9138221118
  0
LINE
  5
2F8
100
AcDbEntity
  8
0
100
AcDbLine
 62
7
  6
CONTINUOUS
 10
235.18236959
 20
270.4031838077
 11
235.8280232033
 21
270.9138221118
  0
LINE
  5
2F9
100
AcDbEntity
  8
0
100
AcDbLine
 62
7
  6
CONTINUOUS
 10
220.009494438
 20
277.0414815816
 11
220.4937351098
 21
277.2968007001
  0
LINE
  5
2FA
100
AcDbEntity
  8
FASEN
100
AcDbLine
 62
7
  6
CONTINUOUS
 10
395.7201943316
 20
323.1478646669
 11
387.7201943316
 21
331.1478646669
  0
LINE
  5
2FB
100
AcDbEntity
  8
0
100
AcDbLine
 62
7
  6
CONTINUOUS
 10
309.1097757358
 20
276.5308433446
 11
309.5940164076
 21
277.5521198186
  0
LINE
  5
2FC
100
AcDbEntity
  8
0
100
AcDbLine
 62
7
  6
CONTINUOUS
 10
287.4803639891
 20
271.1691412303
 11
287.9646046608
 21
271.9350986752
  0
LINE
  5
2FD
100
AcDbEntity
  8
0
100
AcDbLine
 62
7
  6
CONTINUOUS
 10
308.3027128754
 20
277.2968007001
 11
308.625535064
 21
277.8074389371
  0
LINE
  5
2FE
100
AcDbEntity
  8
0
100
AcDbLine
 62
7
  6
CONTINUOUS
 10
284.4135014752
 20
280.1053117189
 11
284.897742147
 21
280.6159499559
  0
LINE
  5
2FF
100
AcDbEntity
  8
0
100
AcDbLine
 62
7
  6
CONTINUOUS
 10
286.5118826455
 20
271.6797795567
 11
286.9961233173
 21
272.1904177937
  0
LINE
  5
300
100
AcDbEntity
  8
0
100
AcDbLine
 62
7
  6
CONTINUOUS
 10
283.9292608034
 20
281.1265881929
 11
284.7363310527
 21
281.8925455484
  0
LINE
  5
301
100
AcDbEntity
  8
0
100
AcDbLine
 62
7
  6
CONTINUOUS
 10
286.6732937398
 20
270.4031838077
 11
287.4803639891
 21
271.1691412303
  0
LINE
  5
302
100
AcDbEntity
  8
0
100
AcDbLine
 62
7
  6
CONTINUOUS
 10
276.6656544213
 20
281.3819073114
 11
277.3113061873
 21
281.8925455484
  0
LINE
  5
303
100
AcDbEntity
  8
0
100
AcDbLine
 62
7
  6
CONTINUOUS
 10
226.6274504396
 20
271.6797795567
 11
227.2731049765
 21
271.9350986752
  0
LINE
  5
304
100
AcDbEntity
  8
0
100
AcDbLine
 62
7
  6
CONTINUOUS
 10
234.375301188
 20
271.6797795567
 11
235.0209548013
 21
271.9350986752
  0
LINE
  5
305
100
AcDbEntity
  8
0
100
AcDbLine
 62
7
  6
CONTINUOUS
 10
226.6274504396
 20
270.1478646669
 11
227.434517918
 21
270.4031838077
  0
LINE
  5
306
100
AcDbEntity
  8
0
100
AcDbLine
 62
7
  6
CONTINUOUS
 10
234.375301188
 20
270.1478646669
 11
235.18236959
 21
270.4031838077
  0
LINE
  5
307
100
AcDbEntity
  8
0
100
AcDbLine
 62
7
  6
CONTINUOUS
 10
277.4727209761
 20
280.6159499559
 11
278.2797912253
 21
280.8712690744
  0
LINE
  5
308
100
AcDbEntity
  8
0
100
AcDbLine
 62
7
  6
CONTINUOUS
 10
284.897742147
 20
280.6159499559
 11
285.7048123963
 21
280.8712690744
  0
LINE
  5
309
100
AcDbEntity
  8
RUNDUNGEN
100
AcDbLine
 62
7
  6
CONTINUOUS
 10
355.7201943316
 20
221.1478646669
 11
355.7201943316
 21
223.2328384456
  0
LINE
  5
30A
100
AcDbEntity
  8
RUNDUNGEN
100
AcDbLine
 62
7
  6
CONTINUOUS
 10
355.7201943316
 20
329.0628908881
 11
355.7201943316
 21
331.1478646669
  0
LINE
  5
30B
100
AcDbEntity
  8
0
100
AcDbLine
 62
7
  6
CONTINUOUS
 10
308.4641239697
 20
275.7648859891
 11
309.1097757358
 21
276.5308433446
  0
LINE
  5
30C
100
AcDbEntity
  8
0
100
AcDbLine
 62
7
  6
CONTINUOUS
 10
307.8184722037
 20
277.0414815816
 11
308.3027128754
 21
277.2968007001
  0
LINE
  5
30D
100
AcDbEntity
  8
0
100
AcDbLine
 62
7
  6
CONTINUOUS
 10
285.7048123963
 20
271.4244604382
 11
286.5118826455
 21
271.6797795567
  0
LINE
  5
30E
100
AcDbEntity
  8
0
100
AcDbLine
 62
7
  6
CONTINUOUS
 10
307.6570537205
 20
275.5095668706
 11
308.4641239697
 21
275.7648859891
  0
LINE
  5
30F
100
AcDbEntity
  8
FASEN
100
AcDbLine
 62
7
  6
CONTINUOUS
 10
387.7201943316
 20
221.1478646669
 11
387.7201943316
 21
331.1478646669
  0
LINE
  5
310
100
AcDbEntity
  8
FASEN
100
AcDbLine
 62
7
  6
CONTINUOUS
 10
395.7201943316
 20
229.1478646669
 11
395.7201943316
 21
323.1478646669
  0
LINE
  5
311
100
AcDbEntity
  8
0
100
AcDbLine
 62
7
  6
CONTINUOUS
 10
400.7201943316
 20
226.1478646669
 11
400.7201943316
 21
326.1478646669
  0
LINE
  5
312
100
AcDbEntity
  8
0
100
AcDbLine
 62
7
  6
CONTINUOUS
 10
400.7201943316
 20
326.1478646669
 11
395.7201943316
 21
321.1478646669
  0
LINE
  5
313
100
AcDbEntity
  8
BEZUGSACHSEN
100
AcDbLine
 62
7
  6
CONTINUOUS
 10
144.2201943316
 20
516.6478646669
 11
169.2201943316
 21
516.6478646669
  0
LINE
  5
314
100
AcDbEntity
  8
BEZUGSACHSEN
100
AcDbLine
 62
2
  6
CENTER
 10
456.2201943316
 20
276.1478646669
 11
456.2201943316
 21
260.8978646669
  0
LINE
  5
315
100
AcDbEntity
  8
BEZUGSACHSEN
100
AcDbLine
 62
2
  6
CENTER
 10
456.2201943316
 20
276.1478646669
 11
456.2201943316
 21
291.3978646669
  0
LINE
  5
316
100
AcDbEntity
  8
FASEN
100
AcDbLine
 62
7
  6
CONTINUOUS
 10
395.7201943316
 20
229.1478646669
 11
387.7201943316
 21
221.1478646669
  0
LINE
  5
317
100
AcDbEntity
  8
0
100
AcDbLine
 62
7
  6
CONTINUOUS
 10
36.7201943316
 20
162.6134590964
 11
36.7201943316
 21
126.8634590964
  0
LINE
  5
318
100
AcDbEntity
  8
0
100
AcDbLine
 62
7
  6
CONTINUOUS
 10
36.7201943316
 20
98.3634590964
 11
36.7201943316
 21
62.6134590964
  0
LINE
  5
319
100
AcDbEntity
  8
BEZUGSACHSEN
100
AcDbLine
 62
7
  6
CONTINUOUS
 10
52.9701943316
 20
123.8634590964
 11
52.9701943316
 21
101.3634590964
  0
LINE
  5
31A
100
AcDbEntity
  8
RUNDUNGEN
100
AcDbLine
 62
7
  6
CONTINUOUS
 10
54.4160596359
 20
71.188828742
 11
54.4160596359
 21
98.3634590964
  0
LINE
  5
31B
100
AcDbEntity
  8
RUNDUNGEN
100
AcDbLine
 62
7
  6
CONTINUOUS
 10
54.4160596359
 20
126.8634590964
 11
54.4160596359
 21
154.0380894508
  0
LINE
  5
31C
100
AcDbEntity
  8
BEZUGSACHSEN
100
AcDbLine
 62
2
  6
CENTER
 10
65.2201943316
 20
98.3634590964
 11
65.2201943316
 21
126.8634590964
  0
LINE
  5
31D
100
AcDbEntity
  8
BEZUGSACHSEN
100
AcDbLine
 62
7
  6
CONTINUOUS
 10
77.4701943316
 20
123.8634590964
 11
77.4701943316
 21
101.3634590964
  0
LINE
  5
31E
100
AcDbEntity
  8
0
100
AcDbLine
 62
9
  6
CONTINUOUS
 10
81.7201943316
 20
71.188828742
 11
81.7201943316
 21
101.3634590964
  0
LINE
  5
31F
100
AcDbEntity
  8
0
100
AcDbLine
 62
9
  6
CONTINUOUS
 10
81.7201943316
 20
123.8634590964
 11
81.7201943316
 21
154.0380894508
  0
LINE
  5
320
100
AcDbEntity
  8
0
100
AcDbLine
 62
7
  6
CONTINUOUS
 10
104.7201943316
 20
123.8634590964
 11
104.7201943316
 21
101.3634590964
  0
LINE
  5
321
100
AcDbEntity
  8
FASEN
100
AcDbLine
 62
7
  6
CONTINUOUS
 10
120.7201943316
 20
62.6134590964
 11
120.7201943316
 21
162.6134590964
  0
LINE
  5
322
100
AcDbEntity
  8
FASEN
100
AcDbLine
 62
7
  6
CONTINUOUS
 10
125.7201943316
 20
65.6134590964
 11
125.7201943316
 21
159.6134590964
  0
LINE
  5
323
100
AcDbEntity
  8
FASEN
100
AcDbLine
 62
7
  6
CONTINUOUS
 10
133.7201943316
 20
57.6134590964
 11
133.7201943316
 21
167.6134590964
  0
LINE
  5
324
100
AcDbEntity
  8
0
100
AcDbLine
 62
7
  6
CONTINUOUS
 10
139.7201943316
 20
88.6134590964
 11
139.7201943316
 21
136.6134590964
  0
LINE
  5
325
100
AcDbEntity
  8
FASEN
100
AcDbLine
 62
7
  6
CONTINUOUS
 10
133.7201943316
 20
167.6134590964
 11
125.7201943316
 21
159.6134590964
  0
LINE
  5
326
100
AcDbEntity
  8
FASEN
100
AcDbLine
 62
7
  6
CONTINUOUS
 10
133.7201943316
 20
57.6134590964
 11
125.7201943316
 21
65.6134590964
  0
LINE
  5
327
100
AcDbEntity
  8
0
100
AcDbLine
 62
7
  6
CONTINUOUS
 10
170.7201943316
 20
88.6134590964
 11
170.7201943316
 21
136.6134590964
  0
LINE
  5
328
100
AcDbEntity
  8
RUNDUNGEN
100
AcDbLine
 62
7
  6
CONTINUOUS
 10
190.7201943316
 20
97.6134590964
 11
190.7201943316
 21
127.6134590964
  0
LINE
  5
329
100
AcDbEntity
  8
FASEN
100
AcDbLine
 62
7
  6
CONTINUOUS
 10
125.7201943316
 20
67.6134590964
 11
120.7201943316
 21
62.6134590964
  0
LINE
  5
32A
100
AcDbEntity
  8
FASEN
100
AcDbLine
 62
7
  6
CONTINUOUS
 10
125.7201943316
 20
157.6134590964
 11
120.7201943316
 21
162.6134590964
  0
LINE
  5
32B
100
AcDbEntity
  8
FASEN
100
AcDbLine
 62
7
  6
CONTINUOUS
 10
205.7201943316
 20
99.6134590964
 11
205.7201943316
 21
125.6134590964
  0
LINE
  5
32C
100
AcDbEntity
  8
FASEN
100
AcDbLine
 62
7
  6
CONTINUOUS
 10
213.7201943316
 20
91.6134590964
 11
213.7201943316
 21
133.6134590964
  0
LINE
  5
32D
100
AcDbEntity
  8
0
100
AcDbLine
 62
7
  6
CONTINUOUS
 10
215.9741556605
 20
57.941711365
 11
215.9741556605
 21
57.6134965729
  0
LINE
  5
32E
100
AcDbEntity
  8
FASEN
100
AcDbLine
 62
7
  6
CONTINUOUS
 10
213.7201943316
 20
133.6134590964
 11
205.7201943316
 21
125.6134590964
  0
LINE
  5
32F
100
AcDbEntity
  8
0
100
AcDbLine
 62
7
  6
CONTINUOUS
 10
387.7201943316
 20
57.6134590964
 11
309.5940164076
 21
57.6134590964
  0
LINE
  5
330
100
AcDbEntity
  8
0
100
AcDbLine
 62
7
  6
CONTINUOUS
 10
303.7831283462
 20
57.6134590964
 11
302.4918248141
 21
57.6134590964
  0
LINE
  5
331
100
AcDbEntity
  8
0
100
AcDbLine
 62
7
  6
CONTINUOUS
 10
301.5233434706
 20
57.6134590964
 11
298.940725323
 21
57.6134590964
  0
LINE
  5
332
100
AcDbEntity
  8
0
100
AcDbLine
 62
7
  6
CONTINUOUS
 10
297.9682593541
 20
57.6134590964
 11
296.0392616823
 21
57.6134590964
  0
LINE
  5
333
100
AcDbEntity
  8
0
100
AcDbLine
 62
7
  6
CONTINUOUS
 10
295.0667999487
 20
57.6134590964
 11
291.5189398094
 21
57.6134590964
  0
LINE
  5
334
100
AcDbEntity
  8
0
100
AcDbLine
 62
7
  6
CONTINUOUS
 10
290.8668093491
 20
57.6134590964
 11
288.6102564269
 21
57.6134590964
  0
LINE
  5
335
100
AcDbEntity
  8
0
100
AcDbLine
 62
7
  6
CONTINUOUS
 10
287.8031861776
 20
57.6134590964
 11
283.6064386149
 21
57.6134590964
  0
LINE
  5
336
100
AcDbEntity
  8
0
100
AcDbLine
 62
7
  6
CONTINUOUS
 10
282.7993683656
 20
57.6134590964
 11
281.0238167728
 21
57.6134590964
  0
LINE
  5
337
100
AcDbEntity
  8
0
100
AcDbLine
 62
7
  6
CONTINUOUS
 10
260.8471233469
 20
57.6134590964
 11
254.7134094026
 21
57.6134590964
  0
LINE
  5
338
100
AcDbEntity
  8
0
100
AcDbLine
 62
7
  6
CONTINUOUS
 10
253.744928059
 20
57.6134590964
 11
251.1623117586
 21
57.6134590964
  0
LINE
  5
339
100
AcDbEntity
  8
0
100
AcDbLine
 62
7
  6
CONTINUOUS
 10
250.189847637
 20
57.6134590964
 11
248.2608483884
 21
57.6134590964
  0
LINE
  5
33A
100
AcDbEntity
  8
0
100
AcDbLine
 62
7
  6
CONTINUOUS
 10
247.2883863844
 20
57.6134590964
 11
236.9579174884
 21
57.6134590964
  0
LINE
  5
33B
100
AcDbEntity
  8
0
100
AcDbLine
 62
7
  6
CONTINUOUS
 10
235.9894361448
 20
57.6134590964
 11
231.4698571573
 21
57.6134590964
  0
LINE
  5
33C
100
AcDbEntity
  8
0
100
AcDbLine
 62
7
  6
CONTINUOUS
 10
230.5013758138
 20
57.6134590964
 11
229.2100676636
 21
57.6134590964
  0
LINE
  5
33D
100
AcDbEntity
  8
0
100
AcDbLine
 62
7
  6
CONTINUOUS
 10
228.24158632
 20
57.6134590964
 11
224.3676609458
 21
57.6134590964
  0
LINE
  5
33E
100
AcDbEntity
  8
0
100
AcDbLine
 62
7
  6
CONTINUOUS
 10
223.3991791405
 20
57.6134590964
 11
221.7850437218
 21
57.6134590964
  0
LINE
  5
33F
100
AcDbEntity
  8
0
100
AcDbLine
 62
7
  6
CONTINUOUS
 10
215.9741556605
 20
57.6134590964
 11
133.7201943316
 21
57.6134590964
  0
LINE
  5
340
100
AcDbEntity
  8
0
100
AcDbLine
 62
7
  6
CONTINUOUS
 10
279.0416267534
 20
57.6134590964
 11
261.8156046905
 21
57.6147925004
  0
LINE
  5
341
100
AcDbEntity
  8
0
100
AcDbLine
 62
7
  6
CONTINUOUS
 10
307.6570537205
 20
57.6171630764
 11
304.7516096898
 21
57.6171630764
  0
LINE
  5
342
100
AcDbEntity
  8
0
100
AcDbLine
 62
7
  6
CONTINUOUS
 10
219.6866674005
 20
57.6171630764
 11
216.9426370041
 21
57.6171630764
  0
LINE
  5
343
100
AcDbEntity
  8
0
100
AcDbLine
 62
7
  6
CONTINUOUS
 10
307.8184722037
 20
57.6207191318
 11
304.7516096898
 21
57.6207191318
  0
LINE
  5
344
100
AcDbEntity
  8
0
100
AcDbLine
 62
7
  6
CONTINUOUS
 10
220.009494438
 20
57.6207191318
 11
216.9426370041
 21
57.6207191318
  0
LINE
  5
345
100
AcDbEntity
  8
0
100
AcDbLine
 62
7
  6
CONTINUOUS
 10
266.0123596422
 20
57.6254608969
 11
261.8156046905
 21
57.6254608969
  0
LINE
  5
346
100
AcDbEntity
  8
0
100
AcDbLine
 62
7
  6
CONTINUOUS
 10
276.6656544213
 20
57.7061335968
 11
275.858584172
 21
57.7061335968
  0
LINE
  5
347
100
AcDbEntity
  8
0
100
AcDbLine
 62
7
  6
CONTINUOUS
 10
266.6580114082
 20
57.7952484922
 11
261.8156046905
 21
57.7952484922
  0
LINE
  5
348
100
AcDbEntity
  8
0
100
AcDbLine
 62
7
  6
CONTINUOUS
 10
234.375301188
 20
57.7952484922
 11
231.4698571573
 21
57.7952484922
  0
LINE
  5
349
100
AcDbEntity
  8
0
100
AcDbLine
 62
7
  6
CONTINUOUS
 10
307.8184722037
 20
57.8166576313
 11
304.7516096898
 21
57.8166576313
  0
LINE
  5
34A
100
AcDbEntity
  8
0
100
AcDbLine
 62
7
  6
CONTINUOUS
 10
278.9254429914
 20
57.8166576313
 11
278.2797912253
 21
57.8166576313
  0
LINE
  5
34B
100
AcDbEntity
  8
0
100
AcDbLine
 62
7
  6
CONTINUOUS
 10
220.009494438
 20
57.8166576313
 11
216.9426370041
 21
57.8166576313
  0
LINE
  5
34C
100
AcDbEntity
  8
0
100
AcDbLine
 62
7
  6
CONTINUOUS
 10
307.6570537205
 20
57.941711365
 11
303.7831283462
 21
57.941711365
  0
LINE
  5
34D
100
AcDbEntity
  8
0
100
AcDbLine
 62
7
  6
CONTINUOUS
 10
302.4918248141
 20
57.941711365
 11
301.5233434706
 21
57.941711365
  0
LINE
  5
34E
100
AcDbEntity
  8
0
100
AcDbLine
 62
7
  6
CONTINUOUS
 10
300.2320325495
 20
57.941711365
 11
299.263551206
 21
57.941711365
  0
LINE
  5
34F
100
AcDbEntity
  8
0
100
AcDbLine
 62
7
  6
CONTINUOUS
 10
294.7439740657
 20
57.941711365
 11
293.7754927222
 21
57.941711365
  0
LINE
  5
350
100
AcDbEntity
  8
0
100
AcDbLine
 62
7
  6
CONTINUOUS
 10
279.0868540857
 20
57.941711365
 11
278.4412023196
 21
57.941711365
  0
LINE
  5
351
100
AcDbEntity
  8
0
100
AcDbLine
 62
7
  6
CONTINUOUS
 10
266.6580114082
 20
57.941711365
 11
260.8471233469
 21
57.941711365
  0
LINE
  5
352
100
AcDbEntity
  8
0
100
AcDbLine
 62
7
  6
CONTINUOUS
 10
254.7134094026
 20
57.941711365
 11
253.744928059
 21
57.941711365
  0
LINE
  5
353
100
AcDbEntity
  8
0
100
AcDbLine
 62
7
  6
CONTINUOUS
 10
252.4536208325
 20
57.941711365
 11
251.4851394889
 21
57.941711365
  0
LINE
  5
354
100
AcDbEntity
  8
0
100
AcDbLine
 62
7
  6
CONTINUOUS
 10
246.9655586542
 20
57.941711365
 11
245.9970773106
 21
57.941711365
  0
LINE
  5
355
100
AcDbEntity
  8
0
100
AcDbLine
 62
7
  6
CONTINUOUS
 10
234.375301188
 20
57.941711365
 11
230.5013758138
 21
57.941711365
  0
LINE
  5
356
100
AcDbEntity
  8
0
100
AcDbLine
 62
7
  6
CONTINUOUS
 10
229.2100676636
 20
57.941711365
 11
228.24158632
 21
57.941711365
  0
LINE
  5
357
100
AcDbEntity
  8
0
100
AcDbLine
 62
7
  6
CONTINUOUS
 10
224.3676609458
 20
57.941711365
 11
223.3991791405
 21
57.941711365
  0
LINE
  5
358
100
AcDbEntity
  8
0
100
AcDbLine
 62
7
  6
CONTINUOUS
 10
219.8480810347
 20
57.941711365
 11
215.9741556605
 21
57.941711365
  0
LINE
  5
359
100
AcDbEntity
  8
0
100
AcDbLine
 62
7
  6
CONTINUOUS
 10
484.7201943316
 20
62.6134590964
 11
468.4701943316
 21
62.6134590964
  0
LINE
  5
35A
100
AcDbEntity
  8
0
100
AcDbLine
 62
7
  6
CONTINUOUS
 10
443.9701943316
 20
62.6134590964
 11
400.7201943316
 21
62.6134590964
  0
LINE
  5
35B
100
AcDbEntity
  8
0
100
AcDbLine
 62
7
  6
CONTINUOUS
 10
120.7201943316
 20
62.6134590964
 11
77.4701943316
 21
62.6134590964
  0
LINE
  5
35C
100
AcDbEntity
  8
0
100
AcDbLine
 62
7
  6
CONTINUOUS
 10
52.9701943316
 20
62.6134590964
 11
36.7201943316
 21
62.6134590964
  0
LINE
  5
35D
100
AcDbEntity
  8
0
100
AcDbLine
 62
7
  6
CONTINUOUS
 10
220.6551489749
 20
57.6136072508
 11
220.8165627186
 21
57.6134590969
  0
LINE
  5
35E
100
AcDbEntity
  8
FASEN
100
AcDbLine
 62
7
  6
CONTINUOUS
 10
213.7201943316
 20
91.6134590964
 11
205.7201943316
 21
99.6134590964
  0
LINE
  5
35F
100
AcDbEntity
  8
0
100
AcDbLine
 62
7
  6
CONTINUOUS
 10
216.9426370041
 20
57.6207191318
 11
216.9426370041
 21
57.941711365
  0
LINE
  5
360
100
AcDbEntity
  8
0
100
AcDbLine
 62
7
  6
CONTINUOUS
 10
220.009494438
 20
57.8166576313
 11
220.009494438
 21
57.9361374768
  0
LINE
  5
361
100
AcDbEntity
  8
0
100
AcDbLine
 62
7
  6
CONTINUOUS
 10
220.4937351098
 20
57.7952484922
 11
220.4937351098
 21
57.9196872235
  0
LINE
  5
362
100
AcDbEntity
  8
0
100
AcDbLine
 62
7
  6
CONTINUOUS
 10
220.6551489749
 20
57.6136072508
 11
220.6551489749
 21
57.631388711
  0
LINE
  5
363
100
AcDbEntity
  8
0
100
AcDbLine
 62
7
  6
CONTINUOUS
 10
220.8165623783
 20
57.7560201038
 11
220.8165623783
 21
57.8945222223
  0
LINE
  5
364
100
AcDbEntity
  8
0
100
AcDbLine
 62
7
  6
CONTINUOUS
 10
220.9779757816
 20
57.666968796
 11
220.9779757816
 21
57.8754274531
  0
LINE
  5
365
100
AcDbEntity
  8
0
100
AcDbLine
 62
7
  6
CONTINUOUS
 10
221.30080305
 20
57.6147925004
 11
221.30080305
 21
57.8392652452
  0
LINE
  5
366
100
AcDbEntity
  8
0
100
AcDbLine
 62
7
  6
CONTINUOUS
 10
221.7850437218
 20
57.6313886782
 11
221.7850437218
 21
57.7560201038
  0
LINE
  5
367
100
AcDbEntity
  8
0
100
AcDbLine
 62
7
  6
CONTINUOUS
 10
221.9464571251
 20
57.656292342
 11
221.9464571251
 21
57.7061335968
  0
LINE
  5
368
100
AcDbEntity
  8
0
100
AcDbLine
 62
7
  6
CONTINUOUS
 10
223.3991791405
 20
57.941711365
 11
223.3991791405
 21
57.6134601012
  0
LINE
  5
369
100
AcDbEntity
  8
0
100
AcDbLine
 62
7
  6
CONTINUOUS
 10
223.5605930056
 20
57.706133576
 11
223.5605930056
 21
57.941711365
  0
LINE
  5
36A
100
AcDbEntity
  8
0
100
AcDbLine
 62
7
  6
CONTINUOUS
 10
223.8834202741
 20
57.7750364103
 11
223.8834202741
 21
57.941711365
  0
LINE
  5
36B
100
AcDbEntity
  8
0
100
AcDbLine
 62
7
  6
CONTINUOUS
 10
224.3676609458
 20
57.6134601012
 11
224.3676609458
 21
57.941711365
  0
LINE
  5
36C
100
AcDbEntity
  8
0
100
AcDbLine
 62
7
  6
CONTINUOUS
 10
228.24158632
 20
57.941711365
 11
228.24158632
 21
57.6134601012
  0
LINE
  5
36D
100
AcDbEntity
  8
0
100
AcDbLine
 62
7
  6
CONTINUOUS
 10
228.7258269918
 20
57.7750364103
 11
228.7258269918
 21
57.941711365
  0
LINE
  5
36E
100
AcDbEntity
  8
0
100
AcDbLine
 62
7
  6
CONTINUOUS
 10
229.0486537985
 20
57.706133576
 11
229.0486537985
 21
57.941711365
  0
LINE
  5
36F
100
AcDbEntity
  8
0
100
AcDbLine
 62
7
  6
CONTINUOUS
 10
229.2100676636
 20
57.6134601012
 11
229.2100676636
 21
57.941711365
  0
LINE
  5
370
100
AcDbEntity
  8
0
100
AcDbLine
 62
7
  6
CONTINUOUS
 10
230.5013758138
 20
57.941711365
 11
230.5013758138
 21
57.6134965729
  0
LINE
  5
371
100
AcDbEntity
  8
0
100
AcDbLine
 62
7
  6
CONTINUOUS
 10
231.4698571573
 20
57.6134705819
 11
231.4698571573
 21
57.941711365
  0
LINE
  5
372
100
AcDbEntity
  8
0
100
AcDbLine
 62
7
  6
CONTINUOUS
 10
81.7201943316
 20
71.188828742
 11
54.4160596359
 21
71.188828742
  0
LINE
  5
373
100
AcDbEntity
  8
0
100
AcDbLine
 62
7
  6
CONTINUOUS
 10
439.7201943316
 20
71.188828742
 11
467.0243290272
 21
71.188828742
  0
LINE
  5
374
100
AcDbEntity
  8
RUNDUNGEN
100
AcDbLine
 62
7
  6
CONTINUOUS
 10
340.7201943316
 20
82.6134590964
 11
205.7201943316
 21
82.6134590964
  0
LINE
  5
375
100
AcDbEntity
  8
0
100
AcDbLine
 62
7
  6
CONTINUOUS
 10
234.375301188
 20
57.7952484922
 11
234.375301188
 21
57.941711365
  0
LINE
  5
376
100
AcDbEntity
  8
0
100
AcDbLine
 62
7
  6
CONTINUOUS
 10
235.0209548013
 20
57.775036424
 11
235.0209548013
 21
57.9196872513
  0
LINE
  5
377
100
AcDbEntity
  8
0
100
AcDbLine
 62
7
  6
CONTINUOUS
 10
235.5051954731
 20
57.7381982882
 11
235.5051954731
 21
57.8880821135
  0
LINE
  5
378
100
AcDbEntity
  8
0
100
AcDbLine
 62
7
  6
CONTINUOUS
 10
235.8280232033
 20
57.6918885932
 11
235.8280232033
 21
57.8630728183
  0
LINE
  5
379
100
AcDbEntity
  8
0
100
AcDbLine
 62
7
  6
CONTINUOUS
 10
235.9894361448
 20
57.6134594825
 11
235.9894361448
 21
57.839265553
  0
LINE
  5
37A
100
AcDbEntity
  8
0
100
AcDbLine
 62
7
  6
CONTINUOUS
 10
236.9579174884
 20
57.6134594825
 11
236.9579174884
 21
57.6468039015
  0
LINE
  5
37B
100
AcDbEntity
  8
0
100
AcDbLine
 62
7
  6
CONTINUOUS
 10
170.7201943316
 20
88.6134590964
 11
139.7201943316
 21
88.6134590964
  0
LINE
  5
37C
100
AcDbEntity
  8
0
100
AcDbLine
 62
7
  6
CONTINUOUS
 10
354.4679214165
 20
91.6134590964
 11
213.7201943316
 21
91.6134590964
  0
LINE
  5
37D
100
AcDbEntity
  8
0
100
AcDbLine
 62
7
  6
CONTINUOUS
 10
170.7201943316
 20
97.6134590964
 11
139.7201943316
 21
97.6134590964
  0
LINE
  5
37E
100
AcDbEntity
  8
RUNDUNGEN
100
AcDbLine
 62
9
  6
CONTINUOUS
 10
54.4160596359
 20
98.3634590964
 11
36.7201943316
 21
98.3634590964
  0
LINE
  5
37F
100
AcDbEntity
  8
0
100
AcDbLine
 62
9
  6
CONTINUOUS
 10
467.0243290272
 20
98.3634590964
 11
484.7201943316
 21
98.3634590964
  0
LINE
  5
380
100
AcDbEntity
  8
0
100
AcDbLine
 62
7
  6
CONTINUOUS
 10
253.744928059
 20
57.941711365
 11
253.744928059
 21
57.6134965729
  0
LINE
  5
381
100
AcDbEntity
  8
0
100
AcDbLine
 62
7
  6
CONTINUOUS
 10
254.7134094026
 20
57.6134737555
 11
254.7134094026
 21
57.941711365
  0
LINE
  5
382
100
AcDbEntity
  8
0
100
AcDbLine
 62
7
  6
CONTINUOUS
 10
260.8471233469
 20
57.941711365
 11
260.8471233469
 21
57.6134965729
  0
LINE
  5
383
100
AcDbEntity
  8
0
100
AcDbLine
 62
7
  6
CONTINUOUS
 10
261.8156046905
 20
57.6147925004
 11
261.8156046905
 21
57.941711365
  0
LINE
  5
384
100
AcDbEntity
  8
RUNDUNGEN
100
AcDbLine
 62
7
  6
CONTINUOUS
 10
39.7203143176
 20
101.3634590964
 11
81.7201943316
 21
101.3634590964
  0
LINE
  5
385
100
AcDbEntity
  8
0
100
AcDbLine
 62
7
  6
CONTINUOUS
 10
81.7201943316
 20
101.3634590964
 11
104.7201943316
 21
101.3634590964
  0
LINE
  5
386
100
AcDbEntity
  8
0
100
AcDbLine
 62
7
  6
CONTINUOUS
 10
416.7201943316
 20
101.3634590964
 11
481.7200743456
 21
101.3634590964
  0
LINE
  5
387
100
AcDbEntity
  8
TEIL_STARTBEZUEGE
100
AcDbLine
 62
2
  6
CENTER
 10
33.7201943316
 20
112.6134590964
 11
487.7201943316
 21
112.6134590964
  0
LINE
  5
388
100
AcDbEntity
  8
0
100
AcDbLine
 62
7
  6
CONTINUOUS
 10
266.0123596422
 20
57.6134590974
 11
266.0123596422
 21
57.6254608969
  0
LINE
  5
389
100
AcDbEntity
  8
0
100
AcDbLine
 62
7
  6
CONTINUOUS
 10
266.6580114082
 20
57.7952484922
 11
266.6580114082
 21
57.941711365
  0
LINE
  5
38A
100
AcDbEntity
  8
0
100
AcDbLine
 62
7
  6
CONTINUOUS
 10
276.6656544213
 20
57.7061335968
 11
276.6656544213
 21
57.8630728183
  0
LINE
  5
38B
100
AcDbEntity
  8
0
100
AcDbLine
 62
7
  6
CONTINUOUS
 10
276.9884803043
 20
57.7560201038
 11
276.9884803043
 21
57.8880820411
  0
LINE
  5
38C
100
AcDbEntity
  8
0
100
AcDbLine
 62
7
  6
CONTINUOUS
 10
277.4727209761
 20
57.7952484922
 11
277.4727209761
 21
57.9181463753
  0
LINE
  5
38D
100
AcDbEntity
  8
0
100
AcDbLine
 62
7
  6
CONTINUOUS
 10
481.7200743457
 20
123.8634590964
 11
416.7201943316
 21
123.8634590964
  0
LINE
  5
38E
100
AcDbEntity
  8
RUNDUNGEN
100
AcDbLine
 62
7
  6
CONTINUOUS
 10
39.7201943316
 20
123.8634590964
 11
81.7201943316
 21
123.8634590964
  0
LINE
  5
38F
100
AcDbEntity
  8
0
100
AcDbLine
 62
7
  6
CONTINUOUS
 10
81.7201943316
 20
123.8634590964
 11
104.7201943316
 21
123.8634590964
  0
LINE
  5
390
100
AcDbEntity
  8
0
100
AcDbLine
 62
9
  6
CONTINUOUS
 10
484.7201943316
 20
126.8634590964
 11
467.0243290272
 21
126.8634590964
  0
LINE
  5
391
100
AcDbEntity
  8
RUNDUNGEN
100
AcDbLine
 62
9
  6
CONTINUOUS
 10
36.7201943316
 20
126.8634590964
 11
54.4160596359
 21
126.8634590964
  0
LINE
  5
392
100
AcDbEntity
  8
0
100
AcDbLine
 62
7
  6
CONTINUOUS
 10
170.7201943316
 20
127.6134590964
 11
139.7201943316
 21
127.6134590964
  0
LINE
  5
393
100
AcDbEntity
  8
0
100
AcDbLine
 62
7
  6
CONTINUOUS
 10
278.2797912253
 20
57.8166576313
 11
278.2797912253
 21
57.9377300766
  0
LINE
  5
394
100
AcDbEntity
  8
0
100
AcDbLine
 62
7
  6
CONTINUOUS
 10
278.9254429914
 20
57.8166576313
 11
278.9254429914
 21
57.941711365
  0
LINE
  5
395
100
AcDbEntity
  8
0
100
AcDbLine
 62
7
  6
CONTINUOUS
 10
279.7325132407
 20
57.7952484922
 11
279.7325132407
 21
57.9233075168
  0
LINE
  5
396
100
AcDbEntity
  8
0
100
AcDbLine
 62
7
  6
CONTINUOUS
 10
280.2167539124
 20
57.7560201038
 11
280.2167539124
 21
57.9010372665
  0
LINE
  5
397
100
AcDbEntity
  8
0
100
AcDbLine
 62
7
  6
CONTINUOUS
 10
280.539576101
 20
57.6788339563
 11
280.539576101
 21
57.875427533
  0
LINE
  5
398
100
AcDbEntity
  8
0
100
AcDbLine
 62
7
  6
CONTINUOUS
 10
281.0238167728
 20
57.6207191318
 11
281.0238167728
 21
57.8166587724
  0
LINE
  5
399
100
AcDbEntity
  8
0
100
AcDbLine
 62
7
  6
CONTINUOUS
 10
281.3466463503
 20
57.6385028596
 11
281.3466463503
 21
57.775036424
  0
LINE
  5
39A
100
AcDbEntity
  8
0
100
AcDbLine
 62
7
  6
CONTINUOUS
 10
281.5080574446
 20
57.6788339563
 11
281.5080574446
 21
57.7061335968
  0
LINE
  5
39B
100
AcDbEntity
  8
0
100
AcDbLine
 62
7
  6
CONTINUOUS
 10
282.7993683656
 20
57.6254608969
 11
282.7993683656
 21
57.6134591464
  0
LINE
  5
39C
100
AcDbEntity
  8
0
100
AcDbLine
 62
7
  6
CONTINUOUS
 10
283.6064386149
 20
57.6207191318
 11
283.6064386149
 21
57.7953239828
  0
LINE
  5
39D
100
AcDbEntity
  8
0
100
AcDbLine
 62
7
  6
CONTINUOUS
 10
283.7678497091
 20
57.666968796
 11
283.7678497091
 21
57.8167328384
  0
LINE
  5
39E
100
AcDbEntity
  8
0
100
AcDbLine
 62
7
  6
CONTINUOUS
 10
284.4135014752
 20
57.7560201038
 11
284.4135014752
 21
57.8830647495
  0
LINE
  5
39F
100
AcDbEntity
  8
0
100
AcDbLine
 62
7
  6
CONTINUOUS
 10
284.897742147
 20
57.7952484922
 11
284.897742147
 21
57.9187883083
  0
LINE
  5
3A0
100
AcDbEntity
  8
0
100
AcDbLine
 62
7
  6
CONTINUOUS
 10
285.7048123963
 20
57.8166576313
 11
285.7048123963
 21
57.941711365
  0
LINE
  5
3A1
100
AcDbEntity
  8
0
100
AcDbLine
 62
7
  6
CONTINUOUS
 10
286.5118826455
 20
57.7952484922
 11
286.5118826455
 21
57.9187883083
  0
LINE
  5
3A2
100
AcDbEntity
  8
0
100
AcDbLine
 62
7
  6
CONTINUOUS
 10
286.9961233173
 20
57.7560201038
 11
286.9961233173
 21
57.8830647495
  0
LINE
  5
3A3
100
AcDbEntity
  8
0
100
AcDbLine
 62
7
  6
CONTINUOUS
 10
287.6417750834
 20
57.666968796
 11
287.6417750834
 21
57.8167328384
  0
LINE
  5
3A4
100
AcDbEntity
  8
0
100
AcDbLine
 62
7
  6
CONTINUOUS
 10
287.8031861776
 20
57.6207181736
 11
287.8031861776
 21
57.7953239828
  0
LINE
  5
3A5
100
AcDbEntity
  8
0
100
AcDbLine
 62
7
  6
CONTINUOUS
 10
288.6102564269
 20
57.6134591464
 11
288.6102564269
 21
57.6254608969
  0
LINE
  5
3A6
100
AcDbEntity
  8
0
100
AcDbLine
 62
7
  6
CONTINUOUS
 10
354.4679214165
 20
133.6134590964
 11
213.7201943316
 21
133.6134590964
  0
LINE
  5
3A7
100
AcDbEntity
  8
0
100
AcDbLine
 62
7
  6
CONTINUOUS
 10
170.7201943316
 20
136.6134590964
 11
139.7201943316
 21
136.6134590964
  0
LINE
  5
3A8
100
AcDbEntity
  8
RUNDUNGEN
100
AcDbLine
 62
7
  6
CONTINUOUS
 10
340.7201943316
 20
142.6134590964
 11
205.7201943316
 21
142.6134590964
  0
LINE
  5
3A9
100
AcDbEntity
  8
0
100
AcDbLine
 62
7
  6
CONTINUOUS
 10
301.5233434706
 20
57.941711365
 11
301.5233434706
 21
57.6134965729
  0
LINE
  5
3AA
100
AcDbEntity
  8
0
100
AcDbLine
 62
7
  6
CONTINUOUS
 10
302.4918248141
 20
57.6134965729
 11
302.4918248141
 21
57.941711365
  0
LINE
  5
3AB
100
AcDbEntity
  8
0
100
AcDbLine
 62
7
  6
CONTINUOUS
 10
303.7831283462
 20
57.941711365
 11
303.7831283462
 21
57.6134965729
  0
LINE
  5
3AC
100
AcDbEntity
  8
0
100
AcDbLine
 62
7
  6
CONTINUOUS
 10
304.7516096898
 20
57.6207191318
 11
304.7516096898
 21
57.941711365
  0
LINE
  5
3AD
100
AcDbEntity
  8
0
100
AcDbLine
 62
7
  6
CONTINUOUS
 10
307.8184722037
 20
57.8166576313
 11
307.8184722037
 21
57.9361373174
  0
LINE
  5
3AE
100
AcDbEntity
  8
0
100
AcDbLine
 62
7
  6
CONTINUOUS
 10
308.3027128754
 20
57.7952484922
 11
308.3027128754
 21
57.9196871155
  0
LINE
  5
3AF
100
AcDbEntity
  8
0
100
AcDbLine
 62
7
  6
CONTINUOUS
 10
308.4641239697
 20
57.6147925004
 11
308.4641239697
 21
57.6313887021
  0
LINE
  5
3B0
100
AcDbEntity
  8
0
100
AcDbLine
 62
7
  6
CONTINUOUS
 10
308.625535064
 20
57.7560201038
 11
308.625535064
 21
57.8945224272
  0
LINE
  5
3B1
100
AcDbEntity
  8
0
100
AcDbLine
 62
7
  6
CONTINUOUS
 10
308.7869535472
 20
57.666968796
 11
308.7869535472
 21
57.8754270052
  0
LINE
  5
3B2
100
AcDbEntity
  8
0
100
AcDbLine
 62
7
  6
CONTINUOUS
 10
81.7201943316
 20
154.0380894508
 11
54.4160596359
 21
154.0380894508
  0
LINE
  5
3B3
100
AcDbEntity
  8
0
100
AcDbLine
 62
7
  6
CONTINUOUS
 10
439.7201943316
 20
154.0380894508
 11
467.0243290272
 21
154.0380894508
  0
LINE
  5
3B4
100
AcDbEntity
  8
0
100
AcDbLine
 62
7
  6
CONTINUOUS
 10
309.1097757358
 20
57.6147925004
 11
309.1097757358
 21
57.8392652452
  0
LINE
  5
3B5
100
AcDbEntity
  8
0
100
AcDbLine
 62
7
  6
CONTINUOUS
 10
309.5940164076
 20
57.6313886782
 11
309.5940164076
 21
57.7560201038
  0
LINE
  5
3B6
100
AcDbEntity
  8
0
100
AcDbLine
 62
7
  6
CONTINUOUS
 10
309.7554348908
 20
57.656292342
 11
309.7554348908
 21
57.7061335968
  0
LINE
  5
3B7
100
AcDbEntity
  8
0
100
AcDbLine
 62
7
  6
CONTINUOUS
 10
484.7201943316
 20
162.6134590964
 11
468.4701943316
 21
162.6134590964
  0
LINE
  5
3B8
100
AcDbEntity
  8
0
100
AcDbLine
 62
7
  6
CONTINUOUS
 10
443.9701943316
 20
162.6134590964
 11
400.7201943316
 21
162.6134590964
  0
LINE
  5
3B9
100
AcDbEntity
  8
0
100
AcDbLine
 62
7
  6
CONTINUOUS
 10
120.7201943316
 20
162.6134590964
 11
77.4701943316
 21
162.6134590964
  0
LINE
  5
3BA
100
AcDbEntity
  8
0
100
AcDbLine
 62
7
  6
CONTINUOUS
 10
52.9701943316
 20
162.6134590964
 11
36.7201943316
 21
162.6134590964
  0
LINE
  5
3BB
100
AcDbEntity
  8
0
100
AcDbLine
 62
7
  6
CONTINUOUS
 10
387.7201943316
 20
167.6134590964
 11
133.7201943316
 21
167.6134590964
  0
LINE
  5
3BC
100
AcDbEntity
  8
0
100
AcDbLine
 62
7
  6
CONTINUOUS
 10
400.7201943316
 20
162.6134590964
 11
395.7201943316
 21
157.6134590964
  0
LINE
  5
3BD
100
AcDbEntity
  8
0
100
AcDbLine
 62
7
  6
CONTINUOUS
 10
400.7201943316
 20
62.6134590964
 11
395.7201943316
 21
67.6134590964
  0
LINE
  5
3BE
100
AcDbEntity
  8
RUNDUNGEN
100
AcDbLine
 62
7
  6
CONTINUOUS
 10
355.7201943316
 20
97.6134590964
 11
355.7201943316
 21
127.6134590964
  0
LINE
  5
3BF
100
AcDbEntity
  8
FASEN
100
AcDbLine
 62
7
  6
CONTINUOUS
 10
387.7201943316
 20
57.6134590964
 11
387.7201943316
 21
167.6134590964
  0
LINE
  5
3C0
100
AcDbEntity
  8
FASEN
100
AcDbLine
 62
7
  6
CONTINUOUS
 10
395.7201943316
 20
65.6134590964
 11
395.7201943316
 21
159.6134590964
  0
LINE
  5
3C1
100
AcDbEntity
  8
0
100
AcDbLine
 62
7
  6
CONTINUOUS
 10
400.7201943316
 20
62.6134590964
 11
400.7201943316
 21
162.6134590964
  0
LINE
  5
3C2
100
AcDbEntity
  8
FASEN
100
AcDbLine
 62
7
  6
CONTINUOUS
 10
395.7201943316
 20
65.6134590964
 11
387.7201943316
 21
57.6134590964
  0
LINE
  5
3C3
100
AcDbEntity
  8
FASEN
100
AcDbLine
 62
7
  6
CONTINUOUS
 10
395.7201943316
 20
159.6134590964
 11
387.7201943316
 21
167.6134590964
  0
LINE
  5
3C4
100
AcDbEntity
  8
0
100
AcDbLine
 62
7
  6
CONTINUOUS
 10
416.7201943316
 20
123.8634590964
 11
416.7201943316
 21
101.3634590964
  0
LINE
  5
3C5
100
AcDbEntity
  8
0
100
AcDbLine
 62
9
  6
CONTINUOUS
 10
439.7201943316
 20
71.188828742
 11
439.7201943316
 21
101.3634590964
  0
LINE
  5
3C6
100
AcDbEntity
  8
0
100
AcDbLine
 62
9
  6
CONTINUOUS
 10
439.7201943316
 20
123.8634590964
 11
439.7201943316
 21
154.0380894508
  0
LINE
  5
3C7
100
AcDbEntity
  8
0
100
AcDbLine
 62
7
  6
CONTINUOUS
 10
443.9701943316
 20
101.3634590964
 11
443.9701943316
 21
123.8634590964
  0
LINE
  5
3C8
100
AcDbEntity
  8
BEZUGSACHSEN
100
AcDbLine
 62
2
  6
CENTER
 10
456.2201943316
 20
126.8634590964
 11
456.2201943316
 21
98.3634590964
  0
LINE
  5
3C9
100
AcDbEntity
  8
0
100
AcDbLine
 62
7
  6
CONTINUOUS
 10
467.0243290272
 20
71.188828742
 11
467.0243290272
 21
98.3634590964
  0
LINE
  5
3CA
100
AcDbEntity
  8
0
100
AcDbLine
 62
7
  6
CONTINUOUS
 10
467.0243290272
 20
126.8634590964
 11
467.0243290272
 21
154.0380894508
  0
LINE
  5
3CB
100
AcDbEntity
  8
0
100
AcDbLine
 62
7
  6
CONTINUOUS
 10
468.4701943316
 20
101.3634590964
 11
468.4701943316
 21
123.8634590964
  0
LINE
  5
3CC
100
AcDbEntity
  8
0
100
AcDbLine
 62
7
  6
CONTINUOUS
 10
484.7201943316
 20
62.6134590964
 11
484.7201943316
 21
98.3634590964
  0
LINE
  5
3CD
100
AcDbEntity
  8
0
100
AcDbLine
 62
7
  6
CONTINUOUS
 10
484.7201943316
 20
126.8634590964
 11
484.7201943316
 21
162.6134590964
  0
ARC
  5
3CE
100
AcDbEntity
  8
0
100
AcDbCircle
 62
7
  6
CONTINUOUS
 10
67.7201943316
 20
276.1478646669
 40
31.0
100
AcDbArc
 50
115.4146209152
 51
244.5853790848
  0
ARC
  5
3CF
100
AcDbEntity
  8
0
100
AcDbCircle
 62
7
  6
CONTINUOUS
 10
453.7201943316
 20
276.1478646669
 40
31.0
100
AcDbArc
 50
295.4146209152
 51
64.5853790848
  0
ARC
  5
3D0
100
AcDbEntity
  8
0
100
AcDbCircle
 62
7
  6
CONTINUOUS
 10
81.7201943316
 20
329.1478646669
 40
25.0
100
AcDbArc
 50
270.0
 51
353.1078974207
  0
ARC
  5
3D1
100
AcDbEntity
  8
0
100
AcDbCircle
 62
7
  6
CONTINUOUS
 10
439.7201943316
 20
223.1478646669
 40
25.0
100
AcDbArc
 50
90.0
 51
173.1078974207
  0
ARC
  5
3D2
100
AcDbEntity
  8
0
100
AcDbCircle
 62
7
  6
CONTINUOUS
 10
439.7201943316
 20
329.1478646669
 40
25.0
100
AcDbArc
 50
186.8921025793
 51
270.0
  0
ARC
  5
3D3
100
AcDbEntity
  8
0
100
AcDbCircle
 62
7
  6
CONTINUOUS
 10
81.7201943316
 20
223.1478646669
 40
25.0
100
AcDbArc
 50
6.8921025793
 51
90.0
  0
CIRCLE
  5
3D4
100
AcDbEntity
  8
BEZUGSACHSEN
100
AcDbCircle
 62
7
  6
CONTINUOUS
 10
65.2201943316
 20
276.1478646669
 40
12.25
  0
CIRCLE
  5
3D5
100
AcDbEntity
  8
0
100
AcDbCircle
 62
7
  6
CONTINUOUS
 10
456.2201943316
 20
276.1478646669
 40
12.25
  0
ARC
  5
3D6
100
AcDbEntity
  8
0
100
AcDbCircle
 62
7
  6
CONTINUOUS
 10
280.3819451596
 20
86.0078859694
 40
28.3944278743
100
AcDbArc
 50
268.5565562197
 51
269.6660842833
  0
ARC
  5
3D7
100
AcDbEntity
  8
0
100
AcDbCircle
 62
7
  6
CONTINUOUS
 10
280.3818721025
 20
85.9996827587
 40
28.3862243691
100
AcDbArc
 50
269.6661428269
 51
271.2957601692
  0
ARC
  5
3D8
100
AcDbEntity
  8
RUNDUNGEN
100
AcDbCircle
 62
7
  6
CONTINUOUS
 10
205.7201943316
 20
97.6134590964
 40
15.0
100
AcDbArc
 50
180.0
 51
270.0
  0
ARC
  5
3D9
100
AcDbEntity
  8
RUNDUNGEN
100
AcDbCircle
 62
7
  6
CONTINUOUS
 10
205.7201943316
 20
127.6134590964
 40
15.0
100
AcDbArc
 50
90.0
 51
180.0
  0
ARC
  5
3DA
100
AcDbEntity
  8
RUNDUNGEN
100
AcDbCircle
 62
7
  6
CONTINUOUS
 10
340.7201943316
 20
127.6134590964
 40
15.0
100
AcDbArc
 50
0.0
 51
90.0
  0
ARC
  5
3DB
100
AcDbEntity
  8
RUNDUNGEN
100
AcDbCircle
 62
7
  6
CONTINUOUS
 10
340.7201943316
 20
97.6134590964
 40
15.0
100
AcDbArc
 50
270.0
 51
360.0
  0
CIRCLE
  5
3DC
100
AcDbEntity
  8
BEZUGSACHSEN
100
AcDbCircle
 62
7
  6
CONTINUOUS
 10
156.7201943316
 20
112.6134590964
 40
12.5
  0
ARC
  5
3DD
100
AcDbEntity
  8
0
100
AcDbCircle
 62
7
  6
CONTINUOUS
 10
481.7201943316
 20
126.8634590964
 40
3.0
100
AcDbArc
 50
270.0
 51
360.0
  0
ARC
  5
3DE
100
AcDbEntity
  8
0
100
AcDbCircle
 62
7
  6
CONTINUOUS
 10
481.7201943316
 20
98.3634590964
 40
3.0
100
AcDbArc
 50
0.0
 51
90.0
  0
ARC
  5
3DF
100
AcDbEntity
  8
RUNDUNGEN
100
AcDbCircle
 62
7
  6
CONTINUOUS
 10
39.7201943316
 20
126.8634590964
 40
3.0
100
AcDbArc
 50
180.0
 51
270.0
  0
ARC
  5
3E0
100
AcDbEntity
  8
RUNDUNGEN
100
AcDbCircle
 62
7
  6
CONTINUOUS
 10
39.7201943316
 20
98.3634590964
 40
3.0
100
AcDbArc
 50
90.0
 51
180.0
  0
SPLINE
  5
3E1
100
AcDbEntity
  8
RUNDUNGEN
100
AcDbSpline
 62
7
  6
CONTINUOUS
 70
0
 71
3
 72
18
 73
14
 74
0
 42
0.0000001
 43
0.0000001
 44
0.0000000001
 40
0.0
 40
0.0
 40
0.0
 40
0.0
 40
0.0555235536
 40
0.09122296
 40
0.1327667149
 40
0.1801590715
 40
0.2332241111
 40
0.291697901
 40
0.3552759377
 40
0.496370179
 40
0.6536571129
 40
0.8233443117
 40
1.0
 40
1.0
 40
1.0
 40
1.0
 10
190.7201943316
 20
223.2328384456
 30
0.0
 10
190.7201943316
 20
223.5532474728
 30
0.0
 10
190.9265348475
 20
224.0714245614
 30
0.0
 10
191.3696029339
 20
224.6921083768
 30
0.0
 10
191.8591710831
 20
225.223201581
 30
0.0
 10
192.4712506711
 20
225.7687866589
 30
0.0
 10
193.202425558
 20
226.3240243205
 30
0.0
 10
194.0474584575
 20
226.8794217492
 30
0.0
 10
195.3661017752
 20
227.6341223189
 30
0.0
 10
197.2690779511
 20
228.5073012313
 30
0.0
 10
199.8416232373
 20
229.350166547
 30
0.0
 10
202.6996028607
 20
229.9169420916
 30
0.0
 10
204.7007697175
 20
230.0501423804
 30
0.0
 10
205.7201943316
 20
230.0501423804
 30
0.0
  0
SPLINE
  5
3E2
100
AcDbEntity
  8
RUNDUNGEN
100
AcDbSpline
 62
7
  6
CONTINUOUS
 70
0
 71
3
 72
18
 73
14
 74
0
 42
0.0000001
 43
0.0000001
 44
0.0000000001
 40
0.0
 40
0.0
 40
0.0
 40
0.0
 40
0.1766556841
 40
0.3463428656
 40
0.5036298042
 40
0.6447240463
 40
0.7083020851
 40
0.766775877
 40
0.8198409189
 40
0.8672332782
 40
0.9087770357
 40
0.9444764441
 40
1.0
 40
1.0
 40
1.0
 40
1.0
 10
340.7201943316
 20
230.0501423804
 30
0.0
 10
341.7396189216
 20
230.0501423804
 30
0.0
 10
343.7407856541
 20
229.9169421046
 30
0.0
 10
346.5987651842
 20
229.3501665999
 30
0.0
 10
349.1713104206
 20
228.5073013504
 30
0.0
 10
351.074286646
 20
227.6341224404
 30
0.0
 10
352.3929299977
 20
226.879421874
 30
0.0
 10
353.2379629367
 20
226.3240244381
 30
0.0
 10
353.9691378651
 20
225.768786764
 30
0.0
 10
354.5812174959
 20
225.2232016681
 30
0.0
 10
355.0707856797
 20
224.6921084378
 30
0.0
 10
355.5138538001
 20
224.0714245983
 30
0.0
 10
355.7201943316
 20
223.5532474856
 30
0.0
 10
355.7201943316
 20
223.2328384456
 30
0.0
  0
SPLINE
  5
3E3
100
AcDbEntity
  8
RUNDUNGEN
100
AcDbSpline
 62
7
  6
CONTINUOUS
 70
0
 71
3
 72
18
 73
14
 74
0
 42
0.0000001
 43
0.0000001
 44
0.0000000001
 40
0.0
 40
0.0
 40
0.0
 40
0.0
 40
0.0555235563
 40
0.0912229653
 40
0.1327667239
 40
0.1801590854
 40
0.2332241272
 40
0.2916979146
 40
0.3552759474
 40
0.4963701841
 40
0.6536571291
 40
0.8233443148
 40
1.0
 40
1.0
 40
1.0
 40
1.0
 10
355.7201943316
 20
329.0628908881
 30
0.0
 10
355.7201943316
 20
328.7424818454
 30
0.0
 10
355.5138537967
 20
328.2243047269
 30
0.0
 10
355.0707856664
 20
327.6036208796
 30
0.0
 10
354.5812174667
 20
327.0725276342
 30
0.0
 10
353.9691378182
 20
326.5269425302
 30
0.0
 10
353.2379628965
 20
325.9717048712
 30
0.0
 10
352.3929300086
 20
325.4163074694
 30
0.0
 10
351.0742867407
 20
324.6616069423
 30
0.0
 10
349.1713105468
 20
323.7884280341
 30
0.0
 10
346.5987652871
 20
322.9455627556
 30
0.0
 10
343.7407856911
 20
322.3787872321
 30
0.0
 10
341.7396189277
 20
322.2455869533
 30
0.0
 10
340.7201943316
 20
322.2455869533
 30
0.0
  0
SPLINE
  5
3E4
100
AcDbEntity
  8
RUNDUNGEN
100
AcDbSpline
 62
7
  6
CONTINUOUS
 70
0
 71
3
 72
18
 73
14
 74
0
 42
0.0000001
 43
0.0000001
 44
0.0000000001
 40
0.0
 40
0.0
 40
0.0
 40
0.0
 40
0.1766556893
 40
0.3463428924
 40
0.5036298327
 40
0.6447240686
 40
0.7083020994
 40
0.7667758847
 40
0.8198409242
 40
0.867233283
 40
0.908777039
 40
0.9444764459
 40
1.0
 40
1.0
 40
1.0
 40
1.0
 10
205.7201943316
 20
322.2455869533
 30
0.0
 10
204.7007697115
 20
322.2455869533
 30
0.0
 10
202.6996028242
 20
322.378787245
 30
0.0
 10
199.841623135
 20
322.9455628083
 30
0.0
 10
197.2690778254
 20
323.7884281531
 30
0.0
 10
195.3661016806
 20
324.6616070637
 30
0.0
 10
194.0474584464
 20
325.4163075944
 30
0.0
 10
193.202425598
 20
325.9717049889
 30
0.0
 10
192.4712507177
 20
326.5269426355
 30
0.0
 10
191.859171112
 20
327.0725277216
 30
0.0
 10
191.3696029471
 20
327.6036209409
 30
0.0
 10
190.9265348508
 20
328.2243047639
 30
0.0
 10
190.7201943316
 20
328.7424818582
 30
0.0
 10
190.7201943316
 20
329.0628908881
 30
0.0
  0
SPLINE
  5
3E5
100
AcDbEntity
  8
BEZUGSACHSEN
100
AcDbSpline
 62
7
  6
CONTINUOUS
 70
0
 71
3
 72
15
 73
11
 74
0
 42
0.0000001
 43
0.0000001
 44
0.0000000001
 40
0.0
 40
0.0
 40
0.0
 40
0.0
 40
0.0389149306
 40
0.1482219858
 40
0.3098768186
 40
0.4999985803
 40
0.6901205659
 40
0.8517764032
 40
0.9610848614
 40
1.0
 40
1.0
 40
1.0
 40
1.0
 10
77.4701943316
 20
162.6134590964
 30
0.0
 10
77.1584691392
 20
162.5370787834
 30
0.0
 10
75.9686794879
 20
162.2560176983
 30
0.0
 10
73.4626768301
 20
161.7491493632
 30
0.0
 10
69.6913506058
 20
161.2313191616
 30
0.0
 10
65.2202276958
 20
161.0130548179
 30
0.0
 10
60.7490962605
 20
161.231314171
 30
0.0
 10
56.9777478471
 20
161.7491427367
 30
0.0
 10
54.4717237279
 20
162.2560140379
 30
0.0
 10
53.2819211721
 20
162.5370783001
 30
0.0
 10
52.9701943316
 20
162.6134590964
 30
0.0
  0
SPLINE
  5
3E6
100
AcDbEntity
  8
0
100
AcDbSpline
 62
7
  6
CONTINUOUS
 70
0
 71
3
 72
15
 73
11
 74
0
 42
0.0000001
 43
0.0000001
 44
0.0000000001
 40
0.0
 40
0.0
 40
0.0
 40
0.0
 40
0.0389149306
 40
0.1482219858
 40
0.3098768186
 40
0.4999985803
 40
0.6901205659
 40
0.8517764032
 40
0.9610848614
 40
1.0
 40
1.0
 40
1.0
 40
1.0
 10
443.9701943316
 20
162.6134590964
 30
0.0
 10
444.281919524
 20
162.5370787834
 30
0.0
 10
445.4717091753
 20
162.2560176983
 30
0.0
 10
447.9777118331
 20
161.7491493632
 30
0.0
 10
451.7490380574
 20
161.2313191616
 30
0.0
 10
456.2201609673
 20
161.0130548179
 30
0.0
 10
460.6912924027
 20
161.231314171
 30
0.0
 10
464.462640816
 20
161.7491427367
 30
0.0
 10
466.9686649353
 20
162.2560140379
 30
0.0
 10
468.158467491
 20
162.5370783001
 30
0.0
 10
468.4701943316
 20
162.6134590964
 30
0.0
  0
SPLINE
  5
3E7
100
AcDbEntity
  8
0
100
AcDbSpline
 62
7
  6
CONTINUOUS
 70
0
 71
3
 72
15
 73
11
 74
0
 42
0.0000001
 43
0.0000001
 44
0.0000000001
 40
0.0
 40
0.0
 40
0.0
 40
0.0
 40
0.0389151076
 40
0.1482234912
 40
0.3098792258
 40
0.5000011199
 40
0.6901228219
 40
0.851777762
 40
0.961085031
 40
1.0
 40
1.0
 40
1.0
 40
1.0
 10
468.4701943316
 20
62.6134590964
 30
0.0
 10
468.1584677377
 20
62.689839826
 30
0.0
 10
466.9686660286
 20
62.9709038815
 30
0.0
 10
464.462643616
 20
63.4777749385
 30
0.0
 10
460.6912974546
 20
63.9956035536
 30
0.0
 10
456.2201681409
 20
64.2138633347
 30
0.0
 10
451.7490455705
 20
63.9955996332
 30
0.0
 10
447.9777171162
 20
63.4777697878
 30
0.0
 10
445.4717115013
 20
62.9709010755
 30
0.0
 10
444.2819198293
 20
62.6898394962
 30
0.0
 10
443.9701943316
 20
62.6134590964
 30
0.0
  0
SPLINE
  5
3E8
100
AcDbEntity
  8
BEZUGSACHSEN
100
AcDbSpline
 62
7
  6
CONTINUOUS
 70
0
 71
3
 72
15
 73
11
 74
0
 42
0.0000001
 43
0.0000001
 44
0.0000000001
 40
0.0
 40
0.0
 40
0.0
 40
0.0
 40
0.0389151076
 40
0.1482234912
 40
0.3098792258
 40
0.5000011199
 40
0.6901228219
 40
0.851777762
 40
0.961085031
 40
1.0
 40
1.0
 40
1.0
 40
1.0
 10
52.9701943316
 20
62.6134590964
 30
0.0
 10
53.2819209255
 20
62.689839826
 30
0.0
 10
54.4717226345
 20
62.9709038815
 30
0.0
 10
56.9777450472
 20
63.4777749385
 30
0.0
 10
60.7490912086
 20
63.9956035536
 30
0.0
 10
65.2202205222
 20
64.2138633347
 30
0.0
 10
69.6913430926
 20
63.9955996332
 30
0.0
 10
73.462671547
 20
63.4777697878
 30
0.0
 10
75.9686771618
 20
62.9709010755
 30
0.0
 10
77.1584688339
 20
62.6898394962
 30
0.0
 10
77.4701943316
 20
62.6134590964
 30
0.0
  0
LINE
  5
3E9
100
AcDbEntity
  8
RUNDUNGEN
100
AcDbLine
 62
7
  6
CONTINUOUS
 10
67.7201958829
 20
101.3634590964
 11
66.5382754252
 21
101.3633695135
  0
SPLINE
  5
3EA
100
AcDbEntity
  8
RUNDUNGEN
100
AcDbSpline
 62
7
  6
CONTINUOUS
 70
0
 71
3
 72
21
 73
17
 74
0
 42
0.0000001
 43
0.0000001
 44
0.0000000001
 40
0.0
 40
0.0
 40
0.0
 40
0.0
 40
0.1250109173
 40
0.2500215102
 40
0.3750301296
 40
0.5000316733
 40
0.5625375809
 40
0.6250430762
 40
0.6875475302
 40
0.7500485956
 40
0.8125384696
 40
0.8749934104
 40
0.9062588881
 40
0.9375248981
 40
0.9687750489
 40
1.0
 40
1.0
 40
1.0
 40
1.0
 10
66.5382754252
 20
101.3633695135
 30
0.0
 10
65.9865339059
 20
101.3631536103
 30
0.0
 10
64.8830550948
 20
101.362232022
 30
0.0
 10
63.2278489263
 20
101.3476658782
 30
0.0
 10
61.5732336867
 20
101.2991899421
 30
0.0
 10
60.1964043246
 20
101.2050599285
 30
0.0
 10
59.1004222278
 20
101.0747676483
 30
0.0
 10
58.2832810433
 20
100.9414286763
 30
0.0
 10
57.4747589371
 20
100.7623305108
 30
0.0
 10
56.6813140019
 20
100.5234089683
 30
0.0
 10
55.9162032253
 20
100.2045786528
 30
0.0
 10
55.3219648828
 20
99.8452816324
 30
0.0
 10
54.9082848159
 20
99.477728259
 30
0.0
 10
54.6465520358
 20
99.1538074184
 30
0.0
 10
54.4619663362
 20
98.7786937098
 30
0.0
 10
54.4160596359
 20
98.5012718863
 30
0.0
 10
54.4160596359
 20
98.3634590964
 30
0.0
  0
LINE
  5
3EB
100
AcDbEntity
  8
0
100
AcDbLine
 62
7
  6
CONTINUOUS
 10
453.7201927803
 20
101.3634590964
 11
454.902113238
 21
101.3633695135
  0
SPLINE
  5
3EC
100
AcDbEntity
  8
0
100
AcDbSpline
 62
7
  6
CONTINUOUS
 70
0
 71
3
 72
21
 73
17
 74
0
 42
0.0000001
 43
0.0000001
 44
0.0000000001
 40
0.0
 40
0.0
 40
0.0
 40
0.0
 40
0.1250109173
 40
0.2500215102
 40
0.3750301296
 40
0.5000316733
 40
0.5625375809
 40
0.6250430762
 40
0.6875475302
 40
0.7500485956
 40
0.8125384696
 40
0.8749934104
 40
0.9062588881
 40
0.9375248981
 40
0.9687750489
 40
1.0
 40
1.0
 40
1.0
 40
1.0
 10
454.902113238
 20
101.3633695135
 30
0.0
 10
455.4538547573
 20
101.3631536103
 30
0.0
 10
456.5573335684
 20
101.362232022
 30
0.0
 10
458.2125397369
 20
101.3476658782
 30
0.0
 10
459.8671549765
 20
101.2991899421
 30
0.0
 10
461.2439843386
 20
101.2050599285
 30
0.0
 10
462.3399664354
 20
101.0747676483
 30
0.0
 10
463.1571076199
 20
100.9414286763
 30
0.0
 10
463.9656297261
 20
100.7623305108
 30
0.0
 10
464.7590746613
 20
100.5234089683
 30
0.0
 10
465.5241854379
 20
100.2045786528
 30
0.0
 10
466.1184237804
 20
99.8452816324
 30
0.0
 10
466.5321038473
 20
99.477728259
 30
0.0
 10
466.7938366274
 20
99.1538074184
 30
0.0
 10
466.978422327
 20
98.7786937098
 30
0.0
 10
467.0243290272
 20
98.5012718863
 30
0.0
 10
467.0243290272
 20
98.3634590964
 30
0.0
  0
SPLINE
  5
3ED
100
AcDbEntity
  8
0
100
AcDbSpline
 62
7
  6
CONTINUOUS
 70
0
 71
3
 72
39
 73
35
 74
0
 42
0.0000001
 43
0.0000001
 44
0.0000000001
 40
0.0
 40
0.0
 40
0.0
 40
0.0
 40
0.0340922366
 40
0.0674115485
 40
0.0993547885
 40
0.1296449764
 40
0.1584528584
 40
0.1863541929
 40
0.2141024113
 40
0.2423515356
 40
0.271506183
 40
0.3017259626
 40
0.3329992936
 40
0.365215439
 40
0.3982128752
 40
0.4318070962
 40
0.465802796
 40
0.5
 40
0.534197204
 40
0.5681929038
 40
0.6017871248
 40
0.634784561
 40
0.6670007064
 40
0.6982740374
 40
0.728493817
 40
0.7576484644
 40
0.7858975887
 40
0.8136458071
 40
0.8415471416
 40
0.8703550236
 40
0.9006452115
 40
0.9325884515
 40
0.9659077634
 40
1.0
 40
1.0
 40
1.0
 40
1.0
 10
81.7201943316
 20
71.188828742
 30
0.0
 10
82.9949567103
 20
71.188828742
 30
0.0
 10
85.5176690086
 20
71.317923602
 30
0.0
 10
89.1934969684
 20
71.9073443713
 30
0.0
 10
92.6349154847
 20
72.9075085733
 30
0.0
 10
95.7409942637
 20
74.3365282576
 30
0.0
 10
98.4303265415
 20
76.1996382853
 30
0.0
 10
100.6516951741
 20
78.4713480916
 30
0.0
 10
102.4021931447
 20
81.0939418281
 30
0.0
 10
103.7275578169
 20
84.0010402096
 30
0.0
 10
104.69807245
 20
87.1373420146
 30
0.0
 10
105.3861891559
 20
90.4600076171
 30
0.0
 10
105.8570477789
 20
93.9341285172
 30
0.0
 10
106.1660404766
 20
97.5296363605
 30
0.0
 10
106.3588422115
 20
101.2196277082
 30
0.0
 10
106.4711429761
 20
104.979269042
 30
0.0
 10
106.5281297509
 20
108.784916043
 30
0.0
 10
106.5452644205
 20
112.6134590964
 30
0.0
 10
106.5281297509
 20
116.4420021498
 30
0.0
 10
106.4711429762
 20
120.2476491508
 30
0.0
 10
106.3588422115
 20
124.0072904846
 30
0.0
 10
106.1660404766
 20
127.6972818321
 30
0.0
 10
105.857047779
 20
131.2927896754
 30
0.0
 10
105.3861891559
 20
134.7669105756
 30
0.0
 10
104.69807245
 20
138.0895761781
 30
0.0
 10
103.7275578169
 20
141.2258779832
 30
0.0
 10
102.4021931447
 20
144.1329763647
 30
0.0
 10
100.6516951741
 20
146.7555701011
 30
0.0
 10
98.4303265415
 20
149.0272799075
 30
0.0
 10
95.7409942637
 20
150.8903899351
 30
0.0
 10
92.6349154847
 20
152.3194096195
 30
0.0
 10
89.1934969684
 20
153.3195738215
 30
0.0
 10
85.5176690086
 20
153.9089945908
 30
0.0
 10
82.9949567103
 20
154.0380894508
 30
0.0
 10
81.7201943316
 20
154.0380894508
 30
0.0
  0
SPLINE
  5
3EE
100
AcDbEntity
  8
0
100
AcDbSpline
 62
7
  6
CONTINUOUS
 70
0
 71
3
 72
21
 73
17
 74
0
 42
0.0000001
 43
0.0000001
 44
0.0000000001
 40
0.0
 40
0.0
 40
0.0
 40
0.0
 40
0.0312230947
 40
0.0624708006
 40
0.0937353897
 40
0.1250005155
 40
0.1874541839
 40
0.2499448078
 40
0.3124465753
 40
0.3749515947
 40
0.4374575529
 40
0.4999639302
 40
0.6249664442
 40
0.749976256
 40
0.8749879725
 40
1.0
 40
1.0
 40
1.0
 40
1.0
 10
467.0243290272
 20
126.8634590964
 30
0.0
 10
467.0243290272
 20
126.7258885713
 30
0.0
 10
466.9785880834
 20
126.4489613384
 30
0.0
 10
466.7946030343
 20
126.0743833111
 30
0.0
 10
466.5336161174
 20
125.7507939532
 30
0.0
 10
466.1209577845
 20
125.3835259827
 30
0.0
 10
465.5280501765
 20
125.0243128876
 30
0.0
 10
464.7644674621
 20
124.7054610931
 30
0.0
 10
463.972524856
 20
124.4664000273
 30
0.0
 10
463.1654773454
 20
124.2871076072
 30
0.0
 10
462.3497908104
 20
124.1535416904
 30
0.0
 10
461.2557254882
 20
124.0229302048
 30
0.0
 10
459.881258081
 20
123.9284014305
 30
0.0
 10
458.2294503175
 20
123.879554102
 30
0.0
 10
456.5770419933
 20
123.864753794
 30
0.0
 10
455.4754276063
 20
123.8637842322
 30
0.0
 10
454.9246183753
 20
123.8635564235
 30
0.0
  0
LINE
  5
3EF
100
AcDbEntity
  8
0
100
AcDbLine
 62
7
  6
CONTINUOUS
 10
454.9246183753
 20
123.8635564235
 11
453.720192795
 21
123.8634590964
  0
SPLINE
  5
3F0
100
AcDbEntity
  8
0
100
AcDbSpline
 62
7
  6
CONTINUOUS
 70
0
 71
3
 72
11
 73
7
 74
0
 42
0.0000001
 43
0.0000001
 44
0.0000000001
 40
0.0
 40
0.0
 40
0.0
 40
0.0
 40
0.0770616415
 40
0.291812161
 40
0.6099331048
 40
1.0
 40
1.0
 40
1.0
 40
1.0
 10
36.7201943316
 20
162.6134590964
 30
0.0
 10
37.1504027613
 20
162.3467467126
 30
0.0
 10
38.7853392121
 20
161.3459889401
 30
0.0
 10
42.2511652216
 20
159.3339908829
 30
0.0
 10
47.6470556794
 20
156.5624253036
 30
0.0
 10
51.9765395013
 20
154.8215775396
 30
0.0
 10
54.4160596359
 20
154.0380894508
 30
0.0
  0
SPLINE
  5
3F1
100
AcDbEntity
  8
0
100
AcDbSpline
 62
7
  6
CONTINUOUS
 70
0
 71
3
 72
11
 73
7
 74
0
 42
0.0000001
 43
0.0000001
 44
0.0000000001
 40
0.0
 40
0.0
 40
0.0
 40
0.0
 40
0.0770616415
 40
0.291812161
 40
0.6099331048
 40
1.0
 40
1.0
 40
1.0
 40
1.0
 10
484.7201943316
 20
162.6134590964
 30
0.0
 10
484.2899859018
 20
162.3467467126
 30
0.0
 10
482.6550494511
 20
161.3459889401
 30
0.0
 10
479.1892234416
 20
159.3339908829
 30
0.0
 10
473.7933329838
 20
156.5624253036
 30
0.0
 10
469.4638491619
 20
154.8215775396
 30
0.0
 10
467.0243290272
 20
154.0380894508
 30
0.0
  0
SPLINE
  5
3F2
100
AcDbEntity
  8
0
100
AcDbSpline
 62
7
  6
CONTINUOUS
 70
0
 71
3
 72
39
 73
35
 74
0
 42
0.0000001
 43
0.0000001
 44
0.0000000001
 40
0.0
 40
0.0
 40
0.0
 40
0.0
 40
0.0340922366
 40
0.0674115485
 40
0.0993547885
 40
0.1296449764
 40
0.1584528584
 40
0.1863541929
 40
0.2141024113
 40
0.2423515356
 40
0.271506183
 40
0.3017259626
 40
0.3329992936
 40
0.365215439
 40
0.3982128752
 40
0.4318070962
 40
0.465802796
 40
0.5
 40
0.534197204
 40
0.5681929038
 40
0.6017871248
 40
0.634784561
 40
0.6670007064
 40
0.6982740374
 40
0.728493817
 40
0.7576484644
 40
0.7858975887
 40
0.8136458071
 40
0.8415471416
 40
0.8703550236
 40
0.9006452115
 40
0.9325884515
 40
0.9659077634
 40
1.0
 40
1.0
 40
1.0
 40
1.0
 10
439.7201943316
 20
71.188828742
 30
0.0
 10
438.4454319529
 20
71.188828742
 30
0.0
 10
435.9227196545
 20
71.317923602
 30
0.0
 10
432.2468916947
 20
71.9073443713
 30
0.0
 10
428.8054731785
 20
72.9075085733
 30
0.0
 10
425.6993943995
 20
74.3365282576
 30
0.0
 10
423.0100621217
 20
76.1996382853
 30
0.0
 10
420.7886934891
 20
78.4713480916
 30
0.0
 10
419.0381955185
 20
81.0939418281
 30
0.0
 10
417.7128308463
 20
84.0010402096
 30
0.0
 10
416.7423162131
 20
87.1373420146
 30
0.0
 10
416.0541995072
 20
90.4600076171
 30
0.0
 10
415.5833408842
 20
93.9341285172
 30
0.0
 10
415.2743481865
 20
97.5296363605
 30
0.0
 10
415.0815464516
 20
101.2196277082
 30
0.0
 10
414.969245687
 20
104.979269042
 30
0.0
 10
414.9122589123
 20
108.784916043
 30
0.0
 10
414.8951242427
 20
112.6134590964
 30
0.0
 10
414.9122589123
 20
116.4420021498
 30
0.0
 10
414.969245687
 20
120.2476491508
 30
0.0
 10
415.0815464516
 20
124.0072904846
 30
0.0
 10
415.2743481866
 20
127.6972818321
 30
0.0
 10
415.5833408842
 20
131.2927896754
 30
0.0
 10
416.0541995072
 20
134.7669105756
 30
0.0
 10
416.7423162131
 20
138.0895761781
 30
0.0
 10
417.7128308463
 20
141.2258779832
 30
0.0
 10
419.0381955185
 20
144.1329763647
 30
0.0
 10
420.7886934891
 20
146.7555701011
 30
0.0
 10
423.0100621217
 20
149.0272799075
 30
0.0
 10
425.6993943994
 20
150.8903899351
 30
0.0
 10
428.8054731785
 20
152.3194096195
 30
0.0
 10
432.2468916947
 20
153.3195738215
 30
0.0
 10
435.9227196545
 20
153.9089945908
 30
0.0
 10
438.4454319529
 20
154.0380894508
 30
0.0
 10
439.7201943316
 20
154.0380894508
 30
0.0
  0
SPLINE
  5
3F3
100
AcDbEntity
  8
0
100
AcDbSpline
 62
7
  6
CONTINUOUS
 70
0
 71
3
 72
11
 73
7
 74
0
 42
0.0000001
 43
0.0000001
 44
0.0000000001
 40
0.0
 40
0.0
 40
0.0
 40
0.0
 40
0.3900669537
 40
0.7081877959
 40
0.9229383172
 40
1.0
 40
1.0
 40
1.0
 40
1.0
 10
467.0243290272
 20
71.188828742
 30
0.0
 10
469.4638495277
 20
70.4053405357
 30
0.0
 10
473.7933330739
 20
68.6644928359
 30
0.0
 10
479.189223286
 20
65.8929273821
 30
0.0
 10
482.6550489782
 20
63.8809295428
 30
0.0
 10
484.2899856717
 20
62.8801716243
 30
0.0
 10
484.7201943316
 20
62.6134590964
 30
0.0
  0
SPLINE
  5
3F4
100
AcDbEntity
  8
RUNDUNGEN
100
AcDbSpline
 62
7
  6
CONTINUOUS
 70
0
 71
3
 72
21
 73
17
 74
0
 42
0.0000001
 43
0.0000001
 44
0.0000000001
 40
0.0
 40
0.0
 40
0.0
 40
0.0
 40
0.0312230947
 40
0.0624708006
 40
0.0937353897
 40
0.1250005155
 40
0.1874541839
 40
0.2499448078
 40
0.3124465753
 40
0.3749515947
 40
0.4374575529
 40
0.4999639302
 40
0.6249664442
 40
0.749976256
 40
0.8749879725
 40
1.0
 40
1.0
 40
1.0
 40
1.0
 10
54.4160596359
 20
126.8634590964
 30
0.0
 10
54.4160596359
 20
126.7258885713
 30
0.0
 10
54.4618005797
 20
126.4489613384
 30
0.0
 10
54.6457856289
 20
126.0743833111
 30
0.0
 10
54.9067725458
 20
125.7507939532
 30
0.0
 10
55.3194308786
 20
125.3835259827
 30
0.0
 10
55.9123384867
 20
125.0243128876
 30
0.0
 10
56.675921201
 20
124.7054610931
 30
0.0
 10
57.4678638071
 20
124.4664000273
 30
0.0
 10
58.2749113178
 20
124.2871076072
 30
0.0
 10
59.0905978528
 20
124.1535416904
 30
0.0
 10
60.1846631749
 20
124.0229302048
 30
0.0
 10
61.5591305822
 20
123.9284014305
 30
0.0
 10
63.2109383457
 20
123.879554102
 30
0.0
 10
64.8633466698
 20
123.864753794
 30
0.0
 10
65.9649610568
 20
123.8637842322
 30
0.0
 10
66.5157702879
 20
123.8635564235
 30
0.0
  0
LINE
  5
3F5
100
AcDbEntity
  8
RUNDUNGEN
100
AcDbLine
 62
7
  6
CONTINUOUS
 10
66.5157702879
 20
123.8635564235
 11
67.7201958681
 21
123.8634590964
  0
SPLINE
  5
3F6
100
AcDbEntity
  8
0
100
AcDbSpline
 62
7
  6
CONTINUOUS
 70
0
 71
3
 72
11
 73
7
 74
0
 42
0.0000001
 43
0.0000001
 44
0.0000000001
 40
0.0
 40
0.0
 40
0.0
 40
0.0
 40
0.3900669537
 40
0.7081877959
 40
0.9229383172
 40
1.0
 40
1.0
 40
1.0
 40
1.0
 10
54.4160596359
 20
71.188828742
 30
0.0
 10
51.9765391355
 20
70.4053405357
 30
0.0
 10
47.6470555892
 20
68.6644928359
 30
0.0
 10
42.2511653772
 20
65.8929273821
 30
0.0
 10
38.785339685
 20
63.8809295428
 30
0.0
 10
37.1504029914
 20
62.8801716243
 30
0.0
 10
36.7201943316
 20
62.6134590964
 30
0.0
  0
ELLIPSE
  5
3F7
100
AcDbEntity
  8
0
100
AcDbEllipse
 62
7
  6
CONTINUOUS
 10
248.2608033219
 20
112.6134590964
 30
0.0
 11
-0.0
 21
55.0
 31
0.0
 40
0.2158741113
 41
-3.2509011084
 42
-3.141588699
  0
ELLIPSE
  5
3F8
100
AcDbEntity
  8
0
100
AcDbEllipse
 62
7
  6
CONTINUOUS
 10
296.0392166159
 20
112.6134590964
 30
0.0
 11
0.0
 21
55.0
 31
0.0
 40
0.2158737584
 41
-3.2509011084
 42
-3.141588699
  0
ELLIPSE
  5
3F9
100
AcDbEntity
  8
0
100
AcDbEllipse
 62
7
  6
CONTINUOUS
 10
219.5329402328
 20
112.6134590964
 30
0.0
 11
-0.0
 21
55.0
 31
0.0
 40
0.2408392581
 41
-3.1299869786
 42
-3.1267125354
  0
ELLIPSE
  5
3FA
100
AcDbEntity
  8
0
100
AcDbEllipse
 62
7
  6
CONTINUOUS
 10
222.6190131231
 20
112.6134590964
 30
0.0
 11
-0.0
 21
55.0
 31
0.0
 40
0.2107341906
 41
-3.2136084692
 42
-3.1996523527
  0
ELLIPSE
  5
3FB
100
AcDbEntity
  8
0
100
AcDbEllipse
 62
7
  6
CONTINUOUS
 10
223.6614766641
 20
112.6134590964
 30
0.0
 11
-0.0
 21
55.0
 31
0.0
 40
0.474152381
 41
-3.232238985
 42
-3.2136084692
  0
ELLIPSE
  5
3FC
100
AcDbEntity
  8
0
100
AcDbEllipse
 62
7
  6
CONTINUOUS
 10
225.4975551411
 20
112.6134590964
 30
0.0
 11
-0.0
 21
55.0
 31
0.0
 40
0.8429373652
 41
-3.24623225
 42
-3.232238985
  0
ELLIPSE
  5
3FD
100
AcDbEntity
  8
0
100
AcDbEllipse
 62
7
  6
CONTINUOUS
 10
238.814179891
 20
112.6134590964
 30
0.0
 11
173.855906183
 21
-0.0
 31
0.0
 40
0.3163539347
 41
-1.6801047816
 42
-1.6754359232
  0
ELLIPSE
  5
3FE
100
AcDbEntity
  8
0
100
AcDbEllipse
 62
7
  6
CONTINUOUS
 10
223.1570582976
 20
112.6134590964
 30
0.0
 11
0.0
 21
55.0
 31
0.0
 40
0.1264408761
 41
-3.1067693659
 42
-3.083532961
  0
ELLIPSE
  5
3FF
100
AcDbEntity
  8
0
100
AcDbEllipse
 62
7
  6
CONTINUOUS
 10
222.5517578553
 20
112.6134590964
 30
0.0
 11
-0.0
 21
55.0
 31
0.0
 40
0.3161016827
 41
-3.083532961
 42
-3.0649218132
  0
ELLIPSE
  5
400
100
AcDbEntity
  8
0
100
AcDbEllipse
 62
7
  6
CONTINUOUS
 10
221.2200990133
 20
112.6134590964
 30
0.0
 11
0.0
 21
55.0
 31
0.0
 40
0.6322025164
 41
-3.0649218132
 42
-3.0509425234
  0
ELLIPSE
  5
401
100
AcDbEntity
  8
0
100
AcDbEllipse
 62
7
  6
CONTINUOUS
 10
231.3891520625
 20
112.6134590964
 30
0.0
 11
0.0
 21
55.0
 31
0.0
 40
0.6322034207
 41
-3.2322427838
 42
-3.218263494
  0
ELLIPSE
  5
402
100
AcDbEntity
  8
0
100
AcDbEllipse
 62
7
  6
CONTINUOUS
 10
230.0574875056
 20
112.6134590964
 30
0.0
 11
0.0
 21
55.0
 31
0.0
 40
0.3161012305
 41
-3.218263494
 42
-3.1996523462
  0
ELLIPSE
  5
403
100
AcDbEntity
  8
0
100
AcDbEllipse
 62
7
  6
CONTINUOUS
 10
229.4521885065
 20
112.6134590964
 30
0.0
 11
0.0
 21
55.0
 31
0.0
 40
0.1264408761
 41
-3.1996523462
 42
-3.1764159412
  0
ELLIPSE
  5
404
100
AcDbEntity
  8
0
100
AcDbEllipse
 62
7
  6
CONTINUOUS
 10
237.200036765
 20
112.6134590964
 30
0.0
 11
-0.0
 21
55.0
 31
0.0
 40
0.1264400818
 41
-3.1996523527
 42
-3.1764159347
  0
ELLIPSE
  5
405
100
AcDbEntity
  8
0
100
AcDbEllipse
 62
7
  6
CONTINUOUS
 10
237.80534143
 20
112.6134590964
 30
0.0
 11
-0.0
 21
55.0
 31
0.0
 40
0.3161021902
 41
-3.2182634973
 42
-3.1996523527
  0
ELLIPSE
  5
406
100
AcDbEntity
  8
0
100
AcDbEllipse
 62
7
  6
CONTINUOUS
 10
239.1369984236
 20
112.6134590964
 30
0.0
 11
0.0
 21
55.0
 31
0.0
 40
0.6322025717
 41
-3.2369012929
 42
-3.2182634973
  0
ELLIPSE
  5
407
100
AcDbEntity
  8
0
100
AcDbEllipse
 62
7
  6
CONTINUOUS
 10
242.4459736439
 20
112.6134590964
 30
0.0
 11
69.5422828883
 21
0.0
 31
0.0
 40
0.790885742
 41
-1.6754359232
 42
-1.6661049661
  0
ELLIPSE
  5
408
100
AcDbEntity
  8
0
100
AcDbEllipse
 62
7
  6
CONTINUOUS
 10
253.3414108968
 20
112.6134590964
 30
0.0
 11
173.8560056641
 21
0.0
 31
0.0
 40
0.3163537537
 41
-1.6801047816
 42
-1.6754359232
  0
ELLIPSE
  5
409
100
AcDbEntity
  8
0
100
AcDbEllipse
 62
7
  6
CONTINUOUS
 10
250.1898927036
 20
112.6134590964
 30
0.0
 11
-0.0
 21
55.0
 31
0.0
 40
0.2158744642
 41
-3.1415966082
 42
-3.0322841988
  0
ELLIPSE
  5
40A
100
AcDbEntity
  8
0
100
AcDbEllipse
 62
7
  6
CONTINUOUS
 10
282.0124672272
 20
112.6134590964
 30
0.0
 11
-0.0
 21
55.0
 31
0.0
 40
0.158048382
 41
-3.2182634973
 42
-3.1996523527
  0
ELLIPSE
  5
40B
100
AcDbEntity
  8
0
100
AcDbEllipse
 62
7
  6
CONTINUOUS
 10
284.0099603374
 20
112.6134590964
 30
0.0
 11
0.0
 21
55.0
 31
0.0
 40
0.632200763
 41
-3.2369012929
 42
-3.2182634973
  0
ELLIPSE
  5
40C
100
AcDbEntity
  8
0
100
AcDbEllipse
 62
7
  6
CONTINUOUS
 10
287.3190018272
 20
112.6134590964
 30
0.0
 11
69.5428797751
 21
0.0
 31
0.0
 40
0.7908789538
 41
-1.6754359232
 42
-1.6661049661
  0
ELLIPSE
  5
40D
100
AcDbEntity
  8
0
100
AcDbEllipse
 62
7
  6
CONTINUOUS
 10
301.8461683723
 20
112.6134590964
 30
0.0
 11
208.6270476271
 21
-0.0
 31
0.0
 40
0.2636283292
 41
-1.6801047816
 42
-1.6754359232
  0
ELLIPSE
  5
40E
100
AcDbEntity
  8
0
100
AcDbEllipse
 62
7
  6
CONTINUOUS
 10
251.8886400453
 20
112.6134590964
 30
0.0
 11
243.3984875146
 21
-0.0
 31
0.0
 40
0.2259668931
 41
-1.4661567304
 42
-1.461487872
  0
ELLIPSE
  5
40F
100
AcDbEntity
  8
0
100
AcDbEllipse
 62
7
  6
CONTINUOUS
 10
270.0477229148
 20
112.6134590964
 30
0.0
 11
69.542083926
 21
0.0
 31
0.0
 40
0.7908880047
 41
-1.4754876875
 42
-1.4661567304
  0
ELLIPSE
  5
410
100
AcDbEntity
  8
0
100
AcDbEllipse
 62
7
  6
CONTINUOUS
 10
273.3566697339
 20
112.6134590964
 30
0.0
 11
0.0
 21
55.0
 31
0.0
 40
0.6322043805
 41
-3.0649218099
 42
-3.0462840143
  0
ELLIPSE
  5
411
100
AcDbEntity
  8
0
100
AcDbEllipse
 62
7
  6
CONTINUOUS
 10
275.3541628441
 20
112.6134590964
 30
0.0
 11
-0.0
 21
55.0
 31
0.0
 40
0.1580519995
 41
-3.0835329545
 42
-3.0649218099
  0
ELLIPSE
  5
412
100
AcDbEntity
  8
0
100
AcDbEllipse
 62
7
  6
CONTINUOUS
 10
279.692167856
 20
112.6134590964
 30
0.0
 11
0.0
 21
55.0
 31
0.0
 40
0.316096764
 41
-3.1114139953
 42
-3.0928305912
  0
ELLIPSE
  5
413
100
AcDbEntity
  8
0
100
AcDbEllipse
 62
7
  6
CONTINUOUS
 10
279.0416629942
 20
112.6134590964
 30
0.0
 11
-0.0
 21
55.0
 31
0.0
 40
0.708067689
 41
-3.1415953663
 42
-3.1114139953
  0
ELLIPSE
  5
414
100
AcDbEntity
  8
0
100
AcDbEllipse
 62
7
  6
CONTINUOUS
 10
288.7555264118
 20
112.6134590964
 30
0.0
 11
-0.0
 21
55.0
 31
0.0
 40
0.1264387056
 41
-3.185707536
 42
-3.1624839193
  0
ELLIPSE
  5
415
100
AcDbEntity
  8
0
100
AcDbEllipse
 62
7
  6
CONTINUOUS
 10
288.9600033855
 20
112.6134590964
 30
0.0
 11
-0.0
 21
55.0
 31
0.0
 40
0.2107406259
 41
-3.1996523527
 42
-3.185707536
  0
ELLIPSE
  5
416
100
AcDbEntity
  8
0
100
AcDbEllipse
 62
7
  6
CONTINUOUS
 10
289.2962464148
 20
112.6134590964
 30
0.0
 11
-0.0
 21
55.0
 31
0.0
 40
0.316096764
 41
-3.2182634973
 42
-3.1996523527
  0
ELLIPSE
  5
417
100
AcDbEntity
  8
0
100
AcDbEllipse
 62
7
  6
CONTINUOUS
 10
290.6279288078
 20
112.6134590964
 30
0.0
 11
0.0
 21
55.0
 31
0.0
 40
0.6322031746
 41
-3.232238985
 42
-3.2182634973
  0
ELLIPSE
  5
418
100
AcDbEntity
  8
0
100
AcDbEllipse
 62
7
  6
CONTINUOUS
 10
292.726321363
 20
112.6134590964
 30
0.0
 11
57.9521345295
 21
0.0
 31
0.0
 40
0.949059089
 41
-1.6754359232
 42
-1.6614426582
  0
ELLIPSE
  5
419
100
AcDbEntity
  8
0
100
AcDbEllipse
 62
7
  6
CONTINUOUS
 10
308.4641266828
 20
112.6134590964
 30
0.0
 11
208.6270476271
 21
-0.0
 31
0.0
 40
0.2636283292
 41
-1.6801047816
 42
-1.6754359232
  0
ELLIPSE
  5
41A
100
AcDbEntity
  8
0
100
AcDbEllipse
 62
7
  6
CONTINUOUS
 10
262.9454981097
 20
112.6134590964
 30
0.0
 11
208.6270476271
 21
-0.0
 31
0.0
 40
0.2636283292
 41
-1.4661567304
 42
-1.461487872
  0
ELLIPSE
  5
41B
100
AcDbEntity
  8
0
100
AcDbEllipse
 62
7
  6
CONTINUOUS
 10
278.6833034295
 20
112.6134590964
 30
0.0
 11
57.9521345295
 21
0.0
 31
0.0
 40
0.949059089
 41
-1.4801499954
 42
-1.4661567304
  0
ELLIPSE
  5
41C
100
AcDbEntity
  8
0
100
AcDbEllipse
 62
7
  6
CONTINUOUS
 10
280.7816959847
 20
112.6134590964
 30
0.0
 11
0.0
 21
55.0
 31
0.0
 40
0.6322031746
 41
-3.0649218099
 42
-3.0509463222
  0
ELLIPSE
  5
41D
100
AcDbEntity
  8
0
100
AcDbEllipse
 62
7
  6
CONTINUOUS
 10
282.1133783777
 20
112.6134590964
 30
0.0
 11
-0.0
 21
55.0
 31
0.0
 40
0.316096764
 41
-3.0835329545
 42
-3.0649218099
  0
ELLIPSE
  5
41E
100
AcDbEntity
  8
0
100
AcDbEllipse
 62
7
  6
CONTINUOUS
 10
282.449621407
 20
112.6134590964
 30
0.0
 11
0.0
 21
55.0
 31
0.0
 40
0.2107406259
 41
-3.0974777711
 42
-3.0835329545
  0
ELLIPSE
  5
41F
100
AcDbEntity
  8
0
100
AcDbEllipse
 62
7
  6
CONTINUOUS
 10
282.6540983807
 20
112.6134590964
 30
0.0
 11
0.0
 21
55.0
 31
0.0
 40
0.1264387056
 41
-3.1207013879
 42
-3.0974777711
  0
ELLIPSE
  5
420
100
AcDbEntity
  8
0
100
AcDbEllipse
 62
7
  6
CONTINUOUS
 10
295.2685617637
 20
112.6134590964
 30
0.0
 11
-0.0
 21
55.0
 31
0.0
 40
0.9483034336
 41
-3.204302999
 42
-3.1950029501
  0
ELLIPSE
  5
421
100
AcDbEntity
  8
0
100
AcDbEllipse
 62
7
  6
CONTINUOUS
 10
290.8668192427
 20
112.6134590964
 30
0.0
 11
0.0
 21
55.0
 31
0.0
 40
0.3287452097
 41
-3.1415932123
 42
-3.0788823082
  0
ELLIPSE
  5
422
100
AcDbEntity
  8
0
100
AcDbEllipse
 62
7
  6
CONTINUOUS
 10
297.9683044206
 20
112.6134590964
 30
0.0
 11
0.0
 21
55.0
 31
0.0
 40
0.2158744642
 41
-3.1415966082
 42
-3.0322841988
  0
ELLIPSE
  5
423
100
AcDbEntity
  8
0
100
AcDbEllipse
 62
7
  6
CONTINUOUS
 10
310.4280120549
 20
112.6134590964
 30
0.0
 11
-0.0
 21
55.0
 31
0.0
 40
0.2107408226
 41
-3.2136084692
 42
-3.1996523527
  0
ELLIPSE
  5
424
100
AcDbEntity
  8
0
100
AcDbEllipse
 62
7
  6
CONTINUOUS
 10
311.4704493498
 20
112.6134590964
 30
0.0
 11
0.0
 21
55.0
 31
0.0
 40
0.474152381
 41
-3.232238985
 42
-3.2136084692
  0
ELLIPSE
  5
425
100
AcDbEntity
  8
0
100
AcDbEllipse
 62
7
  6
CONTINUOUS
 10
313.3065128181
 20
112.6134590964
 30
0.0
 11
0.0
 21
55.0
 31
0.0
 40
0.8429343506
 41
-3.24623225
 42
-3.232238985
  0
ELLIPSE
  5
426
100
AcDbEntity
  8
0
100
AcDbEllipse
 62
7
  6
CONTINUOUS
 10
326.6232068392
 20
112.6134590964
 30
0.0
 11
173.8564035886
 21
0.0
 31
0.0
 40
0.3163530297
 41
-1.6801047816
 42
-1.6754359232
  0
ELLIPSE
  5
427
100
AcDbEntity
  8
0
100
AcDbEllipse
 62
7
  6
CONTINUOUS
 10
309.6747293436
 20
112.6134590964
 30
0.0
 11
173.8564035886
 21
0.0
 31
0.0
 40
0.3163530297
 41
4.7007833054
 42
4.7054256754
  0
ELLIPSE
  5
428
100
AcDbEntity
  8
0
100
AcDbEllipse
 62
7
  6
CONTINUOUS
 10
308.2757950171
 20
112.6134590964
 30
0.0
 11
-0.0
 21
55.0
 31
0.0
 40
0.2107408226
 41
-3.1114139953
 42
-3.0974777711
  0
ELLIPSE
  5
429
100
AcDbEntity
  8
0
100
AcDbEllipse
 62
7
  6
CONTINUOUS
 10
307.5763629512
 20
112.6134590964
 30
0.0
 11
0.0
 21
55.0
 31
0.0
 40
0.632193528
 41
-3.1207013879
 42
-3.1114139953
  0
ELLIPSE
  5
42A
100
AcDbEntity
  8
0
100
AcDbEllipse
 62
7
  6
CONTINUOUS
 10
306.1236298524
 20
112.6134590964
 30
0.0
 11
104.3135238136
 21
-0.0
 31
0.0
 40
0.5272566585
 41
-1.5545480316
 42
-1.5499050611
  0
ELLIPSE
  5
42B
100
AcDbEntity
  8
0
100
AcDbEllipse
 62
7
  6
CONTINUOUS
 10
220.4668333377
 20
112.6134590964
 30
0.0
 11
-0.0
 21
55.0
 31
0.0
 40
0.2107341906
 41
-3.1114139953
 42
-3.0974777711
  0
ELLIPSE
  5
42C
100
AcDbEntity
  8
0
100
AcDbEllipse
 62
7
  6
CONTINUOUS
 10
219.7673737558
 20
112.6134590964
 30
0.0
 11
-0.0
 21
55.0
 31
0.0
 40
0.6322034761
 41
-3.1207013879
 42
-3.1114139953
  0
ELLIPSE
  5
42D
100
AcDbEntity
  8
0
100
AcDbEllipse
 62
7
  6
CONTINUOUS
 10
218.3146520868
 20
112.6134590964
 30
0.0
 11
104.3135238136
 21
-0.0
 31
0.0
 40
0.5272566585
 41
-1.5545480316
 42
-1.5499050611
  0
ELLIPSE
  5
42E
100
AcDbEntity
  8
0
100
AcDbEllipse
 62
7
  6
CONTINUOUS
 10
295.0667999487
 20
112.6134590964
 30
0.0
 11
-0.0
 21
55.0
 31
0.0
 40
0.2152178711
 41
-3.2509011084
 42
-3.1006709626
  0
ELLIPSE
  5
42F
100
AcDbEntity
  8
0
100
AcDbEllipse
 62
7
  6
CONTINUOUS
 10
308.9281854839
 20
112.6134590964
 30
0.0
 11
-0.0
 21
55.0
 31
0.0
 40
0.474152381
 41
-3.1346293486
 42
-3.116057967
  0
ELLIPSE
  5
430
100
AcDbEntity
  8
0
100
AcDbEllipse
 62
7
  6
CONTINUOUS
 10
309.2980825217
 20
112.6134590964
 30
0.0
 11
0.0
 21
55.0
 31
0.0
 40
0.2107408226
 41
3.1671273402
 42
3.1810613092
  0
ELLIPSE
  5
431
100
AcDbEntity
  8
0
100
AcDbEllipse
 62
7
  6
CONTINUOUS
 10
220.8165624937
 20
112.6134590964
 30
0.0
 11
69.5423326288
 21
0.0
 31
0.0
 40
0.7908851763
 41
4.7123889836
 42
4.7193522853
  0
ELLIPSE
  5
432
100
AcDbEntity
  8
0
100
AcDbEllipse
 62
7
  6
CONTINUOUS
 10
280.6471822657
 20
112.6134590964
 30
0.0
 11
-0.0
 21
55.0
 31
0.0
 40
0.4214719986
 41
-3.1253443584
 42
-3.1114139953
  0
ELLIPSE
  5
433
100
AcDbEntity
  8
0
100
AcDbEllipse
 62
7
  6
CONTINUOUS
 10
281.0843533221
 20
112.6134590964
 30
0.0
 11
0.0
 21
55.0
 31
0.0
 40
0.158048382
 41
3.1717713119
 42
3.190354716
  0
ELLIPSE
  5
434
100
AcDbEntity
  8
0
100
AcDbEllipse
 62
7
  6
CONTINUOUS
 10
316.7769259881
 20
112.6134590964
 30
0.0
 11
104.3135238136
 21
-0.0
 31
0.0
 40
0.5272566585
 41
-1.6567823253
 42
-1.6521238638
  0
ELLIPSE
  5
435
100
AcDbEntity
  8
0
100
AcDbEllipse
 62
7
  6
CONTINUOUS
 10
311.1274074776
 20
112.6134590964
 30
0.0
 11
-0.0
 21
55.0
 31
0.0
 40
0.632193528
 41
-3.2229201906
 42
-3.2136084692
  0
ELLIPSE
  5
436
100
AcDbEntity
  8
0
100
AcDbEllipse
 62
7
  6
CONTINUOUS
 10
309.4595307113
 20
112.6134590964
 30
0.0
 11
-0.0
 21
55.0
 31
0.0
 40
0.2107408226
 41
-3.2136084692
 42
-3.1996523527
  0
ELLIPSE
  5
437
100
AcDbEntity
  8
0
100
AcDbEllipse
 62
7
  6
CONTINUOUS
 10
283.5122821432
 20
112.6134590964
 30
0.0
 11
0.0
 21
55.0
 31
0.0
 40
0.105365588
 41
-3.1253443584
 42
-3.0974777711
  0
ELLIPSE
  5
438
100
AcDbEntity
  8
0
100
AcDbEllipse
 62
7
  6
CONTINUOUS
 10
282.7455682235
 20
112.6134590964
 30
0.0
 11
-0.0
 21
55.0
 31
0.0
 40
0.4214669785
 41
3.185707536
 42
3.2136084692
  0
ELLIPSE
  5
439
100
AcDbEntity
  8
0
100
AcDbEllipse
 62
7
  6
CONTINUOUS
 10
280.6606355907
 20
112.6134590964
 30
0.0
 11
-0.0
 21
55.0
 31
0.0
 40
0.9483047619
 41
-3.069576838
 42
-3.0602651166
  0
ELLIPSE
  5
43A
100
AcDbEntity
  8
0
100
AcDbEllipse
 62
7
  6
CONTINUOUS
 10
270.7740105238
 20
112.6134590964
 30
0.0
 11
173.8564035886
 21
-0.0
 31
0.0
 40
0.3163530297
 41
-1.4894687898
 42
-1.4848103283
  0
ELLIPSE
  5
43B
100
AcDbEntity
  8
0
100
AcDbEllipse
 62
7
  6
CONTINUOUS
 10
300.6356142687
 20
112.6134590964
 30
0.0
 11
173.8564035886
 21
0.0
 31
0.0
 40
0.3163530297
 41
-1.6567823253
 42
-1.6521238638
  0
ELLIPSE
  5
43C
100
AcDbEntity
  8
0
100
AcDbEllipse
 62
7
  6
CONTINUOUS
 10
290.7489892018
 20
112.6134590964
 30
0.0
 11
-0.0
 21
55.0
 31
0.0
 40
0.9483047619
 41
-3.2229201906
 42
-3.2136084692
  0
ELLIPSE
  5
43D
100
AcDbEntity
  8
0
100
AcDbEllipse
 62
7
  6
CONTINUOUS
 10
288.664056569
 20
112.6134590964
 30
0.0
 11
-0.0
 21
55.0
 31
0.0
 40
0.4214669785
 41
-3.2136084692
 42
-3.185707536
  0
ELLIPSE
  5
43E
100
AcDbEntity
  8
0
100
AcDbEllipse
 62
7
  6
CONTINUOUS
 10
287.8973426493
 20
112.6134590964
 30
0.0
 11
-0.0
 21
55.0
 31
0.0
 40
0.105365588
 41
-3.185707536
 42
-3.1578409488
  0
ELLIPSE
  5
43F
100
AcDbEntity
  8
0
100
AcDbEllipse
 62
7
  6
CONTINUOUS
 10
245.6742412293
 20
112.6134590964
 30
0.0
 11
139.0845657766
 21
0.0
 31
0.0
 40
0.395442871
 41
-1.6521238638
 42
-1.6474671705
  0
ELLIPSE
  5
440
100
AcDbEntity
  8
0
100
AcDbEllipse
 62
7
  6
CONTINUOUS
 10
239.0159410217
 20
112.6134590964
 30
0.0
 11
-0.0
 21
55.0
 31
0.0
 40
0.9483047619
 41
-3.2182634973
 42
-3.2089550039
  0
ELLIPSE
  5
441
100
AcDbEntity
  8
0
100
AcDbEllipse
 62
7
  6
CONTINUOUS
 10
237.0655283471
 20
112.6134590964
 30
0.0
 11
-0.0
 21
55.0
 31
0.0
 40
0.4214691934
 41
-3.2089550039
 42
-3.1950029501
  0
ELLIPSE
  5
442
100
AcDbEntity
  8
0
100
AcDbEllipse
 62
7
  6
CONTINUOUS
 10
236.2920854102
 20
112.6134590964
 30
0.0
 11
-0.0
 21
55.0
 31
0.0
 40
0.1580501907
 41
-3.1950029501
 42
-3.1764159347
  0
ELLIPSE
  5
443
100
AcDbEntity
  8
0
100
AcDbEllipse
 62
7
  6
CONTINUOUS
 10
275.3205462738
 20
112.6134590964
 30
0.0
 11
0.0
 21
55.0
 31
0.0
 40
0.4214671753
 41
-3.0835329545
 42
-3.069576838
  0
ELLIPSE
  5
444
100
AcDbEntity
  8
0
100
AcDbEllipse
 62
7
  6
CONTINUOUS
 10
273.2356144197
 20
112.6134590964
 30
0.0
 11
-0.0
 21
55.0
 31
0.0
 40
0.9483047619
 41
-3.069576838
 42
-3.0602651166
  0
ELLIPSE
  5
445
100
AcDbEntity
  8
0
100
AcDbEllipse
 62
7
  6
CONTINUOUS
 10
263.3489893529
 20
112.6134590964
 30
0.0
 11
173.8564035886
 21
0.0
 31
0.0
 40
0.3163530297
 41
-1.4894687898
 42
-1.4848103283
  0
ELLIPSE
  5
446
100
AcDbEntity
  8
0
100
AcDbEllipse
 62
7
  6
CONTINUOUS
 10
293.8562448638
 20
112.6134590964
 30
0.0
 11
173.8564035886
 21
-0.0
 31
0.0
 40
0.3163530297
 41
-1.6567823253
 42
-1.6521238638
  0
ELLIPSE
  5
447
100
AcDbEntity
  8
0
100
AcDbEllipse
 62
7
  6
CONTINUOUS
 10
283.969619797
 20
112.6134590964
 30
0.0
 11
0.0
 21
55.0
 31
0.0
 40
0.9483047619
 41
-3.2229201906
 42
-3.2136084692
  0
ELLIPSE
  5
448
100
AcDbEntity
  8
0
100
AcDbEllipse
 62
7
  6
CONTINUOUS
 10
228.9679482225
 20
112.6134590964
 30
0.0
 11
104.3135238136
 21
-0.0
 31
0.0
 40
0.5272566585
 41
-1.6567823253
 42
-1.6521238638
  0
ELLIPSE
  5
449
100
AcDbEntity
  8
0
100
AcDbEllipse
 62
7
  6
CONTINUOUS
 10
223.318474161
 20
112.6134590964
 30
0.0
 11
-0.0
 21
55.0
 31
0.0
 40
0.6322034761
 41
-3.2229201906
 42
-3.2136084692
  0
ELLIPSE
  5
44A
100
AcDbEntity
  8
0
100
AcDbEllipse
 62
7
  6
CONTINUOUS
 10
221.6505317795
 20
112.6134590964
 30
0.0
 11
-0.0
 21
55.0
 31
0.0
 40
0.2107341906
 41
-3.2136084692
 42
-3.1996523527
  0
ELLIPSE
  5
44B
100
AcDbEntity
  8
0
100
AcDbEllipse
 62
7
  6
CONTINUOUS
 10
281.8846688548
 20
112.6134590964
 30
0.0
 11
0.0
 21
55.0
 31
0.0
 40
0.421462352
 41
-3.2136084692
 42
-3.1996523527
  0
ELLIPSE
  5
44C
100
AcDbEntity
  8
0
100
AcDbEllipse
 62
7
  6
CONTINUOUS
 10
291.5189299158
 20
112.6134590964
 30
0.0
 11
-0.0
 21
55.0
 31
0.0
 40
0.3287452465
 41
3.1235579757
 42
3.1950029501
  0
ELLIPSE
  5
44D
100
AcDbEntity
  8
0
100
AcDbEllipse
 62
7
  6
CONTINUOUS
 10
298.940725323
 20
112.6134590964
 30
0.0
 11
0.0
 21
55.0
 31
0.0
 40
0.2152178711
 41
3.1006708839
 42
3.2509011084
  0
ELLIPSE
  5
44E
100
AcDbEntity
  8
0
100
AcDbEllipse
 62
7
  6
CONTINUOUS
 10
308.7869498528
 20
112.6134590964
 30
0.0
 11
0.0
 21
55.0
 31
0.0
 40
0.8429343506
 41
3.1346293486
 42
3.1485559585
  0
ELLIPSE
  5
44F
100
AcDbEntity
  8
0
100
AcDbEllipse
 62
7
  6
CONTINUOUS
 10
251.1623117586
 20
112.6134590964
 30
0.0
 11
0.0
 21
55.0
 31
0.0
 40
0.215218179
 41
3.1006709596
 42
3.2509011084
  0
ELLIPSE
  5
450
100
AcDbEntity
  8
0
100
AcDbEllipse
 62
7
  6
CONTINUOUS
 10
247.2883863844
 20
112.6134590964
 30
0.0
 11
-0.0
 21
55.0
 31
0.0
 40
0.215218179
 41
-3.2509011084
 42
-3.100670999
  0
ELLIPSE
  5
451
100
AcDbEntity
  8
0
100
AcDbEllipse
 62
7
  6
CONTINUOUS
 10
221.1192127981
 20
112.6134590964
 30
0.0
 11
-0.0
 21
55.0
 31
0.0
 40
0.474152381
 41
-3.1346293486
 42
-3.116057967
  0
ELLIPSE
  5
452
100
AcDbEntity
  8
0
100
AcDbEllipse
 62
7
  6
CONTINUOUS
 10
221.4891191491
 20
112.6134590964
 30
0.0
 11
0.0
 21
55.0
 31
0.0
 40
0.2107341906
 41
3.1671273402
 42
3.1810613092
  0
ENDSEC
  0
SECTION
  2
OBJECTS
  0
DICTIONARY
  5
C
100
AcDbDictionary
280
0
281
1
  3
ACAD_GROUP
350
D
  3
ACAD_MLINESTYLE
350
17
  3
ACAD_LAYOUT
350
1A
  3
ACAD_PLOTSETTINGS
350
19
  3
ACAD_PLOTSTYLENAME
350
E
  0
DICTIONARY
  5
D
102
{ACAD_REACTORS
330
C
102
}
100
AcDbDictionary
280
0
281
1
  0
ACDBDICTIONARYWDFLT
  5
E
102
{ACAD_REACTORS
330
C
102
}
100
AcDbDictionary
281
1
  3
Normal
350
F
100
AcDbDictionaryWithDefault
340
F
  0
DICTIONARY
  5
17
102
{ACAD_REACTORS
330
C
102
}
100
AcDbDictionary
280
0
281
1
  3
Standard
350
18
  0
DICTIONARY
  5
19
102
{ACAD_REACTORS
330
C
102
}
100
AcDbDictionary
281
1
  0
DICTIONARY
  5
1A
102
{ACAD_REACTORS
330
C
102
}
100
AcDbDictionary
281
1
  3
Model
350
453
  3
Layout1
350
454
  0
ACDBPLACEHOLDER
  5
F
102
{ACAD_REACTORS
330
E
102
}
  0
MLINESTYLE
  5
18
102
{ACAD_REACTORS
330
17
102
}
100
AcDbMlineStyle
  2
STANDARD
 70
0
  3

 62
256
 51
90.0
 52
90.0
 71
2
 49
0.5
 62
256
  6
BYLAYER
 49
-0.5
 62
256
  6
BYLAYER
  0
LAYOUT
  5
453
102
{ACAD_REACTORS
330
1A
102
}
100
AcDbPlotSettings
  1

  2
none_device
  4
ISO_A3_(420.00_x_297.00_MM)
  6

 40
0.0
 41
0.0
 42
0.0
 43
0.0
 44
420.0
 45
297.0
 46
0.0
 47
0.0
 48
0.0
 49
0.0
140
0.0
141
0.0
142
1.0
143
1.0
 70
1024
 72
1
 73
0
 74
0
  7

 75
0
147
1.0
148
0.0
149
0.0
100
AcDbLayout
  1
Model
 70
0
 71
0
 10
0.0
 20
0.0
 11
420.0
 21
297.0
 12
0.0
 22
0.0
 32
0.0
 14
0.0
 24
0.0
 34
0.0
 15
0.0
 25
0.0
 35
0.0
146
0.0
 13
0.0
 23
0.0
 33
0.0
 16
1.0
 26
0.0
 36
0.0
 17
0.0
 27
1.0
 37
0.0
 76
0
330
208
345
0
346
0
  0
LAYOUT
  5
454
102
{ACAD_REACTORS
330
1A
102
}
100
AcDbPlotSettings
  1

  2
none_device
  4
ISO_A3_(420.00_x_297.00_MM)
  6

 40
0.0
 41
0.0
 42
0.0
 43
0.0
 44
420.0
 45
297.0
 46
0.0
 47
0.0
 48
0.0
 49
0.0
140
0.0
141
0.0
142
1.0
143
1.0
 70
0
 72
1
 73
0
 74
0
  7

 75
0
147
1.0
148
0.0
149
0.0
100
AcDbLayout
  1
Layout1
 70
0
 71
1
 10
0.0
 20
0.0
 11
420.0
 21
297.0
 12
0.0
 22
0.0
 32
0.0
 14
0.0
 24
0.0
 34
0.0
 15
0.0
 25
0.0
 35
0.0
146
0.0
 13
0.0
 23
0.0
 33
0.0
 16
1.0
 26
0.0
 36
0.0
 17
0.0
 27
1.0
 37
0.0
 76
0
330
209
345
0
346
0
  0
ENDSEC
  0
EOF
