999
DXF file: 001-m34927-p-2.dxf
999
Pro/ENGINEER 2011490 by Parametric Technology Corporation
  0
SECTION
  2
HEADER
  9
$ACADVER
  1
AC1015
  9
$DWGCODEPAGE
  3
ANSI_1252
  9
$EXTMAX
 10
594.0
 20
420.0
 30
0.0
  9
$EXTMIN
 10
0.0
 20
0.0
 30
0.0
  9
$LIMMIN
 10
0.0
 20
0.0
  9
$LIMMAX
 10
594.0
 20
420.0
  9
$VIEWCTR
 10
297.0
 20
210.0
  9
$VIEWSIZE
 40
420.0
  9
$CLAYER
  8
0
  9
$LTSCALE
 40
32.67
  9
$CELTYPE
  6
BYLAYER
  9
$DIMSCALE
 40
1.0
  9
$DIMASZ
 40
3.5
  9
$DIMEXO
 40
3.7125
  9
$DIMDLI
 40
22.572
  9
$DIMEXE
 40
10.692
  9
$DIMCEN
 40
5.346
  9
$DIMLFAC
 40
1.0
  9
$DIMBLK
  1
_FILLED
  9
$DIMTXT
 40
3.5
  9
$DIMTOL
 70
1
  9
$DIMLIM
 70
0
  9
$DIMTFAC
 40
1.0
  9
$DIMTP
 40
0.005
  9
$DIMTM
 40
0.005
  9
$PDMODE
 70
3
  9
$PDSIZE
 40
0.3125
  9
$HANDSEED
  5
519
  9
$TILEMODE
 70
1
  9
$MEASUREMENT
 70
1
  9
$INSUNITS
 70
4
  0
ENDSEC
  0
SECTION
  2
CLASSES
  0
CLASS
  1
ACDBDICTIONARYWDFLT
  2
AcDbDictionaryWithDefault
  3
AutoCAD 2000
 90
0
280
0
281
0
  0
CLASS
  1
ACDBPLACEHOLDER
  2
AcDbPlaceHolder
  3
AutoCAD 2000
 90
0
280
0
281
0
  0
CLASS
  1
LAYOUT
  2
AcDbLayout
  3
AutoCAD 2000
 90
0
280
0
281
0
  0
ENDSEC
  0
SECTION
  2
TABLES
  0
TABLE
  2
VPORT
  5
8
100
AcDbSymbolTable
 70
2
  0
VPORT
  5
1F4
100
AcDbSymbolTableRecord
100
AcDbViewportTableRecord
  2
*ACTIVE
 70
0
 10
0.0
 20
0.0
 11
1.0
 21
1.0
 12
297.0
 22
210.0
 13
0.0
 23
0.0
 14
1.0
 24
1.0
 15
0.0
 25
0.0
 16
0.0
 26
0.0
 36
1.0
 17
0.0
 27
0.0
 37
0.0
 40
420.0
 41
1.4142857143
 42
50.0
 43
0.0
 44
0.0
 50
0.0
 51
0.0
 71
0
 72
100
 73
1
 74
1
 75
0
 76
0
 77
0
 78
0
  0
ENDTAB
  0
TABLE
  2
LTYPE
  5
5
100
AcDbSymbolTable
 70
6
  0
LTYPE
  5
14
100
AcDbSymbolTableRecord
100
AcDbLinetypeTableRecord
  2
BYBLOCK
 70
0
  3

 72
65
 73
0
 40
0.0
  0
LTYPE
  5
15
100
AcDbSymbolTableRecord
100
AcDbLinetypeTableRecord
  2
BYLAYER
 70
0
  3

 72
65
 73
0
 40
0.0
  0
LTYPE
  5
16
100
AcDbSymbolTableRecord
100
AcDbLinetypeTableRecord
  2
CONTINUOUS
 70
64
  3
Solid line
 72
65
 73
0
 40
0.0
  0
LTYPE
  5
1F5
100
AcDbSymbolTableRecord
100
AcDbLinetypeTableRecord
  2
CENTER
 70
64
  3
____ _ ____ _ ____ _ ____ _ ____ _ ____ _ ____
 72
65
 73
4
 40
0.6
 49
0.375
 74
0
 49
-0.075
 74
0
 49
0.075
 74
0
 49
-0.075
 74
0
  0
LTYPE
  5
1F6
100
AcDbSymbolTableRecord
100
AcDbLinetypeTableRecord
  2
HIDDEN
 70
64
  3
- - - - - - - - - - - - - - - - - - - -
 72
65
 73
2
 40
0.2
 49
0.1
 74
0
 49
-0.1
 74
0
  0
LTYPE
  5
1F7
100
AcDbSymbolTableRecord
100
AcDbLinetypeTableRecord
  2
PHANTOM
 70
64
  3
_____ _ _ _____ _ _ _____ _ _ _____
 72
65
 73
6
 40
0.8
 49
0.45
 74
0
 49
-0.05
 74
0
 49
0.1
 74
0
 49
-0.05
 74
0
 49
0.1
 74
0
 49
-0.05
 74
0
  0
LTYPE
  5
1F8
100
AcDbSymbolTableRecord
100
AcDbLinetypeTableRecord
  2
DOT
 70
64
  3
. . . . . . . . . . . . . . . . . . . .
 72
65
 73
2
 40
0.2
 49
0.1
 74
0
 49
-0.1
 74
0
  0
LTYPE
  5
1F9
100
AcDbSymbolTableRecord
100
AcDbLinetypeTableRecord
  2
DASHED
 70
64
  3
- - - - - - - - - - - - - - - - - - - -
 72
65
 73
2
 40
0.2
 49
0.1
 74
0
 49
-0.1
 74
0
  0
ENDTAB
  0
TABLE
  2
LAYER
  5
2
100
AcDbSymbolTable
 70
36
  0
LAYER
  5
10
100
AcDbSymbolTableRecord
100
AcDbLayerTableRecord
  2
0
 70
0
 62
7
  6
CONTINUOUS
370
-3
390
F
  0
LAYER
  5
1FA
100
AcDbSymbolTableRecord
100
AcDbLayerTableRecord
  2
DEFAULT_1
 70
0
 62
7
  6
CENTER
370
-3
390
F
  0
LAYER
  5
1FB
100
AcDbSymbolTableRecord
100
AcDbLayerTableRecord
  2
DEFAULT_2
 70
0
 62
8
  6
HIDDEN
370
-3
390
F
  0
LAYER
  5
1FC
100
AcDbSymbolTableRecord
100
AcDbLayerTableRecord
  2
DEFAULT_3
 70
0
 62
7
  6
PHANTOM
370
-3
390
F
  0
LAYER
  5
1FD
100
AcDbSymbolTableRecord
100
AcDbLayerTableRecord
  2
AUSFORMSCHRAEGEN
 70
0
 62
7
  6
CONTINUOUS
370
-3
390
F
  0
LAYER
  5
1FE
100
AcDbSymbolTableRecord
100
AcDbLayerTableRecord
  2
BEZUGSACHSEN
 70
0
 62
7
  6
CONTINUOUS
370
-3
390
F
  0
LAYER
  5
1FF
100
AcDbSymbolTableRecord
100
AcDbLayerTableRecord
  2
BEZUGSEBENEN
 70
0
 62
7
  6
CONTINUOUS
370
-3
390
F
  0
LAYER
  5
200
100
AcDbSymbolTableRecord
100
AcDbLayerTableRecord
  2
BG_STARTBEZUEGE
 70
0
 62
7
  6
CONTINUOUS
370
-3
390
F
  0
LAYER
  5
201
100
AcDbSymbolTableRecord
100
AcDbLayerTableRecord
  2
FASEN
 70
0
 62
7
  6
CONTINUOUS
370
-3
390
F
  0
LAYER
  5
202
100
AcDbSymbolTableRecord
100
AcDbLayerTableRecord
  2
HILFEN
 70
0
 62
7
  6
CONTINUOUS
370
-3
390
F
  0
LAYER
  5
203
100
AcDbSymbolTableRecord
100
AcDbLayerTableRecord
  2
KONSTRUKTIONSELEMENTE
 70
0
 62
7
  6
CONTINUOUS
370
-3
390
F
  0
LAYER
  5
204
100
AcDbSymbolTableRecord
100
AcDbLayerTableRecord
  2
KURVEN
 70
0
 62
7
  6
CONTINUOUS
370
-3
390
F
  0
LAYER
  5
205
100
AcDbSymbolTableRecord
100
AcDbLayerTableRecord
  2
NORM
 70
0
 62
7
  6
CONTINUOUS
370
-3
390
F
  0
LAYER
  5
206
100
AcDbSymbolTableRecord
100
AcDbLayerTableRecord
  2
PLATZIERUNG
 70
0
 62
7
  6
CONTINUOUS
370
-3
390
F
  0
LAYER
  5
207
100
AcDbSymbolTableRecord
100
AcDbLayerTableRecord
  2
RUNDUNGEN
 70
0
 62
7
  6
CONTINUOUS
370
-3
390
F
  0
LAYER
  5
208
100
AcDbSymbolTableRecord
100
AcDbLayerTableRecord
  2
TEIL_STARTBEZUEGE
 70
0
 62
7
  6
CONTINUOUS
370
-3
390
F
  0
LAYER
  5
209
100
AcDbSymbolTableRecord
100
AcDbLayerTableRecord
  2
T_STARTBEZUEGE
 70
0
 62
7
  6
CONTINUOUS
370
-3
390
F
  0
LAYER
  5
20A
100
AcDbSymbolTableRecord
100
AcDbLayerTableRecord
  2
ZEICHNUNGSBEMASSUNGEN
 70
0
 62
7
  6
CONTINUOUS
370
-3
390
F
  0
ENDTAB
  0
TABLE
  2
STYLE
  5
3
100
AcDbSymbolTable
 70
1
  0
STYLE
  5
11
100
AcDbSymbolTableRecord
100
AcDbTextStyleTableRecord
  2
STANDARD
 70
0
 40
0.0
 41
0.7
 50
0.0
 71
0
 42
0.2
  3
txt
  4

  0
STYLE
  5
20B
100
AcDbSymbolTableRecord
100
AcDbTextStyleTableRecord
  2
TEXTSTYLE_1
 70
0
 40
0.0
 41
0.8
 50
0.0
 71
0
 42
0.2
  3
gdt
  4

  0
ENDTAB
  0
TABLE
  2
VIEW
  5
6
100
AcDbSymbolTable
 70
0
  0
ENDTAB
  0
TABLE
  2
UCS
  5
7
100
AcDbSymbolTable
 70
0
  0
ENDTAB
  0
TABLE
  2
APPID
  5
9
100
AcDbSymbolTable
 70
1
  0
APPID
  5
20C
100
AcDbSymbolTableRecord
100
AcDbRegAppTableRecord
  2
ACAD
 70
0
  0
ENDTAB
  0
TABLE
  2
BLOCK_RECORD
  5
1
100
AcDbSymbolTable
 70
0
  0
BLOCK_RECORD
  5
20D
100
AcDbSymbolTableRecord
100
AcDbBlockTableRecord
  2
*Model_Space
  0
BLOCK_RECORD
  5
20E
100
AcDbSymbolTableRecord
100
AcDbBlockTableRecord
  2
*Paper_Space
  0
ENDTAB
  0
TABLE
  2
DIMSTYLE
  5
A
100
AcDbSymbolTable
 70
1
100
AcDbDimStyleTable
 71
0
  0
DIMSTYLE
105
20F
100
AcDbSymbolTableRecord
100
AcDbDimStyleTableRecord
  2
STANDARD
 70
0
  3

  4

 40
1.0
 41
3.5
 42
0.0625
 43
0.38
 44
0.18
 45
0.0
 46
0.0
 47
0.005
 48
0.005
140
3.5
141
0.09
142
0.0
143
25.4
144
1.0
145
0.0
146
1.0
147
0.09
 71
1.0
 72
0.0
 73
0
 74
0
 75
0
 76
0
 77
1
 78
8
170
0
171
2
172
0
173
0
174
0
175
0
176
0
177
0
178
5
270
2
271
3
272
3
273
2
274
2
275
0
280
0
281
0
282
0
283
1
284
8
285
0
286
0
287
3
288
0
340
11
  0
ENDTAB
  0
ENDSEC
  0
SECTION
  2
BLOCKS
  0
BLOCK
  5
20
100
AcDbEntity
  8
0
100
AcDbBlockBegin
  2
*Model_Space
 70
0
 10
0.0
 20
0.0
 30
0.0
  3
*Model_Space
  1

  0
ENDBLK
  5
21
100
AcDbEntity
  8
0
100
AcDbBlockEnd
  0
BLOCK
  5
1C
100
AcDbEntity
  8
0
100
AcDbBlockBegin
  2
*Paper_Space
 70
0
 10
0.0
 20
0.0
 30
0.0
  3
*Paper_Space
  1

  0
ENDBLK
  5
1D
100
AcDbEntity
  8
0
100
AcDbBlockEnd
  0
ENDSEC
  0
SECTION
  2
ENTITIES
  0
MTEXT
  5
210
100
AcDbEntity
  8
0
100
AcDbMText
 62
5
  6
CONTINUOUS
  7
STANDARD
 71
1
 72
1
 10
190.8803916675
 20
211.0477048442
 30
0.0
 11
1.0
 21
0.0
 31
0.0
 44
0.9
  1
VWK-2S-8
 40
6.0
 41
41.7142857143
  0
MTEXT
  5
211
100
AcDbEntity
  8
0
100
AcDbMText
 62
5
  6
CONTINUOUS
  7
STANDARD
 71
1
 72
1
 10
428.9877996575
 20
256.1513270548
 30
0.0
 11
0.0
 21
1.0
 31
0.0
 44
0.9
  1
VWK-2S-8
 40
6.0
 41
41.7142857143
  0
LINE
  5
212
100
AcDbEntity
  8
0
100
AcDbLine
 62
7
  6
CONTINUOUS
 10
0.0
 20
0.0
 11
0.0
 21
420.0
  0
LINE
  5
213
100
AcDbEntity
  8
0
100
AcDbLine
 62
7
  6
CONTINUOUS
 10
0.0
 20
0.0
 11
594.0
 21
0.0
  0
LINE
  5
214
100
AcDbEntity
  8
0
100
AcDbLine
 62
7
  6
CONTINUOUS
 10
0.0
 20
420.0
 11
594.0
 21
420.0
  0
LINE
  5
215
100
AcDbEntity
  8
0
100
AcDbLine
 62
7
  6
CONTINUOUS
 10
594.0
 20
0.0
 11
594.0
 21
420.0
  0
LINE
  5
216
100
AcDbEntity
  8
AUSFORMSCHRAEGEN
100
AcDbLine
 62
7
  6
CONTINUOUS
 10
288.465653305
 20
20.2860763972
 11
291.3978184319
 21
20.5942593706
  0
LINE
  5
217
100
AcDbEntity
  8
BEZUGSACHSEN
100
AcDbLine
 62
7
  6
CONTINUOUS
 10
288.465653305
 20
20.2860763972
 11
291.3978184319
 21
20.5942593706
  0
LINE
  5
218
100
AcDbEntity
  8
BEZUGSACHSEN
100
AcDbLine
 62
7
  6
CONTINUOUS
 10
138.465653305
 20
20.2860763972
 11
135.533488178
 21
20.5942593706
  0
LINE
  5
219
100
AcDbEntity
  8
AUSFORMSCHRAEGEN
100
AcDbLine
 62
7
  6
CONTINUOUS
 10
138.465653305
 20
20.2860763972
 11
141.3978184319
 21
20.5942593706
  0
LINE
  5
21A
100
AcDbEntity
  8
BEZUGSACHSEN
100
AcDbLine
 62
7
  6
CONTINUOUS
 10
138.465653305
 20
20.2860763972
 11
141.3978184319
 21
20.5942593706
  0
LINE
  5
21B
100
AcDbEntity
  8
BEZUGSACHSEN
100
AcDbLine
 62
7
  6
CONTINUOUS
 10
288.465653305
 20
20.2860763972
 11
285.533488178
 21
20.5942593706
  0
LINE
  5
21C
100
AcDbEntity
  8
KONSTRUKTIONSELEMENTE
100
AcDbLine
 62
7
  6
CONTINUOUS
 10
37.3960647895
 20
82.591082885
 11
34.5676376648
 21
85.4195100098
  0
LINE
  5
21D
100
AcDbEntity
  8
KONSTRUKTIONSELEMENTE
100
AcDbLine
 62
7
  6
CONTINUOUS
 10
48.7097732885
 20
93.904791384
 11
45.8813461637
 21
96.7332185088
  0
LINE
  5
21E
100
AcDbEntity
  8
BEZUGSACHSEN
100
AcDbLine
 62
7
  6
CONTINUOUS
 10
130.4430351156
 20
52.6644309697
 11
131.415576605
 21
51.6918894803
  0
LINE
  5
21F
100
AcDbEntity
  8
KONSTRUKTIONSELEMENTE
100
AcDbLine
 62
7
  6
CONTINUOUS
 10
77.3861438404
 20
122.5811619359
 11
74.5577167157
 21
125.4095890607
  0
LINE
  5
220
100
AcDbEntity
  8
0
100
AcDbLine
 62
7
  6
CONTINUOUS
 10
221.6731527089
 20
98.1361197804
 11
221.048153305
 21
97.9765453314
  0
LINE
  5
221
100
AcDbEntity
  8
0
100
AcDbLine
 62
7
  6
CONTINUOUS
 10
214.173153603
 20
98.1361197804
 11
213.548153305
 21
97.9765453314
  0
LINE
  5
222
100
AcDbEntity
  8
0
100
AcDbLine
 62
7
  6
CONTINUOUS
 10
221.048153305
 20
97.0190985252
 11
221.829403901
 21
97.1786729883
  0
LINE
  5
223
100
AcDbEntity
  8
0
100
AcDbLine
 62
7
  6
CONTINUOUS
 10
213.548153305
 20
97.0190985252
 11
214.3294030069
 21
97.1786729883
  0
LINE
  5
224
100
AcDbEntity
  8
BEZUGSACHSEN
100
AcDbLine
 62
7
  6
CONTINUOUS
 10
143.065653305
 20
83.7762437869
 11
213.465653305
 21
96.1896632288
  0
LINE
  5
225
100
AcDbEntity
  8
0
100
AcDbLine
 62
7
  6
CONTINUOUS
 10
159.7787303481
 20
90.7849166478
 11
160.435268811
 21
90.9006820927
  0
LINE
  5
226
100
AcDbEntity
  8
0
100
AcDbLine
 62
7
  6
CONTINUOUS
 10
163.0614226625
 20
91.3637438722
 11
163.7179614776
 21
91.4795093792
  0
LINE
  5
227
100
AcDbEntity
  8
0
100
AcDbLine
 62
7
  6
CONTINUOUS
 10
165.0310381685
 20
91.7110402275
 11
165.6875769836
 21
91.8268057345
  0
LINE
  5
228
100
AcDbEntity
  8
0
100
AcDbLine
 62
7
  6
CONTINUOUS
 10
170.0371444028
 20
92.5937518249
 11
170.5295482794
 21
92.6805759138
  0
LINE
  5
229
100
AcDbEntity
  8
0
100
AcDbLine
 62
7
  6
CONTINUOUS
 10
177.6694044887
 20
93.9395252018
 11
178.3259423646
 21
94.0552905432
  0
LINE
  5
22A
100
AcDbEntity
  8
0
100
AcDbLine
 62
7
  6
CONTINUOUS
 10
180.2955578706
 20
94.4025868985
 11
180.7879617471
 21
94.4894109874
  0
LINE
  5
22B
100
AcDbEntity
  8
0
100
AcDbLine
 62
7
  6
CONTINUOUS
 10
181.4445015014
 20
94.60517666
 11
181.9369053779
 21
94.6920007488
  0
LINE
  5
22C
100
AcDbEntity
  8
0
100
AcDbLine
 62
7
  6
CONTINUOUS
 10
170.3735884366
 20
93.0851724252
 11
170.0453185594
 21
93.0272895889
  0
LINE
  5
22D
100
AcDbEntity
  8
0
100
AcDbLine
 62
7
  6
CONTINUOUS
 10
166.7494184921
 20
93.4831648516
 11
167.8983602445
 21
93.6857542818
  0
LINE
  5
22E
100
AcDbEntity
  8
0
100
AcDbLine
 62
7
  6
CONTINUOUS
 10
181.6265554389
 20
96.4520827153
 11
183.1037670684
 21
96.7125549818
  0
LINE
  5
22F
100
AcDbEntity
  8
0
100
AcDbLine
 62
7
  6
CONTINUOUS
 10
167.824467391
 20
94.1048214782
 11
166.6755256386
 21
93.902232048
  0
LINE
  5
230
100
AcDbEntity
  8
0
100
AcDbLine
 62
7
  6
CONTINUOUS
 10
169.794082897
 20
94.4521178335
 11
170.1223527742
 21
94.5100006698
  0
LINE
  5
231
100
AcDbEntity
  8
0
100
AcDbLine
 62
7
  6
CONTINUOUS
 10
170.063238508
 20
94.845254333
 11
169.7349686308
 21
94.7873714967
  0
LINE
  5
232
100
AcDbEntity
  8
0
100
AcDbLine
 62
7
  6
CONTINUOUS
 10
183.0971617296
 20
97.2299059373
 11
181.5378840396
 21
96.9549632101
  0
LINE
  5
233
100
AcDbEntity
  8
0
100
AcDbLine
 62
7
  6
CONTINUOUS
 10
169.4985115246
 20
96.1283863843
 11
169.8267814017
 21
96.1862692205
  0
LINE
  5
234
100
AcDbEntity
  8
0
100
AcDbLine
 62
7
  6
CONTINUOUS
 10
181.3162055
 20
98.2121646819
 11
182.87548319
 21
98.487107409
  0
LINE
  5
235
100
AcDbEntity
  8
0
100
AcDbLine
 62
7
  6
CONTINUOUS
 10
182.7195242967
 20
98.8917040273
 11
180.7499087907
 21
98.544407672
  0
LINE
  5
236
100
AcDbEntity
  8
0
100
AcDbLine
 62
7
  6
CONTINUOUS
 10
180.0933690364
 20
98.4286419994
 11
179.6009651599
 21
98.3418179106
  0
LINE
  5
237
100
AcDbEntity
  8
0
100
AcDbLine
 62
7
  6
CONTINUOUS
 10
178.944427284
 20
98.2260525692
 11
178.4520234075
 21
98.1392284804
  0
LINE
  5
238
100
AcDbEntity
  8
0
100
AcDbLine
 62
7
  6
CONTINUOUS
 10
176.1541380244
 20
97.7340492888
 11
175.6617341479
 21
97.6472251999
  0
LINE
  5
239
100
AcDbEntity
  8
0
100
AcDbLine
 62
7
  6
CONTINUOUS
 10
169.752888569
 20
96.6053362995
 11
169.4246186919
 21
96.5474534632
  0
LINE
  5
23A
100
AcDbEntity
  8
0
100
AcDbLine
 62
7
  6
CONTINUOUS
 10
165.6495226184
 20
95.8818021707
 11
165.1571187419
 21
95.7949780819
  0
LINE
  5
23B
100
AcDbEntity
  8
0
100
AcDbLine
 62
7
  6
CONTINUOUS
 10
164.0081765199
 20
95.5923885689
 11
163.3516377048
 21
95.4766230619
  0
LINE
  5
23C
100
AcDbEntity
  8
0
100
AcDbLine
 62
7
  6
CONTINUOUS
 10
162.2026954828
 20
95.2740335489
 11
161.7102916063
 21
95.18720946
  0
LINE
  5
23D
100
AcDbEntity
  8
0
100
AcDbLine
 62
7
  6
CONTINUOUS
 10
161.0537530261
 20
95.0714439945
 11
160.5613491496
 21
94.9846199056
  0
LINE
  5
23E
100
AcDbEntity
  8
0
100
AcDbLine
 62
7
  6
CONTINUOUS
 10
158.2634644708
 20
94.5794408382
 11
157.7710605943
 21
94.4926167494
  0
LINE
  5
23F
100
AcDbEntity
  8
BEZUGSACHSEN
100
AcDbLine
 62
7
  6
CONTINUOUS
 10
288.465653305
 20
109.2921206532
 11
285.533488178
 21
108.9839376799
  0
LINE
  5
240
100
AcDbEntity
  8
0
100
AcDbLine
 62
7
  6
CONTINUOUS
 10
203.235653305
 20
97.0190985252
 11
204.173153305
 21
97.0190985252
  0
LINE
  5
241
100
AcDbEntity
  8
0
100
AcDbLine
 62
7
  6
CONTINUOUS
 10
208.0794031559
 20
97.0190985252
 11
209.173153454
 21
97.0190985252
  0
LINE
  5
242
100
AcDbEntity
  8
0
100
AcDbLine
 62
7
  6
CONTINUOUS
 10
212.9231530069
 20
97.0190985252
 11
213.548153305
 21
97.0190985252
  0
LINE
  5
243
100
AcDbEntity
  8
0
100
AcDbLine
 62
7
  6
CONTINUOUS
 10
217.298153305
 20
97.0190985252
 11
221.048153305
 21
97.0190985252
  0
LINE
  5
244
100
AcDbEntity
  8
0
100
AcDbLine
 62
7
  6
CONTINUOUS
 10
221.048153305
 20
97.9765453314
 11
218.235653305
 21
97.9765453314
  0
LINE
  5
245
100
AcDbEntity
  8
0
100
AcDbLine
 62
7
  6
CONTINUOUS
 10
213.548153305
 20
97.9765453314
 11
212.9231530069
 21
97.9765453314
  0
LINE
  5
246
100
AcDbEntity
  8
0
100
AcDbLine
 62
7
  6
CONTINUOUS
 10
204.173153305
 20
100.3701624026
 11
206.8294032304
 21
100.3701624026
  0
LINE
  5
247
100
AcDbEntity
  8
0
100
AcDbLine
 62
7
  6
CONTINUOUS
 10
207.1419031559
 20
101.3276090969
 11
204.173153305
 21
101.3276090969
  0
LINE
  5
248
100
AcDbEntity
  8
0
100
AcDbLine
 62
7
  6
CONTINUOUS
 10
169.6120289582
 20
92.6052117855
 11
170.0371444028
 21
92.5937518249
  0
LINE
  5
249
100
AcDbEntity
  8
0
100
AcDbLine
 62
7
  6
CONTINUOUS
 10
170.1780030732
 20
96.5938761807
 11
169.752888569
 21
96.6053362995
  0
LINE
  5
24A
100
AcDbEntity
  8
0
100
AcDbLine
 62
7
  6
CONTINUOUS
 10
183.1446388009
 20
98.8802439085
 11
182.7195242967
 21
98.8917040273
  0
LINE
  5
24B
100
AcDbEntity
  8
0
100
AcDbLine
 62
7
  6
CONTINUOUS
 10
170.0453185594
 20
93.0272895889
 11
169.7022710549
 21
93.053220334
  0
LINE
  5
24C
100
AcDbEntity
  8
0
100
AcDbLine
 62
7
  6
CONTINUOUS
 10
170.1223527742
 20
94.5100006698
 11
170.4654002786
 21
94.4840699247
  0
LINE
  5
24D
100
AcDbEntity
  8
0
100
AcDbLine
 62
7
  6
CONTINUOUS
 10
169.7349686308
 20
94.7873714967
 11
169.3919211263
 21
94.8133022418
  0
LINE
  5
24E
100
AcDbEntity
  8
0
100
AcDbLine
 62
7
  6
CONTINUOUS
 10
169.8267814017
 20
96.1862692205
 11
170.1698289062
 21
96.1603384754
  0
LINE
  5
24F
100
AcDbEntity
  8
0
100
AcDbLine
 62
7
  6
CONTINUOUS
 10
182.87548319
 20
98.487107409
 11
183.1364636948
 21
98.4467060376
  0
LINE
  5
250
100
AcDbEntity
  8
0
100
AcDbLine
 62
7
  6
CONTINUOUS
 10
169.7022710549
 20
93.053220334
 11
169.3444449839
 21
93.1629644949
  0
LINE
  5
251
100
AcDbEntity
  8
0
100
AcDbLine
 62
7
  6
CONTINUOUS
 10
168.9290743829
 20
94.5588513214
 11
169.107987888
 21
94.5039793237
  0
LINE
  5
252
100
AcDbEntity
  8
0
100
AcDbLine
 62
7
  6
CONTINUOUS
 10
170.4654002786
 20
94.4840699247
 11
170.8232263497
 21
94.3743257638
  0
LINE
  5
253
100
AcDbEntity
  8
0
100
AcDbLine
 62
7
  6
CONTINUOUS
 10
170.9282470221
 20
94.7385208451
 11
170.7493335169
 21
94.7933928428
  0
LINE
  5
254
100
AcDbEntity
  8
0
100
AcDbLine
 62
7
  6
CONTINUOUS
 10
169.157357317
 20
92.7842987579
 11
169.6120289582
 21
92.6052117855
  0
LINE
  5
255
100
AcDbEntity
  8
RUNDUNGEN
100
AcDbLine
 62
7
  6
CONTINUOUS
 10
145.5157300051
 20
77.8863075699
 11
146.4882934662
 21
76.9137441088
  0
LINE
  5
256
100
AcDbEntity
  8
BEZUGSACHSEN
100
AcDbLine
 62
7
  6
CONTINUOUS
 10
145.5157300051
 20
77.8863075699
 11
146.4882934662
 21
76.9137441088
  0
LINE
  5
257
100
AcDbEntity
  8
BEZUGSACHSEN
100
AcDbLine
 62
7
  6
CONTINUOUS
 10
138.465653305
 20
109.2921206532
 11
135.533488178
 21
108.9839376799
  0
LINE
  5
258
100
AcDbEntity
  8
0
100
AcDbLine
 62
7
  6
CONTINUOUS
 10
218.235653305
 20
103.5616518308
 11
221.048153305
 21
103.5616518308
  0
LINE
  5
259
100
AcDbEntity
  8
0
100
AcDbLine
 62
7
  6
CONTINUOUS
 10
204.173153305
 20
103.7212262799
 11
207.1419031559
 21
103.7212262799
  0
LINE
  5
25A
100
AcDbEntity
  8
0
100
AcDbLine
 62
7
  6
CONTINUOUS
 10
221.048153305
 20
104.5190985252
 11
217.298153305
 21
104.5190985252
  0
LINE
  5
25B
100
AcDbEntity
  8
0
100
AcDbLine
 62
7
  6
CONTINUOUS
 10
216.048153603
 20
104.5190985252
 11
215.110653603
 21
104.5190985252
  0
LINE
  5
25C
100
AcDbEntity
  8
0
100
AcDbLine
 62
7
  6
CONTINUOUS
 10
211.360653603
 20
104.5190985252
 11
210.4231531559
 21
104.5190985252
  0
LINE
  5
25D
100
AcDbEntity
  8
0
100
AcDbLine
 62
7
  6
CONTINUOUS
 10
206.985653305
 20
104.5190985252
 11
203.235653305
 21
104.5190985252
  0
LINE
  5
25E
100
AcDbEntity
  8
AUSFORMSCHRAEGEN
100
AcDbLine
 62
7
  6
CONTINUOUS
 10
138.465653305
 20
109.2921206532
 11
141.3978184319
 21
108.9839376799
  0
LINE
  5
25F
100
AcDbEntity
  8
BEZUGSACHSEN
100
AcDbLine
 62
7
  6
CONTINUOUS
 10
138.465653305
 20
109.2921206532
 11
141.3978184319
 21
108.9839376799
  0
LINE
  5
260
100
AcDbEntity
  8
BEZUGSACHSEN
100
AcDbLine
 62
7
  6
CONTINUOUS
 10
283.865653305
 20
83.7762437869
 11
213.465653305
 21
96.1896632288
  0
LINE
  5
261
100
AcDbEntity
  8
0
100
AcDbLine
 62
7
  6
CONTINUOUS
 10
212.141903305
 20
97.1786729883
 11
212.9231530069
 21
97.0190985252
  0
LINE
  5
262
100
AcDbEntity
  8
0
100
AcDbLine
 62
7
  6
CONTINUOUS
 10
207.766903454
 20
104.3595240762
 11
206.985653305
 21
104.5190985252
  0
LINE
  5
263
100
AcDbEntity
  8
0
100
AcDbLine
 62
7
  6
CONTINUOUS
 10
221.829403901
 20
104.3595240762
 11
221.048153305
 21
104.5190985252
  0
LINE
  5
264
100
AcDbEntity
  8
0
100
AcDbLine
 62
7
  6
CONTINUOUS
 10
212.9231530069
 20
97.9765453314
 11
212.298153603
 21
98.1361197804
  0
LINE
  5
265
100
AcDbEntity
  8
0
100
AcDbLine
 62
7
  6
CONTINUOUS
 10
170.6326756496
 20
96.4147893959
 11
170.1780030732
 21
96.5938761807
  0
LINE
  5
266
100
AcDbEntity
  8
0
100
AcDbLine
 62
7
  6
CONTINUOUS
 10
169.3919211263
 20
94.8133022418
 11
169.0193164887
 21
95.0068598185
  0
LINE
  5
267
100
AcDbEntity
  8
0
100
AcDbLine
 62
7
  6
CONTINUOUS
 10
171.3008516596
 20
94.5449632684
 11
170.9282470221
 21
94.7385208451
  0
LINE
  5
268
100
AcDbEntity
  8
0
100
AcDbLine
 62
7
  6
CONTINUOUS
 10
170.1698289062
 20
96.1603384754
 11
170.5424335438
 21
95.9667808987
  0
LINE
  5
269
100
AcDbEntity
  8
0
100
AcDbLine
 62
7
  6
CONTINUOUS
 10
183.5172443777
 20
98.6866864974
 11
183.1446388009
 21
98.8802439085
  0
LINE
  5
26A
100
AcDbEntity
  8
0
100
AcDbLine
 62
7
  6
CONTINUOUS
 10
168.8668196739
 20
92.9923269903
 11
169.157357317
 21
92.7842987579
  0
LINE
  5
26B
100
AcDbEntity
  8
0
100
AcDbLine
 62
7
  6
CONTINUOUS
 10
168.638536745
 20
94.7668795244
 11
168.9290743829
 21
94.5588513214
  0
LINE
  5
26C
100
AcDbEntity
  8
0
100
AcDbLine
 62
7
  6
CONTINUOUS
 10
170.9232132876
 20
96.2067611929
 11
170.6326756496
 21
96.4147893959
  0
LINE
  5
26D
100
AcDbEntity
  8
BEZUGSACHSEN
100
AcDbLine
 62
7
  6
CONTINUOUS
 10
94.6717140656
 20
139.8667321611
 11
91.8432869409
 21
142.6951592859
  0
LINE
  5
26E
100
AcDbEntity
  8
KONSTRUKTIONSELEMENTE
100
AcDbLine
 62
7
  6
CONTINUOUS
 10
96.4394810186
 20
139.8667321611
 11
99.9750149245
 21
136.3311982552
  0
LINE
  5
26F
100
AcDbEntity
  8
KONSTRUKTIONSELEMENTE
100
AcDbLine
 62
7
  6
CONTINUOUS
 10
96.7930344092
 20
140.2202855517
 11
100.3285683151
 21
136.6847516458
  0
LINE
  5
270
100
AcDbEntity
  8
0
100
AcDbLine
 62
7
  6
CONTINUOUS
 10
211.465653305
 20
122.2890985252
 11
189.4663977499
 21
122.2890985252
  0
LINE
  5
271
100
AcDbEntity
  8
BEZUGSACHSEN
100
AcDbLine
 62
7
  6
CONTINUOUS
 10
215.465653305
 20
122.2890985252
 11
237.46490886
 21
122.2890985252
  0
LINE
  5
272
100
AcDbEntity
  8
KONSTRUKTIONSELEMENTE
100
AcDbLine
 62
7
  6
CONTINUOUS
 10
213.265653305
 20
122.4890985252
 11
213.665653305
 21
122.4890985252
  0
LINE
  5
273
100
AcDbEntity
  8
AUSFORMSCHRAEGEN
100
AcDbLine
 62
7
  6
CONTINUOUS
 10
288.465653305
 20
109.2921206532
 11
291.3978184319
 21
108.9839376799
  0
LINE
  5
274
100
AcDbEntity
  8
BEZUGSACHSEN
100
AcDbLine
 62
7
  6
CONTINUOUS
 10
288.465653305
 20
109.2921206532
 11
291.3978184319
 21
108.9839376799
  0
LINE
  5
275
100
AcDbEntity
  8
0
100
AcDbLine
 62
7
  6
CONTINUOUS
 10
221.048153305
 20
103.5616518308
 11
221.6731527089
 21
103.4020773818
  0
LINE
  5
276
100
AcDbEntity
  8
0
100
AcDbLine
 62
7
  6
CONTINUOUS
 10
207.1419031559
 20
103.7212262799
 11
207.6106531559
 21
103.5616518308
  0
LINE
  5
277
100
AcDbEntity
  8
0
100
AcDbLine
 62
7
  6
CONTINUOUS
 10
211.5169030069
 20
97.4978219283
 11
212.141903305
 21
97.1786729883
  0
LINE
  5
278
100
AcDbEntity
  8
0
100
AcDbLine
 62
7
  6
CONTINUOUS
 10
183.1364636948
 20
98.4467060376
 11
183.3301567056
 21
98.3080207898
  0
LINE
  5
279
100
AcDbEntity
  8
0
100
AcDbLine
 62
7
  6
CONTINUOUS
 10
169.3444449839
 20
93.1629644949
 11
169.0391287691
 21
93.4548061724
  0
LINE
  5
27A
100
AcDbEntity
  8
0
100
AcDbLine
 62
7
  6
CONTINUOUS
 10
170.8232263497
 20
94.3743257638
 11
171.1285425748
 21
94.0824840276
  0
LINE
  5
27B
100
AcDbEntity
  8
0
100
AcDbLine
 62
7
  6
CONTINUOUS
 10
169.0193164887
 20
95.0068598185
 11
168.8108458505
 21
95.2293586478
  0
LINE
  5
27C
100
AcDbEntity
  8
0
100
AcDbLine
 62
7
  6
CONTINUOUS
 10
170.5424335438
 20
95.9667808987
 11
170.7509042235
 21
95.7442818347
  0
LINE
  5
27D
100
AcDbEntity
  8
0
100
AcDbLine
 62
7
  6
CONTINUOUS
 10
222.454403305
 20
104.040375178
 11
221.829403901
 21
104.3595240762
  0
LINE
  5
27E
100
AcDbEntity
  8
0
100
AcDbLine
 62
7
  6
CONTINUOUS
 10
212.298153603
 20
98.1361197804
 11
211.829403603
 21
98.4552687903
  0
LINE
  5
27F
100
AcDbEntity
  8
0
100
AcDbLine
 62
7
  6
CONTINUOUS
 10
208.391903305
 20
103.880800729
 11
207.766903454
 21
104.3595240762
  0
LINE
  5
280
100
AcDbEntity
  8
0
100
AcDbLine
 62
7
  6
CONTINUOUS
 10
183.8225605821
 20
98.3948448786
 11
183.5172443777
 21
98.6866864974
  0
LINE
  5
281
100
AcDbEntity
  8
0
100
AcDbLine
 62
7
  6
CONTINUOUS
 10
168.4152875403
 20
95.0731917694
 11
168.638536745
 21
94.7668795244
  0
LINE
  5
282
100
AcDbEntity
  8
0
100
AcDbLine
 62
7
  6
CONTINUOUS
 10
168.6287918923
 20
93.3824527098
 11
168.8668196739
 21
92.9923269903
  0
LINE
  5
283
100
AcDbEntity
  8
0
100
AcDbLine
 62
7
  6
CONTINUOUS
 10
171.5388794517
 20
94.1548374902
 11
171.3008516596
 21
94.5449632684
  0
LINE
  5
284
100
AcDbEntity
  8
0
100
AcDbLine
 62
7
  6
CONTINUOUS
 10
160.0183281112
 20
91.3456799134
 11
158.2634644708
 21
94.5794408382
  0
LINE
  5
285
100
AcDbEntity
  8
0
100
AcDbLine
 62
7
  6
CONTINUOUS
 10
157.7710605943
 20
94.4926167494
 11
159.7787303481
 21
90.7849166478
  0
LINE
  5
286
100
AcDbEntity
  8
BEZUGSACHSEN
100
AcDbLine
 62
7
  6
CONTINUOUS
 10
132.1187739584
 20
50.2814984007
 11
133.8052332529
 21
38.2817169983
  0
LWPOLYLINE
  5
287
100
AcDbEntity
  8
KONSTRUKTIONSELEMENTE
100
AcDbPolyline
 62
7
  6
CONTINUOUS
 90
12
 70
0
 10
196.4734377667
 20
162.9489082287
 10
196.3271563379
 20
162.9148800424
 10
195.7393897703
 20
162.7201615202
 10
195.1782223519
 20
162.456571727
 10
194.6520786256
 20
162.1278270897
 10
194.1687223459
 20
161.7386607511
 10
193.7352440806
 20
161.294774695
 10
193.3579324045
 20
160.8027357267
 10
193.0421685687
 20
160.2698638396
 10
192.7923292234
 20
159.7040963909
 10
192.6117061325
 20
159.1138141952
 10
192.5384301986
 20
158.7072482279
  0
LINE
  5
288
100
AcDbEntity
  8
KONSTRUKTIONSELEMENTE
100
AcDbLine
 62
7
  6
CONTINUOUS
 10
218.865653305
 20
162.7890985252
 11
208.065653305
 21
162.7890985252
  0
LINE
  5
289
100
AcDbEntity
  8
0
100
AcDbLine
 62
7
  6
CONTINUOUS
 10
221.6731527089
 20
103.4020773818
 11
222.1419027089
 21
103.0829284837
  0
LINE
  5
28A
100
AcDbEntity
  8
0
100
AcDbLine
 62
7
  6
CONTINUOUS
 10
210.891903603
 20
98.1361197804
 11
211.5169030069
 21
97.4978219283
  0
LINE
  5
28B
100
AcDbEntity
  8
0
100
AcDbLine
 62
7
  6
CONTINUOUS
 10
207.6106531559
 20
103.5616518308
 11
207.923153305
 21
103.2425029327
  0
LINE
  5
28C
100
AcDbEntity
  8
0
100
AcDbLine
 62
7
  6
CONTINUOUS
 10
171.1612411003
 20
95.8166352973
 11
170.9232132876
 21
96.2067611929
  0
LINE
  5
28D
100
AcDbEntity
  8
0
100
AcDbLine
 62
7
  6
CONTINUOUS
 10
177.9090029562
 20
94.5002885916
 11
176.1541380244
 21
97.7340492888
  0
LINE
  5
28E
100
AcDbEntity
  8
0
100
AcDbLine
 62
7
  6
CONTINUOUS
 10
175.6617341479
 20
97.6472251999
 11
177.6694044887
 21
93.9395252018
  0
LINE
  5
28F
100
AcDbEntity
  8
RUNDUNGEN
100
AcDbLine
 62
7
  6
CONTINUOUS
 10
151.9748837518
 20
117.9063526668
 11
160.3404163483
 21
101.4880705087
  0
LINE
  5
290
100
AcDbEntity
  8
0
100
AcDbLine
 62
7
  6
CONTINUOUS
 10
165.1967433233
 20
92.6908706722
 11
164.0081765199
 21
95.5923885689
  0
LINE
  5
291
100
AcDbEntity
  8
0
100
AcDbLine
 62
7
  6
CONTINUOUS
 10
163.8129142113
 20
94.7801850732
 11
165.0310381685
 21
91.7110402275
  0
LINE
  5
292
100
AcDbEntity
  8
0
100
AcDbLine
 62
7
  6
CONTINUOUS
 10
161.7102916063
 20
95.18720946
 11
163.0614226625
 21
91.3637438722
  0
LINE
  5
293
100
AcDbEntity
  8
0
100
AcDbLine
 62
7
  6
CONTINUOUS
 10
163.2271278173
 20
92.3435743168
 11
162.2026954828
 21
95.2740335489
  0
LINE
  5
294
100
AcDbEntity
  8
RUNDUNGEN
100
AcDbLine
 62
7
  6
CONTINUOUS
 10
144.1559547256
 20
83.9684933444
 11
144.8125331405
 21
79.296695171
  0
LINE
  5
295
100
AcDbEntity
  8
BEZUGSACHSEN
100
AcDbLine
 62
7
  6
CONTINUOUS
 10
144.1559547256
 20
83.9684933444
 11
144.8125331405
 21
79.296695171
  0
LINE
  5
296
100
AcDbEntity
  8
BEZUGSACHSEN
100
AcDbLine
 62
7
  6
CONTINUOUS
 10
129.715653305
 20
75.1577421214
 11
129.715653305
 21
71.2036627751
  0
LINE
  5
297
100
AcDbEntity
  8
RUNDUNGEN
100
AcDbLine
 62
7
  6
CONTINUOUS
 10
129.715653305
 20
75.1577421214
 11
129.715653305
 21
69.8187226265
  0
LINE
  5
298
100
AcDbEntity
  8
BEZUGSACHSEN
100
AcDbLine
 62
7
  6
CONTINUOUS
 10
129.715653305
 20
69.8187226265
 11
129.715653305
 21
54.420454929
  0
LINE
  5
299
100
AcDbEntity
  8
BEZUGSACHSEN
100
AcDbLine
 62
7
  6
CONTINUOUS
 10
133.865653305
 20
37.4176703727
 11
133.865653305
 21
22.4465776532
  0
LINE
  5
29A
100
AcDbEntity
  8
RUNDUNGEN
100
AcDbLine
 62
7
  6
CONTINUOUS
 10
133.865653305
 20
74.9087387344
 11
133.865653305
 21
80.4521206532
  0
LINE
  5
29B
100
AcDbEntity
  8
BEZUGSACHSEN
100
AcDbLine
 62
7
  6
CONTINUOUS
 10
133.865653305
 20
74.9087387344
 11
133.865653305
 21
107.1316193972
  0
LINE
  5
29C
100
AcDbEntity
  8
BEZUGSACHSEN
100
AcDbLine
 62
7
  6
CONTINUOUS
 10
251.4573398838
 20
133.2467121949
 11
273.6453747848
 21
121.9413437385
  0
LINE
  5
29D
100
AcDbEntity
  8
BEZUGSACHSEN
100
AcDbLine
 62
7
  6
CONTINUOUS
 10
280.4430351156
 20
52.6644309697
 11
281.415576605
 21
51.6918894803
  0
LINE
  5
29E
100
AcDbEntity
  8
0
100
AcDbLine
 62
7
  6
CONTINUOUS
 10
223.0794027089
 20
103.4020773818
 11
222.454403305
 21
104.040375178
  0
LINE
  5
29F
100
AcDbEntity
  8
0
100
AcDbLine
 62
7
  6
CONTINUOUS
 10
208.860653305
 20
103.2425029327
 11
208.391903305
 21
103.880800729
  0
LINE
  5
2A0
100
AcDbEntity
  8
0
100
AcDbLine
 62
7
  6
CONTINUOUS
 10
183.3301567056
 20
98.3080207898
 11
183.4565584658
 21
98.0710510031
  0
LINE
  5
2A1
100
AcDbEntity
  8
0
100
AcDbLine
 62
7
  6
CONTINUOUS
 10
183.9489623423
 20
98.1578750919
 11
183.8225605821
 21
98.3948448786
  0
LINE
  5
2A2
100
AcDbEntity
  8
RUNDUNGEN
100
AcDbLine
 62
7
  6
CONTINUOUS
 10
143.065653305
 20
107.1316193972
 11
143.065653305
 21
74.9089060029
  0
LINE
  5
2A3
100
AcDbEntity
  8
BEZUGSACHSEN
100
AcDbLine
 62
7
  6
CONTINUOUS
 10
143.065653305
 20
107.1316193972
 11
143.065653305
 21
74.9089060029
  0
LINE
  5
2A4
100
AcDbEntity
  8
RUNDUNGEN
100
AcDbLine
 62
7
  6
CONTINUOUS
 10
143.065653305
 20
37.4176720507
 11
143.065653305
 21
22.4465776532
  0
LINE
  5
2A5
100
AcDbEntity
  8
0
100
AcDbLine
 62
7
  6
CONTINUOUS
 10
146.465653305
 20
261.4890985252
 11
146.465653305
 21
331.4890985252
  0
LINE
  5
2A6
100
AcDbEntity
  8
BEZUGSACHSEN
100
AcDbLine
 62
7
  6
CONTINUOUS
 10
147.215653305
 20
75.1577421214
 11
147.215653305
 21
71.2036627751
  0
LINE
  5
2A7
100
AcDbEntity
  8
RUNDUNGEN
100
AcDbLine
 62
7
  6
CONTINUOUS
 10
147.215653305
 20
75.1577421214
 11
147.215653305
 21
54.420454929
  0
LINE
  5
2A8
100
AcDbEntity
  8
BEZUGSACHSEN
100
AcDbLine
 62
7
  6
CONTINUOUS
 10
132.7898217578
 20
84.071451844
 11
132.1187734694
 21
79.296695171
  0
LINE
  5
2A9
100
AcDbEntity
  8
KONSTRUKTIONSELEMENTE
100
AcDbLine
 62
7
  6
CONTINUOUS
 10
148.7653828264
 20
208.4560899362
 11
142.7549751863
 21
202.4456822961
  0
LINE
  5
2AA
100
AcDbEntity
  8
KONSTRUKTIONSELEMENTE
100
AcDbLine
 62
7
  6
CONTINUOUS
 10
91.4897335503
 20
151.1804406601
 11
85.4793259102
 21
145.17003302
  0
LINE
  5
2AB
100
AcDbEntity
  8
KONSTRUKTIONSELEMENTE
100
AcDbLine
 62
7
  6
CONTINUOUS
 10
122.6024319225
 20
181.9395856417
 11
111.9958302047
 21
171.3329839239
  0
LINE
  5
2AC
100
AcDbEntity
  8
BEZUGSACHSEN
100
AcDbLine
 62
7
  6
CONTINUOUS
 10
237.1563132023
 20
154.0013640946
 11
297.9994537995
 21
123.0002355332
  0
LINE
  5
2AD
100
AcDbEntity
  8
KONSTRUKTIONSELEMENTE
100
AcDbLine
 62
7
  6
CONTINUOUS
 10
153.7151302947
 20
197.1423814372
 11
157.2506642006
 21
193.6068475313
  0
LINE
  5
2AE
100
AcDbEntity
  8
KONSTRUKTIONSELEMENTE
100
AcDbLine
 62
7
  6
CONTINUOUS
 10
154.0686836853
 20
197.4959348278
 11
157.6042175912
 21
193.9604009219
  0
LINE
  5
2AF
100
AcDbEntity
  8
0
100
AcDbLine
 62
7
  6
CONTINUOUS
 10
211.829403603
 20
98.4552687903
 11
211.5169030069
 21
98.9339921375
  0
LINE
  5
2B0
100
AcDbEntity
  8
0
100
AcDbLine
 62
7
  6
CONTINUOUS
 10
222.1419027089
 20
103.0829284837
 11
222.454403305
 21
102.6042046894
  0
LINE
  5
2B1
100
AcDbEntity
  8
0
100
AcDbLine
 62
7
  6
CONTINUOUS
 10
210.579403454
 20
98.7744176884
 11
210.891903603
 21
98.1361197804
  0
LINE
  5
2B2
100
AcDbEntity
  8
0
100
AcDbLine
 62
7
  6
CONTINUOUS
 10
166.6755256386
 20
93.902232048
 11
166.7494184921
 21
93.4831648516
  0
LINE
  5
2B3
100
AcDbEntity
  8
0
100
AcDbLine
 62
7
  6
CONTINUOUS
 10
167.8983602445
 20
93.6857542818
 11
167.824467391
 21
94.1048214782
  0
LINE
  5
2B4
100
AcDbEntity
  8
0
100
AcDbLine
 62
7
  6
CONTINUOUS
 10
168.5844561926
 20
93.6338929572
 11
168.6287918923
 21
93.3824527098
  0
LINE
  5
2B5
100
AcDbEntity
  8
0
100
AcDbLine
 62
7
  6
CONTINUOUS
 10
168.3709518406
 20
95.3246320168
 11
168.4152875403
 21
95.0731917694
  0
LINE
  5
2B6
100
AcDbEntity
  8
0
100
AcDbLine
 62
7
  6
CONTINUOUS
 10
169.0391287691
 20
93.4548061724
 11
168.9947930694
 21
93.7062464197
  0
LINE
  5
2B7
100
AcDbEntity
  8
0
100
AcDbLine
 62
7
  6
CONTINUOUS
 10
168.8108458505
 20
95.2293586478
 11
168.7812887174
 21
95.3969854794
  0
LINE
  5
2B8
100
AcDbEntity
  8
0
100
AcDbLine
 62
7
  6
CONTINUOUS
 10
170.7509042235
 20
95.7442818347
 11
170.7804613566
 21
95.5766550031
  0
LINE
  5
2B9
100
AcDbEntity
  8
0
100
AcDbLine
 62
7
  6
CONTINUOUS
 10
171.1285425748
 20
94.0824840276
 11
171.1728782745
 21
93.8310437802
  0
LINE
  5
2BA
100
AcDbEntity
  8
0
100
AcDbLine
 62
7
  6
CONTINUOUS
 10
171.2055767999
 20
95.5651950499
 11
171.1612411003
 21
95.8166352973
  0
LINE
  5
2BB
100
AcDbEntity
  8
0
100
AcDbLine
 62
7
  6
CONTINUOUS
 10
171.5832151513
 20
93.9033972428
 11
171.5388794517
 21
94.1548374902
  0
LINE
  5
2BC
100
AcDbEntity
  8
0
100
AcDbLine
 62
7
  6
CONTINUOUS
 10
165.1571187419
 20
95.7949780819
 11
165.1967433233
 21
92.6908706722
  0
LINE
  5
2BD
100
AcDbEntity
  8
0
100
AcDbLine
 62
7
  6
CONTINUOUS
 10
165.6875769836
 20
91.8268057345
 11
165.6495226184
 21
95.8818021707
  0
LINE
  5
2BE
100
AcDbEntity
  8
0
100
AcDbLine
 62
7
  6
CONTINUOUS
 10
168.465653305
 20
261.4890985252
 11
168.465653305
 21
331.4890985252
  0
LINE
  5
2BF
100
AcDbEntity
  8
0
100
AcDbLine
 62
7
  6
CONTINUOUS
 10
163.7179614776
 20
91.4795093792
 11
163.8129142113
 21
94.7801850732
  0
LINE
  5
2C0
100
AcDbEntity
  8
0
100
AcDbLine
 62
7
  6
CONTINUOUS
 10
163.3516377048
 20
95.4766230619
 11
163.2271278173
 21
92.3435743168
  0
LINE
  5
2C1
100
AcDbEntity
  8
RUNDUNGEN
100
AcDbLine
 62
7
  6
CONTINUOUS
 10
144.8125326516
 20
50.2814984007
 11
143.126073357
 21
38.2817169983
  0
LINE
  5
2C2
100
AcDbEntity
  8
KONSTRUKTIONSELEMENTE
100
AcDbLine
 62
7
  6
CONTINUOUS
 10
125.7844124378
 20
178.7576051264
 11
115.17781072
 21
168.1510034086
  0
LINE
  5
2C3
100
AcDbEntity
  8
KONSTRUKTIONSELEMENTE
100
AcDbLine
 62
7
  6
CONTINUOUS
 10
152.3009167323
 20
204.9205560303
 11
146.2905090922
 21
198.9101483902
  0
LINE
  5
2C4
100
AcDbEntity
  8
KONSTRUKTIONSELEMENTE
100
AcDbLine
 62
7
  6
CONTINUOUS
 10
95.0252674562
 20
147.6449067542
 11
89.0148598161
 21
141.6344991141
  0
LINE
  5
2C5
100
AcDbEntity
  8
KONSTRUKTIONSELEMENTE
100
AcDbLine
 62
7
  6
CONTINUOUS
 10
152.6544701229
 20
204.9205560303
 11
181.5963380244
 21
233.8624239317
  0
LINE
  5
2C6
100
AcDbEntity
  8
KONSTRUKTIONSELEMENTE
100
AcDbLine
 62
7
  6
CONTINUOUS
 10
96.4394810186
 20
147.6449067542
 11
115.1481659938
 21
166.3535917294
  0
LINE
  5
2C7
100
AcDbEntity
  8
KONSTRUKTIONSELEMENTE
100
AcDbLine
 62
7
  6
CONTINUOUS
 10
127.5521793908
 20
178.7576051264
 11
146.260864366
 21
197.4662901016
  0
LINE
  5
2C8
100
AcDbEntity
  8
KONSTRUKTIONSELEMENTE
100
AcDbLine
 62
7
  6
CONTINUOUS
 10
34.5676376648
 20
85.4195100098
 11
90.7832805548
 21
141.6351528998
  0
LINE
  5
2C9
100
AcDbEntity
  8
BEZUGSACHSEN
100
AcDbLine
 62
7
  6
CONTINUOUS
 10
90.7832805548
 20
141.6351528998
 11
91.8430415133
 21
142.6949138584
  0
LINE
  5
2CA
100
AcDbEntity
  8
KONSTRUKTIONSELEMENTE
100
AcDbLine
 62
7
  6
CONTINUOUS
 10
34.8504803772
 20
85.1366672973
 11
46.1641888762
 21
96.4503757963
  0
LINE
  5
2CB
100
AcDbEntity
  8
KONSTRUKTIONSELEMENTE
100
AcDbLine
 62
7
  6
CONTINUOUS
 10
37.113222077
 20
82.8739255975
 11
48.426930576
 21
94.1876340965
  0
LINE
  5
2CC
100
AcDbEntity
  8
KONSTRUKTIONSELEMENTE
100
AcDbLine
 62
7
  6
CONTINUOUS
 10
37.3960647895
 20
82.591082885
 11
93.6117076795
 21
138.806725775
  0
LINE
  5
2CD
100
AcDbEntity
  8
BEZUGSACHSEN
100
AcDbLine
 62
7
  6
CONTINUOUS
 10
93.6117076795
 20
138.806725775
 11
94.6714686381
 21
139.8664867336
  0
LINE
  5
2CE
100
AcDbEntity
  8
KONSTRUKTIONSELEMENTE
100
AcDbLine
 62
7
  6
CONTINUOUS
 10
99.6214615339
 20
144.4629262388
 11
118.3301465091
 21
163.171611214
  0
LINE
  5
2CF
100
AcDbEntity
  8
KONSTRUKTIONSELEMENTE
100
AcDbLine
 62
7
  6
CONTINUOUS
 10
130.7341599061
 20
175.5756246111
 11
149.4428448813
 21
194.2843095862
  0
LINE
  5
2D0
100
AcDbEntity
  8
KONSTRUKTIONSELEMENTE
100
AcDbLine
 62
7
  6
CONTINUOUS
 10
156.89711081
 20
200.6779153432
 11
185.8884888387
 21
229.6692933718
  0
LINE
  5
2D1
100
AcDbEntity
  8
KONSTRUKTIONSELEMENTE
100
AcDbLine
 62
7
  6
CONTINUOUS
 10
93.6110538938
 20
137.0383050364
 11
96.4394810186
 21
139.8667321611
  0
LINE
  5
2D2
100
AcDbEntity
  8
KONSTRUKTIONSELEMENTE
100
AcDbLine
 62
7
  6
CONTINUOUS
 10
96.7930344092
 20
140.2202855517
 11
99.6214615339
 21
143.0487126765
  0
LINE
  5
2D3
100
AcDbEntity
  8
KONSTRUKTIONSELEMENTE
100
AcDbLine
 62
7
  6
CONTINUOUS
 10
150.8867031699
 20
194.3139543125
 11
153.7151302947
 21
197.1423814372
  0
LINE
  5
2D4
100
AcDbEntity
  8
KONSTRUKTIONSELEMENTE
100
AcDbLine
 62
7
  6
CONTINUOUS
 10
154.0686836853
 20
197.4959348278
 11
156.89711081
 21
200.3243619526
  0
LINE
  5
2D5
100
AcDbEntity
  8
KONSTRUKTIONSELEMENTE
100
AcDbLine
 62
7
  6
CONTINUOUS
 10
120.1275581883
 20
163.2012559403
 11
130.7341599061
 21
173.8078576581
  0
LINE
  5
2D6
100
AcDbEntity
  8
KONSTRUKTIONSELEMENTE
100
AcDbLine
 62
7
  6
CONTINUOUS
 10
123.3095387037
 20
160.0192754249
 11
133.9161404215
 21
170.6258771427
  0
LINE
  5
2D7
100
AcDbEntity
  8
KONSTRUKTIONSELEMENTE
100
AcDbLine
 62
7
  6
CONTINUOUS
 10
97.1465877998
 20
133.5027711305
 11
99.9750149245
 21
136.3311982552
  0
LINE
  5
2D8
100
AcDbEntity
  8
KONSTRUKTIONSELEMENTE
100
AcDbLine
 62
7
  6
CONTINUOUS
 10
100.3285683151
 20
136.6847516458
 11
103.1569954399
 21
139.5131787705
  0
LINE
  5
2D9
100
AcDbEntity
  8
KONSTRUKTIONSELEMENTE
100
AcDbLine
 62
7
  6
CONTINUOUS
 10
154.4222370759
 20
190.7784204066
 11
157.2506642006
 21
193.6068475313
  0
LINE
  5
2DA
100
AcDbEntity
  8
KONSTRUKTIONSELEMENTE
100
AcDbLine
 62
7
  6
CONTINUOUS
 10
157.6042175912
 20
193.9604009219
 11
160.432644716
 21
196.7888280466
  0
LINE
  5
2DB
100
AcDbEntity
  8
RUNDUNGEN
100
AcDbLine
 62
7
  6
CONTINUOUS
 10
295.5157300051
 20
77.8863075699
 11
296.4882934662
 21
76.9137441088
  0
LINE
  5
2DC
100
AcDbEntity
  8
BEZUGSACHSEN
100
AcDbLine
 62
7
  6
CONTINUOUS
 10
295.5157300051
 20
77.8863075699
 11
296.4882934662
 21
76.9137441088
  0
LINE
  5
2DD
100
AcDbEntity
  8
0
100
AcDbLine
 62
7
  6
CONTINUOUS
 10
223.391903305
 20
102.7637795855
 11
223.0794027089
 21
103.4020773818
  0
LINE
  5
2DE
100
AcDbEntity
  8
0
100
AcDbLine
 62
7
  6
CONTINUOUS
 10
209.173153454
 20
97.0190985252
 11
207.766903454
 21
100.6893113007
  0
LINE
  5
2DF
100
AcDbEntity
  8
0
100
AcDbLine
 62
7
  6
CONTINUOUS
 10
206.8294032304
 20
100.3701624026
 11
208.0794031559
 21
97.0190985252
  0
LINE
  5
2E0
100
AcDbEntity
  8
0
100
AcDbLine
 62
7
  6
CONTINUOUS
 10
207.923153305
 20
103.2425029327
 11
208.0794031559
 21
102.7637795855
  0
LINE
  5
2E1
100
AcDbEntity
  8
0
100
AcDbLine
 62
7
  6
CONTINUOUS
 10
179.6009651599
 20
98.3418179106
 11
180.2955578706
 21
94.4025868985
  0
LINE
  5
2E2
100
AcDbEntity
  8
0
100
AcDbLine
 62
7
  6
CONTINUOUS
 10
180.7879617471
 20
94.4894109874
 11
180.0933690364
 21
98.4286419994
  0
LINE
  5
2E3
100
AcDbEntity
  8
0
100
AcDbLine
 62
7
  6
CONTINUOUS
 10
180.7499087907
 20
98.544407672
 11
181.4445015014
 21
94.60517666
  0
LINE
  5
2E4
100
AcDbEntity
  8
0
100
AcDbLine
 62
7
  6
CONTINUOUS
 10
181.9369053779
 20
94.6920007488
 11
181.6265554389
 21
96.4520827153
  0
LINE
  5
2E5
100
AcDbEntity
  8
0
100
AcDbLine
 62
7
  6
CONTINUOUS
 10
181.5378840396
 20
96.9549632101
 11
181.3162055
 21
98.2121646819
  0
LINE
  5
2E6
100
AcDbEntity
  8
0
100
AcDbLine
 62
7
  6
CONTINUOUS
 10
183.4565584658
 20
98.0710510031
 11
183.5008942068
 21
97.8196105209
  0
LINE
  5
2E7
100
AcDbEntity
  8
0
100
AcDbLine
 62
7
  6
CONTINUOUS
 10
184.0080766499
 20
97.8226211939
 11
183.9489623423
 21
98.1578750919
  0
LINE
  5
2E8
100
AcDbEntity
  8
0
100
AcDbLine
 62
7
  6
CONTINUOUS
 10
160.435268811
 20
90.9006820927
 11
161.0537530261
 21
95.0714439945
  0
LINE
  5
2E9
100
AcDbEntity
  8
0
100
AcDbLine
 62
7
  6
CONTINUOUS
 10
160.5613491496
 20
94.9846199056
 11
160.0183281112
 21
91.3456799134
  0
LINE
  5
2EA
100
AcDbEntity
  8
0
100
AcDbLine
 62
7
  6
CONTINUOUS
 10
209.0169031559
 20
102.7637795855
 11
208.860653305
 21
103.2425029327
  0
LINE
  5
2EB
100
AcDbEntity
  8
0
100
AcDbLine
 62
7
  6
CONTINUOUS
 10
211.5169030069
 20
98.9339921375
 11
211.360653603
 21
99.5722899337
  0
LINE
  5
2EC
100
AcDbEntity
  8
0
100
AcDbLine
 62
7
  6
CONTINUOUS
 10
210.4231531559
 20
99.5722899337
 11
210.579403454
 21
98.7744176884
  0
LINE
  5
2ED
100
AcDbEntity
  8
KONSTRUKTIONSELEMENTE
100
AcDbLine
 62
7
  6
CONTINUOUS
 10
192.465653305
 20
143.2890985252
 11
192.465653305
 21
150.9384444327
  0
LINE
  5
2EE
100
AcDbEntity
  8
KONSTRUKTIONSELEMENTE
100
AcDbLine
 62
7
  6
CONTINUOUS
 10
198.190653305
 20
128.9578607908
 11
198.190653305
 21
161.4789577657
  0
LINE
  5
2EF
100
AcDbEntity
  8
0
100
AcDbLine
 62
7
  6
CONTINUOUS
 10
203.235653305
 20
104.5190985252
 11
203.235653305
 21
97.0190985252
  0
LINE
  5
2F0
100
AcDbEntity
  8
0
100
AcDbLine
 62
7
  6
CONTINUOUS
 10
204.173153305
 20
97.0190985252
 11
204.173153305
 21
100.3701624026
  0
LINE
  5
2F1
100
AcDbEntity
  8
0
100
AcDbLine
 62
7
  6
CONTINUOUS
 10
204.173153305
 20
101.3276090969
 11
204.173153305
 21
103.7212262799
  0
LINE
  5
2F2
100
AcDbEntity
  8
KONSTRUKTIONSELEMENTE
100
AcDbLine
 62
7
  6
CONTINUOUS
 10
205.015653305
 20
173.1890985252
 11
205.015653305
 21
224.9390985252
  0
LINE
  5
2F3
100
AcDbEntity
  8
0
100
AcDbLine
 62
7
  6
CONTINUOUS
 10
183.5008942068
 20
97.8196105209
 11
183.463163846
 21
97.5536998128
  0
LINE
  5
2F4
100
AcDbEntity
  8
0
100
AcDbLine
 62
7
  6
CONTINUOUS
 10
183.970346289
 20
97.5567104859
 11
184.0080766499
 21
97.8226211939
  0
LINE
  5
2F5
100
AcDbEntity
  8
0
100
AcDbLine
 62
7
  6
CONTINUOUS
 10
178.3259423646
 20
94.0552905432
 11
178.944427284
 21
98.2260525692
  0
LINE
  5
2F6
100
AcDbEntity
  8
0
100
AcDbLine
 62
7
  6
CONTINUOUS
 10
178.4520234075
 20
98.1392284804
 11
177.9090029562
 21
94.5002885916
  0
LINE
  5
2F7
100
AcDbEntity
  8
0
100
AcDbLine
 62
7
  6
CONTINUOUS
 10
168.461193905
 20
95.7726407487
 11
168.3709518406
 21
95.3246320168
  0
LINE
  5
2F8
100
AcDbEntity
  8
0
100
AcDbLine
 62
7
  6
CONTINUOUS
 10
168.6746982777
 20
94.0819015717
 11
168.5844561926
 21
93.6338929572
  0
LINE
  5
2F9
100
AcDbEntity
  8
0
100
AcDbLine
 62
7
  6
CONTINUOUS
 10
171.4929730559
 20
93.455388687
 11
171.5832151513
 21
93.9033972428
  0
LINE
  5
2FA
100
AcDbEntity
  8
0
100
AcDbLine
 62
7
  6
CONTINUOUS
 10
171.1005561276
 20
95.2009999685
 11
171.2055767999
 21
95.5651950499
  0
LINE
  5
2FB
100
AcDbEntity
  8
BEZUGSACHSEN
100
AcDbLine
 62
7
  6
CONTINUOUS
 10
240.3729961393
 20
116.4563777985
 11
237.46490886
 21
122.2890985252
  0
LINE
  5
2FC
100
AcDbEntity
  8
BEZUGSACHSEN
100
AcDbLine
 62
7
  6
CONTINUOUS
 10
261.2330676042
 20
101.5114485686
 11
247.4105652998
 21
129.235099183
  0
LINE
  5
2FD
100
AcDbEntity
  8
0
100
AcDbLine
 62
7
  6
CONTINUOUS
 10
222.454403305
 20
102.6042046894
 11
222.6106527089
 21
101.9659068932
  0
LINE
  5
2FE
100
AcDbEntity
  8
0
100
AcDbLine
 62
7
  6
CONTINUOUS
 10
223.5481527089
 20
101.9659068932
 11
223.391903305
 21
102.7637795855
  0
LINE
  5
2FF
100
AcDbEntity
  8
BEZUGSACHSEN
100
AcDbLine
 62
7
  6
CONTINUOUS
 10
220.0642840563
 20
105.8664039108
 11
219.0223949903
 21
111.7752504288
  0
LINE
  5
300
100
AcDbEntity
  8
0
100
AcDbLine
 62
7
  6
CONTINUOUS
 10
208.0794031559
 20
102.7637795855
 11
208.0794031559
 21
102.2850557913
  0
LINE
  5
301
100
AcDbEntity
  8
0
100
AcDbLine
 62
7
  6
CONTINUOUS
 10
209.0169031559
 20
102.1254813422
 11
209.0169031559
 21
102.7637795855
  0
LINE
  5
302
100
AcDbEntity
  8
0
100
AcDbLine
 62
7
  6
CONTINUOUS
 10
210.4231531559
 20
104.5190985252
 11
210.4231531559
 21
99.5722899337
  0
LINE
  5
303
100
AcDbEntity
  8
0
100
AcDbLine
 62
7
  6
CONTINUOUS
 10
211.360653603
 20
99.5722899337
 11
211.360653603
 21
104.5190985252
  0
LINE
  5
304
100
AcDbEntity
  8
0
100
AcDbLine
 62
7
  6
CONTINUOUS
 10
211.465653305
 20
122.5817521531
 11
211.465653305
 21
122.2890985252
  0
LINE
  5
305
100
AcDbEntity
  8
0
100
AcDbLine
 62
7
  6
CONTINUOUS
 10
215.110653603
 20
104.5190985252
 11
215.110653603
 21
99.5722899337
  0
LINE
  5
306
100
AcDbEntity
  8
BEZUGSACHSEN
100
AcDbLine
 62
7
  6
CONTINUOUS
 10
215.465653305
 20
122.5817521531
 11
215.465653305
 21
122.2890985252
  0
LINE
  5
307
100
AcDbEntity
  8
0
100
AcDbLine
 62
7
  6
CONTINUOUS
 10
216.048153603
 20
99.5722899337
 11
216.048153603
 21
104.5190985252
  0
LINE
  5
308
100
AcDbEntity
  8
0
100
AcDbLine
 62
7
  6
CONTINUOUS
 10
217.298153305
 20
104.5190985252
 11
217.298153305
 21
97.0190985252
  0
LINE
  5
309
100
AcDbEntity
  8
0
100
AcDbLine
 62
7
  6
CONTINUOUS
 10
218.235653305
 20
97.9765453314
 11
218.235653305
 21
103.5616518308
  0
LINE
  5
30A
100
AcDbEntity
  8
0
100
AcDbLine
 62
7
  6
CONTINUOUS
 10
168.7812887174
 20
95.3969854794
 11
168.9010879149
 21
95.6773673797
  0
LINE
  5
30B
100
AcDbEntity
  8
0
100
AcDbLine
 62
7
  6
CONTINUOUS
 10
170.7804613566
 20
95.5766550031
 11
170.6606621176
 21
95.2962733376
  0
LINE
  5
30C
100
AcDbEntity
  8
0
100
AcDbLine
 62
7
  6
CONTINUOUS
 10
168.9947930694
 20
93.7062464197
 11
169.1818807208
 21
94.0849122448
  0
LINE
  5
30D
100
AcDbEntity
  8
RUNDUNGEN
100
AcDbLine
 62
7
  6
CONTINUOUS
 10
165.6982390057
 20
101.5114485686
 11
179.5207413101
 21
129.235099183
  0
LWPOLYLINE
  5
30E
100
AcDbEntity
  8
KONSTRUKTIONSELEMENTE
100
AcDbPolyline
 62
7
  6
CONTINUOUS
 90
112
 70
0
 10
234.4605065845
 20
151.3145235874
 10
234.458253896
 20
151.3947155599
 10
234.4555582968
 20
151.4759658867
 10
234.4524032593
 20
151.5582868179
 10
234.4487695344
 20
151.6417384499
 10
234.4446311228
 20
151.7264815954
 10
234.4399799512
 20
151.8122949251
 10
234.4347957511
 20
151.8992228178
 10
234.4290991495
 20
151.986686301
 10
234.4229430637
 20
152.0738344022
 10
234.4162706694
 20
152.161439245
 10
234.409096471
 20
152.2492199198
 10
234.4012373658
 20
152.3391495017
 10
234.3924660454
 20
152.4331764612
 10
234.3827789759
 20
152.5305813168
 10
234.3720633279
 20
152.6317859769
 10
234.360426297
 20
152.7351964097
 10
234.3480016795
 20
152.8393392561
 10
234.3347258622
 20
152.9445724026
 10
234.3205930704
 20
153.0507565993
 10
234.3055551562
 20
153.1580725358
 10
234.2895563064
 20
153.2667151226
 10
234.2725869146
 20
153.3765481236
 10
234.2546199961
 20
153.4875607744
 10
234.2356553123
 20
153.5995862392
 10
234.215689367
 20
153.7125004234
 10
234.1947234149
 20
153.8261714235
 10
234.1727631406
 20
153.9404631441
 10
234.1498121215
 20
154.055268597
 10
234.1258855309
 20
154.1704401428
 10
234.1009727993
 20
154.285967117
 10
234.0750813857
 20
154.401759824
 10
234.0481789086
 20
154.5179085912
 10
234.020235874
 20
154.6344787024
 10
233.9912412231
 20
154.7514524719
 10
233.9611788257
 20
154.8688325141
 10
233.9300320886
 20
154.9866214297
 10
233.8977840668
 20
155.1048213403
 10
233.8644173509
 20
155.2234342932
 10
233.829914163
 20
155.3424618799
 10
233.7942563101
 20
155.461905391
 10
233.7574252131
 20
155.5817657004
 10
233.7194019011
 20
155.7020432743
 10
233.6801670116
 20
155.8227381594
 10
233.6397008011
 20
155.9438499402
 10
233.5979831354
 20
156.0653777608
 10
233.5549935047
 20
156.18732027
 10
233.5107110124
 20
156.3096756474
 10
233.4651143901
 20
156.4324415524
 10
233.4181819883
 20
156.5556151424
 10
233.3698917894
 20
156.6791930311
 10
233.3202214019
 20
156.8031712966
 10
233.2691480709
 20
156.9275454475
 10
233.2166486757
 20
157.052310423
 10
233.1626997394
 20
157.177460563
 10
233.1072774283
 20
157.3029896048
 10
233.0503575616
 20
157.4288906539
 10
232.9919160621
 20
157.5551552175
 10
232.9319267156
 20
157.681777983
 10
232.8703648011
 20
157.8087489781
 10
232.8071993483
 20
157.936069435
 10
232.7424004847
 20
158.0637361399
 10
232.6759365514
 20
158.1917472994
 10
232.6077755369
 20
158.3200995986
 10
232.5378847972
 20
158.4487887555
 10
232.4662310641
 20
158.5778094874
 10
232.392780452
 20
158.7071554806
 10
232.3174984681
 20
158.8368193573
 10
232.2403500206
 20
158.9667926431
 10
232.1612993647
 20
159.0970658392
 10
232.0803104404
 20
159.2276278556
 10
231.9973436202
 20
159.3584711141
 10
231.912370527
 20
159.4895684108
 10
231.8253556129
 20
159.6209023767
 10
231.7362798022
 20
159.7524297937
 10
231.6451200616
 20
159.8841134497
 10
231.5518549895
 20
160.015913651
 10
231.4564633409
 20
160.1477904555
 10
231.3589243474
 20
160.279703226
 10
231.2592177373
 20
160.4116106308
 10
231.1573237575
 20
160.543470645
 10
231.0532231941
 20
160.6752405521
 10
230.9468973943
 20
160.8068769455
 10
230.8383282878
 20
160.9383357323
 10
230.7274984084
 20
161.0695721348
 10
230.6143909163
 20
161.2005406957
 10
230.4989896201
 20
161.331195281
 10
230.3812789986
 20
161.4614890855
 10
230.2612442239
 20
161.5913746375
 10
230.1388711829
 20
161.7208038051
 10
230.0141465009
 20
161.8497278021
 10
229.8870575635
 20
161.9780971955
 10
229.7575925399
 20
162.1058619122
 10
229.6257404048
 20
162.2329712485
 10
229.4914909637
 20
162.3593738766
 10
229.3548348731
 20
162.485017856
 10
229.2157636652
 20
162.6098506428
 10
229.0742697697
 20
162.7338191007
 10
228.9303465374
 20
162.8568695122
 10
228.7839882626
 20
162.9789475907
 10
228.6351902069
 20
163.0999984929
 10
228.4839486208
 20
163.2199668326
 10
228.3302607682
 20
163.3387966938
 10
228.1741249473
 20
163.4564316464
 10
228.0155405149
 20
163.5728147606
 10
227.8545079078
 20
163.6878886241
 10
227.691028666
 20
163.8015953574
 10
227.5251054542
 20
163.913876633
 10
227.3567420848
 20
164.0246736919
 10
227.1859435387
 20
164.1339273639
 10
227.0127159885
 20
164.2415780864
 10
226.9355073575
 20
164.2885546656
  0
LINE
  5
30F
100
AcDbEntity
  8
KONSTRUKTIONSELEMENTE
100
AcDbLine
 62
7
  6
CONTINUOUS
 10
234.4623345168
 20
151.2352748463
 11
234.4605065845
 21
151.3145235874
  0
LINE
  5
310
100
AcDbEntity
  8
KONSTRUKTIONSELEMENTE
100
AcDbLine
 62
7
  6
CONTINUOUS
 10
234.464551937
 20
151.0899834541
 11
234.4623345168
 21
151.2352748463
  0
LINE
  5
311
100
AcDbEntity
  8
KONSTRUKTIONSELEMENTE
100
AcDbLine
 62
7
  6
CONTINUOUS
 10
234.4653692981
 20
151.0011102085
 11
234.4637469434
 21
151.1572639195
  0
LINE
  5
312
100
AcDbEntity
  8
KONSTRUKTIONSELEMENTE
100
AcDbLine
 62
7
  6
CONTINUOUS
 10
234.4653924262
 20
151.0058347594
 11
234.4647613598
 21
151.0805400891
  0
LINE
  5
313
100
AcDbEntity
  8
KONSTRUKTIONSELEMENTE
100
AcDbLine
 62
7
  6
CONTINUOUS
 10
234.465653305
 20
150.7021775288
 11
234.4643416646
 21
150.892006882
  0
LINE
  5
314
100
AcDbEntity
  8
KONSTRUKTIONSELEMENTE
100
AcDbLine
 62
7
  6
CONTINUOUS
 10
234.4662174714
 20
150.5180187087
 11
234.465653305
 21
150.7331678313
  0
LINE
  5
315
100
AcDbEntity
  8
KONSTRUKTIONSELEMENTE
100
AcDbLine
 62
7
  6
CONTINUOUS
 10
234.4670046032
 20
149.7432439369
 11
234.465653305
 21
150.1900438931
  0
LINE
  5
316
100
AcDbEntity
  8
KONSTRUKTIONSELEMENTE
100
AcDbLine
 62
7
  6
CONTINUOUS
 10
221.915653305
 20
173.1890985252
 11
221.915653305
 21
224.9390985252
  0
LINE
  5
317
100
AcDbEntity
  8
0
100
AcDbLine
 62
7
  6
CONTINUOUS
 10
222.6106527089
 20
101.9659068932
 11
222.6106527089
 21
99.5722899337
  0
LINE
  5
318
100
AcDbEntity
  8
0
100
AcDbLine
 62
7
  6
CONTINUOUS
 10
223.5481527089
 20
99.5722899337
 11
223.5481527089
 21
101.9659068932
  0
LINE
  5
319
100
AcDbEntity
  8
KONSTRUKTIONSELEMENTE
100
AcDbLine
 62
7
  6
CONTINUOUS
 10
228.740653305
 20
128.9578607908
 11
228.740653305
 21
161.478710266
  0
LINE
  5
31A
100
AcDbEntity
  8
KONSTRUKTIONSELEMENTE
100
AcDbLine
 62
7
  6
CONTINUOUS
 10
234.465653305
 20
143.2890985252
 11
234.465653305
 21
148.7621250961
  0
LINE
  5
31B
100
AcDbEntity
  8
KONSTRUKTIONSELEMENTE
100
AcDbLine
 62
7
  6
CONTINUOUS
 10
234.465653305
 20
149.7315539345
 11
234.4653924262
 21
151.0058347594
  0
LINE
  5
31C
100
AcDbEntity
  8
0
100
AcDbLine
 62
7
  6
CONTINUOUS
 10
206.8670225536
 20
105.8664039108
 11
207.9089116196
 21
111.7752504288
  0
LINE
  5
31D
100
AcDbEntity
  8
0
100
AcDbLine
 62
7
  6
CONTINUOUS
 10
215.891903305
 20
98.7744176884
 11
216.048153603
 21
99.5722899337
  0
LINE
  5
31E
100
AcDbEntity
  8
0
100
AcDbLine
 62
7
  6
CONTINUOUS
 10
171.1728782745
 20
93.8310437802
 11
170.9857906128
 21
93.4523780139
  0
LINE
  5
31F
100
AcDbEntity
  8
0
100
AcDbLine
 62
7
  6
CONTINUOUS
 10
183.783258617
 20
97.1780447783
 11
183.970346289
 21
97.5567104859
  0
LINE
  5
320
100
AcDbEntity
  8
0
100
AcDbLine
 62
7
  6
CONTINUOUS
 10
186.5583104707
 20
116.4563777985
 11
189.4663977499
 21
122.2890985252
  0
LINE
  5
321
100
AcDbEntity
  8
0
100
AcDbLine
 62
7
  6
CONTINUOUS
 10
168.6630601436
 20
96.0674930405
 11
168.461193905
 21
95.7726407487
  0
LINE
  5
322
100
AcDbEntity
  8
0
100
AcDbLine
 62
7
  6
CONTINUOUS
 10
170.898689889
 20
94.9061476767
 11
171.1005561276
 21
95.2009999685
  0
LINE
  5
323
100
AcDbEntity
  8
BEZUGSACHSEN
100
AcDbLine
 62
7
  6
CONTINUOUS
 10
131.415582815
 20
77.8863137801
 11
130.4430131437
 21
76.9137441088
  0
LWPOLYLINE
  5
324
100
AcDbEntity
  8
KONSTRUKTIONSELEMENTE
100
AcDbPolyline
 62
7
  6
CONTINUOUS
 90
12
 70
0
 10
199.9956727391
 20
164.2886477796
 10
199.5491235668
 20
164.0083136256
 10
198.294979085
 20
163.0993428292
 10
197.137158067
 20
162.0704853719
 10
196.0870744636
 20
160.9318843342
 10
195.1550801307
 20
159.6947647318
 10
194.3503626491
 20
158.3713227073
 10
193.6808549333
 20
156.9746056017
 10
193.1531567985
 20
155.5183830169
 10
192.7724699972
 20
154.0170112834
 10
192.5425468691
 20
152.4852918944
 10
192.465653305
 20
150.9383249075
  0
LINE
  5
325
100
AcDbEntity
  8
BEZUGSACHSEN
100
AcDbLine
 62
7
  6
CONTINUOUS
 10
189.7749934076
 20
154.0013640946
 11
128.9318528104
 21
123.0002355332
  0
LWPOLYLINE
  5
326
100
AcDbEntity
  8
KONSTRUKTIONSELEMENTE
100
AcDbPolyline
 62
7
  6
CONTINUOUS
 90
12
 70
0
 10
234.3928773666
 20
158.7072469984
 10
234.3185538599
 20
159.1181332813
 10
234.1366466406
 20
159.7103492885
 10
233.8850799798
 20
160.2777345528
 10
233.5672033223
 20
160.8118442491
 10
233.1874578438
 20
161.3046852493
 10
232.7512949792
 20
161.748890714
 10
232.2650780605
 20
162.1378561999
 10
231.7359761435
 20
162.4658513897
 10
231.1718343223
 20
162.7281242671
 10
230.5811551018
 20
162.9209511597
 10
230.4571894792
 20
162.9494895463
  0
LINE
  5
327
100
AcDbEntity
  8
0
100
AcDbLine
 62
7
  6
CONTINUOUS
 10
223.391903305
 20
98.7744176884
 11
223.5481527089
 21
99.5722899337
  0
LINE
  5
328
100
AcDbEntity
  8
0
100
AcDbLine
 62
7
  6
CONTINUOUS
 10
215.110653603
 20
99.5722899337
 11
214.954403305
 21
98.9339921375
  0
LINE
  5
329
100
AcDbEntity
  8
0
100
AcDbLine
 62
7
  6
CONTINUOUS
 10
222.6106527089
 20
99.5722899337
 11
222.454403305
 21
98.9339921375
  0
LINE
  5
32A
100
AcDbEntity
  8
0
100
AcDbLine
 62
7
  6
CONTINUOUS
 10
208.0794031559
 20
102.2850557913
 11
207.923153305
 21
101.8063324441
  0
LINE
  5
32B
100
AcDbEntity
  8
0
100
AcDbLine
 62
7
  6
CONTINUOUS
 10
208.860653305
 20
101.6467579951
 11
209.0169031559
 21
102.1254813422
  0
LINE
  5
32C
100
AcDbEntity
  8
0
100
AcDbLine
 62
7
  6
CONTINUOUS
 10
171.2911068224
 20
93.1605363658
 11
171.4929730559
 21
93.455388687
  0
LINE
  5
32D
100
AcDbEntity
  8
0
100
AcDbLine
 62
7
  6
CONTINUOUS
 10
183.463163846
 20
97.5536998128
 11
183.3285851013
 21
97.3571313975
  0
LINE
  5
32E
100
AcDbEntity
  8
0
100
AcDbLine
 62
7
  6
CONTINUOUS
 10
168.9010879149
 20
95.6773673797
 11
169.1850211532
 21
95.9866902978
  0
LINE
  5
32F
100
AcDbEntity
  8
0
100
AcDbLine
 62
7
  6
CONTINUOUS
 10
168.958631516
 20
94.3912244898
 11
168.6746982777
 21
94.0819015717
  0
LINE
  5
330
100
AcDbEntity
  8
0
100
AcDbLine
 62
7
  6
CONTINUOUS
 10
170.6606621176
 20
95.2962733376
 11
170.3767288793
 21
94.9869504195
  0
LINE
  5
331
100
AcDbEntity
  8
RUNDUNGEN
100
AcDbLine
 62
7
  6
CONTINUOUS
 10
175.4739667261
 20
133.2467121949
 11
153.2859318251
 21
121.9413437385
  0
LINE
  5
332
100
AcDbEntity
  8
0
100
AcDbLine
 62
7
  6
CONTINUOUS
 10
258.465653305
 20
331.4890985252
 11
258.465653305
 21
261.4890985252
  0
LINE
  5
333
100
AcDbEntity
  8
0
100
AcDbLine
 62
7
  6
CONTINUOUS
 10
215.579403603
 20
98.1361197804
 11
215.891903305
 21
98.7744176884
  0
LINE
  5
334
100
AcDbEntity
  8
0
100
AcDbLine
 62
7
  6
CONTINUOUS
 10
223.0794027089
 20
98.1361197804
 11
223.391903305
 21
98.7744176884
  0
LINE
  5
335
100
AcDbEntity
  8
0
100
AcDbLine
 62
7
  6
CONTINUOUS
 10
208.391903305
 20
101.0084601988
 11
208.860653305
 21
101.6467579951
  0
LINE
  5
336
100
AcDbEntity
  8
0
100
AcDbLine
 62
7
  6
CONTINUOUS
 10
183.4993244395
 20
96.8687216946
 11
183.783258617
 21
97.1780447783
  0
LINE
  5
337
100
AcDbEntity
  8
RUNDUNGEN
100
AcDbLine
 62
7
  6
CONTINUOUS
 10
146.4882714943
 20
52.6644309697
 11
145.5157300049
 21
51.6918894803
  0
LINE
  5
338
100
AcDbEntity
  8
0
100
AcDbLine
 62
7
  6
CONTINUOUS
 10
169.0290613208
 20
96.3912867505
 11
168.6630601436
 21
96.0674930405
  0
LINE
  5
339
100
AcDbEntity
  8
0
100
AcDbLine
 62
7
  6
CONTINUOUS
 10
170.9251065883
 20
92.8367427994
 11
171.2911068224
 21
93.1605363658
  0
LINE
  5
33A
100
AcDbEntity
  8
0
100
AcDbLine
 62
7
  6
CONTINUOUS
 10
169.107987888
 20
94.5039793237
 11
168.958631516
 21
94.3912244898
  0
LINE
  5
33B
100
AcDbEntity
  8
0
100
AcDbLine
 62
7
  6
CONTINUOUS
 10
169.1818807208
 20
94.0849122448
 11
169.4805925256
 21
94.310421747
  0
LINE
  5
33C
100
AcDbEntity
  8
0
100
AcDbLine
 62
7
  6
CONTINUOUS
 10
170.7493335169
 20
94.7933928428
 11
170.898689889
 21
94.9061476767
  0
LINE
  5
33D
100
AcDbEntity
  8
0
100
AcDbLine
 62
7
  6
CONTINUOUS
 10
170.9857906128
 20
93.4523780139
 11
170.687078808
 21
93.2268685116
  0
LINE
  5
33E
100
AcDbEntity
  8
BEZUGSACHSEN
100
AcDbLine
 62
7
  6
CONTINUOUS
 10
282.1187739584
 20
50.2814984007
 11
283.8052332529
 21
38.2817169983
  0
LINE
  5
33F
100
AcDbEntity
  8
BEZUGSACHSEN
100
AcDbLine
 62
7
  6
CONTINUOUS
 10
279.715653305
 20
75.1577421214
 11
279.715653305
 21
71.2036627751
  0
LINE
  5
340
100
AcDbEntity
  8
RUNDUNGEN
100
AcDbLine
 62
7
  6
CONTINUOUS
 10
279.715653305
 20
75.1577421214
 11
279.715653305
 21
69.8187226265
  0
LINE
  5
341
100
AcDbEntity
  8
BEZUGSACHSEN
100
AcDbLine
 62
7
  6
CONTINUOUS
 10
279.715653305
 20
69.8187226265
 11
279.715653305
 21
54.420454929
  0
LINE
  5
342
100
AcDbEntity
  8
0
100
AcDbLine
 62
7
  6
CONTINUOUS
 10
280.465653305
 20
331.4890985252
 11
280.465653305
 21
261.4890985252
  0
LINE
  5
343
100
AcDbEntity
  8
0
100
AcDbLine
 62
7
  6
CONTINUOUS
 10
214.954403305
 20
98.9339921375
 11
214.641903603
 21
98.4552687903
  0
LINE
  5
344
100
AcDbEntity
  8
0
100
AcDbLine
 62
7
  6
CONTINUOUS
 10
222.454403305
 20
98.9339921375
 11
222.1419027089
 21
98.4552687903
  0
LINE
  5
345
100
AcDbEntity
  8
0
100
AcDbLine
 62
7
  6
CONTINUOUS
 10
207.923153305
 20
101.8063324441
 11
207.6106531559
 21
101.487183546
  0
LINE
  5
346
100
AcDbEntity
  8
0
100
AcDbLine
 62
7
  6
CONTINUOUS
 10
214.954403305
 20
97.4978219283
 11
215.579403603
 21
98.1361197804
  0
LINE
  5
347
100
AcDbEntity
  8
0
100
AcDbLine
 62
7
  6
CONTINUOUS
 10
183.3285851013
 20
97.3571313975
 11
183.0971617296
 21
97.2299059373
  0
LINE
  5
348
100
AcDbEntity
  8
0
100
AcDbLine
 62
7
  6
CONTINUOUS
 10
169.1850211532
 20
95.9866902978
 11
169.4985115246
 21
96.1283863843
  0
LINE
  5
349
100
AcDbEntity
  8
0
100
AcDbLine
 62
7
  6
CONTINUOUS
 10
170.3767288793
 20
94.9869504195
 11
170.063238508
 21
94.845254333
  0
LINE
  5
34A
100
AcDbEntity
  8
0
100
AcDbLine
 62
7
  6
CONTINUOUS
 10
169.4805925256
 20
94.310421747
 11
169.794082897
 21
94.4521178335
  0
LINE
  5
34B
100
AcDbEntity
  8
0
100
AcDbLine
 62
7
  6
CONTINUOUS
 10
170.687078808
 20
93.2268685116
 11
170.3735884366
 21
93.0851724252
  0
LINE
  5
34C
100
AcDbEntity
  8
0
100
AcDbLine
 62
7
  6
CONTINUOUS
 10
169.4246186919
 20
96.5474534632
 11
169.0290613208
 21
96.3912867505
  0
LINE
  5
34D
100
AcDbEntity
  8
0
100
AcDbLine
 62
7
  6
CONTINUOUS
 10
170.5295482794
 20
92.6805759138
 11
170.9251065883
 21
92.8367427994
  0
LINE
  5
34E
100
AcDbEntity
  8
0
100
AcDbLine
 62
7
  6
CONTINUOUS
 10
183.1037670684
 20
96.7125549818
 11
183.4993244395
 21
96.8687216946
  0
LINE
  5
34F
100
AcDbEntity
  8
RUNDUNGEN
100
AcDbLine
 62
7
  6
CONTINUOUS
 10
294.1414848521
 20
84.071451844
 11
294.8125331405
 21
79.296695171
  0
LINE
  5
350
100
AcDbEntity
  8
BEZUGSACHSEN
100
AcDbLine
 62
7
  6
CONTINUOUS
 10
294.1414848521
 20
84.071451844
 11
294.8125331405
 21
79.296695171
  0
LINE
  5
351
100
AcDbEntity
  8
BEZUGSACHSEN
100
AcDbLine
 62
7
  6
CONTINUOUS
 10
283.865653305
 20
37.4176703727
 11
283.865653305
 21
22.4465776532
  0
LINE
  5
352
100
AcDbEntity
  8
RUNDUNGEN
100
AcDbLine
 62
7
  6
CONTINUOUS
 10
283.865653305
 20
74.9087387344
 11
283.865653305
 21
80.4521206532
  0
LINE
  5
353
100
AcDbEntity
  8
BEZUGSACHSEN
100
AcDbLine
 62
7
  6
CONTINUOUS
 10
283.865653305
 20
74.9087387344
 11
283.865653305
 21
107.1316193972
  0
LINE
  5
354
100
AcDbEntity
  8
RUNDUNGEN
100
AcDbLine
 62
7
  6
CONTINUOUS
 10
293.065653305
 20
107.1316193972
 11
293.065653305
 21
74.9089060029
  0
LINE
  5
355
100
AcDbEntity
  8
BEZUGSACHSEN
100
AcDbLine
 62
7
  6
CONTINUOUS
 10
293.065653305
 20
107.1316193972
 11
293.065653305
 21
74.9089060029
  0
LINE
  5
356
100
AcDbEntity
  8
RUNDUNGEN
100
AcDbLine
 62
7
  6
CONTINUOUS
 10
293.065653305
 20
37.4176720507
 11
293.065653305
 21
22.4465776532
  0
LINE
  5
357
100
AcDbEntity
  8
BEZUGSACHSEN
100
AcDbLine
 62
7
  6
CONTINUOUS
 10
297.215653305
 20
75.1577421214
 11
297.215653305
 21
71.2036627751
  0
LINE
  5
358
100
AcDbEntity
  8
RUNDUNGEN
100
AcDbLine
 62
7
  6
CONTINUOUS
 10
297.215653305
 20
75.1577421214
 11
297.215653305
 21
54.420454929
  0
LINE
  5
359
100
AcDbEntity
  8
0
100
AcDbLine
 62
7
  6
CONTINUOUS
 10
222.454403305
 20
97.4978219283
 11
223.0794027089
 21
98.1361197804
  0
LINE
  5
35A
100
AcDbEntity
  8
0
100
AcDbLine
 62
7
  6
CONTINUOUS
 10
214.641903603
 20
98.4552687903
 11
214.173153603
 21
98.1361197804
  0
LINE
  5
35B
100
AcDbEntity
  8
0
100
AcDbLine
 62
7
  6
CONTINUOUS
 10
222.1419027089
 20
98.4552687903
 11
221.6731527089
 21
98.1361197804
  0
LINE
  5
35C
100
AcDbEntity
  8
0
100
AcDbLine
 62
7
  6
CONTINUOUS
 10
207.766903454
 20
100.6893113007
 11
208.391903305
 21
101.0084601988
  0
LINE
  5
35D
100
AcDbEntity
  8
0
100
AcDbLine
 62
7
  6
CONTINUOUS
 10
214.3294030069
 20
97.1786729883
 11
214.954403305
 21
97.4978219283
  0
LINE
  5
35E
100
AcDbEntity
  8
0
100
AcDbLine
 62
7
  6
CONTINUOUS
 10
221.829403901
 20
97.1786729883
 11
222.454403305
 21
97.4978219283
  0
LINE
  5
35F
100
AcDbEntity
  8
0
100
AcDbLine
 62
7
  6
CONTINUOUS
 10
207.6106531559
 20
101.487183546
 11
207.1419031559
 21
101.3276090969
  0
LINE
  5
360
100
AcDbEntity
  8
BEZUGSACHSEN
100
AcDbLine
 62
7
  6
CONTINUOUS
 10
282.7753518843
 20
83.9684933444
 11
282.1187734694
 21
79.296695171
  0
LINE
  5
361
100
AcDbEntity
  8
BEZUGSACHSEN
100
AcDbLine
 62
7
  6
CONTINUOUS
 10
274.9564228581
 20
117.9063526668
 11
266.5908902616
 21
101.4880705087
  0
LINE
  5
362
100
AcDbEntity
  8
RUNDUNGEN
100
AcDbLine
 62
7
  6
CONTINUOUS
 10
294.8125326516
 20
50.2814984007
 11
293.126073357
 21
38.2817169983
  0
LINE
  5
363
100
AcDbEntity
  8
BEZUGSACHSEN
100
AcDbLine
 62
7
  6
CONTINUOUS
 10
281.415582815
 20
77.8863137801
 11
280.4430131437
 21
76.9137441088
  0
LINE
  5
364
100
AcDbEntity
  8
RUNDUNGEN
100
AcDbLine
 62
7
  6
CONTINUOUS
 10
296.4882714943
 20
52.6644309697
 11
295.5157300049
 21
51.6918894803
  0
LINE
  5
365
100
AcDbEntity
  8
BEZUGSACHSEN
100
AcDbLine
 62
7
  6
CONTINUOUS
 10
422.6314270791
 20
53.6721206532
 11
418.6206666141
 21
53.6721206532
  0
LINE
  5
366
100
AcDbEntity
  8
BEZUGSACHSEN
100
AcDbLine
 62
7
  6
CONTINUOUS
 10
404.1651747719
 20
53.6721206532
 11
400.4397679
 21
53.6721206532
  0
LINE
  5
367
100
AcDbEntity
  8
BEZUGSACHSEN
100
AcDbLine
 62
7
  6
CONTINUOUS
 10
448.1198704523
 20
54.9548488692
 11
457.6086527278
 21
54.9548488692
  0
LINE
  5
368
100
AcDbEntity
  8
RUNDUNGEN
100
AcDbLine
 62
7
  6
CONTINUOUS
 10
410.2632271409
 20
55.3824249412
 11
417.296585701
 21
55.3824249412
  0
LINE
  5
369
100
AcDbEntity
  8
0
100
AcDbLine
 62
7
  6
CONTINUOUS
 10
457.3489739463
 20
55.8100010132
 11
448.2022666141
 21
55.8100010132
  0
LINE
  5
36A
100
AcDbEntity
  8
BEZUGSACHSEN
100
AcDbLine
 62
7
  6
CONTINUOUS
 10
457.3489739463
 20
55.8100010132
 11
448.2022666141
 21
55.8100010132
  0
LINE
  5
36B
100
AcDbEntity
  8
0
100
AcDbLine
 62
7
  6
CONTINUOUS
 10
458.850315717
 20
61.5390985252
 11
458.5906548594
 21
61.5390985252
  0
LINE
  5
36C
100
AcDbEntity
  8
0
100
AcDbLine
 62
7
  6
CONTINUOUS
 10
446.960585701
 20
61.5390985252
 11
446.878185701
 21
61.5390985252
  0
LINE
  5
36D
100
AcDbEntity
  8
0
100
AcDbLine
 62
7
  6
CONTINUOUS
 10
441.128585701
 20
61.5390985252
 11
423.888585701
 21
61.5390985252
  0
LINE
  5
36E
100
AcDbEntity
  8
0
100
AcDbLine
 62
7
  6
CONTINUOUS
 10
417.378985701
 20
61.5390985252
 11
417.296585701
 21
61.5390985252
  0
LINE
  5
36F
100
AcDbEntity
  8
0
100
AcDbLine
 62
7
  6
CONTINUOUS
 10
405.6665165426
 20
61.5390985252
 11
405.406855685
 21
61.5390985252
  0
LINE
  5
370
100
AcDbEntity
  8
0
100
AcDbLine
 62
7
  6
CONTINUOUS
 10
458.850315717
 20
68.0390985252
 11
458.5906548594
 21
68.0390985252
  0
LINE
  5
371
100
AcDbEntity
  8
0
100
AcDbLine
 62
7
  6
CONTINUOUS
 10
446.960585701
 20
68.0390985252
 11
446.878185701
 21
68.0390985252
  0
LINE
  5
372
100
AcDbEntity
  8
0
100
AcDbLine
 62
7
  6
CONTINUOUS
 10
441.128585701
 20
68.0390985252
 11
423.888585701
 21
68.0390985252
  0
LINE
  5
373
100
AcDbEntity
  8
0
100
AcDbLine
 62
7
  6
CONTINUOUS
 10
417.378985701
 20
68.0390985252
 11
417.296585701
 21
68.0390985252
  0
LINE
  5
374
100
AcDbEntity
  8
0
100
AcDbLine
 62
7
  6
CONTINUOUS
 10
405.6665165426
 20
68.0390985252
 11
405.406855685
 21
68.0390985252
  0
LINE
  5
375
100
AcDbEntity
  8
0
100
AcDbLine
 62
7
  6
CONTINUOUS
 10
406.9081974557
 20
73.7681960372
 11
416.0549047879
 21
73.7681960372
  0
LINE
  5
376
100
AcDbEntity
  8
RUNDUNGEN
100
AcDbLine
 62
7
  6
CONTINUOUS
 10
453.9939442641
 20
74.1957721092
 11
446.960585701
 21
74.1957721092
  0
LINE
  5
377
100
AcDbEntity
  8
BEZUGSACHSEN
100
AcDbLine
 62
7
  6
CONTINUOUS
 10
453.9939442641
 20
74.1957721092
 11
446.960585701
 21
74.1957721092
  0
LINE
  5
378
100
AcDbEntity
  8
BEZUGSACHSEN
100
AcDbLine
 62
7
  6
CONTINUOUS
 10
416.137300952
 20
74.6233481812
 11
406.6485186737
 21
74.6233481812
  0
LINE
  5
379
100
AcDbEntity
  8
BEZUGSACHSEN
100
AcDbLine
 62
7
  6
CONTINUOUS
 10
442.3857443229
 20
75.9060763972
 11
445.6365047879
 21
75.9060763972
  0
LINE
  5
37A
100
AcDbEntity
  8
BEZUGSACHSEN
100
AcDbLine
 62
7
  6
CONTINUOUS
 10
460.0919966301
 20
75.9060763972
 11
463.561403502
 21
75.9060763972
  0
LINE
  5
37B
100
AcDbEntity
  8
KONSTRUKTIONSELEMENTE
100
AcDbLine
 62
7
  6
CONTINUOUS
 10
428.488585701
 20
82.591082885
 11
435.768585701
 21
82.591082885
  0
LINE
  5
37C
100
AcDbEntity
  8
KONSTRUKTIONSELEMENTE
100
AcDbLine
 62
7
  6
CONTINUOUS
 10
428.088585701
 20
82.8739255975
 11
428.488585701
 21
82.8739255975
  0
LINE
  5
37D
100
AcDbEntity
  8
KONSTRUKTIONSELEMENTE
100
AcDbLine
 62
7
  6
CONTINUOUS
 10
435.768585701
 20
82.8739255975
 11
436.168585701
 21
82.8739255975
  0
LINE
  5
37E
100
AcDbEntity
  8
BEZUGSACHSEN
100
AcDbLine
 62
7
  6
CONTINUOUS
 10
422.128585701
 20
83.2890985252
 11
427.0579614056
 21
83.2890985252
  0
LINE
  5
37F
100
AcDbEntity
  8
BEZUGSACHSEN
100
AcDbLine
 62
7
  6
CONTINUOUS
 10
437.1992099964
 20
83.2890985252
 11
442.128585701
 21
83.2890985252
  0
LINE
  5
380
100
AcDbEntity
  8
KONSTRUKTIONSELEMENTE
100
AcDbLine
 62
7
  6
CONTINUOUS
 10
428.088585701
 20
85.1366672973
 11
428.488585701
 21
85.1366672973
  0
LINE
  5
381
100
AcDbEntity
  8
KONSTRUKTIONSELEMENTE
100
AcDbLine
 62
7
  6
CONTINUOUS
 10
435.768585701
 20
85.1366672973
 11
436.168585701
 21
85.1366672973
  0
LINE
  5
382
100
AcDbEntity
  8
KONSTRUKTIONSELEMENTE
100
AcDbLine
 62
7
  6
CONTINUOUS
 10
428.488585701
 20
85.4195100098
 11
435.768585701
 21
85.4195100098
  0
LINE
  5
383
100
AcDbEntity
  8
KONSTRUKTIONSELEMENTE
100
AcDbLine
 62
7
  6
CONTINUOUS
 10
453.9694547926
 20
93.904791384
 11
439.0233507382
 21
93.904791384
  0
LINE
  5
384
100
AcDbEntity
  8
KONSTRUKTIONSELEMENTE
100
AcDbLine
 62
7
  6
CONTINUOUS
 10
425.2338206638
 20
93.904791384
 11
421.3214957991
 21
93.904791384
  0
LINE
  5
385
100
AcDbEntity
  8
KONSTRUKTIONSELEMENTE
100
AcDbLine
 62
7
  6
CONTINUOUS
 10
440.568585701
 20
96.4503757963
 11
438.968585701
 21
96.4503757963
  0
LINE
  5
386
100
AcDbEntity
  8
KONSTRUKTIONSELEMENTE
100
AcDbLine
 62
7
  6
CONTINUOUS
 10
425.288585701
 20
96.4503757963
 11
423.688585701
 21
96.4503757963
  0
LINE
  5
387
100
AcDbEntity
  8
KONSTRUKTIONSELEMENTE
100
AcDbLine
 62
7
  6
CONTINUOUS
 10
421.3214957991
 20
96.7332185088
 11
425.288585701
 21
96.7332185088
  0
LINE
  5
388
100
AcDbEntity
  8
KONSTRUKTIONSELEMENTE
100
AcDbLine
 62
7
  6
CONTINUOUS
 10
438.968585701
 20
96.7332185088
 11
453.9694547926
 21
96.7332185088
  0
LINE
  5
389
100
AcDbEntity
  8
RUNDUNGEN
100
AcDbLine
 62
7
  6
CONTINUOUS
 10
399.410963815
 20
54.2063571114
 11
396.4308989923
 21
58.4623307481
  0
LINE
  5
38A
100
AcDbEntity
  8
BEZUGSACHSEN
100
AcDbLine
 62
7
  6
CONTINUOUS
 10
399.410963815
 20
54.2063571114
 11
396.4308989923
 21
58.4623307481
  0
LINE
  5
38B
100
AcDbEntity
  8
KONSTRUKTIONSELEMENTE
100
AcDbLine
 62
7
  6
CONTINUOUS
 10
457.5928676333
 20
99.0328062796
 11
452.5175440259
 21
100.7062892165
  0
LINE
  5
38C
100
AcDbEntity
  8
KONSTRUKTIONSELEMENTE
100
AcDbLine
 62
7
  6
CONTINUOUS
 10
398.1642952714
 20
125.4389045088
 11
397.9952479667
 21
125.4124043492
  0
LINE
  5
38D
100
AcDbEntity
  8
KONSTRUKTIONSELEMENTE
100
AcDbLine
 62
7
  6
CONTINUOUS
 10
401.578585701
 20
122.4890985252
 11
403.0836546292
 21
122.4890985252
  0
LINE
  5
38E
100
AcDbEntity
  8
KONSTRUKTIONSELEMENTE
100
AcDbLine
 62
7
  6
CONTINUOUS
 10
464.3341242271
 20
122.4890985252
 11
475.578585701
 21
122.4890985252
  0
LINE
  5
38F
100
AcDbEntity
  8
KONSTRUKTIONSELEMENTE
100
AcDbLine
 62
7
  6
CONTINUOUS
 10
401.578585701
 20
126.3890985252
 11
401.3120685108
 21
126.3890985252
  0
LINE
  5
390
100
AcDbEntity
  8
KONSTRUKTIONSELEMENTE
100
AcDbLine
 62
7
  6
CONTINUOUS
 10
397.3511585787
 20
126.3890985252
 11
396.378585701
 21
126.3890985252
  0
LINE
  5
391
100
AcDbEntity
  8
KONSTRUKTIONSELEMENTE
100
AcDbLine
 62
7
  6
CONTINUOUS
 10
399.6150965528
 20
133.1440966747
 11
396.378585701
 21
133.1440966747
  0
LINE
  5
392
100
AcDbEntity
  8
KONSTRUKTIONSELEMENTE
100
AcDbLine
 62
7
  6
CONTINUOUS
 10
469.9294164096
 20
124.2811450325
 11
475.004740017
 21
122.6076620956
  0
LINE
  5
393
100
AcDbEntity
  8
KONSTRUKTIONSELEMENTE
100
AcDbLine
 62
7
  6
CONTINUOUS
 10
469.9294164096
 20
127.1095721572
 11
475.004740017
 21
125.4360892203
  0
LINE
  5
394
100
AcDbEntity
  8
KONSTRUKTIONSELEMENTE
100
AcDbLine
 62
7
  6
CONTINUOUS
 10
397.319058748
 20
126.4377745605
 11
397.9952479667
 21
125.4124043492
  0
LINE
  5
395
100
AcDbEntity
  8
KONSTRUKTIONSELEMENTE
100
AcDbLine
 62
7
  6
CONTINUOUS
 10
402.5426204631
 20
118.5167896783
 11
417.6962646509
 21
95.5378735538
  0
LINE
  5
396
100
AcDbEntity
  8
KONSTRUKTIONSELEMENTE
100
AcDbLine
 62
7
  6
CONTINUOUS
 10
402.5426204631
 20
118.7996323907
 11
402.3735731584
 21
119.0559749435
  0
LINE
  5
397
100
AcDbEntity
  8
KONSTRUKTIONSELEMENTE
100
AcDbLine
 62
7
  6
CONTINUOUS
 10
402.5426204631
 20
121.0623740905
 11
402.3735731584
 21
121.3187166433
  0
LINE
  5
398
100
AcDbEntity
  8
KONSTRUKTIONSELEMENTE
100
AcDbLine
 62
7
  6
CONTINUOUS
 10
397.319058748
 20
129.2662016852
 11
397.9952479667
 21
128.2408314739
  0
LINE
  5
399
100
AcDbEntity
  8
KONSTRUKTIONSELEMENTE
100
AcDbLine
 62
7
  6
CONTINUOUS
 10
402.5426204631
 20
121.345216803
 11
417.6962646509
 21
98.3663006786
  0
LINE
  5
39A
100
AcDbEntity
  8
KONSTRUKTIONSELEMENTE
100
AcDbLine
 62
7
  6
CONTINUOUS
 10
406.2879210837
 20
123.5456390834
 11
404.5128247767
 21
126.2373869326
  0
LINE
  5
39B
100
AcDbEntity
  8
KONSTRUKTIONSELEMENTE
100
AcDbLine
 62
7
  6
CONTINUOUS
 10
407.835848386
 20
123.7439536769
 11
407.1596591672
 21
124.7693238882
  0
LINE
  5
39C
100
AcDbEntity
  8
KONSTRUKTIONSELEMENTE
100
AcDbLine
 62
7
  6
CONTINUOUS
 10
404.5128247767
 20
129.0658140573
 11
407.835848386
 21
124.0267963893
  0
LINE
  5
39D
100
AcDbEntity
  8
KONSTRUKTIONSELEMENTE
100
AcDbLine
 62
7
  6
CONTINUOUS
 10
401.578585701
 20
153.0588227007
 11
396.378585701
 21
153.0588227007
  0
LINE
  5
39E
100
AcDbEntity
  8
BEZUGSACHSEN
100
AcDbLine
 62
7
  6
CONTINUOUS
 10
418.478585701
 20
153.6890985252
 11
422.128585701
 21
153.6890985252
  0
LINE
  5
39F
100
AcDbEntity
  8
BEZUGSACHSEN
100
AcDbLine
 62
7
  6
CONTINUOUS
 10
442.128585701
 20
153.6890985252
 11
445.778585701
 21
153.6890985252
  0
LINE
  5
3A0
100
AcDbEntity
  8
BEZUGSACHSEN
100
AcDbLine
 62
7
  6
CONTINUOUS
 10
422.128585701
 20
154.0013640946
 11
424.128585701
 21
154.0013640946
  0
LINE
  5
3A1
100
AcDbEntity
  8
BEZUGSACHSEN
100
AcDbLine
 62
7
  6
CONTINUOUS
 10
428.628585701
 20
154.0013640946
 11
435.628585701
 21
154.0013640946
  0
LINE
  5
3A2
100
AcDbEntity
  8
BEZUGSACHSEN
100
AcDbLine
 62
7
  6
CONTINUOUS
 10
440.128585701
 20
154.0013640946
 11
442.128585701
 21
154.0013640946
  0
LINE
  5
3A3
100
AcDbEntity
  8
KONSTRUKTIONSELEMENTE
100
AcDbLine
 62
7
  6
CONTINUOUS
 10
438.8904778889
 20
141.6351528998
 11
474.0664324232
 21
130.036609781
  0
LINE
  5
3A4
100
AcDbEntity
  8
KONSTRUKTIONSELEMENTE
100
AcDbLine
 62
7
  6
CONTINUOUS
 10
397.9952479667
 20
128.2408314739
 11
398.1642952714
 21
127.7016462086
  0
LINE
  5
3A5
100
AcDbEntity
  8
KONSTRUKTIONSELEMENTE
100
AcDbLine
 62
7
  6
CONTINUOUS
 10
475.578585701
 20
159.2657029735
 11
472.2885585652
 21
159.2657236938
  0
LINE
  5
3A6
100
AcDbEntity
  8
KONSTRUKTIONSELEMENTE
100
AcDbLine
 62
7
  6
CONTINUOUS
 10
401.578585701
 20
160.1890985252
 11
396.378585701
 21
160.1890985252
  0
LINE
  5
3A7
100
AcDbEntity
  8
KONSTRUKTIONSELEMENTE
100
AcDbLine
 62
7
  6
CONTINUOUS
 10
475.578585701
 20
162.7890985252
 11
472.2885572644
 21
162.7890985252
  0
LINE
  5
3A8
100
AcDbEntity
  8
BEZUGSACHSEN
100
AcDbLine
 62
7
  6
CONTINUOUS
 10
422.128585701
 20
169.2890985252
 11
429.878585701
 21
169.2890985252
  0
LINE
  5
3A9
100
AcDbEntity
  8
BEZUGSACHSEN
100
AcDbLine
 62
7
  6
CONTINUOUS
 10
434.378585701
 20
169.2890985252
 11
442.128585701
 21
169.2890985252
  0
LINE
  5
3AA
100
AcDbEntity
  8
RUNDUNGEN
100
AcDbLine
 62
7
  6
CONTINUOUS
 10
464.590207587
 20
75.371839939
 11
467.5702724098
 21
71.1158663024
  0
LINE
  5
3AB
100
AcDbEntity
  8
0
100
AcDbLine
 62
7
  6
CONTINUOUS
 10
395.872585701
 20
71.2643346724
 11
395.872585701
 21
68.5141412645
  0
LINE
  5
3AC
100
AcDbEntity
  8
BEZUGSACHSEN
100
AcDbLine
 62
7
  6
CONTINUOUS
 10
395.872585701
 20
71.2643346724
 11
395.872585701
 21
68.5141412645
  0
LINE
  5
3AD
100
AcDbEntity
  8
0
100
AcDbLine
 62
7
  6
CONTINUOUS
 10
395.872585701
 20
61.064055786
 11
395.872585701
 21
60.2330742807
  0
LINE
  5
3AE
100
AcDbEntity
  8
BEZUGSACHSEN
100
AcDbLine
 62
7
  6
CONTINUOUS
 10
395.872585701
 20
61.064055786
 11
395.872585701
 21
60.2330742807
  0
LINE
  5
3AF
100
AcDbEntity
  8
KONSTRUKTIONSELEMENTE
100
AcDbLine
 62
7
  6
CONTINUOUS
 10
396.378585701
 20
126.3890985252
 11
396.378585701
 21
160.1890985252
  0
LINE
  5
3B0
100
AcDbEntity
  8
KONSTRUKTIONSELEMENTE
100
AcDbLine
 62
7
  6
CONTINUOUS
 10
396.9442898961
 20
130.4615466401
 11
396.9442898961
 21
127.6331195154
  0
LINE
  5
3B1
100
AcDbEntity
  8
KONSTRUKTIONSELEMENTE
100
AcDbLine
 62
7
  6
CONTINUOUS
 10
401.578585701
 20
126.4769770537
 11
401.578585701
 21
122.4890985252
  0
LINE
  5
3B2
100
AcDbEntity
  8
KONSTRUKTIONSELEMENTE
100
AcDbLine
 62
7
  6
CONTINUOUS
 10
401.578585701
 20
133.7915165913
 11
401.578585701
 21
203.4890985252
  0
LINE
  5
3B3
100
AcDbEntity
  8
KONSTRUKTIONSELEMENTE
100
AcDbLine
 62
7
  6
CONTINUOUS
 10
402.2611425028
 20
121.6773201298
 11
402.2611425028
 21
119.41457843
  0
LINE
  5
3B4
100
AcDbEntity
  8
KONSTRUKTIONSELEMENTE
100
AcDbLine
 62
7
  6
CONTINUOUS
 10
402.5426204631
 20
121.345216803
 11
402.5426204631
 21
121.0623740905
  0
LINE
  5
3B5
100
AcDbEntity
  8
KONSTRUKTIONSELEMENTE
100
AcDbLine
 62
7
  6
CONTINUOUS
 10
402.5426204631
 20
118.5167896783
 11
402.5426204631
 21
118.7996323907
  0
LINE
  5
3B6
100
AcDbEntity
  8
RUNDUNGEN
100
AcDbLine
 62
7
  6
CONTINUOUS
 10
403.288585701
 20
49.1634260972
 11
403.288585701
 21
49.1260763972
  0
LINE
  5
3B7
100
AcDbEntity
  8
RUNDUNGEN
100
AcDbLine
 62
7
  6
CONTINUOUS
 10
405.406855685
 20
73.3816672681
 11
405.406855685
 21
54.9138341642
  0
LINE
  5
3B8
100
AcDbEntity
  8
BEZUGSACHSEN
100
AcDbLine
 62
7
  6
CONTINUOUS
 10
405.406855685
 20
73.3816672681
 11
405.406855685
 21
54.9138341642
  0
LINE
  5
3B9
100
AcDbEntity
  8
BEZUGSACHSEN
100
AcDbLine
 62
7
  6
CONTINUOUS
 10
405.6665165426
 20
59.1464530298
 11
405.6665165426
 21
63.2768438908
  0
LINE
  5
3BA
100
AcDbEntity
  8
BEZUGSACHSEN
100
AcDbLine
 62
7
  6
CONTINUOUS
 10
405.6665165426
 20
66.3013531597
 11
405.6665165426
 21
71.9718868003
  0
LINE
  5
3BB
100
AcDbEntity
  8
RUNDUNGEN
100
AcDbLine
 62
7
  6
CONTINUOUS
 10
405.6665165426
 20
71.9718577238
 11
405.6665165426
 21
72.5264871112
  0
LINE
  5
3BC
100
AcDbEntity
  8
RUNDUNGEN
100
AcDbLine
 62
7
  6
CONTINUOUS
 10
417.296585701
 20
72.5264871222
 11
417.296585701
 21
71.9718851083
  0
LINE
  5
3BD
100
AcDbEntity
  8
0
100
AcDbLine
 62
7
  6
CONTINUOUS
 10
417.296585701
 20
55.3824249412
 11
417.296585701
 21
49.1260763972
  0
LINE
  5
3BE
100
AcDbEntity
  8
BEZUGSACHSEN
100
AcDbLine
 62
7
  6
CONTINUOUS
 10
417.296585701
 20
55.3824249412
 11
417.296585701
 21
63.2768438908
  0
LINE
  5
3BF
100
AcDbEntity
  8
BEZUGSACHSEN
100
AcDbLine
 62
7
  6
CONTINUOUS
 10
417.296585701
 20
66.3013531597
 11
417.296585701
 21
71.9718851083
  0
LINE
  5
3C0
100
AcDbEntity
  8
RUNDUNGEN
100
AcDbLine
 62
7
  6
CONTINUOUS
 10
417.378985701
 20
54.9138341642
 11
417.378985701
 21
73.3816672681
  0
LINE
  5
3C1
100
AcDbEntity
  8
BEZUGSACHSEN
100
AcDbLine
 62
7
  6
CONTINUOUS
 10
417.378985701
 20
54.9138341642
 11
417.378985701
 21
73.3816672681
  0
LINE
  5
3C2
100
AcDbEntity
  8
KONSTRUKTIONSELEMENTE
100
AcDbLine
 62
7
  6
CONTINUOUS
 10
418.478585701
 20
139.363941883
 11
418.478585701
 21
203.037740808
  0
LINE
  5
3C3
100
AcDbEntity
  8
0
100
AcDbLine
 62
7
  6
CONTINUOUS
 10
421.128585701
 20
208.4144894168
 11
421.128585701
 21
387.4890985252
  0
LINE
  5
3C4
100
AcDbEntity
  8
BEZUGSACHSEN
100
AcDbLine
 62
7
  6
CONTINUOUS
 10
422.128585701
 20
93.904791384
 11
422.128585701
 21
83.2891739542
  0
LINE
  5
3C5
100
AcDbEntity
  8
BEZUGSACHSEN
100
AcDbLine
 62
7
  6
CONTINUOUS
 10
422.128585701
 20
140.5674538542
 11
422.128585701
 21
169.2888975053
  0
LINE
  5
3C6
100
AcDbEntity
  8
0
100
AcDbLine
 62
7
  6
CONTINUOUS
 10
423.888585701
 20
54.915712065
 11
423.888585701
 21
61.5390985252
  0
LINE
  5
3C7
100
AcDbEntity
  8
BEZUGSACHSEN
100
AcDbLine
 62
7
  6
CONTINUOUS
 10
423.888585701
 20
54.915712065
 11
423.888585701
 21
61.5390985252
  0
LINE
  5
3C8
100
AcDbEntity
  8
0
100
AcDbLine
 62
7
  6
CONTINUOUS
 10
423.888585701
 20
68.0390985252
 11
423.888585701
 21
75.832329597
  0
LINE
  5
3C9
100
AcDbEntity
  8
BEZUGSACHSEN
100
AcDbLine
 62
7
  6
CONTINUOUS
 10
423.888585701
 20
68.0390985252
 11
423.888585701
 21
75.832329597
  0
LINE
  5
3CA
100
AcDbEntity
  8
KONSTRUKTIONSELEMENTE
100
AcDbLine
 62
7
  6
CONTINUOUS
 10
424.128585701
 20
191.8390805783
 11
424.128585701
 21
181.2324788605
  0
LINE
  5
3CB
100
AcDbEntity
  8
KONSTRUKTIONSELEMENTE
100
AcDbLine
 62
7
  6
CONTINUOUS
 10
424.128585701
 20
160.7263822061
 11
424.128585701
 21
150.1197804883
  0
LINE
  5
3CC
100
AcDbEntity
  8
KONSTRUKTIONSELEMENTE
100
AcDbLine
 62
7
  6
CONTINUOUS
 10
426.888585701
 20
83.7224537349
 11
426.888585701
 21
94.1876340965
  0
LINE
  5
3CD
100
AcDbEntity
  8
KONSTRUKTIONSELEMENTE
100
AcDbLine
 62
7
  6
CONTINUOUS
 10
428.488585701
 20
82.591082885
 11
428.488585701
 21
82.8739255975
  0
LINE
  5
3CE
100
AcDbEntity
  8
KONSTRUKTIONSELEMENTE
100
AcDbLine
 62
7
  6
CONTINUOUS
 10
428.488585701
 20
85.1366672973
 11
428.488585701
 21
94.470476809
  0
LINE
  5
3CF
100
AcDbEntity
  8
KONSTRUKTIONSELEMENTE
100
AcDbLine
 62
7
  6
CONTINUOUS
 10
428.628585701
 20
191.8390805783
 11
428.628585701
 21
181.2324788605
  0
LINE
  5
3D0
100
AcDbEntity
  8
KONSTRUKTIONSELEMENTE
100
AcDbLine
 62
7
  6
CONTINUOUS
 10
428.628585701
 20
160.7263822061
 11
428.628585701
 21
150.1197804883
  0
LINE
  5
3D1
100
AcDbEntity
  8
KONSTRUKTIONSELEMENTE
100
AcDbLine
 62
7
  6
CONTINUOUS
 10
429.628585701
 20
208.3578086504
 11
429.628585701
 21
190.8767016923
  0
LINE
  5
3D2
100
AcDbEntity
  8
KONSTRUKTIONSELEMENTE
100
AcDbLine
 62
7
  6
CONTINUOUS
 10
429.628585701
 20
151.0821593743
 11
429.628585701
 21
133.6010524162
  0
LINE
  5
3D3
100
AcDbEntity
  8
KONSTRUKTIONSELEMENTE
100
AcDbLine
 62
7
  6
CONTINUOUS
 10
429.878585701
 20
182.0327313922
 11
429.878585701
 21
159.9261296744
  0
LINE
  5
3D4
100
AcDbEntity
  8
0
100
AcDbLine
 62
7
  6
CONTINUOUS
 10
432.128585701
 20
68.0390604443
 11
432.128585701
 21
61.5391366061
  0
LINE
  5
3D5
100
AcDbEntity
  8
KONSTRUKTIONSELEMENTE
100
AcDbLine
 62
7
  6
CONTINUOUS
 10
434.378585701
 20
182.0327313922
 11
434.378585701
 21
159.9261296744
  0
LINE
  5
3D6
100
AcDbEntity
  8
KONSTRUKTIONSELEMENTE
100
AcDbLine
 62
7
  6
CONTINUOUS
 10
434.628585701
 20
208.3578086504
 11
434.628585701
 21
190.8767016923
  0
LINE
  5
3D7
100
AcDbEntity
  8
KONSTRUKTIONSELEMENTE
100
AcDbLine
 62
7
  6
CONTINUOUS
 10
434.628585701
 20
151.0821593743
 11
434.628585701
 21
133.6010524162
  0
LINE
  5
3D8
100
AcDbEntity
  8
KONSTRUKTIONSELEMENTE
100
AcDbLine
 62
7
  6
CONTINUOUS
 10
435.628585701
 20
150.1197804883
 11
435.628585701
 21
160.7263822061
  0
LINE
  5
3D9
100
AcDbEntity
  8
KONSTRUKTIONSELEMENTE
100
AcDbLine
 62
7
  6
CONTINUOUS
 10
435.628585701
 20
181.2324788605
 11
435.628585701
 21
191.8390805783
  0
LINE
  5
3DA
100
AcDbEntity
  8
KONSTRUKTIONSELEMENTE
100
AcDbLine
 62
7
  6
CONTINUOUS
 10
435.768585701
 20
82.591082885
 11
435.768585701
 21
82.8739255975
  0
LINE
  5
3DB
100
AcDbEntity
  8
KONSTRUKTIONSELEMENTE
100
AcDbLine
 62
7
  6
CONTINUOUS
 10
435.768585701
 20
85.1366672973
 11
435.768585701
 21
94.470476809
  0
LINE
  5
3DC
100
AcDbEntity
  8
KONSTRUKTIONSELEMENTE
100
AcDbLine
 62
7
  6
CONTINUOUS
 10
437.368585701
 20
83.7224537349
 11
437.368585701
 21
94.1876340965
  0
LINE
  5
3DD
100
AcDbEntity
  8
KONSTRUKTIONSELEMENTE
100
AcDbLine
 62
7
  6
CONTINUOUS
 10
440.128585701
 20
150.1197804883
 11
440.128585701
 21
160.7263822061
  0
LINE
  5
3DE
100
AcDbEntity
  8
KONSTRUKTIONSELEMENTE
100
AcDbLine
 62
7
  6
CONTINUOUS
 10
440.128585701
 20
181.2324788605
 11
440.128585701
 21
191.8390805783
  0
LINE
  5
3DF
100
AcDbEntity
  8
0
100
AcDbLine
 62
7
  6
CONTINUOUS
 10
441.128585701
 20
74.6624849854
 11
441.128585701
 21
68.0390985252
  0
LINE
  5
3E0
100
AcDbEntity
  8
0
100
AcDbLine
 62
7
  6
CONTINUOUS
 10
441.128585701
 20
61.5390985252
 11
441.128585701
 21
52.3482789778
  0
LINE
  5
3E1
100
AcDbEntity
  8
BEZUGSACHSEN
100
AcDbLine
 62
7
  6
CONTINUOUS
 10
442.128585701
 20
169.2888975053
 11
442.128585701
 21
140.5674538542
  0
LINE
  5
3E2
100
AcDbEntity
  8
BEZUGSACHSEN
100
AcDbLine
 62
7
  6
CONTINUOUS
 10
442.128585701
 20
93.904791384
 11
442.128585701
 21
83.2891739542
  0
LINE
  5
3E3
100
AcDbEntity
  8
0
100
AcDbLine
 62
7
  6
CONTINUOUS
 10
443.128585701
 20
208.4117352129
 11
443.128585701
 21
387.4890985252
  0
LINE
  5
3E4
100
AcDbEntity
  8
KONSTRUKTIONSELEMENTE
100
AcDbLine
 62
7
  6
CONTINUOUS
 10
445.778585701
 20
139.363941883
 11
445.778585701
 21
203.0362923728
  0
LINE
  5
3E5
100
AcDbEntity
  8
RUNDUNGEN
100
AcDbLine
 62
7
  6
CONTINUOUS
 10
446.878185701
 20
74.6643628863
 11
446.878185701
 21
56.1965297823
  0
LINE
  5
3E6
100
AcDbEntity
  8
RUNDUNGEN
100
AcDbLine
 62
7
  6
CONTINUOUS
 10
446.960585701
 20
71.5952295478
 11
446.960585701
 21
66.3013531597
  0
LINE
  5
3E7
100
AcDbEntity
  8
RUNDUNGEN
100
AcDbLine
 62
7
  6
CONTINUOUS
 10
446.960585701
 20
57.0517099283
 11
446.960585701
 21
63.2768438908
  0
LINE
  5
3E8
100
AcDbEntity
  8
BEZUGSACHSEN
100
AcDbLine
 62
7
  6
CONTINUOUS
 10
446.960585701
 20
57.0517099283
 11
446.960585701
 21
63.2768438908
  0
LINE
  5
3E9
100
AcDbEntity
  8
0
100
AcDbLine
 62
7
  6
CONTINUOUS
 10
446.960585701
 20
74.1957721092
 11
446.960585701
 21
80.4521206532
  0
LINE
  5
3EA
100
AcDbEntity
  8
BEZUGSACHSEN
100
AcDbLine
 62
7
  6
CONTINUOUS
 10
446.960585701
 20
66.3013531597
 11
446.960585701
 21
80.4521206532
  0
LINE
  5
3EB
100
AcDbEntity
  8
KONSTRUKTIONSELEMENTE
100
AcDbLine
 62
7
  6
CONTINUOUS
 10
457.8238203286
 20
95.948036602
 11
457.8238203286
 21
98.7764637268
  0
LINE
  5
3EC
100
AcDbEntity
  8
RUNDUNGEN
100
AcDbLine
 62
7
  6
CONTINUOUS
 10
458.5906548594
 20
69.969155026
 11
458.5906548594
 21
66.3013531597
  0
LINE
  5
3ED
100
AcDbEntity
  8
BEZUGSACHSEN
100
AcDbLine
 62
7
  6
CONTINUOUS
 10
458.5906548594
 20
70.4317440264
 11
458.5906548594
 21
66.3013531597
  0
LINE
  5
3EE
100
AcDbEntity
  8
RUNDUNGEN
100
AcDbLine
 62
7
  6
CONTINUOUS
 10
458.5906548594
 20
63.2768438908
 11
458.5906548594
 21
57.0517099392
  0
LINE
  5
3EF
100
AcDbEntity
  8
BEZUGSACHSEN
100
AcDbLine
 62
7
  6
CONTINUOUS
 10
458.5906548594
 20
63.2768438908
 11
458.5906548594
 21
57.0517099392
  0
LINE
  5
3F0
100
AcDbEntity
  8
RUNDUNGEN
100
AcDbLine
 62
7
  6
CONTINUOUS
 10
458.850315717
 20
56.1965297823
 11
458.850315717
 21
74.6643628863
  0
LINE
  5
3F1
100
AcDbEntity
  8
RUNDUNGEN
100
AcDbLine
 62
7
  6
CONTINUOUS
 10
460.968585701
 20
80.4147709532
 11
460.968585701
 21
80.4521206532
  0
LINE
  5
3F2
100
AcDbEntity
  8
BEZUGSACHSEN
100
AcDbLine
 62
7
  6
CONTINUOUS
 10
460.968585701
 20
80.4147709532
 11
460.968585701
 21
80.4521206532
  0
LINE
  5
3F3
100
AcDbEntity
  8
KONSTRUKTIONSELEMENTE
100
AcDbLine
 62
7
  6
CONTINUOUS
 10
462.578585701
 20
133.824489522
 11
462.578585701
 21
161.4789577657
  0
LINE
  5
3F4
100
AcDbEntity
  8
KONSTRUKTIONSELEMENTE
100
AcDbLine
 62
7
  6
CONTINUOUS
 10
462.678585701
 20
173.1890985252
 11
462.678585701
 21
203.4890985252
  0
LINE
  5
3F5
100
AcDbEntity
  8
0
100
AcDbLine
 62
7
  6
CONTINUOUS
 10
468.128585701
 20
57.9017800393
 11
468.128585701
 21
61.064055786
  0
LINE
  5
3F6
100
AcDbEntity
  8
0
100
AcDbLine
 62
7
  6
CONTINUOUS
 10
468.128585701
 20
68.5141412645
 11
468.128585701
 21
69.3451227697
  0
LINE
  5
3F7
100
AcDbEntity
  8
KONSTRUKTIONSELEMENTE
100
AcDbLine
 62
7
  6
CONTINUOUS
 10
475.578585701
 20
122.8085761689
 11
475.578585701
 21
122.4890985252
  0
LINE
  5
3F8
100
AcDbEntity
  8
KONSTRUKTIONSELEMENTE
100
AcDbLine
 62
7
  6
CONTINUOUS
 10
475.578585701
 20
129.1666299561
 11
475.578585701
 21
162.7890985252
  0
LINE
  5
3F9
100
AcDbEntity
  8
KONSTRUKTIONSELEMENTE
100
AcDbLine
 62
7
  6
CONTINUOUS
 10
476.3759593763
 20
124.6447571281
 11
476.3759593763
 21
127.4731842528
  0
LINE
  5
3FA
100
AcDbEntity
  8
BEZUGSACHSEN
100
AcDbLine
 62
7
  6
CONTINUOUS
 10
411.149809607
 20
97.6274702614
 11
396.8073695701
 21
74.5404927881
  0
LINE
  5
3FB
100
AcDbEntity
  8
KONSTRUKTIONSELEMENTE
100
AcDbLine
 62
7
  6
CONTINUOUS
 10
425.3666935132
 20
141.6351528998
 11
399.2538168491
 21
133.0249721684
  0
LINE
  5
3FC
100
AcDbEntity
  8
KONSTRUKTIONSELEMENTE
100
AcDbLine
 62
7
  6
CONTINUOUS
 10
450.5827859247
 20
104.4650596996
 11
464.6137122145
 21
125.7414915839
  0
LINE
  5
3FD
100
AcDbEntity
  8
KONSTRUKTIONSELEMENTE
100
AcDbLine
 62
7
  6
CONTINUOUS
 10
450.7367332466
 20
101.8700775835
 11
464.6137122145
 21
122.9130644592
  0
LINE
  5
3FE
100
AcDbEntity
  8
KONSTRUKTIONSELEMENTE
100
AcDbLine
 62
7
  6
CONTINUOUS
 10
402.7080484593
 20
129.7947799153
 11
397.9952479667
 21
128.2408314739
  0
LINE
  5
3FF
100
AcDbEntity
  8
KONSTRUKTIONSELEMENTE
100
AcDbLine
 62
7
  6
CONTINUOUS
 10
399.75900653
 20
126.4426938992
 11
403.3842376781
 21
127.6380388541
  0
LINE
  5
400
100
AcDbEntity
  8
KONSTRUKTIONSELEMENTE
100
AcDbLine
 62
7
  6
CONTINUOUS
 10
403.3842376781
 20
127.0723534292
 11
399.75900653
 21
125.8770084743
  0
LINE
  5
401
100
AcDbEntity
  8
KONSTRUKTIONSELEMENTE
100
AcDbLine
 62
7
  6
CONTINUOUS
 10
402.9540005887
 20
122.4463477883
 11
406.5792317369
 21
123.6416927432
  0
LINE
  5
402
100
AcDbEntity
  8
KONSTRUKTIONSELEMENTE
100
AcDbLine
 62
7
  6
CONTINUOUS
 10
402.5426204631
 20
121.345216803
 11
407.2554209557
 21
122.8991652444
  0
LINE
  5
403
100
AcDbEntity
  8
KONSTRUKTIONSELEMENTE
100
AcDbLine
 62
7
  6
CONTINUOUS
 10
457.5946859407
 20
98.3663006786
 11
457.7863434434
 21
98.6569292313
  0
LINE
  5
404
100
AcDbEntity
  8
KONSTRUKTIONSELEMENTE
100
AcDbLine
 62
7
  6
CONTINUOUS
 10
475.5363104365
 20
125.5728972776
 11
476.0011905244
 21
126.2778392979
  0
LINE
  5
405
100
AcDbEntity
  8
KONSTRUKTIONSELEMENTE
100
AcDbLine
 62
7
  6
CONTINUOUS
 10
457.5946859407
 20
95.5378735538
 11
457.7863434434
 21
95.8285021066
  0
LINE
  5
406
100
AcDbEntity
  8
KONSTRUKTIONSELEMENTE
100
AcDbLine
 62
7
  6
CONTINUOUS
 10
475.5363104365
 20
122.7444701529
 11
476.0011905244
 21
123.4494121732
  0
LINE
  5
407
100
AcDbEntity
  8
BEZUGSACHSEN
100
AcDbLine
 62
7
  6
CONTINUOUS
 10
453.107361795
 20
31.950726789
 11
467.1938018319
 21
54.6256219237
  0
ARC
  5
408
100
AcDbEntity
  8
BEZUGSACHSEN
100
AcDbCircle
 62
7
  6
CONTINUOUS
 10
127.6572487395
 20
37.4176720507
 40
6.2084045654
100
AcDbArc
 50
359.9999845138
 51
8.0000189393
  0
ARC
  5
409
100
AcDbEntity
  8
BEZUGSACHSEN
100
AcDbCircle
 62
7
  6
CONTINUOUS
 10
129.6595799019
 20
49.9358822086
 40
2.4833618262
100
AcDbArc
 50
7.9999773054
 51
45.0001724189
  0
ARC
  5
40A
100
AcDbEntity
  8
BEZUGSACHSEN
100
AcDbCircle
 62
7
  6
CONTINUOUS
 10
129.6595799019
 20
79.6423148418
 40
2.4833618262
100
AcDbArc
 50
315.0000302047
 51
351.999941644
  0
ARC
  5
40B
100
AcDbEntity
  8
BEZUGSACHSEN
100
AcDbCircle
 62
7
  6
CONTINUOUS
 10
132.1990151311
 20
75.1577421214
 40
2.4833618262
100
AcDbArc
 50
135.001303886
 51
180.0
  0
ARC
  5
40C
100
AcDbEntity
  8
BEZUGSACHSEN
100
AcDbCircle
 62
7
  6
CONTINUOUS
 10
132.1990151311
 20
54.420454929
 40
2.4833618262
100
AcDbArc
 50
180.0
 51
225.0007169142
  0
ARC
  5
40D
100
AcDbEntity
  8
RUNDUNGEN
100
AcDbCircle
 62
7
  6
CONTINUOUS
 10
130.957334218
 20
71.2036627751
 40
1.2416809131
100
AcDbArc
 50
139.4918207579
 51
180.0
  0
ARC
  5
40E
100
AcDbEntity
  8
RUNDUNGEN
100
AcDbCircle
 62
7
  6
CONTINUOUS
 10
141.2031319353
 20
22.4465776532
 40
1.8625213696
100
AcDbArc
 50
276.0
 51
360.0
  0
ARC
  5
40F
100
AcDbEntity
  8
BEZUGSACHSEN
100
AcDbCircle
 62
7
  6
CONTINUOUS
 10
135.7281746746
 20
22.4465776532
 40
1.8625213696
100
AcDbArc
 50
180.0
 51
264.0
  0
ARC
  5
410
100
AcDbEntity
  8
RUNDUNGEN
100
AcDbCircle
 62
7
  6
CONTINUOUS
 10
138.465653305
 20
64.7890985252
 40
11.116977872
100
AcDbArc
 50
40.5081792421
 51
139.4918207579
  0
CIRCLE
  5
411
100
AcDbEntity
  8
0
100
AcDbCircle
 62
7
  6
CONTINUOUS
 10
138.465653305
 20
64.7890985252
 40
3.7250427393
  0
ARC
  5
412
100
AcDbEntity
  8
KONSTRUKTIONSELEMENTE
100
AcDbCircle
 62
7
  6
CONTINUOUS
 10
91.312956855
 20
139.3364020752
 40
8.25
100
AcDbArc
 50
135.0
 51
210.9584401416
  0
ARC
  5
413
100
AcDbEntity
  8
KONSTRUKTIONSELEMENTE
100
AcDbCircle
 62
7
  6
CONTINUOUS
 10
91.312956855
 20
139.3364020752
 40
8.25
100
AcDbArc
 50
239.0415598584
 51
315.0
  0
ARC
  5
414
100
AcDbEntity
  8
KONSTRUKTIONSELEMENTE
100
AcDbCircle
 62
7
  6
CONTINUOUS
 10
91.312956855
 20
139.3364020752
 40
3.25
100
AcDbArc
 50
135.0
 51
186.9781822315
  0
ARC
  5
415
100
AcDbEntity
  8
KONSTRUKTIONSELEMENTE
100
AcDbCircle
 62
7
  6
CONTINUOUS
 10
91.312956855
 20
139.3364020752
 40
3.25
100
AcDbArc
 50
263.0218177685
 51
315.0
  0
ARC
  5
416
100
AcDbEntity
  8
KONSTRUKTIONSELEMENTE
100
AcDbCircle
 62
7
  6
CONTINUOUS
 10
97.3233644951
 20
145.3468097153
 40
8.25
100
AcDbArc
 50
315.0
 51
29.1578555427
  0
ARC
  5
417
100
AcDbEntity
  8
KONSTRUKTIONSELEMENTE
100
AcDbCircle
 62
7
  6
CONTINUOUS
 10
97.3233644951
 20
145.3468097153
 40
8.25
100
AcDbArc
 50
60.8421444573
 51
135.0
  0
ARC
  5
418
100
AcDbEntity
  8
KONSTRUKTIONSELEMENTE
100
AcDbCircle
 62
7
  6
CONTINUOUS
 10
97.3233644951
 20
145.3468097153
 40
3.25
100
AcDbArc
 50
315.0
 51
1.1162428201
  0
ARC
  5
419
100
AcDbEntity
  8
KONSTRUKTIONSELEMENTE
100
AcDbCircle
 62
7
  6
CONTINUOUS
 10
97.3233644951
 20
145.3468097153
 40
3.25
100
AcDbArc
 50
88.8837571799
 51
135.0
  0
ARC
  5
41A
100
AcDbEntity
  8
KONSTRUKTIONSELEMENTE
100
AcDbCircle
 62
7
  6
CONTINUOUS
 10
98.0304712763
 20
146.0539164965
 40
2.25
100
AcDbArc
 50
135.0
 51
315.0
  0
ARC
  5
41B
100
AcDbEntity
  8
BEZUGSACHSEN
100
AcDbCircle
 62
7
  6
CONTINUOUS
 10
138.465653305
 20
104.2890985252
 40
21.0
100
AcDbArc
 50
117.0
 51
257.3370417415
  0
ARC
  5
41C
100
AcDbEntity
  8
RUNDUNGEN
100
AcDbCircle
 62
7
  6
CONTINUOUS
 10
138.465653305
 20
104.2890985252
 40
9.0
100
AcDbArc
 50
300.7550724794
 51
239.2449275232
  0
ARC
  5
41D
100
AcDbEntity
  8
RUNDUNGEN
100
AcDbCircle
 62
7
  6
CONTINUOUS
 10
141.2031319353
 20
107.1316193972
 40
1.8625213696
100
AcDbArc
 50
0.0
 51
84.0
  0
ARC
  5
41E
100
AcDbEntity
  8
BEZUGSACHSEN
100
AcDbCircle
 62
7
  6
CONTINUOUS
 10
141.2031319353
 20
107.1316193972
 40
1.8625213696
100
AcDbArc
 50
0.0
 51
84.0
  0
ARC
  5
41F
100
AcDbEntity
  8
BEZUGSACHSEN
100
AcDbCircle
 62
7
  6
CONTINUOUS
 10
135.7281746746
 20
107.1316193972
 40
1.8625213696
100
AcDbArc
 50
96.0
 51
180.0
  0
ARC
  5
420
100
AcDbEntity
  8
KONSTRUKTIONSELEMENTE
100
AcDbCircle
 62
7
  6
CONTINUOUS
 10
117.6526844542
 20
165.6761296744
 40
8.0
100
AcDbArc
 50
135.0
 51
208.6357041722
  0
ARC
  5
421
100
AcDbEntity
  8
KONSTRUKTIONSELEMENTE
100
AcDbCircle
 62
7
  6
CONTINUOUS
 10
117.6526844542
 20
165.6761296744
 40
8.0
100
AcDbArc
 50
241.3642958278
 51
315.0
  0
ARC
  5
422
100
AcDbEntity
  8
KONSTRUKTIONSELEMENTE
100
AcDbCircle
 62
7
  6
CONTINUOUS
 10
128.259286172
 20
176.2827313922
 40
8.0
100
AcDbArc
 50
315.0
 51
28.6357041722
  0
ARC
  5
423
100
AcDbEntity
  8
KONSTRUKTIONSELEMENTE
100
AcDbCircle
 62
7
  6
CONTINUOUS
 10
128.259286172
 20
176.2827313922
 40
8.0
100
AcDbArc
 50
61.3642958278
 51
135.0
  0
ARC
  5
424
100
AcDbEntity
  8
KONSTRUKTIONSELEMENTE
100
AcDbCircle
 62
7
  6
CONTINUOUS
 10
117.6526844542
 20
165.6761296744
 40
3.5
100
AcDbArc
 50
135.0
 51
184.8461224921
  0
ARC
  5
425
100
AcDbEntity
  8
KONSTRUKTIONSELEMENTE
100
AcDbCircle
 62
7
  6
CONTINUOUS
 10
117.6526844542
 20
165.6761296744
 40
3.5
100
AcDbArc
 50
265.1538775079
 51
315.0
  0
ARC
  5
426
100
AcDbEntity
  8
KONSTRUKTIONSELEMENTE
100
AcDbCircle
 62
7
  6
CONTINUOUS
 10
128.259286172
 20
176.2827313922
 40
3.5
100
AcDbArc
 50
315.0
 51
4.8461224921
  0
ARC
  5
427
100
AcDbEntity
  8
KONSTRUKTIONSELEMENTE
100
AcDbCircle
 62
7
  6
CONTINUOUS
 10
128.259286172
 20
176.2827313922
 40
3.5
100
AcDbArc
 50
85.1538775079
 51
135.0
  0
ARC
  5
428
100
AcDbEntity
  8
KONSTRUKTIONSELEMENTE
100
AcDbCircle
 62
7
  6
CONTINUOUS
 10
116.7688009777
 20
164.792246198
 40
2.25
100
AcDbArc
 50
315.0
 51
135.0
  0
ARC
  5
429
100
AcDbEntity
  8
RUNDUNGEN
100
AcDbCircle
 62
7
  6
CONTINUOUS
 10
149.2740578704
 20
37.4176720507
 40
6.2084045654
100
AcDbArc
 50
171.9999810607
 51
180.0000154862
  0
ARC
  5
42A
100
AcDbEntity
  8
RUNDUNGEN
100
AcDbCircle
 62
7
  6
CONTINUOUS
 10
147.271726708
 20
79.6423148418
 40
2.4833618262
100
AcDbArc
 50
188.000058356
 51
224.9999697953
  0
ARC
  5
42B
100
AcDbEntity
  8
RUNDUNGEN
100
AcDbCircle
 62
7
  6
CONTINUOUS
 10
144.7322914788
 20
75.1577421214
 40
2.4833618262
100
AcDbArc
 50
0.0
 51
44.998696114
  0
ARC
  5
42C
100
AcDbEntity
  8
BEZUGSACHSEN
100
AcDbCircle
 62
7
  6
CONTINUOUS
 10
147.271726708
 20
79.6423148418
 40
2.4833618262
100
AcDbArc
 50
188.000058356
 51
224.9999697953
  0
ARC
  5
42D
100
AcDbEntity
  8
BEZUGSACHSEN
100
AcDbCircle
 62
7
  6
CONTINUOUS
 10
144.7322914788
 20
75.1577421214
 40
2.4833618262
100
AcDbArc
 50
0.0
 51
44.998696114
  0
ARC
  5
42E
100
AcDbEntity
  8
RUNDUNGEN
100
AcDbCircle
 62
7
  6
CONTINUOUS
 10
147.271726708
 20
49.9358822086
 40
2.4833618262
100
AcDbArc
 50
134.9998275811
 51
172.0000226946
  0
ARC
  5
42F
100
AcDbEntity
  8
RUNDUNGEN
100
AcDbCircle
 62
7
  6
CONTINUOUS
 10
144.7322914788
 20
54.420454929
 40
2.4833618262
100
AcDbArc
 50
314.9992830858
 51
360.0
  0
ARC
  5
430
100
AcDbEntity
  8
RUNDUNGEN
100
AcDbCircle
 62
7
  6
CONTINUOUS
 10
145.9739723919
 20
71.2036627751
 40
1.2416809131
100
AcDbArc
 50
359.9999384528
 51
40.5081792421
  0
ARC
  5
431
100
AcDbEntity
  8
KONSTRUKTIONSELEMENTE
100
AcDbCircle
 62
7
  6
CONTINUOUS
 10
194.615653305
 20
173.1890985252
 40
10.4
100
AcDbArc
 50
301.1050212951
 51
360.0
  0
ARC
  5
432
100
AcDbEntity
  8
RUNDUNGEN
100
AcDbCircle
 62
7
  6
CONTINUOUS
 10
154.6479033243
 20
119.268324166
 40
3.0
100
AcDbArc
 50
117.0
 51
207.0
  0
ARC
  5
433
100
AcDbEntity
  8
RUNDUNGEN
100
AcDbCircle
 62
7
  6
CONTINUOUS
 10
176.8359382253
 20
130.5736926223
 40
3.0
100
AcDbArc
 50
333.5
 51
117.0
  0
ARC
  5
434
100
AcDbEntity
  8
RUNDUNGEN
100
AcDbCircle
 62
7
  6
CONTINUOUS
 10
163.0134359209
 20
102.8500420079
 40
3.0
100
AcDbArc
 50
207.0
 51
333.5
  0
ARC
  5
435
100
AcDbEntity
  8
KONSTRUKTIONSELEMENTE
100
AcDbCircle
 62
7
  6
CONTINUOUS
 10
129.1431696485
 20
177.1666148687
 40
2.25
100
AcDbArc
 50
135.0
 51
315.0
  0
ARC
  5
436
100
AcDbEntity
  8
KONSTRUKTIONSELEMENTE
100
AcDbCircle
 62
7
  6
CONTINUOUS
 10
148.5886061311
 20
196.6120513514
 40
8.25
100
AcDbArc
 50
135.0
 51
209.1578555427
  0
ARC
  5
437
100
AcDbEntity
  8
KONSTRUKTIONSELEMENTE
100
AcDbCircle
 62
7
  6
CONTINUOUS
 10
148.5886061311
 20
196.6120513514
 40
8.25
100
AcDbArc
 50
240.8421444573
 51
315.0
  0
ARC
  5
438
100
AcDbEntity
  8
KONSTRUKTIONSELEMENTE
100
AcDbCircle
 62
7
  6
CONTINUOUS
 10
148.5886061311
 20
196.6120513514
 40
3.25
100
AcDbArc
 50
135.0
 51
181.1162428201
  0
ARC
  5
439
100
AcDbEntity
  8
KONSTRUKTIONSELEMENTE
100
AcDbCircle
 62
7
  6
CONTINUOUS
 10
148.5886061311
 20
196.6120513514
 40
3.25
100
AcDbArc
 50
268.8837571799
 51
315.0
  0
ARC
  5
43A
100
AcDbEntity
  8
KONSTRUKTIONSELEMENTE
100
AcDbCircle
 62
7
  6
CONTINUOUS
 10
147.8814993499
 20
195.9049445702
 40
2.25
100
AcDbArc
 50
315.0
 51
135.0
  0
ARC
  5
43B
100
AcDbEntity
  8
KONSTRUKTIONSELEMENTE
100
AcDbCircle
 62
7
  6
CONTINUOUS
 10
154.5990137712
 20
202.6224589914
 40
8.25
100
AcDbArc
 50
315.0
 51
23.653301757
  0
ARC
  5
43C
100
AcDbEntity
  8
KONSTRUKTIONSELEMENTE
100
AcDbCircle
 62
7
  6
CONTINUOUS
 10
154.5990137712
 20
202.6224589914
 40
8.25
100
AcDbArc
 50
66.346698243
 51
135.0
  0
ARC
  5
43D
100
AcDbEntity
  8
KONSTRUKTIONSELEMENTE
100
AcDbCircle
 62
7
  6
CONTINUOUS
 10
154.5990137712
 20
202.6224589914
 40
3.25
100
AcDbArc
 50
315.0
 51
337.1934449969
  0
ARC
  5
43E
100
AcDbEntity
  8
KONSTRUKTIONSELEMENTE
100
AcDbCircle
 62
7
  6
CONTINUOUS
 10
154.5990137712
 20
202.6224589914
 40
3.25
100
AcDbArc
 50
112.8065550031
 51
135.0
  0
ARC
  5
43F
100
AcDbEntity
  8
KONSTRUKTIONSELEMENTE
100
AcDbCircle
 62
7
  6
CONTINUOUS
 10
154.7757904665
 20
202.7992356867
 40
3.0
100
AcDbArc
 50
135.0
 51
315.0
  0
ARC
  5
440
100
AcDbEntity
  8
KONSTRUKTIONSELEMENTE
100
AcDbCircle
 62
7
  6
CONTINUOUS
 10
183.7671684951
 20
231.7906137154
 40
3.0
100
AcDbArc
 50
315.0
 51
135.0
  0
ARC
  5
441
100
AcDbEntity
  8
BEZUGSACHSEN
100
AcDbCircle
 62
7
  6
CONTINUOUS
 10
213.465653305
 20
143.2890985252
 40
38.0
100
AcDbArc
 50
280.0
 51
315.0795594347
  0
ARC
  5
442
100
AcDbEntity
  8
0
100
AcDbCircle
 62
7
  6
CONTINUOUS
 10
213.465653305
 20
143.2890985252
 40
38.0
100
AcDbArc
 50
224.9204405653
 51
260.0
  0
ARC
  5
443
100
AcDbEntity
  8
BEZUGSACHSEN
100
AcDbCircle
 62
7
  6
CONTINUOUS
 10
213.465653305
 20
143.2890985252
 40
32.0
100
AcDbArc
 50
260.0
 51
280.0
  0
ARC
  5
444
100
AcDbEntity
  8
BEZUGSACHSEN
100
AcDbCircle
 62
7
  6
CONTINUOUS
 10
213.465653305
 20
143.2890985252
 40
26.0
100
AcDbArc
 50
24.3311760181
 51
66.3063752322
  0
ARC
  5
445
100
AcDbEntity
  8
BEZUGSACHSEN
100
AcDbCircle
 62
7
  6
CONTINUOUS
 10
213.465653305
 20
143.2890985252
 40
26.0
100
AcDbArc
 50
113.6936247678
 51
155.6688239819
  0
ARC
  5
446
100
AcDbEntity
  8
KONSTRUKTIONSELEMENTE
100
AcDbCircle
 62
7
  6
CONTINUOUS
 10
213.265653305
 20
143.2890985252
 40
20.8
100
AcDbArc
 50
180.0
 51
270.0
  0
ARC
  5
447
100
AcDbEntity
  8
KONSTRUKTIONSELEMENTE
100
AcDbCircle
 62
7
  6
CONTINUOUS
 10
213.665653305
 20
143.2890985252
 40
20.8
100
AcDbArc
 50
270.0
 51
360.0
  0
ARC
  5
448
100
AcDbEntity
  8
KONSTRUKTIONSELEMENTE
100
AcDbCircle
 62
7
  6
CONTINUOUS
 10
208.065653305
 20
147.1890985252
 40
15.6
100
AcDbArc
 50
90.0
 51
129.2727544132
  0
ARC
  5
449
100
AcDbEntity
  8
KONSTRUKTIONSELEMENTE
100
AcDbCircle
 62
7
  6
CONTINUOUS
 10
218.865653305
 20
147.1890985252
 40
15.6
100
AcDbArc
 50
50.7272455868
 51
90.0
  0
CIRCLE
  5
44A
100
AcDbEntity
  8
BEZUGSACHSEN
100
AcDbCircle
 62
7
  6
CONTINUOUS
 10
213.465653305
 20
143.2890985252
 40
11.05
  0
ARC
  5
44B
100
AcDbEntity
  8
KONSTRUKTIONSELEMENTE
100
AcDbCircle
 62
7
  6
CONTINUOUS
 10
232.315653305
 20
173.1890985252
 40
10.4
100
AcDbArc
 50
180.0
 51
238.9619734511
  0
ARC
  5
44C
100
AcDbEntity
  8
KONSTRUKTIONSELEMENTE
100
AcDbCircle
 62
7
  6
CONTINUOUS
 10
229.2640647904
 20
157.6181390971
 40
5.2014409574
100
AcDbArc
 50
13.0844362001
 51
71.1595546829
  0
ARC
  5
44D
100
AcDbEntity
  8
KONSTRUKTIONSELEMENTE
100
AcDbCircle
 62
7
  6
CONTINUOUS
 10
197.6672479714
 20
157.6181438748
 40
5.2014368313
100
AcDbArc
 50
108.8401536389
 51
166.9158399796
  0
ARC
  5
44E
100
AcDbEntity
  8
BEZUGSACHSEN
100
AcDbCircle
 62
7
  6
CONTINUOUS
 10
277.6572487395
 20
37.4176720507
 40
6.2084045654
100
AcDbArc
 50
359.9999845138
 51
8.0000189393
  0
ARC
  5
44F
100
AcDbEntity
  8
BEZUGSACHSEN
100
AcDbCircle
 62
7
  6
CONTINUOUS
 10
279.6595799019
 20
49.9358822086
 40
2.4833618262
100
AcDbArc
 50
7.9999773054
 51
45.0001724189
  0
ARC
  5
450
100
AcDbEntity
  8
BEZUGSACHSEN
100
AcDbCircle
 62
7
  6
CONTINUOUS
 10
285.7281746746
 20
22.4465776532
 40
1.8625213696
100
AcDbArc
 50
180.0
 51
264.0
  0
ARC
  5
451
100
AcDbEntity
  8
BEZUGSACHSEN
100
AcDbCircle
 62
7
  6
CONTINUOUS
 10
279.6595799019
 20
79.6423148418
 40
2.4833618262
100
AcDbArc
 50
315.0000302047
 51
351.999941644
  0
ARC
  5
452
100
AcDbEntity
  8
BEZUGSACHSEN
100
AcDbCircle
 62
7
  6
CONTINUOUS
 10
282.1990151311
 20
75.1577421214
 40
2.4833618262
100
AcDbArc
 50
135.001303886
 51
180.0
  0
ARC
  5
453
100
AcDbEntity
  8
BEZUGSACHSEN
100
AcDbCircle
 62
7
  6
CONTINUOUS
 10
282.1990151311
 20
54.420454929
 40
2.4833618262
100
AcDbArc
 50
180.0
 51
225.0007169142
  0
ARC
  5
454
100
AcDbEntity
  8
RUNDUNGEN
100
AcDbCircle
 62
7
  6
CONTINUOUS
 10
280.957334218
 20
71.2036627751
 40
1.2416809131
100
AcDbArc
 50
139.4918207579
 51
180.0
  0
ARC
  5
455
100
AcDbEntity
  8
RUNDUNGEN
100
AcDbCircle
 62
7
  6
CONTINUOUS
 10
299.2740578704
 20
37.4176720507
 40
6.2084045654
100
AcDbArc
 50
171.9999810607
 51
180.0000154862
  0
ARC
  5
456
100
AcDbEntity
  8
RUNDUNGEN
100
AcDbCircle
 62
7
  6
CONTINUOUS
 10
297.271726708
 20
49.9358822086
 40
2.4833618262
100
AcDbArc
 50
134.9998275811
 51
172.0000226946
  0
ARC
  5
457
100
AcDbEntity
  8
RUNDUNGEN
100
AcDbCircle
 62
7
  6
CONTINUOUS
 10
291.2031319353
 20
22.4465776532
 40
1.8625213696
100
AcDbArc
 50
276.0
 51
360.0
  0
ARC
  5
458
100
AcDbEntity
  8
RUNDUNGEN
100
AcDbCircle
 62
7
  6
CONTINUOUS
 10
288.465653305
 20
64.7890985252
 40
11.116977872
100
AcDbArc
 50
40.5081792421
 51
139.4918207579
  0
CIRCLE
  5
459
100
AcDbEntity
  8
0
100
AcDbCircle
 62
7
  6
CONTINUOUS
 10
288.465653305
 20
64.7890985252
 40
3.7250427393
  0
ARC
  5
45A
100
AcDbEntity
  8
RUNDUNGEN
100
AcDbCircle
 62
7
  6
CONTINUOUS
 10
294.7322914788
 20
54.420454929
 40
2.4833618262
100
AcDbArc
 50
314.9992830858
 51
360.0
  0
ARC
  5
45B
100
AcDbEntity
  8
RUNDUNGEN
100
AcDbCircle
 62
7
  6
CONTINUOUS
 10
297.271726708
 20
79.6423148418
 40
2.4833618262
100
AcDbArc
 50
188.000058356
 51
224.9999697953
  0
ARC
  5
45C
100
AcDbEntity
  8
RUNDUNGEN
100
AcDbCircle
 62
7
  6
CONTINUOUS
 10
294.7322914788
 20
75.1577421214
 40
2.4833618262
100
AcDbArc
 50
0.0
 51
44.998696114
  0
ARC
  5
45D
100
AcDbEntity
  8
BEZUGSACHSEN
100
AcDbCircle
 62
7
  6
CONTINUOUS
 10
297.271726708
 20
79.6423148418
 40
2.4833618262
100
AcDbArc
 50
188.000058356
 51
224.9999697953
  0
ARC
  5
45E
100
AcDbEntity
  8
BEZUGSACHSEN
100
AcDbCircle
 62
7
  6
CONTINUOUS
 10
294.7322914788
 20
75.1577421214
 40
2.4833618262
100
AcDbArc
 50
0.0
 51
44.998696114
  0
ARC
  5
45F
100
AcDbEntity
  8
RUNDUNGEN
100
AcDbCircle
 62
7
  6
CONTINUOUS
 10
295.9739723919
 20
71.2036627751
 40
1.2416809131
100
AcDbArc
 50
359.9999384528
 51
40.5081792421
  0
ARC
  5
460
100
AcDbEntity
  8
BEZUGSACHSEN
100
AcDbCircle
 62
7
  6
CONTINUOUS
 10
263.917870689
 20
102.8500420079
 40
3.0
100
AcDbArc
 50
206.5
 51
333.0
  0
ARC
  5
461
100
AcDbEntity
  8
BEZUGSACHSEN
100
AcDbCircle
 62
7
  6
CONTINUOUS
 10
250.0953683846
 20
130.5736926223
 40
3.0
100
AcDbArc
 50
63.0
 51
206.5
  0
ARC
  5
462
100
AcDbEntity
  8
BEZUGSACHSEN
100
AcDbCircle
 62
7
  6
CONTINUOUS
 10
285.7281746746
 20
107.1316193972
 40
1.8625213696
100
AcDbArc
 50
96.0
 51
180.0
  0
ARC
  5
463
100
AcDbEntity
  8
BEZUGSACHSEN
100
AcDbCircle
 62
7
  6
CONTINUOUS
 10
288.465653305
 20
104.2890985252
 40
21.0
100
AcDbArc
 50
282.6629582585
 51
63.0
  0
ARC
  5
464
100
AcDbEntity
  8
BEZUGSACHSEN
100
AcDbCircle
 62
7
  6
CONTINUOUS
 10
288.465653305
 20
104.2890985252
 40
9.0
100
AcDbArc
 50
300.7550724768
 51
239.2449275206
  0
ARC
  5
465
100
AcDbEntity
  8
RUNDUNGEN
100
AcDbCircle
 62
7
  6
CONTINUOUS
 10
291.2031319353
 20
107.1316193972
 40
1.8625213696
100
AcDbArc
 50
0.0
 51
84.0
  0
ARC
  5
466
100
AcDbEntity
  8
BEZUGSACHSEN
100
AcDbCircle
 62
7
  6
CONTINUOUS
 10
291.2031319353
 20
107.1316193972
 40
1.8625213696
100
AcDbArc
 50
0.0
 51
84.0
  0
ARC
  5
467
100
AcDbEntity
  8
BEZUGSACHSEN
100
AcDbCircle
 62
7
  6
CONTINUOUS
 10
272.2834032856
 20
119.268324166
 40
3.0
100
AcDbArc
 50
333.0
 51
63.0
  0
ARC
  5
468
100
AcDbEntity
  8
0
100
AcDbCircle
 62
7
  6
CONTINUOUS
 10
213.465653305
 20
261.4890985252
 40
67.0
100
AcDbArc
 50
277.2477450274
 51
360.0
  0
ARC
  5
469
100
AcDbEntity
  8
0
100
AcDbCircle
 62
7
  6
CONTINUOUS
 10
213.465653305
 20
261.4890985252
 40
67.0
100
AcDbArc
 50
227.5671889761
 51
262.7522549726
  0
ARC
  5
46A
100
AcDbEntity
  8
0
100
AcDbCircle
 62
7
  6
CONTINUOUS
 10
213.465653305
 20
261.4890985252
 40
67.0
100
AcDbArc
 50
180.0
 51
222.4328110239
  0
ARC
  5
46B
100
AcDbEntity
  8
0
100
AcDbCircle
 62
7
  6
CONTINUOUS
 10
213.465653305
 20
331.4890985252
 40
67.0
100
AcDbArc
 50
0.0
 51
180.0
  0
ARC
  5
46C
100
AcDbEntity
  8
0
100
AcDbCircle
 62
7
  6
CONTINUOUS
 10
213.465653305
 20
261.4890985252
 40
45.0
100
AcDbArc
 50
280.8257930693
 51
360.0
  0
ARC
  5
46D
100
AcDbEntity
  8
0
100
AcDbCircle
 62
7
  6
CONTINUOUS
 10
213.465653305
 20
261.4890985252
 40
45.0
100
AcDbArc
 50
228.8231711787
 51
259.1742069307
  0
ARC
  5
46E
100
AcDbEntity
  8
0
100
AcDbCircle
 62
7
  6
CONTINUOUS
 10
213.465653305
 20
261.4890985252
 40
45.0
100
AcDbArc
 50
180.0
 51
221.1768288213
  0
ARC
  5
46F
100
AcDbEntity
  8
0
100
AcDbCircle
 62
7
  6
CONTINUOUS
 10
213.465653305
 20
331.4890985252
 40
45.0
100
AcDbArc
 50
0.0
 51
180.0
  0
ARC
  5
470
100
AcDbEntity
  8
KONSTRUKTIONSELEMENTE
100
AcDbCircle
 62
7
  6
CONTINUOUS
 10
213.465653305
 20
224.9390985252
 40
8.45
100
AcDbArc
 50
0.0
 51
180.0
  0
ARC
  5
471
100
AcDbEntity
  8
BEZUGSACHSEN
100
AcDbCircle
 62
7
  6
CONTINUOUS
 10
402.0809902664
 20
71.2643346724
 40
6.2084045654
100
AcDbArc
 50
148.15
 51
180.0
  0
ARC
  5
472
100
AcDbEntity
  8
BEZUGSACHSEN
100
AcDbCircle
 62
7
  6
CONTINUOUS
 10
402.1310802345
 20
55.2281960372
 40
5.2775054665
100
AcDbArc
 50
291.6581766403
 51
48.0119412669
  0
ARC
  5
473
100
AcDbEntity
  8
BEZUGSACHSEN
100
AcDbCircle
 62
7
  6
CONTINUOUS
 10
398.959036323
 20
60.2328389052
 40
3.086450631
100
AcDbArc
 50
179.9956305717
 51
215.0043694283
  0
CIRCLE
  5
474
100
AcDbEntity
  8
BEZUGSACHSEN
100
AcDbCircle
 62
7
  6
CONTINUOUS
 10
401.5906548594
 20
64.7890985252
 40
1.25
  0
ARC
  5
475
100
AcDbEntity
  8
RUNDUNGEN
100
AcDbCircle
 62
7
  6
CONTINUOUS
 10
404.1651747719
 20
54.9138015663
 40
1.2416809131
100
AcDbArc
 50
270.0
 51
360.0
  0
ARC
  5
476
100
AcDbEntity
  8
BEZUGSACHSEN
100
AcDbCircle
 62
7
  6
CONTINUOUS
 10
404.1651747719
 20
54.9138015663
 40
1.2416809131
100
AcDbArc
 50
270.0
 51
360.0
  0
ARC
  5
477
100
AcDbEntity
  8
RUNDUNGEN
100
AcDbCircle
 62
7
  6
CONTINUOUS
 10
406.9081974557
 20
72.5265151241
 40
1.2416809131
100
AcDbArc
 50
90.0
 51
180.0
  0
ARC
  5
478
100
AcDbEntity
  8
BEZUGSACHSEN
100
AcDbCircle
 62
7
  6
CONTINUOUS
 10
406.6485365981
 20
73.3816672681
 40
1.2416809131
100
AcDbArc
 50
90.0008270983
 51
180.0
  0
ARC
  5
479
100
AcDbEntity
  8
KONSTRUKTIONSELEMENTE
100
AcDbCircle
 62
7
  6
CONTINUOUS
 10
403.728987916
 20
126.0222272625
 40
1.1052681541
100
AcDbArc
 50
98.816572065
 51
108.1747037042
  0
ARC
  5
47A
100
AcDbEntity
  8
KONSTRUKTIONSELEMENTE
100
AcDbCircle
 62
7
  6
CONTINUOUS
 10
407.2999886185
 20
123.3746272505
 40
0.6495479855
100
AcDbArc
 50
13.4753960075
 51
21.9722612621
  0
ARC
  5
47B
100
AcDbEntity
  8
KONSTRUKTIONSELEMENTE
100
AcDbCircle
 62
7
  6
CONTINUOUS
 10
396.378585701
 20
143.2890985252
 40
16.9
100
AcDbArc
 50
90.0
 51
270.0
  0
CIRCLE
  5
47C
100
AcDbEntity
  8
BEZUGSACHSEN
100
AcDbCircle
 62
7
  6
CONTINUOUS
 10
410.028585701
 20
152.3890985252
 40
3.25
  0
ARC
  5
47D
100
AcDbEntity
  8
RUNDUNGEN
100
AcDbCircle
 62
7
  6
CONTINUOUS
 10
418.6206666141
 20
54.9138015663
 40
1.2416809131
100
AcDbArc
 50
180.0
 51
270.0
  0
ARC
  5
47E
100
AcDbEntity
  8
BEZUGSACHSEN
100
AcDbCircle
 62
7
  6
CONTINUOUS
 10
418.6206666141
 20
54.9138015663
 40
1.2416809131
100
AcDbArc
 50
180.0
 51
270.0
  0
ARC
  5
47F
100
AcDbEntity
  8
BEZUGSACHSEN
100
AcDbCircle
 62
7
  6
CONTINUOUS
 10
417.6801811356
 20
75.832329597
 40
6.2084045654
100
AcDbArc
 50
0.0
 51
31.2351644984
  0
ARC
  5
480
100
AcDbEntity
  8
KONSTRUKTIONSELEMENTE
100
AcDbCircle
 62
7
  6
CONTINUOUS
 10
423.8752822645
 20
90.4218244583
 40
3.7399682204
100
AcDbArc
 50
67.9069648583
 51
68.6850824747
  0
ARC
  5
481
100
AcDbEntity
  8
RUNDUNGEN
100
AcDbCircle
 62
7
  6
CONTINUOUS
 10
416.0549047879
 20
72.5265151241
 40
1.2416809131
100
AcDbArc
 50
0.0
 51
90.0
  0
ARC
  5
482
100
AcDbEntity
  8
BEZUGSACHSEN
100
AcDbCircle
 62
7
  6
CONTINUOUS
 10
416.1373047879
 20
73.3816672681
 40
1.2416809131
100
AcDbArc
 50
0.0
 51
90.0001770018
  0
ARC
  5
483
100
AcDbEntity
  8
BEZUGSACHSEN
100
AcDbCircle
 62
7
  6
CONTINUOUS
 10
432.128585701
 20
49.1260763972
 40
28.84
100
AcDbArc
 50
180.0
 51
270.0
  0
ARC
  5
484
100
AcDbEntity
  8
BEZUGSACHSEN
100
AcDbCircle
 62
7
  6
CONTINUOUS
 10
432.128585701
 20
44.9834781972
 40
24.6974018
100
AcDbArc
 50
270.0
 51
328.15
  0
ARC
  5
485
100
AcDbEntity
  8
BEZUGSACHSEN
100
AcDbCircle
 62
7
  6
CONTINUOUS
 10
432.128585701
 20
49.1260763972
 40
14.832
100
AcDbArc
 50
180.0
 51
270.0
  0
ARC
  5
486
100
AcDbEntity
  8
BEZUGSACHSEN
100
AcDbCircle
 62
7
  6
CONTINUOUS
 10
432.128585701
 20
44.9834781972
 40
10.6894018
100
AcDbArc
 50
270.0
 51
25.8389856933
  0
ARC
  5
487
100
AcDbEntity
  8
BEZUGSACHSEN
100
AcDbCircle
 62
7
  6
CONTINUOUS
 10
432.128585701
 20
80.4521206532
 40
28.84
100
AcDbArc
 50
44.4356722086
 51
49.1378983971
  0
ARC
  5
488
100
AcDbEntity
  8
BEZUGSACHSEN
100
AcDbCircle
 62
7
  6
CONTINUOUS
 10
432.128585701
 20
80.4521206532
 40
28.84
100
AcDbArc
 50
0.0
 51
30.1617900092
  0
ARC
  5
489
100
AcDbEntity
  8
BEZUGSACHSEN
100
AcDbCircle
 62
7
  6
CONTINUOUS
 10
432.128585701
 20
84.5947188532
 40
24.6974018
100
AcDbArc
 50
137.5234006493
 51
148.15
  0
ARC
  5
48A
100
AcDbEntity
  8
BEZUGSACHSEN
100
AcDbCircle
 62
7
  6
CONTINUOUS
 10
432.128585701
 20
80.4521206532
 40
14.832
100
AcDbArc
 50
0.0
 51
47.6021269803
  0
ARC
  5
48B
100
AcDbEntity
  8
BEZUGSACHSEN
100
AcDbCircle
 62
7
  6
CONTINUOUS
 10
432.128585701
 20
84.5947188532
 40
10.6894018
100
AcDbArc
 50
159.3330769653
 51
211.2351644984
  0
ARC
  5
48C
100
AcDbEntity
  8
KONSTRUKTIONSELEMENTE
100
AcDbCircle
 62
7
  6
CONTINUOUS
 10
426.8486133522
 20
94.1827907146
 40
1.6402512854
100
AcDbArc
 50
9.1122156584
 51
9.8872067222
  0
ARC
  5
48D
100
AcDbEntity
  8
KONSTRUKTIONSELEMENTE
100
AcDbCircle
 62
7
  6
CONTINUOUS
 10
426.8762851433
 20
94.1867560296
 40
1.6123007968
100
AcDbArc
 50
0.0312035642
 51
9.1288137426
  0
ARC
  5
48E
100
AcDbEntity
  8
KONSTRUKTIONSELEMENTE
100
AcDbCircle
 62
7
  6
CONTINUOUS
 10
431.478585701
 20
203.4890985252
 40
29.9
100
AcDbArc
 50
132.0750460091
 51
180.0
  0
ARC
  5
48F
100
AcDbEntity
  8
KONSTRUKTIONSELEMENTE
100
AcDbCircle
 62
7
  6
CONTINUOUS
 10
432.778585701
 20
203.4890985252
 40
29.9
100
AcDbArc
 50
0.0
 51
47.8863055982
  0
ARC
  5
490
100
AcDbEntity
  8
KONSTRUKTIONSELEMENTE
100
AcDbCircle
 62
7
  6
CONTINUOUS
 10
431.478585701
 20
203.4890985252
 40
13.0
100
AcDbArc
 50
142.8518808996
 51
153.9504478559
  0
ARC
  5
491
100
AcDbEntity
  8
KONSTRUKTIONSELEMENTE
100
AcDbCircle
 62
7
  6
CONTINUOUS
 10
432.778585701
 20
203.4890985252
 40
13.0
100
AcDbArc
 50
26.0461656326
 51
37.1481191004
  0
ARC
  5
492
100
AcDbEntity
  8
0
100
AcDbCircle
 62
7
  6
CONTINUOUS
 10
432.128585701
 20
205.4890985252
 40
11.0
100
AcDbArc
 50
302.0814544478
 51
339.0219530307
  0
ARC
  5
493
100
AcDbEntity
  8
0
100
AcDbCircle
 62
7
  6
CONTINUOUS
 10
432.128585701
 20
205.4890985252
 40
11.0
100
AcDbArc
 50
200.9679132783
 51
237.9322726661
  0
ARC
  5
494
100
AcDbEntity
  8
KONSTRUKTIONSELEMENTE
100
AcDbCircle
 62
7
  6
CONTINUOUS
 10
432.128585701
 20
208.3724589914
 40
2.5
100
AcDbArc
 50
0.0
 51
180.0
  0
ARC
  5
495
100
AcDbEntity
  8
KONSTRUKTIONSELEMENTE
100
AcDbCircle
 62
7
  6
CONTINUOUS
 10
432.128585701
 20
190.8620513514
 40
2.5
100
AcDbArc
 50
180.0
 51
360.0
  0
ARC
  5
496
100
AcDbEntity
  8
KONSTRUKTIONSELEMENTE
100
AcDbCircle
 62
7
  6
CONTINUOUS
 10
432.128585701
 20
151.0968097153
 40
2.5
100
AcDbArc
 50
0.0
 51
180.0
  0
ARC
  5
497
100
AcDbEntity
  8
KONSTRUKTIONSELEMENTE
100
AcDbCircle
 62
7
  6
CONTINUOUS
 10
432.128585701
 20
133.5864020752
 40
2.5
100
AcDbArc
 50
180.0
 51
219.8746922406
  0
ARC
  5
498
100
AcDbEntity
  8
KONSTRUKTIONSELEMENTE
100
AcDbCircle
 62
7
  6
CONTINUOUS
 10
432.128585701
 20
133.5864020752
 40
2.5
100
AcDbArc
 50
320.1253077594
 51
360.0
  0
ARC
  5
499
100
AcDbEntity
  8
KONSTRUKTIONSELEMENTE
100
AcDbCircle
 62
7
  6
CONTINUOUS
 10
432.128585701
 20
159.9261296744
 40
2.25
100
AcDbArc
 50
180.0
 51
360.0
  0
ARC
  5
49A
100
AcDbEntity
  8
KONSTRUKTIONSELEMENTE
100
AcDbCircle
 62
7
  6
CONTINUOUS
 10
432.128585701
 20
182.0327313922
 40
2.25
100
AcDbArc
 50
0.0
 51
180.0
  0
ARC
  5
49B
100
AcDbEntity
  8
0
100
AcDbCircle
 62
7
  6
CONTINUOUS
 10
432.128585701
 20
387.4890985252
 40
11.0
100
AcDbArc
 50
0.0
 51
180.0
  0
ARC
  5
49C
100
AcDbEntity
  8
BEZUGSACHSEN
100
AcDbCircle
 62
7
  6
CONTINUOUS
 10
447.3369902664
 20
52.3482789778
 40
6.2084045654
100
AcDbArc
 50
180.0
 51
205.8389856933
  0
ARC
  5
49D
100
AcDbEntity
  8
KONSTRUKTIONSELEMENTE
100
AcDbCircle
 62
7
  6
CONTINUOUS
 10
440.3818891374
 20
90.4218244586
 40
3.7399682201
100
AcDbArc
 50
111.3149175253
 51
112.0930351417
  0
ARC
  5
49E
100
AcDbEntity
  8
KONSTRUKTIONSELEMENTE
100
AcDbCircle
 62
7
  6
CONTINUOUS
 10
437.4085580513
 20
94.1827907143
 40
1.6402512869
100
AcDbArc
 50
170.1127932779
 51
170.8877843411
  0
ARC
  5
49F
100
AcDbEntity
  8
KONSTRUKTIONSELEMENTE
100
AcDbCircle
 62
7
  6
CONTINUOUS
 10
437.3808862587
 20
94.1867560296
 40
1.6123007968
100
AcDbArc
 50
170.8711862573
 51
179.9687964359
  0
ARC
  5
4A0
100
AcDbEntity
  8
RUNDUNGEN
100
AcDbCircle
 62
7
  6
CONTINUOUS
 10
448.2022666141
 20
57.0516819263
 40
1.2416809131
100
AcDbArc
 50
180.0
 51
270.0
  0
ARC
  5
4A1
100
AcDbEntity
  8
BEZUGSACHSEN
100
AcDbCircle
 62
7
  6
CONTINUOUS
 10
448.2022666141
 20
57.0516819263
 40
1.2416809131
100
AcDbArc
 50
180.0
 51
270.0
  0
ARC
  5
4A2
100
AcDbEntity
  8
RUNDUNGEN
100
AcDbCircle
 62
7
  6
CONTINUOUS
 10
445.6365047879
 20
74.6643954841
 40
1.2416809131
100
AcDbArc
 50
0.0
 51
90.0
  0
ARC
  5
4A3
100
AcDbEntity
  8
BEZUGSACHSEN
100
AcDbCircle
 62
7
  6
CONTINUOUS
 10
448.1198666141
 20
56.1965297823
 40
1.2416809131
100
AcDbArc
 50
180.0
 51
270.0001771116
  0
ARC
  5
4A4
100
AcDbEntity
  8
BEZUGSACHSEN
100
AcDbCircle
 62
7
  6
CONTINUOUS
 10
461.9201811356
 20
57.9017800393
 40
6.2084045654
100
AcDbArc
 50
328.15
 51
360.0
  0
ARC
  5
4A5
100
AcDbEntity
  8
BEZUGSACHSEN
100
AcDbCircle
 62
7
  6
CONTINUOUS
 10
462.1260911675
 20
74.3500010132
 40
5.2775054665
100
AcDbArc
 50
111.6581766403
 51
228.0119407189
  0
ARC
  5
4A6
100
AcDbEntity
  8
BEZUGSACHSEN
100
AcDbCircle
 62
7
  6
CONTINUOUS
 10
465.042135079
 20
69.3453581453
 40
3.086450631
100
AcDbArc
 50
359.9956305717
 51
35.0043694283
  0
CIRCLE
  5
4A7
100
AcDbEntity
  8
BEZUGSACHSEN
100
AcDbCircle
 62
7
  6
CONTINUOUS
 10
462.6665165426
 20
64.7890985252
 40
1.25
  0
ARC
  5
4A8
100
AcDbEntity
  8
RUNDUNGEN
100
AcDbCircle
 62
7
  6
CONTINUOUS
 10
457.3489739463
 20
57.0516819263
 40
1.2416809131
100
AcDbArc
 50
270.0
 51
360.0
  0
ARC
  5
4A9
100
AcDbEntity
  8
BEZUGSACHSEN
100
AcDbCircle
 62
7
  6
CONTINUOUS
 10
457.3489739463
 20
57.0516819263
 40
1.2416809131
100
AcDbArc
 50
270.0
 51
360.0
  0
ARC
  5
4AA
100
AcDbEntity
  8
RUNDUNGEN
100
AcDbCircle
 62
7
  6
CONTINUOUS
 10
460.0919966301
 20
74.6643954841
 40
1.2416809131
100
AcDbArc
 50
90.0
 51
180.0
  0
ARC
  5
4AB
100
AcDbEntity
  8
BEZUGSACHSEN
100
AcDbCircle
 62
7
  6
CONTINUOUS
 10
457.6086348039
 20
56.1965297823
 40
1.2416809131
100
AcDbArc
 50
270.0008270756
 51
360.0
  0
ARC
  5
4AC
100
AcDbEntity
  8
KONSTRUKTIONSELEMENTE
100
AcDbCircle
 62
7
  6
CONTINUOUS
 10
473.078585701
 20
173.1890985252
 40
10.4
100
AcDbArc
 50
180.0
 51
265.6521347209
  0
SPLINE
  5
4AD
100
AcDbEntity
  8
KONSTRUKTIONSELEMENTE
100
AcDbSpline
 62
7
  6
CONTINUOUS
 70
0
 71
3
 72
11
 73
7
 74
0
 42
0.0000001
 43
0.0000001
 44
0.0000000001
 40
0.0
 40
0.0
 40
0.0
 40
0.0
 40
0.2500595299
 40
0.5000461249
 40
0.7500189222
 40
1.0
 40
1.0
 40
1.0
 40
1.0
 10
228.740653305
 20
161.478710266
 30
0.0
 10
229.6475018756
 20
160.6983508458
 30
0.0
 10
231.287015146
 20
158.9232182394
 30
0.0
 10
233.0985377585
 20
155.794633884
 30
0.0
 10
234.2123676699
 20
152.3573145567
 30
0.0
 10
234.465653305
 20
149.9581339408
 30
0.0
 10
234.465653305
 20
148.7621250866
 30
0.0
  0
SPLINE
  5
4AE
100
AcDbEntity
  8
KONSTRUKTIONSELEMENTE
100
AcDbSpline
 62
7
  6
CONTINUOUS
 70
0
 71
3
 72
11
 73
7
 74
0
 42
0.0000001
 43
0.0000001
 44
0.0000000001
 40
0.0
 40
0.0
 40
0.0
 40
0.0
 40
0.2500482677
 40
0.5000645527
 40
0.7500499097
 40
1.0
 40
1.0
 40
1.0
 40
1.0
 10
192.465653305
 20
148.7621387336
 30
0.0
 10
192.465653305
 20
149.9584713398
 30
0.0
 10
192.7187347527
 20
152.3582423578
 30
0.0
 10
193.8336306468
 20
155.7958564104
 30
0.0
 10
195.6456444946
 20
158.9236873757
 30
0.0
 10
197.2843550459
 20
160.6987581078
 30
0.0
 10
198.190653305
 20
161.4789577657
 30
0.0
  0
SPLINE
  5
4AF
100
AcDbEntity
  8
KONSTRUKTIONSELEMENTE
100
AcDbSpline
 62
7
  6
CONTINUOUS
 70
0
 71
3
 72
13
 73
9
 74
0
 42
0.0000001
 43
0.0000001
 44
0.0000000001
 40
0.0
 40
0.0
 40
0.0
 40
0.0
 40
0.1197290731
 40
0.2397365246
 40
0.3609040964
 40
0.4836831257
 40
0.7359942557
 40
1.0
 40
1.0
 40
1.0
 40
1.0
 10
440.128585701
 20
191.8390805783
 30
0.0
 10
440.128585701
 20
192.1882942805
 30
0.0
 10
440.0564820792
 20
192.8896353165
 30
0.0
 10
439.7381967445
 20
193.8998535646
 30
0.0
 10
439.2288132028
 20
194.8384317833
 30
0.0
 10
438.3170126742
 20
195.9712062899
 30
0.0
 10
436.8011214086
 20
197.108349706
 30
0.0
 10
435.3782345586
 20
197.65489543
 30
0.0
 10
434.6320100369
 20
197.8448639206
 30
0.0
  0
SPLINE
  5
4B0
100
AcDbEntity
  8
KONSTRUKTIONSELEMENTE
100
AcDbSpline
 62
7
  6
CONTINUOUS
 70
0
 71
3
 72
13
 73
9
 74
0
 42
0.0000001
 43
0.0000001
 44
0.0000000001
 40
0.0
 40
0.0
 40
0.0
 40
0.0
 40
0.2640112835
 40
0.5163080567
 40
0.6390830379
 40
0.7602378991
 40
0.8802701562
 40
1.0
 40
1.0
 40
1.0
 40
1.0
 10
429.6242578985
 20
197.844616731
 30
0.0
 10
428.8781180762
 20
197.6545821297
 30
0.0
 10
427.4554416348
 20
197.1080154986
 30
0.0
 10
425.9398515677
 20
195.9708701576
 30
0.0
 10
425.0282612903
 20
194.838254649
 30
0.0
 10
424.5188703744
 20
193.8997773624
 30
0.0
 10
424.2007336554
 20
192.8895892593
 30
0.0
 10
424.128585701
 20
192.1882593758
 30
0.0
 10
424.128585701
 20
191.8390805783
 30
0.0
  0
SPLINE
  5
4B1
100
AcDbEntity
  8
KONSTRUKTIONSELEMENTE
100
AcDbSpline
 62
7
  6
CONTINUOUS
 70
0
 71
3
 72
12
 73
8
 74
0
 42
0.0000001
 43
0.0000001
 44
0.0000000001
 40
0.0
 40
0.0
 40
0.0
 40
0.0
 40
0.1282453638
 40
0.2146169864
 40
0.321985829
 40
0.6101725692
 40
1.0
 40
1.0
 40
1.0
 40
1.0
 10
435.628585701
 20
191.8390805783
 30
0.0
 10
435.628585701
 20
191.9083435882
 30
0.0
 10
435.6089227153
 20
192.0248874378
 30
0.0
 10
435.5422328216
 20
192.1859109617
 30
0.0
 10
435.4110679308
 20
192.4117221357
 30
0.0
 10
435.1197734705
 20
192.7266965791
 30
0.0
 10
434.8174760671
 20
192.9380638212
 30
0.0
 10
434.634939766
 20
193.0429784176
 30
0.0
  0
SPLINE
  5
4B2
100
AcDbEntity
  8
KONSTRUKTIONSELEMENTE
100
AcDbSpline
 62
7
  6
CONTINUOUS
 70
0
 71
3
 72
12
 73
8
 74
0
 42
0.0000001
 43
0.0000001
 44
0.0000000001
 40
0.0
 40
0.0
 40
0.0
 40
0.0
 40
0.3898396094
 40
0.6780156338
 40
0.7853729626
 40
0.8717632718
 40
1.0
 40
1.0
 40
1.0
 40
1.0
 10
429.6221400999
 20
193.0429259465
 30
0.0
 10
429.4396128565
 20
192.938010537
 30
0.0
 10
429.1373650928
 20
192.7266211992
 30
0.0
 10
428.8460601166
 20
192.4117032817
 30
0.0
 10
428.7149219583
 20
192.1858948197
 30
0.0
 10
428.6482761512
 20
192.0248690853
 30
0.0
 10
428.628585701
 20
191.9083343107
 30
0.0
 10
428.628585701
 20
191.8390805783
 30
0.0
  0
SPLINE
  5
4B3
100
AcDbEntity
  8
KONSTRUKTIONSELEMENTE
100
AcDbSpline
 62
7
  6
CONTINUOUS
 70
0
 71
3
 72
11
 73
7
 74
0
 42
0.0000001
 43
0.0000001
 44
0.0000000001
 40
0.0
 40
0.0
 40
0.0
 40
0.0
 40
0.3114703232
 40
0.4450990083
 40
0.6063354134
 40
1.0
 40
1.0
 40
1.0
 40
1.0
 10
428.628585701
 20
181.2324788605
 30
0.0
 10
428.628585701
 20
181.0353240141
 30
0.0
 10
428.7672962366
 20
180.7602291271
 30
0.0
 10
429.0186640831
 20
180.4738771327
 30
0.0
 10
429.3470327575
 20
180.1840971265
 30
0.0
 10
429.6518348394
 20
180.0027146962
 30
0.0
 10
429.8765938127
 20
179.8951265652
 30
0.0
  0
SPLINE
  5
4B4
100
AcDbEntity
  8
KONSTRUKTIONSELEMENTE
100
AcDbSpline
 62
7
  6
CONTINUOUS
 70
0
 71
3
 72
11
 73
7
 74
0
 42
0.0000001
 43
0.0000001
 44
0.0000000001
 40
0.0
 40
0.0
 40
0.0
 40
0.0
 40
0.3936803283
 40
0.5549226436
 40
0.6885473432
 40
1.0
 40
1.0
 40
1.0
 40
1.0
 10
434.3803349365
 20
179.8950146372
 30
0.0
 10
434.6051428425
 20
180.0026045378
 30
0.0
 10
434.9100097511
 20
180.1840076555
 30
0.0
 10
435.238437551
 20
180.4738269267
 30
0.0
 10
435.4898809278
 20
180.760172073
 30
0.0
 10
435.628585701
 20
181.0353075567
 30
0.0
 10
435.628585701
 20
181.2324788605
 30
0.0
  0
SPLINE
  5
4B5
100
AcDbEntity
  8
KONSTRUKTIONSELEMENTE
100
AcDbSpline
 62
7
  6
CONTINUOUS
 70
0
 71
3
 72
13
 73
9
 74
0
 42
0.0000001
 43
0.0000001
 44
0.0000000001
 40
0.0
 40
0.0
 40
0.0
 40
0.0
 40
0.1194785188
 40
0.2392741704
 40
0.3602835725
 40
0.4830059608
 40
0.7355440041
 40
1.0
 40
1.0
 40
1.0
 40
1.0
 10
424.128585701
 20
181.2324788605
 30
0.0
 10
424.128585701
 20
180.8738392493
 30
0.0
 10
424.2046811842
 20
180.1533326203
 30
0.0
 10
424.5402574118
 20
179.1178368646
 30
0.0
 10
425.0762418771
 20
178.1595171854
 30
0.0
 10
426.0339374428
 20
177.0091374246
 30
0.0
 10
427.6202560855
 20
175.8697949053
 30
0.0
 10
429.1003095279
 20
175.342268885
 30
0.0
 10
429.8744733805
 20
175.1667127399
 30
0.0
  0
SPLINE
  5
4B6
100
AcDbEntity
  8
KONSTRUKTIONSELEMENTE
100
AcDbSpline
 62
7
  6
CONTINUOUS
 70
0
 71
3
 72
13
 73
9
 74
0
 42
0.0000001
 43
0.0000001
 44
0.0000000001
 40
0.0
 40
0.0
 40
0.0
 40
0.0
 40
0.2644681654
 40
0.5169944072
 40
0.6397129492
 40
0.760706397
 40
0.8805228501
 40
1.0
 40
1.0
 40
1.0
 40
1.0
 10
434.3807564798
 20
175.1662815276
 30
0.0
 10
435.1551538063
 20
175.3417616318
 30
0.0
 10
436.6356446539
 20
175.8690823605
 30
0.0
 10
438.222495061
 20
177.0084348239
 30
0.0
 10
439.1804670203
 20
178.1588773727
 30
0.0
 10
439.716783778
 20
179.1172991593
 30
0.0
 10
440.0523981146
 20
180.1530525718
 30
0.0
 10
440.128585701
 20
180.8737645902
 30
0.0
 10
440.128585701
 20
181.2324788605
 30
0.0
  0
SPLINE
  5
4B7
100
AcDbEntity
  8
KONSTRUKTIONSELEMENTE
100
AcDbSpline
 62
7
  6
CONTINUOUS
 70
0
 71
3
 72
13
 73
9
 74
0
 42
0.0000001
 43
0.0000001
 44
0.0000000001
 40
0.0
 40
0.0
 40
0.0
 40
0.0
 40
0.1194785188
 40
0.2392741704
 40
0.3602835725
 40
0.4830059608
 40
0.7355440041
 40
1.0
 40
1.0
 40
1.0
 40
1.0
 10
440.128585701
 20
160.7263822061
 30
0.0
 10
440.128585701
 20
161.0850218174
 30
0.0
 10
440.0524902178
 20
161.8055284464
 30
0.0
 10
439.7169139902
 20
162.8410242021
 30
0.0
 10
439.1809295249
 20
163.7993438812
 30
0.0
 10
438.2232339592
 20
164.9497236421
 30
0.0
 10
436.6369153165
 20
166.0890661614
 30
0.0
 10
435.1568618741
 20
166.6165921817
 30
0.0
 10
434.3826980215
 20
166.7921483268
 30
0.0
  0
SPLINE
  5
4B8
100
AcDbEntity
  8
KONSTRUKTIONSELEMENTE
100
AcDbSpline
 62
7
  6
CONTINUOUS
 70
0
 71
3
 72
13
 73
9
 74
0
 42
0.0000001
 43
0.0000001
 44
0.0000000001
 40
0.0
 40
0.0
 40
0.0
 40
0.0
 40
0.2644681654
 40
0.5169944072
 40
0.6397129492
 40
0.760706397
 40
0.8805228501
 40
1.0
 40
1.0
 40
1.0
 40
1.0
 10
429.8764149222
 20
166.7925795391
 30
0.0
 10
429.1020175957
 20
166.6170994349
 30
0.0
 10
427.6215267481
 20
166.0897787062
 30
0.0
 10
426.034676341
 20
164.9504262428
 30
0.0
 10
425.0767043817
 20
163.7999836939
 30
0.0
 10
424.540387624
 20
162.8415619074
 30
0.0
 10
424.2047732874
 20
161.8058084949
 30
0.0
 10
424.128585701
 20
161.0850964764
 30
0.0
 10
424.128585701
 20
160.7263822061
 30
0.0
  0
SPLINE
  5
4B9
100
AcDbEntity
  8
KONSTRUKTIONSELEMENTE
100
AcDbSpline
 62
7
  6
CONTINUOUS
 70
0
 71
3
 72
11
 73
7
 74
0
 42
0.0000001
 43
0.0000001
 44
0.0000000001
 40
0.0
 40
0.0
 40
0.0
 40
0.0
 40
0.3114703232
 40
0.4450990083
 40
0.6063354134
 40
1.0
 40
1.0
 40
1.0
 40
1.0
 10
435.628585701
 20
160.7263822061
 30
0.0
 10
435.628585701
 20
160.9235370526
 30
0.0
 10
435.4898751654
 20
161.1986319396
 30
0.0
 10
435.2385073189
 20
161.4849839339
 30
0.0
 10
434.9101386445
 20
161.7747639402
 30
0.0
 10
434.6053365626
 20
161.9561463705
 30
0.0
 10
434.3805775893
 20
162.0637345015
 30
0.0
  0
SPLINE
  5
4BA
100
AcDbEntity
  8
KONSTRUKTIONSELEMENTE
100
AcDbSpline
 62
7
  6
CONTINUOUS
 70
0
 71
3
 72
11
 73
7
 74
0
 42
0.0000001
 43
0.0000001
 44
0.0000000001
 40
0.0
 40
0.0
 40
0.0
 40
0.0
 40
0.3936803283
 40
0.5549226436
 40
0.6885473432
 40
1.0
 40
1.0
 40
1.0
 40
1.0
 10
429.8768364655
 20
162.0638464295
 30
0.0
 10
429.6520285595
 20
161.9562565289
 30
0.0
 10
429.3471616509
 20
161.7748534112
 30
0.0
 10
429.018733851
 20
161.48503414
 30
0.0
 10
428.7672904742
 20
161.1986889937
 30
0.0
 10
428.628585701
 20
160.92355351
 30
0.0
 10
428.628585701
 20
160.7263822061
 30
0.0
  0
SPLINE
  5
4BB
100
AcDbEntity
  8
KONSTRUKTIONSELEMENTE
100
AcDbSpline
 62
7
  6
CONTINUOUS
 70
0
 71
3
 72
12
 73
8
 74
0
 42
0.0000001
 43
0.0000001
 44
0.0000000001
 40
0.0
 40
0.0
 40
0.0
 40
0.0
 40
0.1282453638
 40
0.2146169864
 40
0.321985829
 40
0.6101725692
 40
1.0
 40
1.0
 40
1.0
 40
1.0
 10
428.628585701
 20
150.1197804883
 30
0.0
 10
428.628585701
 20
150.0505174785
 30
0.0
 10
428.6482486867
 20
149.9339736289
 30
0.0
 10
428.7149385804
 20
149.772950105
 30
0.0
 10
428.8461034712
 20
149.5471389309
 30
0.0
 10
429.1373979316
 20
149.2321644876
 30
0.0
 10
429.4396953349
 20
149.0207972455
 30
0.0
 10
429.622231636
 20
148.9158826491
 30
0.0
  0
SPLINE
  5
4BC
100
AcDbEntity
  8
KONSTRUKTIONSELEMENTE
100
AcDbSpline
 62
7
  6
CONTINUOUS
 70
0
 71
3
 72
12
 73
8
 74
0
 42
0.0000001
 43
0.0000001
 44
0.0000000001
 40
0.0
 40
0.0
 40
0.0
 40
0.0
 40
0.3898396094
 40
0.6780156338
 40
0.7853729626
 40
0.8717632718
 40
1.0
 40
1.0
 40
1.0
 40
1.0
 10
434.6350313021
 20
148.9159351202
 30
0.0
 10
434.8175585455
 20
149.0208505297
 30
0.0
 10
435.1198063092
 20
149.2322398674
 30
0.0
 10
435.4111112854
 20
149.547157785
 30
0.0
 10
435.5422494437
 20
149.772966247
 30
0.0
 10
435.6088952508
 20
149.9339919814
 30
0.0
 10
435.628585701
 20
150.050526756
 30
0.0
 10
435.628585701
 20
150.1197804883
 30
0.0
  0
SPLINE
  5
4BD
100
AcDbEntity
  8
KONSTRUKTIONSELEMENTE
100
AcDbSpline
 62
7
  6
CONTINUOUS
 70
0
 71
3
 72
13
 73
9
 74
0
 42
0.0000001
 43
0.0000001
 44
0.0000000001
 40
0.0
 40
0.0
 40
0.0
 40
0.0
 40
0.1197290731
 40
0.2397365246
 40
0.3609040964
 40
0.4836831257
 40
0.7359942557
 40
1.0
 40
1.0
 40
1.0
 40
1.0
 10
424.128585701
 20
150.1197804883
 30
0.0
 10
424.128585701
 20
149.7705667862
 30
0.0
 10
424.2006893228
 20
149.0692257502
 30
0.0
 10
424.5189746576
 20
148.0590075021
 30
0.0
 10
425.0283581992
 20
147.1204292834
 30
0.0
 10
425.9401587278
 20
145.9876547767
 30
0.0
 10
427.4560499934
 20
144.8505113606
 30
0.0
 10
428.8789368434
 20
144.3039656367
 30
0.0
 10
429.6251613651
 20
144.1139971461
 30
0.0
  0
SPLINE
  5
4BE
100
AcDbEntity
  8
KONSTRUKTIONSELEMENTE
100
AcDbSpline
 62
7
  6
CONTINUOUS
 70
0
 71
3
 72
13
 73
9
 74
0
 42
0.0000001
 43
0.0000001
 44
0.0000000001
 40
0.0
 40
0.0
 40
0.0
 40
0.0
 40
0.2640112835
 40
0.5163080567
 40
0.6390830379
 40
0.7602378991
 40
0.8802701562
 40
1.0
 40
1.0
 40
1.0
 40
1.0
 10
434.6329135035
 20
144.1142443357
 30
0.0
 10
435.3790533258
 20
144.304278937
 30
0.0
 10
436.8017297672
 20
144.8508455681
 30
0.0
 10
438.3173198343
 20
145.9879909091
 30
0.0
 10
439.2289101117
 20
147.1206064177
 30
0.0
 10
439.7383010276
 20
148.0590837043
 30
0.0
 10
440.0564377466
 20
149.0692718074
 30
0.0
 10
440.128585701
 20
149.7706016909
 30
0.0
 10
440.128585701
 20
150.1197804883
 30
0.0
  0
SPLINE
  5
4BF
100
AcDbEntity
  8
KONSTRUKTIONSELEMENTE
100
AcDbSpline
 62
7
  6
CONTINUOUS
 70
0
 71
3
 72
13
 73
9
 74
0
 42
0.0000001
 43
0.0000001
 44
0.0000000001
 40
0.0
 40
0.0
 40
0.0
 40
0.0
 40
0.1033428242
 40
0.2099633148
 40
0.3217306781
 40
0.4406830545
 40
0.7033772326
 40
1.0
 40
1.0
 40
1.0
 40
1.0
 10
449.628585701
 20
217.2949247011
 30
0.0
 10
449.628585701
 20
217.6921413711
 30
0.0
 10
449.5613227596
 20
218.5006392117
 30
0.0
 10
449.2595534
 20
219.7050484509
 30
0.0
 10
448.7498735235
 20
220.9028868498
 30
0.0
 10
447.7567667025
 20
222.5255562474
 30
0.0
 10
445.9448504413
 20
224.44108407
 30
0.0
 10
444.1394072888
 20
225.6396567535
 30
0.0
 10
443.1358722383
 20
226.1807642791
 30
0.0
  0
SPLINE
  5
4C0
100
AcDbEntity
  8
KONSTRUKTIONSELEMENTE
100
AcDbSpline
 62
7
  6
CONTINUOUS
 70
0
 71
3
 72
13
 73
9
 74
0
 42
0.0000001
 43
0.0000001
 44
0.0000000001
 40
0.0
 40
0.0
 40
0.0
 40
0.0
 40
0.2966311639
 40
0.5593311359
 40
0.6782808188
 40
0.7900469352
 40
0.8966668594
 40
1.0
 40
1.0
 40
1.0
 40
1.0
 10
421.1234516102
 20
226.181928599
 30
0.0
 10
420.1196111423
 20
225.6408118082
 30
0.0
 10
418.3135788242
 20
224.4421938008
 30
0.0
 10
416.5010594213
 20
222.526402371
 30
0.0
 10
415.5075772255
 20
220.9034814124
 30
0.0
 10
414.9977324649
 20
219.705429767
 30
0.0
 10
414.6958761586
 20
218.5008168552
 30
0.0
 10
414.628585701
 20
217.6921880904
 30
0.0
 10
414.628585701
 20
217.2949247011
 30
0.0
  0
SPLINE
  5
4C1
100
AcDbEntity
  8
KONSTRUKTIONSELEMENTE
100
AcDbSpline
 62
7
  6
CONTINUOUS
 70
0
 71
3
 72
14
 73
10
 74
0
 42
0.0000001
 43
0.0000001
 44
0.0000000001
 40
0.0
 40
0.0
 40
0.0
 40
0.0
 40
0.1161024482
 40
0.2331772608
 40
0.3522235074
 40
0.4741108943
 40
0.5995692296
 40
0.7290635279
 40
1.0
 40
1.0
 40
1.0
 40
1.0
 10
455.628585701
 20
217.2949247011
 30
0.0
 10
455.628585701
 20
218.112361859
 30
0.0
 10
455.4753074141
 20
219.7580479638
 30
0.0
 10
454.7956414536
 20
222.1561679502
 30
0.0
 10
453.691879582
 20
224.4359011207
 30
0.0
 10
452.1987526232
 20
226.5523102742
 30
0.0
 10
450.3550435451
 20
228.4735089549
 30
0.0
 10
447.4427082067
 20
230.7736376868
 30
0.0
 10
444.9077309002
 20
232.0844565821
 30
0.0
 10
443.1308583117
 20
232.7783923639
 30
0.0
  0
SPLINE
  5
4C2
100
AcDbEntity
  8
KONSTRUKTIONSELEMENTE
100
AcDbSpline
 62
7
  6
CONTINUOUS
 70
0
 71
3
 72
14
 73
10
 74
0
 42
0.0000001
 43
0.0000001
 44
0.0000000001
 40
0.0
 40
0.0
 40
0.0
 40
0.0
 40
0.2709318312
 40
0.4004237891
 40
0.5258804518
 40
0.6477674703
 40
0.7668143626
 40
0.8838931519
 40
1.0
 40
1.0
 40
1.0
 40
1.0
 10
421.1223518598
 20
232.7768487542
 30
0.0
 10
419.3459800342
 20
232.0827725619
 30
0.0
 10
416.8117499705
 20
230.7718796853
 30
0.0
 10
413.9003515754
 20
228.4718661954
 30
0.0
 10
412.0572555583
 20
226.550865482
 30
0.0
 10
410.5646422147
 20
224.4347464797
 30
0.0
 10
409.4612398978
 20
222.1553737282
 30
0.0
 10
408.7818195901
 20
219.7576412164
 30
0.0
 10
408.628585701
 20
218.1122288443
 30
0.0
 10
408.628585701
 20
217.2949247011
 30
0.0
  0
SPLINE
  5
4C3
100
AcDbEntity
  8
KONSTRUKTIONSELEMENTE
100
AcDbSpline
 62
7
  6
CONTINUOUS
 70
0
 71
3
 72
14
 73
10
 74
0
 42
0.0000001
 43
0.0000001
 44
0.0000000001
 40
0.0
 40
0.0
 40
0.0
 40
0.0
 40
0.0923039402
 40
0.1906740315
 40
0.2992162423
 40
0.4197171364
 40
0.5519476081
 40
0.6944211199
 40
1.0
 40
1.0
 40
1.0
 40
1.0
 10
414.628585701
 20
217.2949247011
 30
0.0
 10
414.628585701
 20
216.6663962459
 30
0.0
 10
414.8015248078
 20
215.3624807533
 30
0.0
 10
415.5749200786
 20
213.4570734124
 30
0.0
 10
416.8693190917
 20
211.6206310832
 30
0.0
 10
418.6675859444
 20
209.9214027939
 30
0.0
 10
420.9251538958
 20
208.4337184932
 30
0.0
 10
424.5292930541
 20
206.7874296733
 30
0.0
 10
427.555190115
 20
206.12161162
 30
0.0
 10
429.6262187006
 20
205.9203074577
 30
0.0
  0
SPLINE
  5
4C4
100
AcDbEntity
  8
KONSTRUKTIONSELEMENTE
100
AcDbSpline
 62
7
  6
CONTINUOUS
 70
0
 71
3
 72
14
 73
10
 74
0
 42
0.0000001
 43
0.0000001
 44
0.0000000001
 40
0.0
 40
0.0
 40
0.0
 40
0.0
 40
0.3055774424
 40
0.4480520662
 40
0.5802837627
 40
0.7007860378
 40
0.8093276023
 40
0.9076986363
 40
1.0
 40
1.0
 40
1.0
 40
1.0
 10
434.6306125279
 20
205.9202676832
 30
0.0
 10
436.7016681389
 20
206.1215524246
 30
0.0
 10
439.7276241318
 20
206.787336452
 30
0.0
 10
443.3318430496
 20
208.4336239897
 30
0.0
 10
445.5894898519
 20
209.9213200791
 30
0.0
 10
447.3877949437
 20
211.6205852117
 30
0.0
 10
448.6822579833
 20
213.4570441861
 30
0.0
 10
449.4556387105
 20
215.362479965
 30
0.0
 10
449.628585701
 20
216.6664032757
 30
0.0
 10
449.628585701
 20
217.2949247011
 30
0.0
  0
SPLINE
  5
4C5
100
AcDbEntity
  8
KONSTRUKTIONSELEMENTE
100
AcDbSpline
 62
7
  6
CONTINUOUS
 70
0
 71
3
 72
14
 73
10
 74
0
 42
0.0000001
 43
0.0000001
 44
0.0000000001
 40
0.0
 40
0.0
 40
0.0
 40
0.0
 40
0.1118036627
 40
0.2253829785
 40
0.3423808581
 40
0.464112494
 40
0.5912619309
 40
0.7237355667
 40
1.0
 40
1.0
 40
1.0
 40
1.0
 10
408.628585701
 20
217.2949247011
 30
0.0
 10
408.628585701
 20
216.1831284788
 30
0.0
 10
408.9155796387
 20
213.932172151
 30
0.0
 10
410.1699162631
 20
210.7339643433
 30
0.0
 10
412.1665561975
 20
207.8217082851
 30
0.0
 10
414.8028207675
 20
205.2826185148
 30
0.0
 10
417.9764663436
 20
203.1722368239
 30
0.0
 10
422.84211081
 20
200.9602692505
 30
0.0
 10
426.8878335753
 20
200.1128872828
 30
0.0
 10
429.6265915189
 20
199.8973716619
 30
0.0
  0
SPLINE
  5
4C6
100
AcDbEntity
  8
KONSTRUKTIONSELEMENTE
100
AcDbSpline
 62
7
  6
CONTINUOUS
 70
0
 71
3
 72
14
 73
10
 74
0
 42
0.0000001
 43
0.0000001
 44
0.0000000001
 40
0.0
 40
0.0
 40
0.0
 40
0.0
 40
0.2762672291
 40
0.4087406592
 40
0.5358892349
 40
0.6576192992
 40
0.7746159913
 40
0.8881946208
 40
1.0
 40
1.0
 40
1.0
 40
1.0
 10
434.6299063512
 20
199.8973113293
 30
0.0
 10
437.3687599913
 20
200.1127582548
 30
0.0
 10
441.4146165288
 20
200.9601153447
 30
0.0
 10
446.2804182207
 20
203.1720684227
 30
0.0
 10
449.4541389411
 20
205.2824460909
 30
0.0
 10
452.0904702808
 20
207.821533872
 30
0.0
 10
454.0871684819
 20
210.7338046352
 30
0.0
 10
455.3415768861
 20
213.9320668742
 30
0.0
 10
455.628585701
 20
216.1830862332
 30
0.0
 10
455.628585701
 20
217.2949247011
 30
0.0
  0
SPLINE
  5
4C7
100
AcDbEntity
  8
RUNDUNGEN
100
AcDbSpline
 62
7
  6
CONTINUOUS
 70
0
 71
3
 72
11
 73
7
 74
0
 42
0.0000001
 43
0.0000001
 44
0.0000000001
 40
0.0
 40
0.0
 40
0.0
 40
0.0
 40
0.2500108003
 40
0.5000108986
 40
0.7500048993
 40
1.0
 40
1.0
 40
1.0
 40
1.0
 10
460.1783300479
 20
79.2549274416
 30
0.0
 10
460.2933236076
 20
79.300591696
 30
0.0
 10
460.5110708977
 20
79.426931291
 30
0.0
 10
460.7669927333
 20
79.7030640589
 30
0.0
 10
460.9309320764
 20
80.0420310992
 30
0.0
 10
460.9685856449
 20
80.291050218
 30
0.0
 10
460.968585701
 20
80.4147709532
 30
0.0
  0
SPLINE
  5
4C8
100
AcDbEntity
  8
RUNDUNGEN
100
AcDbSpline
 62
7
  6
CONTINUOUS
 70
0
 71
3
 72
11
 73
7
 74
0
 42
0.0000001
 43
0.0000001
 44
0.0000000001
 40
0.0
 40
0.0
 40
0.0
 40
0.0
 40
0.2500139656
 40
0.500003507
 40
0.7499908108
 40
1.0
 40
1.0
 40
1.0
 40
1.0
 10
400.4397679
 20
53.6721208882
 30
0.0
 10
400.3395921975
 20
53.672120907
 30
0.0
 10
400.1384323494
 20
53.6962270647
 30
0.0
 10
399.8544738412
 20
53.8027688279
 30
0.0
 10
399.6037978322
 20
53.9735125647
 30
0.0
 10
399.4684211904
 20
54.124299583
 30
0.0
 10
399.410963815
 20
54.2063571114
 30
0.0
  0
SPLINE
  5
4C9
100
AcDbEntity
  8
RUNDUNGEN
100
AcDbSpline
 62
7
  6
CONTINUOUS
 70
0
 71
3
 72
13
 73
9
 74
0
 42
0.0000001
 43
0.0000001
 44
0.0000000001
 40
0.0
 40
0.0
 40
0.0
 40
0.0
 40
0.2494185536
 40
0.4988218139
 40
0.6241166257
 40
0.7494130174
 40
0.8747019565
 40
1.0
 40
1.0
 40
1.0
 40
1.0
 10
422.6314270791
 20
53.6721223211
 30
0.0
 10
422.7940590128
 20
53.6721221398
 30
0.0
 10
423.1226548357
 20
53.7359403053
 30
0.0
 10
423.4714869801
 20
53.9659623387
 30
0.0
 10
423.6814172329
 20
54.2177443774
 30
0.0
 10
423.7993427353
 20
54.4345122412
 30
0.0
 10
423.8721507104
 20
54.6701485569
 30
0.0
 10
423.888585688
 20
54.8340121962
 30
0.0
 10
423.888585701
 20
54.915712065
 30
0.0
  0
SPLINE
  5
4CA
100
AcDbEntity
  8
BEZUGSACHSEN
100
AcDbSpline
 62
7
  6
CONTINUOUS
 70
0
 71
3
 72
11
 73
7
 74
0
 42
0.0000001
 43
0.0000001
 44
0.0000000001
 40
0.0
 40
0.0
 40
0.0
 40
0.0
 40
0.2275707659
 40
0.4699837911
 40
0.7278933463
 40
1.0
 40
1.0
 40
1.0
 40
1.0
 10
427.0057298346
 20
134.2110042801
 30
0.0
 10
427.1302080627
 20
134.4362776385
 30
0.0
 10
427.4424718154
 20
134.8724166752
 30
0.0
 10
428.0490482565
 20
135.4356790765
 30
0.0
 10
428.7865875054
 20
135.91117463
 30
0.0
 10
429.3372291899
 20
136.1545070566
 30
0.0
 10
429.6266708586
 20
136.2590590408
 30
0.0
  0
SPLINE
  5
4CB
100
AcDbEntity
  8
BEZUGSACHSEN
100
AcDbSpline
 62
7
  6
CONTINUOUS
 70
0
 71
3
 72
11
 73
7
 74
0
 42
0.0000001
 43
0.0000001
 44
0.0000000001
 40
0.0
 40
0.0
 40
0.0
 40
0.0
 40
0.2721066537
 40
0.5300162089
 40
0.7724292341
 40
1.0
 40
1.0
 40
1.0
 40
1.0
 10
434.6305005434
 20
136.2590590408
 30
0.0
 10
434.9199422121
 20
136.1545070566
 30
0.0
 10
435.4705838966
 20
135.91117463
 30
0.0
 10
436.2081231455
 20
135.4356790765
 30
0.0
 10
436.8146995866
 20
134.8724166752
 30
0.0
 10
437.1269633394
 20
134.4362776385
 30
0.0
 10
437.2514415674
 20
134.2110042801
 30
0.0
  0
SPLINE
  5
4CC
100
AcDbEntity
  8
KONSTRUKTIONSELEMENTE
100
AcDbSpline
 62
7
  6
CONTINUOUS
 70
0
 71
3
 72
11
 73
7
 74
0
 42
0.0000001
 43
0.0000001
 44
0.0000000001
 40
0.0
 40
0.0
 40
0.0
 40
0.0
 40
0.2729767978
 40
0.5353848362
 40
0.7789285996
 40
1.0
 40
1.0
 40
1.0
 40
1.0
 10
453.9694547926
 20
93.904791384
 30
0.0
 10
454.3444565032
 20
93.904791384
 30
0.0
 10
455.0821631424
 20
93.9776053342
 30
0.0
 10
456.11092904
 20
94.3003747918
 30
0.0
 10
456.9793085516
 20
94.812941379
 30
0.0
 10
457.4274926007
 20
95.2843423445
 30
0.0
 10
457.5946859407
 20
95.5378735538
 30
0.0
  0
SPLINE
  5
4CD
100
AcDbEntity
  8
KONSTRUKTIONSELEMENTE
100
AcDbSpline
 62
7
  6
CONTINUOUS
 70
0
 71
3
 72
9
 73
5
 74
0
 42
0.0000001
 43
0.0000001
 44
0.0000000001
 40
0.0
 40
0.0
 40
0.0
 40
0.0
 40
0.2605100871
 40
1.0
 40
1.0
 40
1.0
 40
1.0
 10
457.7863434434
 20
95.8285021066
 30
0.0
 10
457.7923782758
 20
95.8376532986
 30
0.0
 10
457.8133170528
 20
95.8741714028
 30
0.0
 10
457.8238172175
 20
95.9168855308
 30
0.0
 10
457.8238190437
 20
95.9480022662
 30
0.0
  0
SPLINE
  5
4CE
100
AcDbEntity
  8
KONSTRUKTIONSELEMENTE
100
AcDbSpline
 62
7
  6
CONTINUOUS
 70
0
 71
3
 72
10
 73
6
 74
0
 42
0.0000001
 43
0.0000001
 44
0.0000000001
 40
0.0
 40
0.0
 40
0.0
 40
0.0
 40
0.2661924468
 40
0.53465928
 40
1.0
 40
1.0
 40
1.0
 40
1.0
 10
475.004740017
 20
122.6076620956
 30
0.0
 10
475.0534447447
 20
122.5916027195
 30
0.0
 10
475.1570959972
 20
122.5746266092
 30
0.0
 10
475.3485794638
 20
122.5936737515
 30
0.0
 10
475.4869548219
 20
122.6696275266
 30
0.0
 10
475.5363104365
 20
122.7444701529
 30
0.0
  0
SPLINE
  5
4CF
100
AcDbEntity
  8
KONSTRUKTIONSELEMENTE
100
AcDbSpline
 62
7
  6
CONTINUOUS
 70
0
 71
3
 72
9
 73
5
 74
0
 42
0.0000001
 43
0.0000001
 44
0.0000000001
 40
0.0
 40
0.0
 40
0.0
 40
0.0
 40
0.5108269807
 40
1.0
 40
1.0
 40
1.0
 40
1.0
 10
476.0011905244
 20
123.4494121732
 30
0.0
 10
476.1198963155
 20
123.629417087
 30
0.0
 10
476.3088375935
 20
124.0137796402
 30
0.0
 10
476.3759557217
 20
124.4382255208
 30
0.0
 10
476.3759594004
 20
124.6447072728
 30
0.0
  0
SPLINE
  5
4D0
100
AcDbEntity
  8
KONSTRUKTIONSELEMENTE
100
AcDbSpline
 62
7
  6
CONTINUOUS
 70
0
 71
3
 72
11
 73
7
 74
0
 42
0.0000001
 43
0.0000001
 44
0.0000000001
 40
0.0
 40
0.0
 40
0.0
 40
0.0
 40
0.2200436456
 40
0.4557793627
 40
0.7157728079
 40
1.0
 40
1.0
 40
1.0
 40
1.0
 10
402.2611435629
 20
121.6775091763
 30
0.0
 10
402.261165782
 20
121.7582344407
 30
0.0
 10
402.2966174299
 20
121.9269562791
 30
0.0
 10
402.4449003966
 20
122.1497014122
 30
0.0
 10
402.6710033308
 20
122.3308814757
 30
0.0
 10
402.8549732593
 20
122.4136955756
 30
0.0
 10
402.9540005887
 20
122.4463477883
 30
0.0
  0
SPLINE
  5
4D1
100
AcDbEntity
  8
BEZUGSACHSEN
100
AcDbSpline
 62
7
  6
CONTINUOUS
 70
0
 71
3
 72
19
 73
15
 74
0
 42
0.0000001
 43
0.0000001
 44
0.0000000001
 40
0.0
 40
0.0
 40
0.0
 40
0.0
 40
0.0517279957
 40
0.105334459
 40
0.1622489926
 40
0.2232158543
 40
0.3564755372
 40
0.5
 40
0.6435244628
 40
0.7767841457
 40
0.8377510074
 40
0.894665541
 40
0.9482720043
 40
1.0
 40
1.0
 40
1.0
 40
1.0
 10
437.628585701
 20
135.624091474
 30
0.0
 10
437.628585701
 20
135.368742149
 30
0.0
 10
437.5544806966
 20
134.8461185593
 30
0.0
 10
437.2302167622
 20
134.1045301535
 30
0.0
 10
436.7100380689
 20
133.4272428166
 30
0.0
 10
435.759411554
 20
132.619826507
 30
0.0
 10
434.2094457625
 20
131.9194860161
 30
0.0
 10
432.128585701
 20
131.6393424237
 30
0.0
 10
430.0477256395
 20
131.9194860161
 30
0.0
 10
428.497759848
 20
132.619826507
 30
0.0
 10
427.5471333331
 20
133.4272428166
 30
0.0
 10
427.0269546398
 20
134.1045301535
 30
0.0
 10
426.7026907054
 20
134.8461185593
 30
0.0
 10
426.628585701
 20
135.368742149
 30
0.0
 10
426.628585701
 20
135.624091474
 30
0.0
  0
SPLINE
  5
4D2
100
AcDbEntity
  8
KONSTRUKTIONSELEMENTE
100
AcDbSpline
 62
7
  6
CONTINUOUS
 70
0
 71
3
 72
11
 73
7
 74
0
 42
0.0000001
 43
0.0000001
 44
0.0000000001
 40
0.0
 40
0.0
 40
0.0
 40
0.0
 40
0.2842271921
 40
0.5442206373
 40
0.7799563544
 40
1.0
 40
1.0
 40
1.0
 40
1.0
 10
407.2554209557
 20
122.8991652444
 30
0.0
 10
407.3544482851
 20
122.9318174571
 30
0.0
 10
407.5384182136
 20
123.014631557
 30
0.0
 10
407.7645211478
 20
123.1958116205
 30
0.0
 10
407.9128041145
 20
123.4185567535
 30
0.0
 10
407.9482557624
 20
123.587278592
 30
0.0
 10
407.9482779815
 20
123.6680038563
 30
0.0
  0
SPLINE
  5
4D3
100
AcDbEntity
  8
BEZUGSACHSEN
100
AcDbSpline
 62
7
  6
CONTINUOUS
 70
0
 71
3
 72
9
 73
5
 74
0
 42
0.0000001
 43
0.0000001
 44
0.0000000001
 40
0.0
 40
0.0
 40
0.0
 40
0.0
 40
0.2459387646
 40
1.0
 40
1.0
 40
1.0
 40
1.0
 10
438.8904778889
 20
141.6351528998
 30
0.0
 10
438.5507820222
 20
141.7471605825
 30
0.0
 10
437.1572784163
 20
142.1647291964
 30
0.0
 10
435.7200365528
 20
142.4340336315
 30
0.0
 10
434.6301598504
 20
142.5560269157
 30
0.0
  0
SPLINE
  5
4D4
100
AcDbEntity
  8
BEZUGSACHSEN
100
AcDbSpline
 62
7
  6
CONTINUOUS
 70
0
 71
3
 72
9
 73
5
 74
0
 42
0.0000001
 43
0.0000001
 44
0.0000000001
 40
0.0
 40
0.0
 40
0.0
 40
0.0
 40
0.2536983179
 40
1.0
 40
1.0
 40
1.0
 40
1.0
 10
429.6270115516
 20
142.5560269157
 30
0.0
 10
429.2603373991
 20
142.514983939
 30
0.0
 10
427.8193610846
 20
142.3172921343
 30
0.0
 10
426.3974822184
 20
141.9750341454
 30
0.0
 10
425.3666935132
 20
141.6351528998
 30
0.0
  0
SPLINE
  5
4D5
100
AcDbEntity
  8
KONSTRUKTIONSELEMENTE
100
AcDbSpline
 62
7
  6
CONTINUOUS
 70
0
 71
3
 72
12
 73
8
 74
0
 42
0.0000001
 43
0.0000001
 44
0.0000000001
 40
0.0
 40
0.0
 40
0.0
 40
0.0
 40
0.1035616361
 40
0.2109621259
 40
0.4456948874
 40
0.7125484092
 40
1.0
 40
1.0
 40
1.0
 40
1.0
 10
426.888585701
 20
83.7224537349
 30
0.0
 10
426.888585701
 20
83.6667584087
 30
0.0
 10
426.9048023496
 20
83.5527311932
 30
0.0
 10
427.0016969788
 20
83.3307771226
 30
0.0
 10
427.2412050095
 20
83.091184155
 30
0.0
 10
427.6340223352
 20
82.914587017
 30
0.0
 10
427.9339945733
 20
82.8739255975
 30
0.0
 10
428.088585701
 20
82.8739255975
 30
0.0
  0
SPLINE
  5
4D6
100
AcDbEntity
  8
KONSTRUKTIONSELEMENTE
100
AcDbSpline
 62
7
  6
CONTINUOUS
 70
0
 71
3
 72
11
 73
7
 74
0
 42
0.0000001
 43
0.0000001
 44
0.0000000001
 40
0.0
 40
0.0
 40
0.0
 40
0.0
 40
0.2200606194
 40
0.4557771489
 40
0.7157721538
 40
1.0
 40
1.0
 40
1.0
 40
1.0
 10
457.8238190437
 20
98.7764293909
 30
0.0
 10
457.8238206235
 20
98.8033469859
 30
0.0
 10
457.8120334488
 20
98.8596092901
 30
0.0
 10
457.7626056886
 20
98.9338904435
 30
0.0
 10
457.6872239507
 20
98.9943034157
 30
0.0
 10
457.6258855243
 20
99.0219193133
 30
0.0
 10
457.5928676333
 20
99.0328062796
 30
0.0
  0
SPLINE
  5
4D7
100
AcDbEntity
  8
KONSTRUKTIONSELEMENTE
100
AcDbSpline
 62
7
  6
CONTINUOUS
 70
0
 71
3
 72
12
 73
8
 74
0
 42
0.0000001
 43
0.0000001
 44
0.0000000001
 40
0.0
 40
0.0
 40
0.0
 40
0.0
 40
0.1093780659
 40
0.2208877298
 40
0.4563569003
 40
0.716089424
 40
1.0
 40
1.0
 40
1.0
 40
1.0
 10
476.3759594004
 20
127.4731343975
 30
0.0
 10
476.3759617864
 20
127.607056716
 30
0.0
 10
476.3484319338
 20
127.8782855129
 30
0.0
 10
476.1830190853
 20
128.4152467931
 30
0.0
 10
475.7637326786
 20
129.0483865289
 30
0.0
 10
475.0098927994
 20
129.6513594173
 30
0.0
 10
474.3965685656
 20
129.9277542195
 30
0.0
 10
474.0664324232
 20
130.036609781
 30
0.0
  0
SPLINE
  5
4D8
100
AcDbEntity
  8
KONSTRUKTIONSELEMENTE
100
AcDbSpline
 62
7
  6
CONTINUOUS
 70
0
 71
3
 72
12
 73
8
 74
0
 42
0.0000001
 43
0.0000001
 44
0.0000000001
 40
0.0
 40
0.0
 40
0.0
 40
0.0
 40
0.2839215899
 40
0.5436396333
 40
0.7791104503
 40
0.8906217948
 40
1.0
 40
1.0
 40
1.0
 40
1.0
 10
452.5175440259
 20
100.7062892165
 30
0.0
 10
452.1873916141
 20
100.8151501425
 30
0.0
 10
451.5740684415
 20
101.0915517052
 30
0.0
 10
450.8202188969
 20
101.694533459
 30
0.0
 10
450.4009713981
 20
102.3276825731
 30
0.0
 10
450.2355225342
 20
102.8646479856
 30
0.0
 10
450.2080366711
 20
103.1358853013
 30
0.0
 10
450.2080288512
 20
103.2698091946
 30
0.0
  0
SPLINE
  5
4D9
100
AcDbEntity
  8
KONSTRUKTIONSELEMENTE
100
AcDbSpline
 62
7
  6
CONTINUOUS
 70
0
 71
3
 72
12
 73
8
 74
0
 42
0.0000001
 43
0.0000001
 44
0.0000000001
 40
0.0
 40
0.0
 40
0.0
 40
0.0
 40
0.2639470843
 40
0.5301491947
 40
0.658231942
 40
0.7800450471
 40
1.0
 40
1.0
 40
1.0
 40
1.0
 10
469.9294164096
 20
124.2811450325
 30
0.0
 10
469.4423688826
 20
124.4417388761
 30
0.0
 10
468.4105458134
 20
124.6138250568
 30
0.0
 10
467.1218501778
 20
124.478674021
 30
0.0
 10
466.1672039734
 20
124.1580760237
 30
0.0
 10
465.3570283249
 20
123.7344415517
 30
0.0
 10
464.8489885975
 20
123.2698364807
 30
0.0
 10
464.6137122145
 20
122.9130644592
 30
0.0
  0
SPLINE
  5
4DA
100
AcDbEntity
  8
KONSTRUKTIONSELEMENTE
100
AcDbSpline
 62
7
  6
CONTINUOUS
 70
0
 71
3
 72
11
 73
7
 74
0
 42
0.0000001
 43
0.0000001
 44
0.0000000001
 40
0.0
 40
0.0
 40
0.0
 40
0.0
 40
0.2729864502
 40
0.5353847233
 40
0.7789199417
 40
1.0
 40
1.0
 40
1.0
 40
1.0
 10
421.3214957991
 20
93.904791384
 30
0.0
 10
420.9464809122
 20
93.904791384
 30
0.0
 10
420.2087749368
 20
93.9776110728
 30
0.0
 10
419.180020866
 20
94.3003763997
 30
0.0
 10
418.3116548737
 20
94.8129365359
 30
0.0
 10
417.8634645015
 20
95.284332472
 30
0.0
 10
417.6962646509
 20
95.5378735538
 30
0.0
  0
SPLINE
  5
4DB
100
AcDbEntity
  8
KONSTRUKTIONSELEMENTE
100
AcDbSpline
 62
7
  6
CONTINUOUS
 70
0
 71
3
 72
9
 73
5
 74
0
 42
0.0000001
 43
0.0000001
 44
0.0000000001
 40
0.0
 40
0.0
 40
0.0
 40
0.0
 40
0.2553888241
 40
1.0
 40
1.0
 40
1.0
 40
1.0
 10
440.568585701
 20
94.1876340965
 30
0.0
 10
440.4343742356
 20
94.1876340965
 30
0.0
 10
439.9092872267
 20
94.164308378
 30
0.0
 10
439.3869718517
 20
94.0482090116
 30
0.0
 10
439.0224339025
 20
93.9059662112
 30
0.0
  0
SPLINE
  5
4DC
100
AcDbEntity
  8
KONSTRUKTIONSELEMENTE
100
AcDbSpline
 62
7
  6
CONTINUOUS
 70
0
 71
3
 72
11
 73
7
 74
0
 42
0.0000001
 43
0.0000001
 44
0.0000000001
 40
0.0
 40
0.0
 40
0.0
 40
0.0
 40
0.2820767698
 40
0.5407553301
 40
0.7772666753
 40
1.0
 40
1.0
 40
1.0
 40
1.0
 10
438.9752435872
 20
93.8871831101
 30
0.0
 10
438.7416851279
 20
93.7923739685
 30
0.0
 10
438.3102709649
 20
93.564358038
 30
0.0
 10
437.7868900585
 20
93.0954307878
 30
0.0
 10
437.4483411968
 20
92.5376878055
 30
0.0
 10
437.368585701
 20
92.1239302901
 30
0.0
 10
437.368585701
 20
91.9248923967
 30
0.0
  0
SPLINE
  5
4DD
100
AcDbEntity
  8
KONSTRUKTIONSELEMENTE
100
AcDbSpline
 62
7
  6
CONTINUOUS
 70
0
 71
3
 72
12
 73
8
 74
0
 42
0.0000001
 43
0.0000001
 44
0.0000000001
 40
0.0
 40
0.0
 40
0.0
 40
0.0
 40
0.2839215899
 40
0.5436396333
 40
0.7791104503
 40
0.8906217948
 40
1.0
 40
1.0
 40
1.0
 40
1.0
 10
399.2538168491
 20
133.0249721684
 30
0.0
 10
398.9236644374
 20
132.9161112424
 30
0.0
 10
398.3103412648
 20
132.6397096796
 30
0.0
 10
397.5564917202
 20
132.0367279258
 30
0.0
 10
397.1372442214
 20
131.4035788118
 30
0.0
 10
396.9717953574
 20
130.8666133992
 30
0.0
 10
396.9443094944
 20
130.5953760835
 30
0.0
 10
396.9443016745
 20
130.4614521902
 30
0.0
  0
SPLINE
  5
4DE
100
AcDbEntity
  8
KONSTRUKTIONSELEMENTE
100
AcDbSpline
 62
7
  6
CONTINUOUS
 70
0
 71
3
 72
9
 73
5
 74
0
 42
0.0000001
 43
0.0000001
 44
0.0000000001
 40
0.0
 40
0.0
 40
0.0
 40
0.0
 40
0.5108316005
 40
1.0
 40
1.0
 40
1.0
 40
1.0
 10
397.319058748
 20
126.4377745605
 30
0.0
 10
397.2003473134
 20
126.6177880321
 30
0.0
 10
397.0113991045
 20
127.0021636443
 30
0.0
 10
396.9442791768
 20
127.4266319553
 30
0.0
 10
396.9443015144
 20
127.6331197052
 30
0.0
  0
SPLINE
  5
4DF
100
AcDbEntity
  8
KONSTRUKTIONSELEMENTE
100
AcDbSpline
 62
7
  6
CONTINUOUS
 70
0
 71
3
 72
12
 73
8
 74
0
 42
0.0000001
 43
0.0000001
 44
0.0000000001
 40
0.0
 40
0.0
 40
0.0
 40
0.0
 40
0.2874515908
 40
0.5543051126
 40
0.7890378741
 40
0.8964383639
 40
1.0
 40
1.0
 40
1.0
 40
1.0
 10
436.168585701
 20
82.8739255975
 30
0.0
 10
436.3231768287
 20
82.8739255975
 30
0.0
 10
436.6231490668
 20
82.914587017
 30
0.0
 10
437.0159663925
 20
83.091184155
 30
0.0
 10
437.2554744232
 20
83.3307771226
 30
0.0
 10
437.3523690524
 20
83.5527311932
 30
0.0
 10
437.368585701
 20
83.6667584087
 30
0.0
 10
437.368585701
 20
83.7224537349
 30
0.0
  0
SPLINE
  5
4E0
100
AcDbEntity
  8
KONSTRUKTIONSELEMENTE
100
AcDbSpline
 62
7
  6
CONTINUOUS
 70
0
 71
3
 72
9
 73
5
 74
0
 42
0.0000001
 43
0.0000001
 44
0.0000000001
 40
0.0
 40
0.0
 40
0.0
 40
0.0
 40
0.2553888241
 40
1.0
 40
1.0
 40
1.0
 40
1.0
 10
423.688585701
 20
94.1876340965
 30
0.0
 10
423.8227971664
 20
94.1876340965
 30
0.0
 10
424.3478841753
 20
94.164308378
 30
0.0
 10
424.8701995503
 20
94.0482090116
 30
0.0
 10
425.2347374995
 20
93.9059662112
 30
0.0
  0
SPLINE
  5
4E1
100
AcDbEntity
  8
KONSTRUKTIONSELEMENTE
100
AcDbSpline
 62
7
  6
CONTINUOUS
 70
0
 71
3
 72
11
 73
7
 74
0
 42
0.0000001
 43
0.0000001
 44
0.0000000001
 40
0.0
 40
0.0
 40
0.0
 40
0.0
 40
0.2820767698
 40
0.5407553301
 40
0.7772666753
 40
1.0
 40
1.0
 40
1.0
 40
1.0
 10
425.2819278148
 20
93.8871831101
 30
0.0
 10
425.5154862741
 20
93.7923739685
 30
0.0
 10
425.9469004371
 20
93.564358038
 30
0.0
 10
426.4702813435
 20
93.0954307878
 30
0.0
 10
426.8088302052
 20
92.5376878055
 30
0.0
 10
426.888585701
 20
92.1239302901
 30
0.0
 10
426.888585701
 20
91.9248923967
 30
0.0
  0
SPLINE
  5
4E2
100
AcDbEntity
  8
KONSTRUKTIONSELEMENTE
100
AcDbSpline
 62
7
  6
CONTINUOUS
 70
0
 71
3
 72
9
 73
5
 74
0
 42
0.0000001
 43
0.0000001
 44
0.0000000001
 40
0.0
 40
0.0
 40
0.0
 40
0.0
 40
0.5107012964
 40
1.0
 40
1.0
 40
1.0
 40
1.0
 10
402.3735731584
 20
119.0559749435
 30
0.0
 10
402.3379516979
 20
119.1099911618
 30
0.0
 10
402.2812679043
 20
119.2253727489
 30
0.0
 10
402.2611264998
 20
119.3527748679
 30
0.0
 10
402.2611435629
 20
119.4147674765
 30
0.0
  0
SPLINE
  5
4E3
100
AcDbEntity
  8
KONSTRUKTIONSELEMENTE
100
AcDbSpline
 62
7
  6
CONTINUOUS
 70
0
 71
3
 72
11
 73
7
 74
0
 42
0.0000001
 43
0.0000001
 44
0.0000000001
 40
0.0
 40
0.0
 40
0.0
 40
0.0
 40
0.2842271921
 40
0.5442206373
 40
0.7799563544
 40
1.0
 40
1.0
 40
1.0
 40
1.0
 10
406.5792317369
 20
123.6416927432
 30
0.0
 10
406.6782590663
 20
123.6743449559
 30
0.0
 10
406.8622289949
 20
123.7571590558
 30
0.0
 10
407.088331929
 20
123.9383391193
 30
0.0
 10
407.2366148957
 20
124.1610842523
 30
0.0
 10
407.2720665437
 20
124.3298060908
 30
0.0
 10
407.2720887628
 20
124.4105313552
 30
0.0
  0
SPLINE
  5
4E4
100
AcDbEntity
  8
KONSTRUKTIONSELEMENTE
100
AcDbSpline
 62
7
  6
CONTINUOUS
 70
0
 71
3
 72
11
 73
7
 74
0
 42
0.0000001
 43
0.0000001
 44
0.0000000001
 40
0.0
 40
0.0
 40
0.0
 40
0.0
 40
0.2729767978
 40
0.5353848362
 40
0.7789285996
 40
1.0
 40
1.0
 40
1.0
 40
1.0
 10
453.9694547926
 20
96.7332185088
 30
0.0
 10
454.3444565032
 20
96.7332185088
 30
0.0
 10
455.0821631424
 20
96.8060324589
 30
0.0
 10
456.11092904
 20
97.1288019166
 30
0.0
 10
456.9793085516
 20
97.6413685037
 30
0.0
 10
457.4274926007
 20
98.1127694692
 30
0.0
 10
457.5946859407
 20
98.3663006786
 30
0.0
  0
SPLINE
  5
4E5
100
AcDbEntity
  8
KONSTRUKTIONSELEMENTE
100
AcDbSpline
 62
7
  6
CONTINUOUS
 70
0
 71
3
 72
13
 73
9
 74
0
 42
0.0000001
 43
0.0000001
 44
0.0000000001
 40
0.0
 40
0.0
 40
0.0
 40
0.0
 40
0.2870489256
 40
0.5535682914
 40
0.6755020148
 40
0.789331082
 40
0.8965440086
 40
1.0
 40
1.0
 40
1.0
 40
1.0
 10
438.968585701
 20
96.7332185088
 30
0.0
 10
438.5563721335
 20
96.7332185088
 30
0.0
 10
437.7573711361
 20
96.6258836208
 30
0.0
 10
436.8561633135
 20
96.2184127898
 30
0.0
 10
436.3030038055
 20
95.7486433006
 30
0.0
 10
436.0003663449
 20
95.3545852136
 30
0.0
 10
435.8117007098
 20
94.9231155957
 30
0.0
 10
435.768585701
 20
94.619043689
 30
0.0
 10
435.768585701
 20
94.470476809
 30
0.0
  0
SPLINE
  5
4E6
100
AcDbEntity
  8
KONSTRUKTIONSELEMENTE
100
AcDbSpline
 62
7
  6
CONTINUOUS
 70
0
 71
3
 72
9
 73
5
 74
0
 42
0.0000001
 43
0.0000001
 44
0.0000000001
 40
0.0
 40
0.0
 40
0.0
 40
0.0
 40
0.4892987036
 40
1.0
 40
1.0
 40
1.0
 40
1.0
 10
407.2720887628
 20
124.4105313552
 30
0.0
 10
407.2721058258
 20
124.4725239638
 30
0.0
 10
407.2519644213
 20
124.5999260828
 30
0.0
 10
407.1952806277
 20
124.7153076699
 30
0.0
 10
407.1596591672
 20
124.7693238882
 30
0.0
  0
SPLINE
  5
4E7
100
AcDbEntity
  8
KONSTRUKTIONSELEMENTE
100
AcDbSpline
 62
7
  6
CONTINUOUS
 70
0
 71
3
 72
9
 73
5
 74
0
 42
0.0000001
 43
0.0000001
 44
0.0000000001
 40
0.0
 40
0.0
 40
0.0
 40
0.0
 40
0.2463692114
 40
1.0
 40
1.0
 40
1.0
 40
1.0
 10
407.9023567543
 20
123.6176606112
 30
0.0
 10
407.897975949
 20
123.6285450589
 30
0.0
 10
407.8790452886
 20
123.672256065
 30
0.0
 10
407.8556071226
 20
123.7139916199
 30
0.0
 10
407.835848386
 20
123.7439536769
 30
0.0
  0
SPLINE
  5
4E8
100
AcDbEntity
  8
KONSTRUKTIONSELEMENTE
100
AcDbSpline
 62
7
  6
CONTINUOUS
 70
0
 71
3
 72
13
 73
9
 74
0
 42
0.0000001
 43
0.0000001
 44
0.0000000001
 40
0.0
 40
0.0
 40
0.0
 40
0.0
 40
0.1034559914
 40
0.210668918
 40
0.3244979852
 40
0.4464317086
 40
0.7129510744
 40
1.0
 40
1.0
 40
1.0
 40
1.0
 10
428.488585701
 20
94.470476809
 30
0.0
 10
428.488585701
 20
94.619043689
 30
0.0
 10
428.4454706922
 20
94.9231155957
 30
0.0
 10
428.2568050571
 20
95.3545852136
 30
0.0
 10
427.9541675965
 20
95.7486433006
 30
0.0
 10
427.4010080885
 20
96.2184127898
 30
0.0
 10
426.4998002659
 20
96.6258836208
 30
0.0
 10
425.7007992685
 20
96.7332185088
 30
0.0
 10
425.288585701
 20
96.7332185088
 30
0.0
  0
SPLINE
  5
4E9
100
AcDbEntity
  8
KONSTRUKTIONSELEMENTE
100
AcDbSpline
 62
7
  6
CONTINUOUS
 70
0
 71
3
 72
9
 73
5
 74
0
 42
0.0000001
 43
0.0000001
 44
0.0000000001
 40
0.0
 40
0.0
 40
0.0
 40
0.0
 40
0.4891681133
 40
1.0
 40
1.0
 40
1.0
 40
1.0
 10
450.2080288512
 20
103.2698091946
 30
0.0
 10
450.2080167953
 20
103.4762815619
 30
0.0
 10
450.275145565
 20
103.9007148924
 30
0.0
 10
450.4640831982
 20
104.2850594329
 30
0.0
 10
450.5827859247
 20
104.4650596996
 30
0.0
  0
SPLINE
  5
4EA
100
AcDbEntity
  8
KONSTRUKTIONSELEMENTE
100
AcDbSpline
 62
7
  6
CONTINUOUS
 70
0
 71
3
 72
12
 73
8
 74
0
 42
0.0000001
 43
0.0000001
 44
0.0000000001
 40
0.0
 40
0.0
 40
0.0
 40
0.0
 40
0.1035616361
 40
0.2109621259
 40
0.4456948874
 40
0.7125484092
 40
1.0
 40
1.0
 40
1.0
 40
1.0
 10
426.888585701
 20
85.9851954347
 30
0.0
 10
426.888585701
 20
85.9295001085
 30
0.0
 10
426.9048023496
 20
85.815472893
 30
0.0
 10
427.0016969788
 20
85.5935188224
 30
0.0
 10
427.2412050095
 20
85.3539258548
 30
0.0
 10
427.6340223352
 20
85.1773287168
 30
0.0
 10
427.9339945733
 20
85.1366672973
 30
0.0
 10
428.088585701
 20
85.1366672973
 30
0.0
  0
SPLINE
  5
4EB
100
AcDbEntity
  8
KONSTRUKTIONSELEMENTE
100
AcDbSpline
 62
7
  6
CONTINUOUS
 70
0
 71
3
 72
9
 73
5
 74
0
 42
0.0000001
 43
0.0000001
 44
0.0000000001
 40
0.0
 40
0.0
 40
0.0
 40
0.0
 40
0.4891681133
 40
1.0
 40
1.0
 40
1.0
 40
1.0
 10
396.9443016745
 20
130.4614521902
 30
0.0
 10
396.9442896185
 20
130.2549798229
 30
0.0
 10
397.0114183883
 20
129.8305464924
 30
0.0
 10
397.2003560215
 20
129.4462019519
 30
0.0
 10
397.319058748
 20
129.2662016852
 30
0.0
  0
SPLINE
  5
4EC
100
AcDbEntity
  8
KONSTRUKTIONSELEMENTE
100
AcDbSpline
 62
7
  6
CONTINUOUS
 70
0
 71
3
 72
9
 73
5
 74
0
 42
0.0000001
 43
0.0000001
 44
0.0000000001
 40
0.0
 40
0.0
 40
0.0
 40
0.0
 40
0.4892987036
 40
1.0
 40
1.0
 40
1.0
 40
1.0
 10
407.9482779815
 20
123.6680038563
 30
0.0
 10
407.9482950446
 20
123.729996465
 30
0.0
 10
407.9281536401
 20
123.857398584
 30
0.0
 10
407.8714698465
 20
123.9727801711
 30
0.0
 10
407.835848386
 20
124.0267963893
 30
0.0
  0
SPLINE
  5
4ED
100
AcDbEntity
  8
KONSTRUKTIONSELEMENTE
100
AcDbSpline
 62
7
  6
CONTINUOUS
 70
0
 71
3
 72
13
 73
9
 74
0
 42
0.0000001
 43
0.0000001
 44
0.0000000001
 40
0.0
 40
0.0
 40
0.0
 40
0.0
 40
0.1037033436
 40
0.212323527
 40
0.3277710209
 40
0.4507608463
 40
0.7166544849
 40
1.0
 40
1.0
 40
1.0
 40
1.0
 10
428.4645031182
 20
94.4644368456
 30
0.0
 10
428.4405633209
 20
94.6017898094
 30
0.0
 10
428.3548864275
 20
94.8776856652
 30
0.0
 10
428.1270900269
 20
95.2589605302
 30
0.0
 10
427.8075038596
 20
95.6031720215
 30
0.0
 10
427.2601302634
 20
96.0086968039
 30
0.0
 10
426.4111765217
 20
96.3580063407
 30
0.0
 10
425.6695286953
 20
96.4503757963
 30
0.0
 10
425.288585701
 20
96.4503757963
 30
0.0
  0
SPLINE
  5
4EE
100
AcDbEntity
  8
KONSTRUKTIONSELEMENTE
100
AcDbSpline
 62
7
  6
CONTINUOUS
 70
0
 71
3
 72
9
 73
5
 74
0
 42
0.0000001
 43
0.0000001
 44
0.0000000001
 40
0.0
 40
0.0
 40
0.0
 40
0.0
 40
0.5108269807
 40
1.0
 40
1.0
 40
1.0
 40
1.0
 10
476.0011905244
 20
126.2778392979
 30
0.0
 10
476.1198963155
 20
126.4578442117
 30
0.0
 10
476.3088375935
 20
126.8422067649
 30
0.0
 10
476.3759557217
 20
127.2666526455
 30
0.0
 10
476.3759594004
 20
127.4731343975
 30
0.0
  0
SPLINE
  5
4EF
100
AcDbEntity
  8
KONSTRUKTIONSELEMENTE
100
AcDbSpline
 62
7
  6
CONTINUOUS
 70
0
 71
3
 72
12
 73
8
 74
0
 42
0.0000001
 43
0.0000001
 44
0.0000000001
 40
0.0
 40
0.0
 40
0.0
 40
0.0
 40
0.2199571982
 40
0.3417709653
 40
0.4698495946
 40
0.7360503245
 40
1.0
 40
1.0
 40
1.0
 40
1.0
 10
464.6137122145
 20
125.7414915839
 30
0.0
 10
464.8489909914
 20
126.0982672357
 30
0.0
 10
465.3570362764
 20
126.5628755401
 30
0.0
 10
466.1672115265
 20
126.9865055699
 30
0.0
 10
467.1218486885
 20
127.3070997842
 30
0.0
 10
468.4105381711
 20
127.4422529072
 30
0.0
 10
469.4423641174
 20
127.2701675721
 30
0.0
 10
469.9294164096
 20
127.1095721572
 30
0.0
  0
SPLINE
  5
4F0
100
AcDbEntity
  8
KONSTRUKTIONSELEMENTE
100
AcDbSpline
 62
7
  6
CONTINUOUS
 70
0
 71
3
 72
11
 73
7
 74
0
 42
0.0000001
 43
0.0000001
 44
0.0000000001
 40
0.0
 40
0.0
 40
0.0
 40
0.0
 40
0.2210800583
 40
0.4646152767
 40
0.7270135498
 40
1.0
 40
1.0
 40
1.0
 40
1.0
 10
417.6962646509
 20
98.3663006786
 30
0.0
 10
417.8634645015
 20
98.1127595967
 30
0.0
 10
418.3116548737
 20
97.6413636607
 30
0.0
 10
419.180020866
 20
97.1288035245
 30
0.0
 10
420.2087749368
 20
96.8060381975
 30
0.0
 10
420.9464809122
 20
96.7332185088
 30
0.0
 10
421.3214957991
 20
96.7332185088
 30
0.0
  0
SPLINE
  5
4F1
100
AcDbEntity
  8
KONSTRUKTIONSELEMENTE
100
AcDbSpline
 62
7
  6
CONTINUOUS
 70
0
 71
3
 72
10
 73
6
 74
0
 42
0.0000001
 43
0.0000001
 44
0.0000000001
 40
0.0
 40
0.0
 40
0.0
 40
0.0
 40
0.2661924468
 40
0.53465928
 40
1.0
 40
1.0
 40
1.0
 40
1.0
 10
475.004740017
 20
125.4360892203
 30
0.0
 10
475.0534447447
 20
125.4200298442
 30
0.0
 10
475.1570959972
 20
125.4030537339
 30
0.0
 10
475.3485794638
 20
125.4221008762
 30
0.0
 10
475.4869548219
 20
125.4980546514
 30
0.0
 10
475.5363104365
 20
125.5728972776
 30
0.0
  0
SPLINE
  5
4F2
100
AcDbEntity
  8
BEZUGSACHSEN
100
AcDbSpline
 62
7
  6
CONTINUOUS
 70
0
 71
3
 72
12
 73
8
 74
0
 42
0.0000001
 43
0.0000001
 44
0.0000000001
 40
0.0
 40
0.0
 40
0.0
 40
0.0
 40
0.1099426827
 40
0.2219590892
 40
0.4577463286
 40
0.7169256794
 40
1.0
 40
1.0
 40
1.0
 40
1.0
 10
426.628585701
 20
135.624091474
 30
0.0
 10
426.628585701
 20
135.8023420194
 30
0.0
 10
426.6640989029
 20
136.163166167
 30
0.0
 10
426.8769267391
 20
136.8781639881
 30
0.0
 10
427.4172647429
 20
137.72554237
 30
0.0
 10
428.3950800477
 20
138.5454239227
 30
0.0
 10
429.1950189599
 20
138.9315650685
 30
0.0
 10
429.6266708586
 20
139.0874861656
 30
0.0
  0
SPLINE
  5
4F3
100
AcDbEntity
  8
BEZUGSACHSEN
100
AcDbSpline
 62
7
  6
CONTINUOUS
 70
0
 71
3
 72
12
 73
8
 74
0
 42
0.0000001
 43
0.0000001
 44
0.0000000001
 40
0.0
 40
0.0
 40
0.0
 40
0.0
 40
0.2830743206
 40
0.5422536714
 40
0.7780409108
 40
0.8900573173
 40
1.0
 40
1.0
 40
1.0
 40
1.0
 10
434.6305005434
 20
139.0874861656
 30
0.0
 10
435.0621524421
 20
138.9315650685
 30
0.0
 10
435.8620913543
 20
138.5454239227
 30
0.0
 10
436.8399066591
 20
137.72554237
 30
0.0
 10
437.3802446629
 20
136.8781639881
 30
0.0
 10
437.5930724991
 20
136.163166167
 30
0.0
 10
437.628585701
 20
135.8023420194
 30
0.0
 10
437.628585701
 20
135.624091474
 30
0.0
  0
SPLINE
  5
4F4
100
AcDbEntity
  8
KONSTRUKTIONSELEMENTE
100
AcDbSpline
 62
7
  6
CONTINUOUS
 70
0
 71
3
 72
9
 73
5
 74
0
 42
0.0000001
 43
0.0000001
 44
0.0000000001
 40
0.0
 40
0.0
 40
0.0
 40
0.0
 40
0.2605100871
 40
1.0
 40
1.0
 40
1.0
 40
1.0
 10
457.7863434434
 20
98.6569292313
 30
0.0
 10
457.7923782758
 20
98.6660804233
 30
0.0
 10
457.8133170528
 20
98.7025985276
 30
0.0
 10
457.8238172175
 20
98.7453126556
 30
0.0
 10
457.8238190437
 20
98.7764293909
 30
0.0
  0
SPLINE
  5
4F5
100
AcDbEntity
  8
KONSTRUKTIONSELEMENTE
100
AcDbSpline
 62
7
  6
CONTINUOUS
 70
0
 71
3
 72
11
 73
7
 74
0
 42
0.0000001
 43
0.0000001
 44
0.0000000001
 40
0.0
 40
0.0
 40
0.0
 40
0.0
 40
0.2445537072
 40
0.4957655095
 40
0.7496099133
 40
1.0
 40
1.0
 40
1.0
 40
1.0
 10
404.9789489367
 20
126.3104573946
 30
0.0
 10
404.9204787395
 20
126.4396437744
 30
0.0
 10
404.7589696906
 20
126.6839105393
 30
0.0
 10
404.4169381058
 20
126.9624545688
 30
0.0
 10
404.002743025
 20
127.1258606074
 30
0.0
 10
403.7030297545
 20
127.1368352047
 30
0.0
 10
403.5595816289
 20
127.1144356686
 30
0.0
  0
SPLINE
  5
4F6
100
AcDbEntity
  8
KONSTRUKTIONSELEMENTE
100
AcDbSpline
 62
7
  6
CONTINUOUS
 70
0
 71
3
 72
11
 73
7
 74
0
 42
0.0000001
 43
0.0000001
 44
0.0000000001
 40
0.0
 40
0.0
 40
0.0
 40
0.0
 40
0.1794231642
 40
0.4196341704
 40
0.7047772544
 40
1.0
 40
1.0
 40
1.0
 40
1.0
 10
404.9789489367
 20
127.5790865447
 30
0.0
 10
404.9031441829
 20
127.6415004636
 30
0.0
 10
404.6841315269
 20
127.7324884475
 30
0.0
 10
404.3005102494
 20
127.7826179656
 30
0.0
 10
403.8495009003
 20
127.758351756
 30
0.0
 10
403.5376783354
 20
127.6886327357
 30
0.0
 10
403.3842376781
 20
127.6380388541
 30
0.0
  0
SPLINE
  5
4F7
100
AcDbEntity
  8
KONSTRUKTIONSELEMENTE
100
AcDbSpline
 62
7
  6
CONTINUOUS
 70
0
 71
3
 72
9
 73
5
 74
0
 42
0.0000001
 43
0.0000001
 44
0.0000000001
 40
0.0
 40
0.0
 40
0.0
 40
0.0
 40
0.5107012964
 40
1.0
 40
1.0
 40
1.0
 40
1.0
 10
402.3735731584
 20
121.3187166433
 30
0.0
 10
402.3379516979
 20
121.3727328616
 30
0.0
 10
402.2812679043
 20
121.4881144487
 30
0.0
 10
402.2611264998
 20
121.6155165677
 30
0.0
 10
402.2611435629
 20
121.6775091763
 30
0.0
  0
SPLINE
  5
4F8
100
AcDbEntity
  8
KONSTRUKTIONSELEMENTE
100
AcDbSpline
 62
7
  6
CONTINUOUS
 70
0
 71
3
 72
12
 73
8
 74
0
 42
0.0000001
 43
0.0000001
 44
0.0000000001
 40
0.0
 40
0.0
 40
0.0
 40
0.0
 40
0.2874515908
 40
0.5543051126
 40
0.7890378741
 40
0.8964383639
 40
1.0
 40
1.0
 40
1.0
 40
1.0
 10
436.168585701
 20
85.1366672973
 30
0.0
 10
436.3231768287
 20
85.1366672973
 30
0.0
 10
436.6231490668
 20
85.1773287168
 30
0.0
 10
437.0159663925
 20
85.3539258548
 30
0.0
 10
437.2554744232
 20
85.5935188224
 30
0.0
 10
437.3523690524
 20
85.815472893
 30
0.0
 10
437.368585701
 20
85.9295001085
 30
0.0
 10
437.368585701
 20
85.9851954347
 30
0.0
  0
SPLINE
  5
4F9
100
AcDbEntity
  8
KONSTRUKTIONSELEMENTE
100
AcDbSpline
 62
7
  6
CONTINUOUS
 70
0
 71
3
 72
13
 73
9
 74
0
 42
0.0000001
 43
0.0000001
 44
0.0000000001
 40
0.0
 40
0.0
 40
0.0
 40
0.0
 40
0.2870489256
 40
0.5535682914
 40
0.6755020148
 40
0.789331082
 40
0.8965440086
 40
1.0
 40
1.0
 40
1.0
 40
1.0
 10
423.688585701
 20
96.4503757963
 30
0.0
 10
424.1007992685
 20
96.4503757963
 30
0.0
 10
424.8998002659
 20
96.3430409083
 30
0.0
 10
425.8010080885
 20
95.9355700773
 30
0.0
 10
426.3541675965
 20
95.4658005881
 30
0.0
 10
426.6568050571
 20
95.0717425011
 30
0.0
 10
426.8454706922
 20
94.6402728832
 30
0.0
 10
426.888585701
 20
94.3362009765
 30
0.0
 10
426.888585701
 20
94.1876340965
 30
0.0
  0
SPLINE
  5
4FA
100
AcDbEntity
  8
KONSTRUKTIONSELEMENTE
100
AcDbSpline
 62
7
  6
CONTINUOUS
 70
0
 71
3
 72
13
 73
9
 74
0
 42
0.0000001
 43
0.0000001
 44
0.0000000001
 40
0.0
 40
0.0
 40
0.0
 40
0.0
 40
0.2870489256
 40
0.5535682914
 40
0.6755020148
 40
0.789331082
 40
0.8965440086
 40
1.0
 40
1.0
 40
1.0
 40
1.0
 10
440.568585701
 20
96.4503757963
 30
0.0
 10
440.1563721335
 20
96.4503757963
 30
0.0
 10
439.3573711361
 20
96.3430409083
 30
0.0
 10
438.4561633135
 20
95.9355700773
 30
0.0
 10
437.9030038055
 20
95.4658005881
 30
0.0
 10
437.6003663449
 20
95.0717425011
 30
0.0
 10
437.4117007098
 20
94.6402728832
 30
0.0
 10
437.368585701
 20
94.3362009765
 30
0.0
 10
437.368585701
 20
94.1876340965
 30
0.0
  0
SPLINE
  5
4FB
100
AcDbEntity
  8
KONSTRUKTIONSELEMENTE
100
AcDbSpline
 62
7
  6
CONTINUOUS
 70
0
 71
3
 72
13
 73
9
 74
0
 42
0.0000001
 43
0.0000001
 44
0.0000000001
 40
0.0
 40
0.0
 40
0.0
 40
0.0
 40
0.2833455151
 40
0.5492391537
 40
0.6722289791
 40
0.787676473
 40
0.8962966564
 40
1.0
 40
1.0
 40
1.0
 40
1.0
 10
438.968585701
 20
96.4503757963
 30
0.0
 10
438.5876427067
 20
96.4503757963
 30
0.0
 10
437.8459948803
 20
96.3580063407
 30
0.0
 10
436.9970411386
 20
96.0086968039
 30
0.0
 10
436.4496675424
 20
95.6031720215
 30
0.0
 10
436.1300813751
 20
95.2589605302
 30
0.0
 10
435.9022849745
 20
94.8776856652
 30
0.0
 10
435.8166080811
 20
94.6017898094
 30
0.0
 10
435.7926682838
 20
94.4644368456
 30
0.0
  0
SPLINE
  5
4FC
100
AcDbEntity
  8
BEZUGSACHSEN
100
AcDbSpline
 62
7
  6
CONTINUOUS
 70
0
 71
3
 72
11
 73
7
 74
0
 42
0.0000001
 43
0.0000001
 44
0.0000000001
 40
0.0
 40
0.0
 40
0.0
 40
0.0
 40
0.2500108003
 40
0.5000108986
 40
0.7500048993
 40
1.0
 40
1.0
 40
1.0
 40
1.0
 10
460.1783300479
 20
79.2549274416
 30
0.0
 10
460.2933236076
 20
79.300591696
 30
0.0
 10
460.5110708977
 20
79.426931291
 30
0.0
 10
460.7669927333
 20
79.7030640589
 30
0.0
 10
460.9309320764
 20
80.0420310992
 30
0.0
 10
460.9685856449
 20
80.291050218
 30
0.0
 10
460.968585701
 20
80.4147709532
 30
0.0
  0
SPLINE
  5
4FD
100
AcDbEntity
  8
BEZUGSACHSEN
100
AcDbSpline
 62
7
  6
CONTINUOUS
 70
0
 71
3
 72
11
 73
7
 74
0
 42
0.0000001
 43
0.0000001
 44
0.0000000001
 40
0.0
 40
0.0
 40
0.0
 40
0.0
 40
0.2500139656
 40
0.500003507
 40
0.7499908108
 40
1.0
 40
1.0
 40
1.0
 40
1.0
 10
400.4397679
 20
53.6721208882
 30
0.0
 10
400.3395921975
 20
53.672120907
 30
0.0
 10
400.1384323494
 20
53.6962270647
 30
0.0
 10
399.8544738412
 20
53.8027688279
 30
0.0
 10
399.6037978322
 20
53.9735125647
 30
0.0
 10
399.4684211904
 20
54.124299583
 30
0.0
 10
399.410963815
 20
54.2063571114
 30
0.0
  0
SPLINE
  5
4FE
100
AcDbEntity
  8
BEZUGSACHSEN
100
AcDbSpline
 62
7
  6
CONTINUOUS
 70
0
 71
3
 72
13
 73
9
 74
0
 42
0.0000001
 43
0.0000001
 44
0.0000000001
 40
0.0
 40
0.0
 40
0.0
 40
0.0
 40
0.2494185536
 40
0.4988218139
 40
0.6241166257
 40
0.7494130174
 40
0.8747019565
 40
1.0
 40
1.0
 40
1.0
 40
1.0
 10
422.6314270791
 20
53.6721223211
 30
0.0
 10
422.7940590128
 20
53.6721221398
 30
0.0
 10
423.1226548357
 20
53.7359403053
 30
0.0
 10
423.4714869801
 20
53.9659623387
 30
0.0
 10
423.6814172329
 20
54.2177443774
 30
0.0
 10
423.7993427353
 20
54.4345122412
 30
0.0
 10
423.8721507104
 20
54.6701485569
 30
0.0
 10
423.888585688
 20
54.8340121962
 30
0.0
 10
423.888585701
 20
54.915712065
 30
0.0
  0
SPLINE
  5
4FF
100
AcDbEntity
  8
RUNDUNGEN
100
AcDbSpline
 62
7
  6
CONTINUOUS
 70
0
 71
3
 72
11
 73
7
 74
0
 42
0.0000001
 43
0.0000001
 44
0.0000000001
 40
0.0
 40
0.0
 40
0.0
 40
0.0
 40
0.2500108003
 40
0.5000108986
 40
0.7500048993
 40
1.0
 40
1.0
 40
1.0
 40
1.0
 10
404.0788413542
 20
50.3232696087
 30
0.0
 10
403.9638477944
 20
50.2776053544
 30
0.0
 10
403.7461005043
 20
50.1512657594
 30
0.0
 10
403.4901786686
 20
49.8751329916
 30
0.0
 10
403.3262393255
 20
49.5361659512
 30
0.0
 10
403.2885857571
 20
49.2871468324
 30
0.0
 10
403.288585701
 20
49.1634260972
 30
0.0
  0
SPLINE
  5
500
100
AcDbEntity
  8
RUNDUNGEN
100
AcDbSpline
 62
7
  6
CONTINUOUS
 70
0
 71
3
 72
11
 73
7
 74
0
 42
0.0000001
 43
0.0000001
 44
0.0000000001
 40
0.0
 40
0.0
 40
0.0
 40
0.0
 40
0.2500139656
 40
0.500003507
 40
0.7499908108
 40
1.0
 40
1.0
 40
1.0
 40
1.0
 10
463.561403502
 20
75.9060761617
 30
0.0
 10
463.6615792045
 20
75.9060761429
 30
0.0
 10
463.8627390526
 20
75.8819699857
 30
0.0
 10
464.1466975608
 20
75.7754282223
 30
0.0
 10
464.3973735698
 20
75.6046844857
 30
0.0
 10
464.5327502116
 20
75.4538974674
 30
0.0
 10
464.590207587
 20
75.371839939
 30
0.0
  0
SPLINE
  5
501
100
AcDbEntity
  8
RUNDUNGEN
100
AcDbSpline
 62
7
  6
CONTINUOUS
 70
0
 71
3
 72
13
 73
9
 74
0
 42
0.0000001
 43
0.0000001
 44
0.0000000001
 40
0.0
 40
0.0
 40
0.0
 40
0.0
 40
0.2494185537
 40
0.4988218139
 40
0.6241166257
 40
0.7494130173
 40
0.8747019565
 40
1.0
 40
1.0
 40
1.0
 40
1.0
 10
442.3857443229
 20
75.9060747571
 30
0.0
 10
442.223112386
 20
75.9060749465
 30
0.0
 10
441.894516554
 20
75.8422567826
 30
0.0
 10
441.5456844032
 20
75.6122347425
 30
0.0
 10
441.3357541534
 20
75.3604526927
 30
0.0
 10
441.2178286552
 20
75.1436848211
 30
0.0
 10
441.1450206856
 20
74.9080484988
 30
0.0
 10
441.1285857118
 20
74.7441848558
 30
0.0
 10
441.128585701
 20
74.6624849854
 30
0.0
  0
SPLINE
  5
502
100
AcDbEntity
  8
BEZUGSACHSEN
100
AcDbSpline
 62
7
  6
CONTINUOUS
 70
0
 71
3
 72
32
 73
28
 74
0
 42
0.0000001
 43
0.0000001
 44
0.0000000001
 40
0.0
 40
0.0
 40
0.0
 40
0.0
 40
0.010906715
 40
0.0220461144
 40
0.0352964658
 40
0.0517222742
 40
0.0717539377
 40
0.0954823889
 40
0.1228166695
 40
0.1535575482
 40
0.2241202703
 40
0.3044594242
 40
0.3913500342
 40
0.4812704285
 40
0.5705780085
 40
0.6556884216
 40
0.7333168658
 40
0.7684825426
 40
0.8008972958
 40
0.8304693979
 40
0.857286053
 40
0.8816875034
 40
0.9043439445
 40
0.9262780037
 40
0.9487450823
 40
0.9729875615
 40
1.0
 40
1.0
 40
1.0
 40
1.0
 10
458.5906548594
 20
69.969155026
 30
0.0
 10
458.5906548594
 20
69.9219102117
 30
0.0
 10
458.5726936114
 20
69.8244672391
 30
0.0
 10
458.4776825103
 20
69.6991903683
 30
0.0
 10
458.3278941891
 20
69.601488868
 30
0.0
 10
458.1269645702
 20
69.5219755932
 30
0.0
 10
457.874123242
 20
69.4566962302
 30
0.0
 10
457.57061985
 20
69.4033720437
 30
0.0
 10
457.2187692625
 20
69.3604257374
 30
0.0
 10
456.6634737793
 20
69.3131366841
 30
0.0
 10
455.8772193827
 20
69.2773771073
 30
0.0
 10
454.8472697632
 20
69.2594458499
 30
0.0
 10
453.7332954215
 20
69.2627272831
 30
0.0
 10
452.580750915
 20
69.2877489127
 30
0.0
 10
451.4366799734
 20
69.3385596888
 30
0.0
 10
450.3479322118
 20
69.4226406237
 30
0.0
 10
449.4968653796
 20
69.532095094
 30
0.0
 10
448.8795974321
 20
69.6544200491
 30
0.0
 10
448.4720527122
 20
69.7606370301
 30
0.0
 10
448.1081104382
 20
69.8868150558
 30
0.0
 10
447.7906274027
 20
70.0360672409
 30
0.0
 10
447.5218353609
 20
70.2122035072
 30
0.0
 10
447.3039690161
 20
70.4196505208
 30
0.0
 10
447.1396199647
 20
70.6620239079
 30
0.0
 10
447.0295765188
 20
70.9405800747
 30
0.0
 10
446.9703060225
 20
71.2558453603
 30
0.0
 10
446.960585701
 20
71.4782192802
 30
0.0
 10
446.960585701
 20
71.5952295478
 30
0.0
  0
SPLINE
  5
503
100
AcDbEntity
  8
BEZUGSACHSEN
100
AcDbSpline
 62
7
  6
CONTINUOUS
 70
0
 71
3
 72
9
 73
5
 74
0
 42
0.0000001
 43
0.0000001
 44
0.0000000001
 40
0.0
 40
0.0
 40
0.0
 40
0.0
 40
0.4849952961
 40
1.0
 40
1.0
 40
1.0
 40
1.0
 10
458.5906548594
 20
63.2768438908
 30
0.0
 10
458.5906548594
 20
63.521330531
 30
0.0
 10
458.5829370178
 20
64.0253936094
 30
0.0
 10
458.5786624149
 20
64.5294841108
 30
0.0
 10
458.5786624149
 20
64.7890985252
 30
0.0
  0
SPLINE
  5
504
100
AcDbEntity
  8
BEZUGSACHSEN
100
AcDbSpline
 62
7
  6
CONTINUOUS
 70
0
 71
3
 72
9
 73
5
 74
0
 42
0.0000001
 43
0.0000001
 44
0.0000000001
 40
0.0
 40
0.0
 40
0.0
 40
0.0
 40
0.5150047037
 40
1.0
 40
1.0
 40
1.0
 40
1.0
 10
446.9725781455
 20
64.7890985252
 30
0.0
 10
446.9725781455
 20
64.529484111
 30
0.0
 10
446.9683035426
 20
64.0253936095
 30
0.0
 10
446.960585701
 20
63.5213305312
 30
0.0
 10
446.960585701
 20
63.2768438908
 30
0.0
  0
SPLINE
  5
505
100
AcDbEntity
  8
BEZUGSACHSEN
100
AcDbSpline
 62
7
  6
CONTINUOUS
 70
0
 71
3
 72
9
 73
5
 74
0
 42
0.0000001
 43
0.0000001
 44
0.0000000001
 40
0.0
 40
0.0
 40
0.0
 40
0.0
 40
0.5150047038
 40
1.0
 40
1.0
 40
1.0
 40
1.0
 10
458.5786624149
 20
64.7890985252
 30
0.0
 10
458.5786624149
 20
65.0487129396
 30
0.0
 10
458.5829370178
 20
65.552803441
 30
0.0
 10
458.5906548594
 20
66.0568665194
 30
0.0
 10
458.5906548594
 20
66.3013531597
 30
0.0
  0
SPLINE
  5
506
100
AcDbEntity
  8
BEZUGSACHSEN
100
AcDbSpline
 62
7
  6
CONTINUOUS
 70
0
 71
3
 72
9
 73
5
 74
0
 42
0.0000001
 43
0.0000001
 44
0.0000000001
 40
0.0
 40
0.0
 40
0.0
 40
0.0
 40
0.4849952964
 40
1.0
 40
1.0
 40
1.0
 40
1.0
 10
446.960585701
 20
66.3013531597
 30
0.0
 10
446.960585701
 20
66.0568665193
 30
0.0
 10
446.9683035426
 20
65.5528034409
 30
0.0
 10
446.9725781455
 20
65.0487129394
 30
0.0
 10
446.9725781455
 20
64.7890985252
 30
0.0
  0
SPLINE
  5
507
100
AcDbEntity
  8
BEZUGSACHSEN
100
AcDbSpline
 62
7
  6
CONTINUOUS
 70
0
 71
3
 72
9
 73
5
 74
0
 42
0.0000001
 43
0.0000001
 44
0.0000000001
 40
0.0
 40
0.0
 40
0.0
 40
0.0
 40
0.4849952922
 40
1.0
 40
1.0
 40
1.0
 40
1.0
 10
405.6665165426
 20
63.2768438908
 30
0.0
 10
405.6665165426
 20
63.5213305291
 30
0.0
 10
405.6742343841
 20
64.0253936074
 30
0.0
 10
405.6785089871
 20
64.5294841089
 30
0.0
 10
405.6785089871
 20
64.7890985252
 30
0.0
  0
SPLINE
  5
508
100
AcDbEntity
  8
BEZUGSACHSEN
100
AcDbSpline
 62
7
  6
CONTINUOUS
 70
0
 71
3
 72
9
 73
5
 74
0
 42
0.0000001
 43
0.0000001
 44
0.0000000001
 40
0.0
 40
0.0
 40
0.0
 40
0.0
 40
0.5150045657
 40
1.0
 40
1.0
 40
1.0
 40
1.0
 10
405.6785089871
 20
64.7890985252
 30
0.0
 10
405.6785089871
 20
65.0487128699
 30
0.0
 10
405.674234386
 20
65.5528033714
 30
0.0
 10
405.6665165426
 20
66.0568664498
 30
0.0
 10
405.6665165426
 20
66.3013531597
 30
0.0
  0
SPLINE
  5
509
100
AcDbEntity
  8
BEZUGSACHSEN
100
AcDbSpline
 62
7
  6
CONTINUOUS
 70
0
 71
3
 72
9
 73
5
 74
0
 42
0.0000001
 43
0.0000001
 44
0.0000000001
 40
0.0
 40
0.0
 40
0.0
 40
0.0
 40
0.4849954812
 40
1.0
 40
1.0
 40
1.0
 40
1.0
 10
417.296585701
 20
66.3013531597
 30
0.0
 10
417.296585701
 20
66.0568664261
 30
0.0
 10
417.2888678569
 20
65.5528033478
 30
0.0
 10
417.2845932565
 20
65.0487128463
 30
0.0
 10
417.2845932565
 20
64.7890985252
 30
0.0
  0
SPLINE
  5
50A
100
AcDbEntity
  8
BEZUGSACHSEN
100
AcDbSpline
 62
7
  6
CONTINUOUS
 70
0
 71
3
 72
9
 73
5
 74
0
 42
0.0000001
 43
0.0000001
 44
0.0000000001
 40
0.0
 40
0.0
 40
0.0
 40
0.0
 40
0.5150047075
 40
1.0
 40
1.0
 40
1.0
 40
1.0
 10
417.2845932565
 20
64.7890985252
 30
0.0
 10
417.2845932565
 20
64.529484109
 30
0.0
 10
417.2888678595
 20
64.0253936076
 30
0.0
 10
417.296585701
 20
63.5213305292
 30
0.0
 10
417.296585701
 20
63.2768438908
 30
0.0
  0
SPLINE
  5
50B
100
AcDbEntity
  8
BEZUGSACHSEN
100
AcDbSpline
 62
7
  6
CONTINUOUS
 70
0
 71
3
 72
32
 73
28
 74
0
 42
0.0000001
 43
0.0000001
 44
0.0000000001
 40
0.0
 40
0.0
 40
0.0
 40
0.0
 40
0.010906715
 40
0.0220461144
 40
0.0352964658
 40
0.0517222742
 40
0.0717539377
 40
0.0954823889
 40
0.1228166695
 40
0.1535575482
 40
0.2241202703
 40
0.3044594242
 40
0.3913500342
 40
0.4812704285
 40
0.5705780085
 40
0.6556884216
 40
0.7333168658
 40
0.7684825426
 40
0.8008972958
 40
0.8304693979
 40
0.857286053
 40
0.8816875034
 40
0.9043439445
 40
0.9262780037
 40
0.9487450823
 40
0.9729875615
 40
1.0
 40
1.0
 40
1.0
 40
1.0
 10
405.6665165426
 20
59.6090420244
 30
0.0
 10
405.6665165426
 20
59.6562868388
 30
0.0
 10
405.6844777906
 20
59.7537298113
 30
0.0
 10
405.7794888917
 20
59.8790066821
 30
0.0
 10
405.9292772129
 20
59.9767081824
 30
0.0
 10
406.1302068318
 20
60.0562214572
 30
0.0
 10
406.38304816
 20
60.1215008202
 30
0.0
 10
406.686551552
 20
60.1748250067
 30
0.0
 10
407.0384021395
 20
60.217771313
 30
0.0
 10
407.5936976227
 20
60.2650603663
 30
0.0
 10
408.3799520193
 20
60.3008199431
 30
0.0
 10
409.4099016388
 20
60.3187512006
 30
0.0
 10
410.5238759805
 20
60.3154697674
 30
0.0
 10
411.676420487
 20
60.2904481378
 30
0.0
 10
412.8204914286
 20
60.2396373616
 30
0.0
 10
413.9092391902
 20
60.1555564267
 30
0.0
 10
414.7603060224
 20
60.0461019564
 30
0.0
 10
415.3775739699
 20
59.9237770013
 30
0.0
 10
415.7851186898
 20
59.8175600203
 30
0.0
 10
416.1490609638
 20
59.6913819946
 30
0.0
 10
416.4665439993
 20
59.5421298095
 30
0.0
 10
416.7353360411
 20
59.3659935433
 30
0.0
 10
416.9532023859
 20
59.1585465296
 30
0.0
 10
417.1175514373
 20
58.9161731425
 30
0.0
 10
417.2275948832
 20
58.6376169757
 30
0.0
 10
417.2868653795
 20
58.3223516902
 30
0.0
 10
417.296585701
 20
58.0999777702
 30
0.0
 10
417.296585701
 20
57.9829675026
 30
0.0
  0
SPLINE
  5
50C
100
AcDbEntity
  8
KONSTRUKTIONSELEMENTE
100
AcDbSpline
 62
7
  6
CONTINUOUS
 70
0
 71
3
 72
10
 73
6
 74
0
 42
0.0000001
 43
0.0000001
 44
0.0000000001
 40
0.0
 40
0.0
 40
0.0
 40
0.0
 40
0.5000830927
 40
0.7500659081
 40
1.0
 40
1.0
 40
1.0
 40
1.0
 10
462.578585701
 20
161.4789577657
 30
0.0
 10
464.1629343523
 20
160.9577129052
 30
0.0
 10
466.5170187501
 20
160.0950114643
 30
0.0
 10
469.7856340809
 20
159.3952440559
 30
0.0
 10
471.4549719815
 20
159.26577864
 30
0.0
 10
472.2885585652
 20
159.2657236938
 30
0.0
  0
ELLIPSE
  5
50D
100
AcDbEntity
  8
0
100
AcDbEllipse
 62
7
  6
CONTINUOUS
 10
395.872585701
 20
64.7890985252
 30
0.0
 11
0.0
 21
3.7250427393
 31
0.0
 40
0.1051042353
 41
-3.1415926536
 42
-0.0
  0
ELLIPSE
  5
50E
100
AcDbEntity
  8
0
100
AcDbEllipse
 62
7
  6
CONTINUOUS
 10
423.888585701
 20
64.7890985252
 30
0.0
 11
-0.0
 21
3.25
 31
0.0
 40
0.1583844403
 41
-0.0
 42
3.1415926536
  0
ELLIPSE
  5
50F
100
AcDbEntity
  8
KONSTRUKTIONSELEMENTE
100
AcDbEllipse
 62
7
  6
CONTINUOUS
 10
399.2518646159
 20
125.7975079953
 30
0.0
 11
1.1998003788
 21
0.3599938705
 31
0.0
 40
0.0607989098
 41
-2.7235007144
 42
-1.1527043876
  0
ELLIPSE
  5
510
100
AcDbEntity
  8
KONSTRUKTIONSELEMENTE
100
AcDbEllipse
 62
7
  6
CONTINUOUS
 10
403.4252554323
 20
125.8787834461
 30
0.0
 11
1.183046702
 21
-0.7347108677
 31
0.0
 40
0.7424978488
 41
7.2982401868
 42
8.4471141244
  0
ELLIPSE
  5
511
100
AcDbEntity
  8
KONSTRUKTIONSELEMENTE
100
AcDbEllipse
 62
7
  6
CONTINUOUS
 10
399.2518646159
 20
128.0602496951
 30
0.0
 11
-0.4872209791
 21
1.6238274128
 31
0.0
 40
0.6753417036
 41
-4.6941486066
 42
-3.1233522798
  0
ELLIPSE
  5
512
100
AcDbEntity
  8
KONSTRUKTIONSELEMENTE
100
AcDbEllipse
 62
7
  6
CONTINUOUS
 10
403.4252554323
 20
128.7072105709
 30
0.0
 11
1.183046702
 21
-0.7347108677
 31
0.0
 40
0.7424978488
 41
1.0150548796
 42
2.5858512064
  0
ELLIPSE
  5
513
100
AcDbEntity
  8
BEZUGSACHSEN
100
AcDbEllipse
 62
7
  6
CONTINUOUS
 10
395.872585701
 20
64.7890985252
 30
0.0
 11
0.0
 21
3.7250427393
 31
0.0
 40
0.1051042353
 41
-3.1415926536
 42
-0.0
  0
ELLIPSE
  5
514
100
AcDbEntity
  8
0
100
AcDbEllipse
 62
7
  6
CONTINUOUS
 10
468.128585701
 20
64.7890985252
 30
0.0
 11
0.0
 21
3.7250427393
 31
0.0
 40
0.1051042353
 41
0.0
 42
3.1415926536
  0
ELLIPSE
  5
515
100
AcDbEntity
  8
BEZUGSACHSEN
100
AcDbEllipse
 62
7
  6
CONTINUOUS
 10
423.888585701
 20
64.7890985252
 30
0.0
 11
0.0
 21
3.25
 31
0.0
 40
0.1583844403
 41
0.0
 42
3.1415926536
  0
ELLIPSE
  5
516
100
AcDbEntity
  8
0
100
AcDbEllipse
 62
7
  6
CONTINUOUS
 10
441.128585701
 20
64.7890985252
 30
0.0
 11
0.0
 21
3.25
 31
0.0
 40
0.1583844403
 41
-3.1415926536
 42
0.0
  0
ENDSEC
  0
SECTION
  2
OBJECTS
  0
DICTIONARY
  5
C
100
AcDbDictionary
280
0
281
1
  3
ACAD_GROUP
350
D
  3
ACAD_MLINESTYLE
350
17
  3
ACAD_LAYOUT
350
1A
  3
ACAD_PLOTSETTINGS
350
19
  3
ACAD_PLOTSTYLENAME
350
E
  0
DICTIONARY
  5
D
102
{ACAD_REACTORS
330
C
102
}
100
AcDbDictionary
280
0
281
1
  0
ACDBDICTIONARYWDFLT
  5
E
102
{ACAD_REACTORS
330
C
102
}
100
AcDbDictionary
281
1
  3
Normal
350
F
100
AcDbDictionaryWithDefault
340
F
  0
DICTIONARY
  5
17
102
{ACAD_REACTORS
330
C
102
}
100
AcDbDictionary
280
0
281
1
  3
Standard
350
18
  0
DICTIONARY
  5
19
102
{ACAD_REACTORS
330
C
102
}
100
AcDbDictionary
281
1
  0
DICTIONARY
  5
1A
102
{ACAD_REACTORS
330
C
102
}
100
AcDbDictionary
281
1
  3
Model
350
517
  3
Layout1
350
518
  0
ACDBPLACEHOLDER
  5
F
102
{ACAD_REACTORS
330
E
102
}
  0
MLINESTYLE
  5
18
102
{ACAD_REACTORS
330
17
102
}
100
AcDbMlineStyle
  2
STANDARD
 70
0
  3

 62
256
 51
90.0
 52
90.0
 71
2
 49
0.5
 62
256
  6
BYLAYER
 49
-0.5
 62
256
  6
BYLAYER
  0
LAYOUT
  5
517
102
{ACAD_REACTORS
330
1A
102
}
100
AcDbPlotSettings
  1

  2
none_device
  4
ISO_A2_(594.00_x_420.00_MM)
  6

 40
0.0
 41
0.0
 42
0.0
 43
0.0
 44
594.0
 45
420.0
 46
0.0
 47
0.0
 48
0.0
 49
0.0
140
0.0
141
0.0
142
1.0
143
1.0
 70
1024
 72
1
 73
0
 74
0
  7

 75
0
147
1.0
148
0.0
149
0.0
100
AcDbLayout
  1
Model
 70
0
 71
0
 10
0.0
 20
0.0
 11
594.0
 21
420.0
 12
0.0
 22
0.0
 32
0.0
 14
0.0
 24
0.0
 34
0.0
 15
0.0
 25
0.0
 35
0.0
146
0.0
 13
0.0
 23
0.0
 33
0.0
 16
1.0
 26
0.0
 36
0.0
 17
0.0
 27
1.0
 37
0.0
 76
0
330
20D
345
0
346
0
  0
LAYOUT
  5
518
102
{ACAD_REACTORS
330
1A
102
}
100
AcDbPlotSettings
  1

  2
none_device
  4
ISO_A2_(594.00_x_420.00_MM)
  6

 40
0.0
 41
0.0
 42
0.0
 43
0.0
 44
594.0
 45
420.0
 46
0.0
 47
0.0
 48
0.0
 49
0.0
140
0.0
141
0.0
142
1.0
143
1.0
 70
0
 72
1
 73
0
 74
0
  7

 75
0
147
1.0
148
0.0
149
0.0
100
AcDbLayout
  1
Layout1
 70
0
 71
1
 10
0.0
 20
0.0
 11
594.0
 21
420.0
 12
0.0
 22
0.0
 32
0.0
 14
0.0
 24
0.0
 34
0.0
 15
0.0
 25
0.0
 35
0.0
146
0.0
 13
0.0
 23
0.0
 33
0.0
 16
1.0
 26
0.0
 36
0.0
 17
0.0
 27
1.0
 37
0.0
 76
0
330
20E
345
0
346
0
  0
ENDSEC
  0
EOF
