999
DXF file: 001-m34927-p-1.dxf
999
Pro/ENGINEER 2011490 by Parametric Technology Corporation
  0
SECTION
  2
HEADER
  9
$ACADVER
  1
AC1015
  9
$DWGCODEPAGE
  3
ANSI_1252
  9
$EXTMAX
 10
594.0
 20
420.0
 30
0.0
  9
$EXTMIN
 10
0.0
 20
0.0
 30
0.0
  9
$LIMMIN
 10
0.0
 20
0.0
  9
$LIMMAX
 10
594.0
 20
420.0
  9
$VIEWCTR
 10
297.0
 20
210.0
  9
$VIEWSIZE
 40
420.0
  9
$CLAYER
  8
0
  9
$LTSCALE
 40
32.67
  9
$CELTYPE
  6
BYLAYER
  9
$DIMSCALE
 40
1.0
  9
$DIMASZ
 40
3.5
  9
$DIMEXO
 40
3.7125
  9
$DIMDLI
 40
22.572
  9
$DIMEXE
 40
10.692
  9
$DIMCEN
 40
5.346
  9
$DIMLFAC
 40
1.0
  9
$DIMBLK
  1
_FILLED
  9
$DIMTXT
 40
3.5
  9
$DIMTOL
 70
1
  9
$DIMLIM
 70
0
  9
$DIMTFAC
 40
1.0
  9
$DIMTP
 40
0.005
  9
$DIMTM
 40
0.005
  9
$PDMODE
 70
3
  9
$PDSIZE
 40
0.3125
  9
$HANDSEED
  5
62A
  9
$TILEMODE
 70
1
  9
$MEASUREMENT
 70
1
  9
$INSUNITS
 70
4
  0
ENDSEC
  0
SECTION
  2
CLASSES
  0
CLASS
  1
ACDBDICTIONARYWDFLT
  2
AcDbDictionaryWithDefault
  3
AutoCAD 2000
 90
0
280
0
281
0
  0
CLASS
  1
ACDBPLACEHOLDER
  2
AcDbPlaceHolder
  3
AutoCAD 2000
 90
0
280
0
281
0
  0
CLASS
  1
LAYOUT
  2
AcDbLayout
  3
AutoCAD 2000
 90
0
280
0
281
0
  0
ENDSEC
  0
SECTION
  2
TABLES
  0
TABLE
  2
VPORT
  5
8
100
AcDbSymbolTable
 70
2
  0
VPORT
  5
1F4
100
AcDbSymbolTableRecord
100
AcDbViewportTableRecord
  2
*ACTIVE
 70
0
 10
0.0
 20
0.0
 11
1.0
 21
1.0
 12
297.0
 22
210.0
 13
0.0
 23
0.0
 14
1.0
 24
1.0
 15
0.0
 25
0.0
 16
0.0
 26
0.0
 36
1.0
 17
0.0
 27
0.0
 37
0.0
 40
420.0
 41
1.4142857143
 42
50.0
 43
0.0
 44
0.0
 50
0.0
 51
0.0
 71
0
 72
100
 73
1
 74
1
 75
0
 76
0
 77
0
 78
0
  0
ENDTAB
  0
TABLE
  2
LTYPE
  5
5
100
AcDbSymbolTable
 70
6
  0
LTYPE
  5
14
100
AcDbSymbolTableRecord
100
AcDbLinetypeTableRecord
  2
BYBLOCK
 70
0
  3

 72
65
 73
0
 40
0.0
  0
LTYPE
  5
15
100
AcDbSymbolTableRecord
100
AcDbLinetypeTableRecord
  2
BYLAYER
 70
0
  3

 72
65
 73
0
 40
0.0
  0
LTYPE
  5
16
100
AcDbSymbolTableRecord
100
AcDbLinetypeTableRecord
  2
CONTINUOUS
 70
64
  3
Solid line
 72
65
 73
0
 40
0.0
  0
LTYPE
  5
1F5
100
AcDbSymbolTableRecord
100
AcDbLinetypeTableRecord
  2
CENTER
 70
64
  3
____ _ ____ _ ____ _ ____ _ ____ _ ____ _ ____
 72
65
 73
4
 40
0.6
 49
0.375
 74
0
 49
-0.075
 74
0
 49
0.075
 74
0
 49
-0.075
 74
0
  0
LTYPE
  5
1F6
100
AcDbSymbolTableRecord
100
AcDbLinetypeTableRecord
  2
HIDDEN
 70
64
  3
- - - - - - - - - - - - - - - - - - - -
 72
65
 73
2
 40
0.2
 49
0.1
 74
0
 49
-0.1
 74
0
  0
LTYPE
  5
1F7
100
AcDbSymbolTableRecord
100
AcDbLinetypeTableRecord
  2
PHANTOM
 70
64
  3
_____ _ _ _____ _ _ _____ _ _ _____
 72
65
 73
6
 40
0.8
 49
0.45
 74
0
 49
-0.05
 74
0
 49
0.1
 74
0
 49
-0.05
 74
0
 49
0.1
 74
0
 49
-0.05
 74
0
  0
LTYPE
  5
1F8
100
AcDbSymbolTableRecord
100
AcDbLinetypeTableRecord
  2
DOT
 70
64
  3
. . . . . . . . . . . . . . . . . . . .
 72
65
 73
2
 40
0.2
 49
0.1
 74
0
 49
-0.1
 74
0
  0
LTYPE
  5
1F9
100
AcDbSymbolTableRecord
100
AcDbLinetypeTableRecord
  2
DASHED
 70
64
  3
- - - - - - - - - - - - - - - - - - - -
 72
65
 73
2
 40
0.2
 49
0.1
 74
0
 49
-0.1
 74
0
  0
ENDTAB
  0
TABLE
  2
LAYER
  5
2
100
AcDbSymbolTable
 70
36
  0
LAYER
  5
10
100
AcDbSymbolTableRecord
100
AcDbLayerTableRecord
  2
0
 70
0
 62
7
  6
CONTINUOUS
370
-3
390
F
  0
LAYER
  5
1FA
100
AcDbSymbolTableRecord
100
AcDbLayerTableRecord
  2
DEFAULT_1
 70
0
 62
7
  6
CENTER
370
-3
390
F
  0
LAYER
  5
1FB
100
AcDbSymbolTableRecord
100
AcDbLayerTableRecord
  2
DEFAULT_2
 70
0
 62
8
  6
HIDDEN
370
-3
390
F
  0
LAYER
  5
1FC
100
AcDbSymbolTableRecord
100
AcDbLayerTableRecord
  2
DEFAULT_3
 70
0
 62
7
  6
PHANTOM
370
-3
390
F
  0
LAYER
  5
1FD
100
AcDbSymbolTableRecord
100
AcDbLayerTableRecord
  2
AUSFORMSCHRAEGEN
 70
0
 62
7
  6
CONTINUOUS
370
-3
390
F
  0
LAYER
  5
1FE
100
AcDbSymbolTableRecord
100
AcDbLayerTableRecord
  2
BEZUGSACHSEN
 70
0
 62
7
  6
CONTINUOUS
370
-3
390
F
  0
LAYER
  5
1FF
100
AcDbSymbolTableRecord
100
AcDbLayerTableRecord
  2
BEZUGSEBENEN
 70
0
 62
7
  6
CONTINUOUS
370
-3
390
F
  0
LAYER
  5
200
100
AcDbSymbolTableRecord
100
AcDbLayerTableRecord
  2
BG_STARTBEZUEGE
 70
0
 62
7
  6
CONTINUOUS
370
-3
390
F
  0
LAYER
  5
201
100
AcDbSymbolTableRecord
100
AcDbLayerTableRecord
  2
FASEN
 70
0
 62
7
  6
CONTINUOUS
370
-3
390
F
  0
LAYER
  5
202
100
AcDbSymbolTableRecord
100
AcDbLayerTableRecord
  2
HILFEN
 70
0
 62
7
  6
CONTINUOUS
370
-3
390
F
  0
LAYER
  5
203
100
AcDbSymbolTableRecord
100
AcDbLayerTableRecord
  2
KONSTRUKTIONSELEMENTE
 70
0
 62
7
  6
CONTINUOUS
370
-3
390
F
  0
LAYER
  5
204
100
AcDbSymbolTableRecord
100
AcDbLayerTableRecord
  2
NORM
 70
0
 62
7
  6
CONTINUOUS
370
-3
390
F
  0
LAYER
  5
205
100
AcDbSymbolTableRecord
100
AcDbLayerTableRecord
  2
PLATZIERUNG
 70
0
 62
7
  6
CONTINUOUS
370
-3
390
F
  0
LAYER
  5
206
100
AcDbSymbolTableRecord
100
AcDbLayerTableRecord
  2
RUNDUNGEN
 70
0
 62
7
  6
CONTINUOUS
370
-3
390
F
  0
LAYER
  5
207
100
AcDbSymbolTableRecord
100
AcDbLayerTableRecord
  2
TEIL_STARTBEZUEGE
 70
0
 62
7
  6
CONTINUOUS
370
-3
390
F
  0
LAYER
  5
208
100
AcDbSymbolTableRecord
100
AcDbLayerTableRecord
  2
T_STARTBEZUEGE
 70
0
 62
7
  6
CONTINUOUS
370
-3
390
F
  0
LAYER
  5
209
100
AcDbSymbolTableRecord
100
AcDbLayerTableRecord
  2
ZEICHNUNGSBEMASSUNGEN
 70
0
 62
7
  6
CONTINUOUS
370
-3
390
F
  0
ENDTAB
  0
TABLE
  2
STYLE
  5
3
100
AcDbSymbolTable
 70
1
  0
STYLE
  5
11
100
AcDbSymbolTableRecord
100
AcDbTextStyleTableRecord
  2
STANDARD
 70
0
 40
0.0
 41
0.7
 50
0.0
 71
0
 42
0.2
  3
txt
  4

  0
STYLE
  5
20A
100
AcDbSymbolTableRecord
100
AcDbTextStyleTableRecord
  2
TEXTSTYLE_1
 70
0
 40
0.0
 41
0.8
 50
0.0
 71
0
 42
0.2
  3
gdt
  4

  0
ENDTAB
  0
TABLE
  2
VIEW
  5
6
100
AcDbSymbolTable
 70
0
  0
ENDTAB
  0
TABLE
  2
UCS
  5
7
100
AcDbSymbolTable
 70
0
  0
ENDTAB
  0
TABLE
  2
APPID
  5
9
100
AcDbSymbolTable
 70
1
  0
APPID
  5
20B
100
AcDbSymbolTableRecord
100
AcDbRegAppTableRecord
  2
ACAD
 70
0
  0
ENDTAB
  0
TABLE
  2
BLOCK_RECORD
  5
1
100
AcDbSymbolTable
 70
0
  0
BLOCK_RECORD
  5
20C
100
AcDbSymbolTableRecord
100
AcDbBlockTableRecord
  2
*Model_Space
  0
BLOCK_RECORD
  5
20D
100
AcDbSymbolTableRecord
100
AcDbBlockTableRecord
  2
*Paper_Space
  0
ENDTAB
  0
TABLE
  2
DIMSTYLE
  5
A
100
AcDbSymbolTable
 70
1
100
AcDbDimStyleTable
 71
0
  0
DIMSTYLE
105
20E
100
AcDbSymbolTableRecord
100
AcDbDimStyleTableRecord
  2
STANDARD
 70
0
  3

  4

 40
1.0
 41
3.5
 42
0.0625
 43
0.38
 44
0.18
 45
0.0
 46
0.0
 47
0.005
 48
0.005
140
3.5
141
0.09
142
0.0
143
25.4
144
1.0
145
0.0
146
1.0
147
0.09
 71
1.0
 72
0.0
 73
0
 74
0
 75
0
 76
0
 77
1
 78
8
170
0
171
2
172
0
173
0
174
0
175
0
176
0
177
0
178
5
270
2
271
3
272
3
273
2
274
2
275
0
280
0
281
0
282
0
283
1
284
8
285
0
286
0
287
3
288
0
340
11
  0
ENDTAB
  0
ENDSEC
  0
SECTION
  2
BLOCKS
  0
BLOCK
  5
20
100
AcDbEntity
  8
0
100
AcDbBlockBegin
  2
*Model_Space
 70
0
 10
0.0
 20
0.0
 30
0.0
  3
*Model_Space
  1

  0
ENDBLK
  5
21
100
AcDbEntity
  8
0
100
AcDbBlockEnd
  0
BLOCK
  5
1C
100
AcDbEntity
  8
0
100
AcDbBlockBegin
  2
*Paper_Space
 70
0
 10
0.0
 20
0.0
 30
0.0
  3
*Paper_Space
  1

  0
ENDBLK
  5
1D
100
AcDbEntity
  8
0
100
AcDbBlockEnd
  0
ENDSEC
  0
SECTION
  2
ENTITIES
  0
MTEXT
  5
20F
100
AcDbEntity
  8
0
100
AcDbMText
 62
5
  6
CONTINUOUS
  7
STANDARD
 71
1
 72
1
 10
199.1654537671
 20
207.8508133562
 30
0.0
 11
1.0
 21
0.0
 31
0.0
 44
0.9
  1
VWK-2S-6
 40
6.0
 41
41.7142857143
  0
MTEXT
  5
210
100
AcDbEntity
  8
0
100
AcDbMText
 62
5
  6
CONTINUOUS
  7
STANDARD
 71
1
 72
1
 10
436.3684806
 20
246.3150339123
 30
0.0
 11
0.0
 21
1.0
 31
0.0
 44
0.9
  1
VWK-2S-6
 40
6.0
 41
41.7142857143
  0
LINE
  5
211
100
AcDbEntity
  8
0
100
AcDbLine
 62
7
  6
CONTINUOUS
 10
0.0
 20
0.0
 11
0.0
 21
420.0
  0
LINE
  5
212
100
AcDbEntity
  8
0
100
AcDbLine
 62
7
  6
CONTINUOUS
 10
0.0
 20
0.0
 11
594.0
 21
0.0
  0
LINE
  5
213
100
AcDbEntity
  8
0
100
AcDbLine
 62
7
  6
CONTINUOUS
 10
0.0
 20
420.0
 11
594.0
 21
420.0
  0
LINE
  5
214
100
AcDbEntity
  8
0
100
AcDbLine
 62
7
  6
CONTINUOUS
 10
594.0
 20
0.0
 11
594.0
 21
420.0
  0
LINE
  5
215
100
AcDbEntity
  8
KONSTRUKTIONSELEMENTE
100
AcDbLine
 62
7
  6
CONTINUOUS
 10
64.3790674495
 20
89.3776362397
 11
62.257747106
 21
91.4989565833
  0
LINE
  5
216
100
AcDbEntity
  8
AUSFORMSCHRAEGEN
100
AcDbLine
 62
7
  6
CONTINUOUS
 10
276.0032194824
 20
59.8241031923
 11
278.2728576965
 21
60.0626517811
  0
LINE
  5
217
100
AcDbEntity
  8
BEZUGSACHSEN
100
AcDbLine
 62
7
  6
CONTINUOUS
 10
276.0032194824
 20
59.8241031923
 11
278.2728576965
 21
60.0626517811
  0
LINE
  5
218
100
AcDbEntity
  8
BEZUGSACHSEN
100
AcDbLine
 62
7
  6
CONTINUOUS
 10
166.0032194824
 20
59.8241031923
 11
163.7335812682
 21
60.0626517811
  0
LINE
  5
219
100
AcDbEntity
  8
KONSTRUKTIONSELEMENTE
100
AcDbLine
 62
7
  6
CONTINUOUS
 10
72.8643488238
 20
97.862917614
 11
70.7430284802
 21
99.9842379575
  0
LINE
  5
21A
100
AcDbEntity
  8
AUSFORMSCHRAEGEN
100
AcDbLine
 62
7
  6
CONTINUOUS
 10
166.0032194824
 20
59.8241031923
 11
168.2728576965
 21
60.0626517811
  0
LINE
  5
21B
100
AcDbEntity
  8
BEZUGSACHSEN
100
AcDbLine
 62
7
  6
CONTINUOUS
 10
166.0032194824
 20
59.8241031923
 11
168.2728576965
 21
60.0626517811
  0
LINE
  5
21C
100
AcDbEntity
  8
BEZUGSACHSEN
100
AcDbLine
 62
7
  6
CONTINUOUS
 10
276.0032194824
 20
59.8241031923
 11
273.7335812682
 21
60.0626517811
  0
LINE
  5
21D
100
AcDbEntity
  8
KONSTRUKTIONSELEMENTE
100
AcDbLine
 62
7
  6
CONTINUOUS
 10
94.033924046
 20
119.0324928362
 11
91.9126037024
 21
121.1538131798
  0
LINE
  5
21E
100
AcDbEntity
  8
0
100
AcDbLine
 62
7
  6
CONTINUOUS
 10
225.9657191247
 20
116.7533213692
 11
225.5907194824
 21
116.6575766998
  0
LINE
  5
21F
100
AcDbEntity
  8
0
100
AcDbLine
 62
7
  6
CONTINUOUS
 10
221.4657196612
 20
116.7533213692
 11
221.0907194824
 21
116.6575766998
  0
LINE
  5
220
100
AcDbEntity
  8
0
100
AcDbLine
 62
7
  6
CONTINUOUS
 10
225.5907194824
 20
116.0831086161
 11
226.05946984
 21
116.1788532939
  0
LINE
  5
221
100
AcDbEntity
  8
0
100
AcDbLine
 62
7
  6
CONTINUOUS
 10
221.0907194824
 20
116.0831086161
 11
221.5594693036
 21
116.1788532939
  0
LINE
  5
222
100
AcDbEntity
  8
BEZUGSACHSEN
100
AcDbLine
 62
7
  6
CONTINUOUS
 10
169.3966394824
 20
106.4669210229
 11
221.0032194824
 21
115.566553459
  0
LINE
  5
223
100
AcDbEntity
  8
BEZUGSACHSEN
100
AcDbLine
 62
7
  6
CONTINUOUS
 10
106.8054743207
 20
131.8040431109
 11
104.6841539772
 21
133.9253634545
  0
LINE
  5
224
100
AcDbEntity
  8
KONSTRUKTIONSELEMENTE
100
AcDbLine
 62
7
  6
CONTINUOUS
 10
109.6339014455
 20
132.1575965015
 11
113.1694353514
 21
128.6220625956
  0
LINE
  5
225
100
AcDbEntity
  8
KONSTRUKTIONSELEMENTE
100
AcDbLine
 62
7
  6
CONTINUOUS
 10
109.9874548361
 20
132.5111498921
 11
113.522988742
 21
128.9756159862
  0
LINE
  5
226
100
AcDbEntity
  8
BEZUGSACHSEN
100
AcDbLine
 62
7
  6
CONTINUOUS
 10
160.039809044
 20
84.1172863605
 11
160.6957978988
 21
83.4612975057
  0
LINE
  5
227
100
AcDbEntity
  8
0
100
AcDbLine
 62
7
  6
CONTINUOUS
 10
180.9880272647
 20
111.5570752684
 11
181.4804311119
 21
111.6438993521
  0
LINE
  5
228
100
AcDbEntity
  8
0
100
AcDbLine
 62
7
  6
CONTINUOUS
 10
183.4500465005
 20
111.9911956867
 11
183.9424506118
 21
112.078019817
  0
LINE
  5
229
100
AcDbEntity
  8
0
100
AcDbLine
 62
7
  6
CONTINUOUS
 10
184.92725813
 20
112.2516679532
 11
185.4196622413
 21
112.3384920835
  0
LINE
  5
22A
100
AcDbEntity
  8
0
100
AcDbLine
 62
7
  6
CONTINUOUS
 10
188.7433880556
 20
112.924554621
 11
189.0511407132
 21
112.9788197179
  0
LINE
  5
22B
100
AcDbEntity
  8
0
100
AcDbLine
 62
7
  6
CONTINUOUS
 10
194.4060328702
 20
113.923031684
 11
194.8984362771
 21
114.00985569
  0
LINE
  5
22C
100
AcDbEntity
  8
0
100
AcDbLine
 62
7
  6
CONTINUOUS
 10
196.3756479066
 20
114.2703279565
 11
196.744950814
 21
114.3354460231
  0
LINE
  5
22D
100
AcDbEntity
  8
0
100
AcDbLine
 62
7
  6
CONTINUOUS
 10
197.2373556297
 20
114.4222702776
 11
197.6066585371
 21
114.4873883442
  0
LINE
  5
22E
100
AcDbEntity
  8
0
100
AcDbLine
 62
7
  6
CONTINUOUS
 10
189.0572713306
 20
113.3039730409
 11
188.6264181735
 21
113.2280020045
  0
LINE
  5
22F
100
AcDbEntity
  8
0
100
AcDbLine
 62
7
  6
CONTINUOUS
 10
186.2160433727
 20
113.5807614213
 11
187.077749687
 21
113.7327034939
  0
LINE
  5
230
100
AcDbEntity
  8
0
100
AcDbLine
 62
7
  6
CONTINUOUS
 10
197.3738960828
 20
115.8074498191
 11
198.481804805
 21
116.002804019
  0
LINE
  5
231
100
AcDbEntity
  8
0
100
AcDbLine
 62
7
  6
CONTINUOUS
 10
187.0223300469
 20
114.0470038912
 11
186.1606237326
 21
113.8950618186
  0
LINE
  5
232
100
AcDbEntity
  8
0
100
AcDbLine
 62
7
  6
CONTINUOUS
 10
188.4047396519
 20
114.4852033736
 11
188.8355928091
 21
114.5611744099
  0
LINE
  5
233
100
AcDbEntity
  8
0
100
AcDbLine
 62
7
  6
CONTINUOUS
 10
198.4768508009
 20
116.3908172355
 11
197.3073925334
 21
116.1846101902
  0
LINE
  5
234
100
AcDbEntity
  8
0
100
AcDbLine
 62
7
  6
CONTINUOUS
 10
188.7186229347
 20
114.8646217494
 11
188.4108702771
 21
114.8103566525
  0
LINE
  5
235
100
AcDbEntity
  8
0
100
AcDbLine
 62
7
  6
CONTINUOUS
 10
189.1445234655
 20
115.3286064268
 11
189.4522754187
 21
115.3828713996
  0
LINE
  5
236
100
AcDbEntity
  8
0
100
AcDbLine
 62
7
  6
CONTINUOUS
 10
188.2163128973
 20
115.5538246011
 11
188.5856158047
 21
115.6189426677
  0
LINE
  5
237
100
AcDbEntity
  8
0
100
AcDbLine
 62
7
  6
CONTINUOUS
 10
197.1411336286
 20
117.127511294
 11
198.3105918961
 21
117.3337183394
  0
LINE
  5
238
100
AcDbEntity
  8
0
100
AcDbLine
 62
7
  6
CONTINUOUS
 10
198.1936227262
 20
117.6371658031
 11
196.7164110967
 21
117.3766935366
  0
LINE
  5
239
100
AcDbEntity
  8
0
100
AcDbLine
 62
7
  6
CONTINUOUS
 10
196.224006281
 20
117.2898692822
 11
195.8547033736
 21
117.2247512155
  0
LINE
  5
23A
100
AcDbEntity
  8
0
100
AcDbLine
 62
7
  6
CONTINUOUS
 10
195.3622999667
 20
117.1379272095
 11
194.9929970593
 21
117.0728091429
  0
LINE
  5
23B
100
AcDbEntity
  8
0
100
AcDbLine
 62
7
  6
CONTINUOUS
 10
193.2695830219
 20
116.7689247492
 11
192.9002801146
 21
116.7038066825
  0
LINE
  5
23C
100
AcDbEntity
  8
0
100
AcDbLine
 62
7
  6
CONTINUOUS
 10
188.4686459304
 20
115.9223900072
 11
188.2224435226
 21
115.87897788
  0
LINE
  5
23D
100
AcDbEntity
  8
0
100
AcDbLine
 62
7
  6
CONTINUOUS
 10
185.3911214674
 20
115.3797394106
 11
185.0218185601
 21
115.314621344
  0
LINE
  5
23E
100
AcDbEntity
  8
0
100
AcDbLine
 62
7
  6
CONTINUOUS
 10
184.1601118936
 20
115.1626792092
 11
183.6677077823
 21
115.075855079
  0
LINE
  5
23F
100
AcDbEntity
  8
0
100
AcDbLine
 62
7
  6
CONTINUOUS
 10
182.8060011158
 20
114.9239129442
 11
182.4366982084
 21
114.8587948776
  0
LINE
  5
240
100
AcDbEntity
  8
0
100
AcDbLine
 62
7
  6
CONTINUOUS
 10
181.9442942732
 20
114.7719707784
 11
181.5749913658
 21
114.7068527118
  0
LINE
  5
241
100
AcDbEntity
  8
0
100
AcDbLine
 62
7
  6
CONTINUOUS
 10
179.8515778567
 20
114.4029684112
 11
179.4822749494
 21
114.3378503446
  0
LINE
  5
242
100
AcDbEntity
  8
BEZUGSACHSEN
100
AcDbLine
 62
7
  6
CONTINUOUS
 10
276.0032194824
 20
126.42211404
 11
273.8401612682
 21
126.1947674605
  0
LINE
  5
243
100
AcDbEntity
  8
0
100
AcDbLine
 62
7
  6
CONTINUOUS
 10
214.9032194824
 20
116.0831086161
 11
215.4657194824
 21
116.0831086161
  0
LINE
  5
244
100
AcDbEntity
  8
0
100
AcDbLine
 62
7
  6
CONTINUOUS
 10
217.809469393
 20
116.0831086161
 11
218.4657195718
 21
116.0831086161
  0
LINE
  5
245
100
AcDbEntity
  8
0
100
AcDbLine
 62
7
  6
CONTINUOUS
 10
220.7157193036
 20
116.0831086161
 11
221.0907194824
 21
116.0831086161
  0
LINE
  5
246
100
AcDbEntity
  8
0
100
AcDbLine
 62
7
  6
CONTINUOUS
 10
223.3407194824
 20
116.0831086161
 11
225.5907194824
 21
116.0831086161
  0
LINE
  5
247
100
AcDbEntity
  8
0
100
AcDbLine
 62
7
  6
CONTINUOUS
 10
225.5907194824
 20
116.6575766998
 11
223.9032194824
 21
116.6575766998
  0
LINE
  5
248
100
AcDbEntity
  8
0
100
AcDbLine
 62
7
  6
CONTINUOUS
 10
221.0907194824
 20
116.6575766998
 11
220.7157193036
 21
116.6575766998
  0
LINE
  5
249
100
AcDbEntity
  8
0
100
AcDbLine
 62
7
  6
CONTINUOUS
 10
215.4657194824
 20
118.0937469425
 11
217.0594694377
 21
118.0937469425
  0
LINE
  5
24A
100
AcDbEntity
  8
0
100
AcDbLine
 62
7
  6
CONTINUOUS
 10
217.246969393
 20
118.6682149592
 11
215.4657194824
 21
118.6682149592
  0
LINE
  5
24B
100
AcDbEntity
  8
0
100
AcDbLine
 62
7
  6
CONTINUOUS
 10
223.9032194824
 20
120.0086405995
 11
225.5907194824
 21
120.0086405995
  0
LINE
  5
24C
100
AcDbEntity
  8
0
100
AcDbLine
 62
7
  6
CONTINUOUS
 10
215.4657194824
 20
120.1043852689
 11
217.246969393
 21
120.1043852689
  0
LINE
  5
24D
100
AcDbEntity
  8
0
100
AcDbLine
 62
7
  6
CONTINUOUS
 10
225.5907194824
 20
120.5831086161
 11
223.3407194824
 21
120.5831086161
  0
LINE
  5
24E
100
AcDbEntity
  8
0
100
AcDbLine
 62
7
  6
CONTINUOUS
 10
222.5907196612
 20
120.5831086161
 11
222.0282196612
 21
120.5831086161
  0
LINE
  5
24F
100
AcDbEntity
  8
0
100
AcDbLine
 62
7
  6
CONTINUOUS
 10
219.7782196612
 20
120.5831086161
 11
219.215719393
 21
120.5831086161
  0
LINE
  5
250
100
AcDbEntity
  8
0
100
AcDbLine
 62
7
  6
CONTINUOUS
 10
217.1532194824
 20
120.5831086161
 11
214.9032194824
 21
120.5831086161
  0
LINE
  5
251
100
AcDbEntity
  8
0
100
AcDbLine
 62
7
  6
CONTINUOUS
 10
188.4245521764
 20
112.9331497156
 11
188.7433880556
 21
112.924554621
  0
LINE
  5
252
100
AcDbEntity
  8
0
100
AcDbLine
 62
7
  6
CONTINUOUS
 10
189.0374595173
 20
114.8560267845
 11
188.7186229347
 21
114.8646217494
  0
LINE
  5
253
100
AcDbEntity
  8
0
100
AcDbLine
 62
7
  6
CONTINUOUS
 10
188.7874818085
 20
115.9137949181
 11
188.4686459304
 21
115.9223900072
  0
LINE
  5
254
100
AcDbEntity
  8
0
100
AcDbLine
 62
7
  6
CONTINUOUS
 10
198.5124586043
 20
117.628570714
 11
198.1936227262
 21
117.6371658031
  0
LINE
  5
255
100
AcDbEntity
  8
0
100
AcDbLine
 62
7
  6
CONTINUOUS
 10
188.6264181735
 20
113.2280020045
 11
188.4306827949
 21
113.2583030331
  0
LINE
  5
256
100
AcDbEntity
  8
0
100
AcDbLine
 62
7
  6
CONTINUOUS
 10
188.8355928091
 20
114.5611744099
 11
189.0313281877
 21
114.5308733814
  0
LINE
  5
257
100
AcDbEntity
  8
0
100
AcDbLine
 62
7
  6
CONTINUOUS
 10
188.5856158047
 20
115.6189426677
 11
188.7813511833
 21
115.5886416392
  0
LINE
  5
258
100
AcDbEntity
  8
0
100
AcDbLine
 62
7
  6
CONTINUOUS
 10
198.3105918961
 20
117.3337183394
 11
198.5063272747
 21
117.3034173108
  0
LINE
  5
259
100
AcDbEntity
  8
0
100
AcDbLine
 62
7
  6
CONTINUOUS
 10
188.0835477412
 20
113.0674648207
 11
188.4245521764
 21
112.9331497156
  0
LINE
  5
25A
100
AcDbEntity
  8
BEZUGSACHSEN
100
AcDbLine
 62
7
  6
CONTINUOUS
 10
166.0032194824
 20
126.42211404
 11
163.8401612682
 21
126.1947674605
  0
LINE
  5
25B
100
AcDbEntity
  8
KONSTRUKTIONSELEMENTE
100
AcDbLine
 62
7
  6
CONTINUOUS
 10
220.0032194824
 20
137.1231086161
 11
222.0032194824
 21
137.1231086161
  0
LINE
  5
25C
100
AcDbEntity
  8
BEZUGSACHSEN
100
AcDbLine
 62
7
  6
CONTINUOUS
 10
166.0032194824
 20
126.42211404
 11
168.1662776965
 21
126.1947674605
  0
LINE
  5
25D
100
AcDbEntity
  8
AUSFORMSCHRAEGEN
100
AcDbLine
 62
7
  6
CONTINUOUS
 10
166.0032194824
 20
126.42211404
 11
168.1662776965
 21
126.1947674605
  0
LINE
  5
25E
100
AcDbEntity
  8
BEZUGSACHSEN
100
AcDbLine
 62
7
  6
CONTINUOUS
 10
272.6097994824
 20
106.4669210229
 11
221.0032194824
 21
115.566553459
  0
LINE
  5
25F
100
AcDbEntity
  8
0
100
AcDbLine
 62
7
  6
CONTINUOUS
 10
220.2469694824
 20
116.1788532939
 11
220.7157193036
 21
116.0831086161
  0
LINE
  5
260
100
AcDbEntity
  8
0
100
AcDbLine
 62
7
  6
CONTINUOUS
 10
217.6219695718
 20
120.4873639467
 11
217.1532194824
 21
120.5831086161
  0
LINE
  5
261
100
AcDbEntity
  8
0
100
AcDbLine
 62
7
  6
CONTINUOUS
 10
226.05946984
 20
120.4873639467
 11
225.5907194824
 21
120.5831086161
  0
LINE
  5
262
100
AcDbEntity
  8
0
100
AcDbLine
 62
7
  6
CONTINUOUS
 10
220.7157193036
 20
116.6575766998
 11
220.3407196612
 21
116.7533213692
  0
LINE
  5
263
100
AcDbEntity
  8
0
100
AcDbLine
 62
7
  6
CONTINUOUS
 10
225.5907194824
 20
120.0086405995
 11
225.9657191247
 21
119.9128959301
  0
LINE
  5
264
100
AcDbEntity
  8
0
100
AcDbLine
 62
7
  6
CONTINUOUS
 10
189.3784632452
 20
114.7217115717
 11
189.0374595173
 21
114.8560267845
  0
LINE
  5
265
100
AcDbEntity
  8
0
100
AcDbLine
 62
7
  6
CONTINUOUS
 10
189.1284862409
 20
115.7794798295
 11
188.7874818085
 21
115.9137949181
  0
LINE
  5
266
100
AcDbEntity
  8
0
100
AcDbLine
 62
7
  6
CONTINUOUS
 10
188.4306827949
 20
113.2583030331
 11
188.2238634913
 21
113.3514641235
  0
LINE
  5
267
100
AcDbEntity
  8
0
100
AcDbLine
 62
7
  6
CONTINUOUS
 10
189.0313281877
 20
114.5308733814
 11
189.2381474912
 21
114.437712291
  0
LINE
  5
268
100
AcDbEntity
  8
0
100
AcDbLine
 62
7
  6
CONTINUOUS
 10
188.7813511833
 20
115.5886416392
 11
188.9881704868
 21
115.4954805488
  0
LINE
  5
269
100
AcDbEntity
  8
RUNDUNGEN
100
AcDbLine
 62
7
  6
CONTINUOUS
 10
171.2040569914
 20
102.7849238011
 11
171.9666461293
 21
102.0223346632
  0
LINE
  5
26A
100
AcDbEntity
  8
BEZUGSACHSEN
100
AcDbLine
 62
7
  6
CONTINUOUS
 10
171.2040569914
 20
102.7849238011
 11
171.9666461293
 21
102.0223346632
  0
LINE
  5
26B
100
AcDbEntity
  8
0
100
AcDbLine
 62
7
  6
CONTINUOUS
 10
216.0954075162
 20
137.6231086161
 11
202.5396637335
 21
137.6231086161
  0
LINE
  5
26C
100
AcDbEntity
  8
BEZUGSACHSEN
100
AcDbLine
 62
7
  6
CONTINUOUS
 10
225.9110314486
 20
137.6231086161
 11
239.4667752312
 21
137.6231086161
  0
LINE
  5
26D
100
AcDbEntity
  8
BEZUGSACHSEN
100
AcDbLine
 62
7
  6
CONTINUOUS
 10
276.0032194824
 20
126.42211404
 11
278.1662776965
 21
126.1947674605
  0
LINE
  5
26E
100
AcDbEntity
  8
AUSFORMSCHRAEGEN
100
AcDbLine
 62
7
  6
CONTINUOUS
 10
276.0032194824
 20
126.42211404
 11
278.1662776965
 21
126.1947674605
  0
LINE
  5
26F
100
AcDbEntity
  8
0
100
AcDbLine
 62
7
  6
CONTINUOUS
 10
217.246969393
 20
120.1043852689
 11
217.528219393
 21
120.0086405995
  0
LINE
  5
270
100
AcDbEntity
  8
0
100
AcDbLine
 62
7
  6
CONTINUOUS
 10
219.8719693036
 20
116.370342658
 11
220.2469694824
 21
116.1788532939
  0
LINE
  5
271
100
AcDbEntity
  8
0
100
AcDbLine
 62
7
  6
CONTINUOUS
 10
198.7919127869
 20
117.4834026556
 11
198.5124586043
 21
117.628570714
  0
LINE
  5
272
100
AcDbEntity
  8
0
100
AcDbLine
 62
7
  6
CONTINUOUS
 10
189.2381474912
 20
114.437712291
 11
189.3834165449
 21
114.3336982309
  0
LINE
  5
273
100
AcDbEntity
  8
0
100
AcDbLine
 62
7
  6
CONTINUOUS
 10
189.5963664736
 20
114.5656904194
 11
189.3784632452
 21
114.7217115717
  0
LINE
  5
274
100
AcDbEntity
  8
0
100
AcDbLine
 62
7
  6
CONTINUOUS
 10
198.5063272747
 20
117.3034173108
 11
198.6515970329
 21
117.1994033749
  0
LINE
  5
275
100
AcDbEntity
  8
0
100
AcDbLine
 62
7
  6
CONTINUOUS
 10
187.854560584
 20
113.2863460568
 11
188.0835477412
 21
113.0674648207
  0
LINE
  5
276
100
AcDbEntity
  8
0
100
AcDbLine
 62
7
  6
CONTINUOUS
 10
226.4344694824
 20
120.2958746078
 11
226.05946984
 21
120.4873639467
  0
LINE
  5
277
100
AcDbEntity
  8
0
100
AcDbLine
 62
7
  6
CONTINUOUS
 10
220.3407196612
 20
116.7533213692
 11
220.0594696612
 21
116.9448107752
  0
LINE
  5
278
100
AcDbEntity
  8
0
100
AcDbLine
 62
7
  6
CONTINUOUS
 10
189.3574733942
 20
115.5605986154
 11
189.1284862409
 21
115.7794798295
  0
LINE
  5
279
100
AcDbEntity
  8
0
100
AcDbLine
 62
7
  6
CONTINUOUS
 10
199.0208999403
 20
117.2645214416
 11
198.7919127869
 21
117.4834026556
  0
LINE
  5
27A
100
AcDbEntity
  8
0
100
AcDbLine
 62
7
  6
CONTINUOUS
 10
188.2238634913
 20
113.3514641235
 11
188.0675105049
 21
113.5183382894
  0
LINE
  5
27B
100
AcDbEntity
  8
0
100
AcDbLine
 62
7
  6
CONTINUOUS
 10
188.9881704868
 20
115.4954805488
 11
189.1445234655
 21
115.3286064268
  0
LINE
  5
27C
100
AcDbEntity
  8
KONSTRUKTIONSELEMENTE
100
AcDbLine
 62
7
  6
CONTINUOUS
 10
226.0032194824
 20
168.1231086161
 11
216.0032194824
 21
168.1231086161
  0
LINE
  5
27D
100
AcDbEntity
  8
0
100
AcDbLine
 62
7
  6
CONTINUOUS
 10
225.9657191247
 20
119.9128959301
 11
226.2469691247
 21
119.7214065912
  0
LINE
  5
27E
100
AcDbEntity
  8
0
100
AcDbLine
 62
7
  6
CONTINUOUS
 10
217.9969694824
 20
120.2001299384
 11
217.6219695718
 21
120.4873639467
  0
LINE
  5
27F
100
AcDbEntity
  8
0
100
AcDbLine
 62
7
  6
CONTINUOUS
 10
187.6760397477
 20
113.5789403465
 11
187.854560584
 21
113.2863460568
  0
LINE
  5
280
100
AcDbEntity
  8
0
100
AcDbLine
 62
7
  6
CONTINUOUS
 10
189.7748873021
 20
114.2730961738
 11
189.5963664736
 21
114.5656904194
  0
LINE
  5
281
100
AcDbEntity
  8
0
100
AcDbLine
 62
7
  6
CONTINUOUS
 10
181.167725587
 20
111.9776477176
 11
179.8515778567
 21
114.4029684112
  0
LINE
  5
282
100
AcDbEntity
  8
0
100
AcDbLine
 62
7
  6
CONTINUOUS
 10
179.4822749494
 20
114.3378503446
 11
180.9880272647
 21
111.5570752684
  0
LINE
  5
283
100
AcDbEntity
  8
0
100
AcDbLine
 62
7
  6
CONTINUOUS
 10
188.0675105049
 20
113.5183382894
 11
187.9727084804
 21
113.6960655053
  0
LINE
  5
284
100
AcDbEntity
  8
RUNDUNGEN
100
AcDbLine
 62
7
  6
CONTINUOUS
 10
174.8302734071
 20
133.5456717205
 11
180.7333769603
 21
122.4435486403
  0
LINE
  5
285
100
AcDbEntity
  8
KONSTRUKTIONSELEMENTE
100
AcDbLine
 62
7
  6
CONTINUOUS
 10
214.5032194824
 20
182.1231086161
 11
214.2532194824
 21
182.1231086161
  0
LINE
  5
286
100
AcDbEntity
  8
KONSTRUKTIONSELEMENTE
100
AcDbLine
 62
7
  6
CONTINUOUS
 10
214.5032194824
 20
183.2499136087
 11
214.2532194824
 21
183.2499136087
  0
LINE
  5
287
100
AcDbEntity
  8
KONSTRUKTIONSELEMENTE
100
AcDbLine
 62
7
  6
CONTINUOUS
 10
214.5032194824
 20
183.8133160546
 11
214.2532194824
 21
183.8133160546
  0
LINE
  5
288
100
AcDbEntity
  8
KONSTRUKTIONSELEMENTE
100
AcDbLine
 62
7
  6
CONTINUOUS
 10
214.5032194824
 20
184.1231086161
 11
214.2532194824
 21
184.1231086161
  0
LINE
  5
289
100
AcDbEntity
  8
KONSTRUKTIONSELEMENTE
100
AcDbLine
 62
7
  6
CONTINUOUS
 10
215.1136099877
 20
184.6311276887
 11
214.2532194824
 21
184.6311276887
  0
LINE
  5
28A
100
AcDbEntity
  8
KONSTRUKTIONSELEMENTE
100
AcDbLine
 62
7
  6
CONTINUOUS
 10
215.1136099877
 20
185.1391467613
 11
214.2532194824
 21
185.1391467613
  0
LINE
  5
28B
100
AcDbEntity
  8
KONSTRUKTIONSELEMENTE
100
AcDbLine
 62
7
  6
CONTINUOUS
 10
214.5032194824
 20
185.5035234931
 11
214.2532194824
 21
185.5035234931
  0
LINE
  5
28C
100
AcDbEntity
  8
KONSTRUKTIONSELEMENTE
100
AcDbLine
 62
7
  6
CONTINUOUS
 10
214.5441977079
 20
185.8165054844
 11
214.2532194824
 21
185.8165054844
  0
LINE
  5
28D
100
AcDbEntity
  8
KONSTRUKTIONSELEMENTE
100
AcDbLine
 62
7
  6
CONTINUOUS
 10
214.6266380307
 20
185.9011753702
 11
214.2532194824
 21
185.9011753702
  0
LINE
  5
28E
100
AcDbEntity
  8
KONSTRUKTIONSELEMENTE
100
AcDbLine
 62
7
  6
CONTINUOUS
 10
214.6981205676
 20
185.985845256
 11
214.2532194824
 21
185.985845256
  0
LINE
  5
28F
100
AcDbEntity
  8
KONSTRUKTIONSELEMENTE
100
AcDbLine
 62
7
  6
CONTINUOUS
 10
214.8202836867
 20
186.1551849065
 11
214.2532194824
 21
186.1551849065
  0
LINE
  5
290
100
AcDbEntity
  8
KONSTRUKTIONSELEMENTE
100
AcDbLine
 62
7
  6
CONTINUOUS
 10
214.9330590184
 20
186.4091944428
 11
214.2532194824
 21
186.4091944428
  0
LINE
  5
291
100
AcDbEntity
  8
KONSTRUKTIONSELEMENTE
100
AcDbLine
 62
7
  6
CONTINUOUS
 10
215.0650978074
 20
186.8325437508
 11
214.2532194824
 21
186.8325437508
  0
LINE
  5
292
100
AcDbEntity
  8
KONSTRUKTIONSELEMENTE
100
AcDbLine
 62
7
  6
CONTINUOUS
 10
215.1136099877
 20
187.3405628234
 11
214.2532194824
 21
187.3405628234
  0
LINE
  5
293
100
AcDbEntity
  8
KONSTRUKTIONSELEMENTE
100
AcDbLine
 62
7
  6
CONTINUOUS
 10
215.0650978074
 20
187.848581896
 11
214.2532194824
 21
187.848581896
  0
LINE
  5
294
100
AcDbEntity
  8
BEZUGSACHSEN
100
AcDbLine
 62
7
  6
CONTINUOUS
 10
250.3711349501
 20
145.8787751459
 11
265.9357374674
 21
137.6029291874
  0
LINE
  5
295
100
AcDbEntity
  8
BEZUGSACHSEN
100
AcDbLine
 62
7
  6
CONTINUOUS
 10
270.039809044
 20
84.1172863605
 11
270.6957978988
 21
83.4612975057
  0
LINE
  5
296
100
AcDbEntity
  8
0
100
AcDbLine
 62
7
  6
CONTINUOUS
 10
219.4969696612
 20
116.7533213692
 11
219.8719693036
 21
116.370342658
  0
LINE
  5
297
100
AcDbEntity
  8
0
100
AcDbLine
 62
7
  6
CONTINUOUS
 10
217.528219393
 20
120.0086405995
 11
217.7157194824
 21
119.8171512606
  0
LINE
  5
298
100
AcDbEntity
  8
0
100
AcDbLine
 62
7
  6
CONTINUOUS
 10
226.8094691247
 20
119.9128959301
 11
226.4344694824
 21
120.2958746078
  0
LINE
  5
299
100
AcDbEntity
  8
0
100
AcDbLine
 62
7
  6
CONTINUOUS
 10
194.5857317208
 20
114.3436042263
 11
193.2695830219
 21
116.7689247492
  0
LINE
  5
29A
100
AcDbEntity
  8
0
100
AcDbLine
 62
7
  6
CONTINUOUS
 10
192.9002801146
 20
116.7038066825
 11
194.4060328702
 21
113.923031684
  0
LINE
  5
29B
100
AcDbEntity
  8
0
100
AcDbLine
 62
7
  6
CONTINUOUS
 10
189.3834165449
 20
114.3336982309
 11
189.478218585
 21
114.155970927
  0
LINE
  5
29C
100
AcDbEntity
  8
0
100
AcDbLine
 62
7
  6
CONTINUOUS
 10
189.4522754187
 20
115.3828713996
 11
189.3574733942
 21
115.5605986154
  0
LINE
  5
29D
100
AcDbEntity
  8
0
100
AcDbLine
 62
7
  6
CONTINUOUS
 10
198.6515970329
 20
117.1994033749
 11
198.746398353
 21
117.0216760349
  0
LINE
  5
29E
100
AcDbEntity
  8
0
100
AcDbLine
 62
7
  6
CONTINUOUS
 10
199.1157012604
 20
117.0867941015
 11
199.0208999403
 21
117.2645214416
  0
LINE
  5
29F
100
AcDbEntity
  8
0
100
AcDbLine
 62
7
  6
CONTINUOUS
 10
185.0515369961
 20
112.9865407867
 11
184.1601118936
 21
115.1626792092
  0
LINE
  5
2A0
100
AcDbEntity
  8
0
100
AcDbLine
 62
7
  6
CONTINUOUS
 10
184.0136651621
 20
114.5535265875
 11
184.92725813
 21
112.2516679532
  0
LINE
  5
2A1
100
AcDbEntity
  8
0
100
AcDbLine
 62
7
  6
CONTINUOUS
 10
182.4366982084
 20
114.8587948776
 11
183.4500465005
 21
111.9911956867
  0
LINE
  5
2A2
100
AcDbEntity
  8
0
100
AcDbLine
 62
7
  6
CONTINUOUS
 10
183.5743253666
 20
112.7260685202
 11
182.8060011158
 21
114.9239129442
  0
LINE
  5
2A3
100
AcDbEntity
  8
BEZUGSACHSEN
100
AcDbLine
 62
7
  6
CONTINUOUS
 10
161.2145465884
 20
82.420852004
 11
162.45864761
 21
73.5686132637
  0
LINE
  5
2A4
100
AcDbEntity
  8
BEZUGSACHSEN
100
AcDbLine
 62
7
  6
CONTINUOUS
 10
159.5032194824
 20
100.726931997
 11
159.5032194824
 21
97.8017976169
  0
LINE
  5
2A5
100
AcDbEntity
  8
RUNDUNGEN
100
AcDbLine
 62
7
  6
CONTINUOUS
 10
159.5032194824
 20
100.726931997
 11
159.5032194824
 21
96.8319669075
  0
LINE
  5
2A6
100
AcDbEntity
  8
BEZUGSACHSEN
100
AcDbLine
 62
7
  6
CONTINUOUS
 10
159.5032194824
 20
96.8319669075
 11
159.5032194824
 21
85.4127052352
  0
LINE
  5
2A7
100
AcDbEntity
  8
BEZUGSACHSEN
100
AcDbLine
 62
7
  6
CONTINUOUS
 10
162.5032194824
 20
72.931206068
 11
162.5032194824
 21
61.4291069783
  0
LINE
  5
2A8
100
AcDbEntity
  8
RUNDUNGEN
100
AcDbLine
 62
7
  6
CONTINUOUS
 10
162.6097994824
 20
100.5881746871
 11
162.6097994824
 21
124.8283122634
  0
LINE
  5
2A9
100
AcDbEntity
  8
BEZUGSACHSEN
100
AcDbLine
 62
7
  6
CONTINUOUS
 10
162.6097994824
 20
100.5881746871
 11
162.6097994824
 21
124.8283122634
  0
LINE
  5
2AA
100
AcDbEntity
  8
0
100
AcDbLine
 62
7
  6
CONTINUOUS
 10
165.5032194824
 20
248.1231086161
 11
165.5032194824
 21
308.1231086161
  0
LINE
  5
2AB
100
AcDbEntity
  8
KONSTRUKTIONSELEMENTE
100
AcDbLine
 62
7
  6
CONTINUOUS
 10
214.9330590184
 20
188.2719312039
 11
214.2532194824
 21
188.2719312039
  0
LINE
  5
2AC
100
AcDbEntity
  8
KONSTRUKTIONSELEMENTE
100
AcDbLine
 62
7
  6
CONTINUOUS
 10
214.8202836867
 20
188.5259407402
 11
214.2532194824
 21
188.5259407402
  0
LINE
  5
2AD
100
AcDbEntity
  8
KONSTRUKTIONSELEMENTE
100
AcDbLine
 62
7
  6
CONTINUOUS
 10
214.6981205676
 20
188.6952802695
 11
214.2532194824
 21
188.6952802695
  0
LINE
  5
2AE
100
AcDbEntity
  8
KONSTRUKTIONSELEMENTE
100
AcDbLine
 62
7
  6
CONTINUOUS
 10
214.6266380307
 20
188.7799502765
 11
214.2532194824
 21
188.7799502765
  0
LINE
  5
2AF
100
AcDbEntity
  8
KONSTRUKTIONSELEMENTE
100
AcDbLine
 62
7
  6
CONTINUOUS
 10
214.5441977079
 20
188.8646197989
 11
214.2532194824
 21
188.8646197989
  0
LINE
  5
2B0
100
AcDbEntity
  8
KONSTRUKTIONSELEMENTE
100
AcDbLine
 62
7
  6
CONTINUOUS
 10
214.5032194824
 20
188.88393837
 11
214.2532194824
 21
188.88393837
  0
LINE
  5
2B1
100
AcDbEntity
  8
KONSTRUKTIONSELEMENTE
100
AcDbLine
 62
7
  6
CONTINUOUS
 10
214.6724154346
 20
189.5419788854
 11
214.2532194824
 21
189.5419788854
  0
LINE
  5
2B2
100
AcDbEntity
  8
KONSTRUKTIONSELEMENTE
100
AcDbLine
 62
7
  6
CONTINUOUS
 10
214.7257335136
 20
189.7959884217
 11
214.2532194824
 21
189.7959884217
  0
LINE
  5
2B3
100
AcDbEntity
  8
KONSTRUKTIONSELEMENTE
100
AcDbLine
 62
7
  6
CONTINUOUS
 10
214.5032194824
 20
190.8966960893
 11
214.2532194824
 21
190.8966960893
  0
LINE
  5
2B4
100
AcDbEntity
  8
KONSTRUKTIONSELEMENTE
100
AcDbLine
 62
7
  6
CONTINUOUS
 10
214.5032194824
 20
191.0671227094
 11
214.2532194824
 21
191.0671227094
  0
LINE
  5
2B5
100
AcDbEntity
  8
KONSTRUKTIONSELEMENTE
100
AcDbLine
 62
7
  6
CONTINUOUS
 10
214.5032194824
 20
191.4192495278
 11
214.2532194824
 21
191.4192495278
  0
LINE
  5
2B6
100
AcDbEntity
  8
KONSTRUKTIONSELEMENTE
100
AcDbLine
 62
7
  6
CONTINUOUS
 10
214.5032194824
 20
191.5740551758
 11
214.2532194824
 21
191.5740551758
  0
LINE
  5
2B7
100
AcDbEntity
  8
KONSTRUKTIONSELEMENTE
100
AcDbLine
 62
7
  6
CONTINUOUS
 10
215.1136099877
 20
192.9287728642
 11
214.2532194824
 21
192.9287728642
  0
LINE
  5
2B8
100
AcDbEntity
  8
KONSTRUKTIONSELEMENTE
100
AcDbLine
 62
7
  6
CONTINUOUS
 10
215.1136099877
 20
193.6061309817
 11
214.2532194824
 21
193.6061309817
  0
LINE
  5
2B9
100
AcDbEntity
  8
KONSTRUKTIONSELEMENTE
100
AcDbLine
 62
7
  6
CONTINUOUS
 10
214.5032194824
 20
194.9608491546
 11
214.2532194824
 21
194.9608491546
  0
LINE
  5
2BA
100
AcDbEntity
  8
KONSTRUKTIONSELEMENTE
100
AcDbLine
 62
7
  6
CONTINUOUS
 10
215.1136099877
 20
195.6382072721
 11
214.2532194824
 21
195.6382072721
  0
LINE
  5
2BB
100
AcDbEntity
  8
KONSTRUKTIONSELEMENTE
100
AcDbLine
 62
7
  6
CONTINUOUS
 10
215.1136099877
 20
196.1462263447
 11
214.2532194824
 21
196.1462263447
  0
LINE
  5
2BC
100
AcDbEntity
  8
KONSTRUKTIONSELEMENTE
100
AcDbLine
 62
7
  6
CONTINUOUS
 10
215.1136099877
 20
196.8235854312
 11
214.2532194824
 21
196.8235854312
  0
LINE
  5
2BD
100
AcDbEntity
  8
KONSTRUKTIONSELEMENTE
100
AcDbLine
 62
7
  6
CONTINUOUS
 10
215.1136099877
 20
197.3316045038
 11
214.2532194824
 21
197.3316045038
  0
LINE
  5
2BE
100
AcDbEntity
  8
KONSTRUKTIONSELEMENTE
100
AcDbLine
 62
7
  6
CONTINUOUS
 10
214.5237296918
 20
198.8556617216
 11
214.2532194824
 21
198.8556617216
  0
LINE
  5
2BF
100
AcDbEntity
  8
KONSTRUKTIONSELEMENTE
100
AcDbLine
 62
7
  6
CONTINUOUS
 10
214.5161362572
 20
199.2790112718
 11
214.2532194824
 21
199.2790112718
  0
LINE
  5
2C0
100
AcDbEntity
  8
KONSTRUKTIONSELEMENTE
100
AcDbLine
 62
7
  6
CONTINUOUS
 10
214.5038484959
 20
199.6176903305
 11
214.2532194824
 21
199.6176903305
  0
LINE
  5
2C1
100
AcDbEntity
  8
KONSTRUKTIONSELEMENTE
100
AcDbLine
 62
7
  6
CONTINUOUS
 10
214.5118634023
 20
199.8716998668
 11
214.2532194824
 21
199.8716998668
  0
LINE
  5
2C2
100
AcDbEntity
  8
KONSTRUKTIONSELEMENTE
100
AcDbLine
 62
7
  6
CONTINUOUS
 10
214.5032194824
 20
199.9563693892
 11
214.2532194824
 21
199.9563693892
  0
LINE
  5
2C3
100
AcDbEntity
  8
BEZUGSACHSEN
100
AcDbLine
 62
7
  6
CONTINUOUS
 10
240.6173430378
 20
160.1255187057
 11
283.7495002683
 21
137.1917438983
  0
LINE
  5
2C4
100
AcDbEntity
  8
KONSTRUKTIONSELEMENTE
100
AcDbLine
 62
7
  6
CONTINUOUS
 10
166.9095507216
 20
189.4332457776
 11
170.4450846275
 21
185.8977118717
  0
LINE
  5
2C5
100
AcDbEntity
  8
KONSTRUKTIONSELEMENTE
100
AcDbLine
 62
7
  6
CONTINUOUS
 10
167.2631041122
 20
189.7867991682
 11
170.7986380181
 21
186.2512652623
  0
LINE
  5
2C6
100
AcDbEntity
  8
0
100
AcDbLine
 62
7
  6
CONTINUOUS
 10
218.2782194824
 20
119.8171512606
 11
217.9969694824
 21
120.2001299384
  0
LINE
  5
2C7
100
AcDbEntity
  8
0
100
AcDbLine
 62
7
  6
CONTINUOUS
 10
220.0594696612
 20
116.9448107752
 11
219.8719693036
 21
117.2320447835
  0
LINE
  5
2C8
100
AcDbEntity
  8
0
100
AcDbLine
 62
7
  6
CONTINUOUS
 10
187.536902008
 20
114.0081078978
 11
187.6760397477
 21
113.5789403465
  0
LINE
  5
2C9
100
AcDbEntity
  8
RUNDUNGEN
100
AcDbLine
 62
7
  6
CONTINUOUS
 10
170.2918808182
 20
106.6247762246
 11
170.6853124622
 21
103.8253646174
  0
LINE
  5
2CA
100
AcDbEntity
  8
BEZUGSACHSEN
100
AcDbLine
 62
7
  6
CONTINUOUS
 10
170.2918808182
 20
106.6247762246
 11
170.6853124622
 21
103.8253646174
  0
LINE
  5
2CB
100
AcDbEntity
  8
RUNDUNGEN
100
AcDbLine
 62
7
  6
CONTINUOUS
 10
169.3966394824
 20
124.8283122634
 11
169.3966394824
 21
100.5887898609
  0
LINE
  5
2CC
100
AcDbEntity
  8
BEZUGSACHSEN
100
AcDbLine
 62
7
  6
CONTINUOUS
 10
169.3966394824
 20
124.8283122634
 11
169.3966394824
 21
100.5887898609
  0
LINE
  5
2CD
100
AcDbEntity
  8
0
100
AcDbLine
 62
7
  6
CONTINUOUS
 10
169.3966394824
 20
100.5887898609
 11
169.3966394824
 21
104.62211404
  0
LINE
  5
2CE
100
AcDbEntity
  8
RUNDUNGEN
100
AcDbLine
 62
7
  6
CONTINUOUS
 10
169.5032194824
 20
72.9312073059
 11
169.5032194824
 21
61.4291069783
  0
LINE
  5
2CF
100
AcDbEntity
  8
BEZUGSACHSEN
100
AcDbLine
 62
7
  6
CONTINUOUS
 10
172.5032194824
 20
100.726931997
 11
172.5032194824
 21
97.8017976169
  0
LINE
  5
2D0
100
AcDbEntity
  8
RUNDUNGEN
100
AcDbLine
 62
7
  6
CONTINUOUS
 10
172.5032194824
 20
100.726931997
 11
172.5032194824
 21
85.4127052352
  0
LINE
  5
2D1
100
AcDbEntity
  8
BEZUGSACHSEN
100
AcDbLine
 62
7
  6
CONTINUOUS
 10
161.7249693208
 20
106.6988555789
 11
161.3211265026
 21
103.8253646174
  0
LINE
  5
2D2
100
AcDbEntity
  8
KONSTRUKTIONSELEMENTE
100
AcDbLine
 62
7
  6
CONTINUOUS
 10
161.9598032533
 20
200.7469542766
 11
155.9493956132
 21
194.7365466365
  0
LINE
  5
2D3
100
AcDbEntity
  8
KONSTRUKTIONSELEMENTE
100
AcDbLine
 62
7
  6
CONTINUOUS
 10
104.6841539772
 20
143.4713050005
 11
98.6737463371
 21
137.4608973604
  0
LINE
  5
2D4
100
AcDbEntity
  8
KONSTRUKTIONSELEMENTE
100
AcDbLine
 62
7
  6
CONTINUOUS
 10
125.1902506316
 20
163.6238482643
 11
135.7968523494
 21
174.2304499821
  0
LINE
  5
2D5
100
AcDbEntity
  8
KONSTRUKTIONSELEMENTE
100
AcDbLine
 62
7
  6
CONTINUOUS
 10
128.3722311469
 20
160.441867749
 11
138.9788328647
 21
171.0484694668
  0
LINE
  5
2D6
100
AcDbEntity
  8
RUNDUNGEN
100
AcDbLine
 62
7
  6
CONTINUOUS
 10
281.2040569914
 20
102.7849238011
 11
281.9666461293
 21
102.0223346632
  0
LINE
  5
2D7
100
AcDbEntity
  8
BEZUGSACHSEN
100
AcDbLine
 62
7
  6
CONTINUOUS
 10
281.2040569914
 20
102.7849238011
 11
281.9666461293
 21
102.0223346632
  0
LINE
  5
2D8
100
AcDbEntity
  8
0
100
AcDbLine
 62
7
  6
CONTINUOUS
 10
226.2469691247
 20
119.7214065912
 11
226.4344694824
 21
119.4341723147
  0
LINE
  5
2D9
100
AcDbEntity
  8
0
100
AcDbLine
 62
7
  6
CONTINUOUS
 10
219.3094695718
 20
117.136300114
 11
219.4969696612
 21
116.7533213692
  0
LINE
  5
2DA
100
AcDbEntity
  8
0
100
AcDbLine
 62
7
  6
CONTINUOUS
 10
186.1606237326
 20
113.8950618186
 11
186.2160433727
 21
113.5807614213
  0
LINE
  5
2DB
100
AcDbEntity
  8
0
100
AcDbLine
 62
7
  6
CONTINUOUS
 10
187.077749687
 20
113.7327034939
 11
187.0223300469
 21
114.0470038912
  0
LINE
  5
2DC
100
AcDbEntity
  8
0
100
AcDbLine
 62
7
  6
CONTINUOUS
 10
187.4593145336
 20
114.4481283307
 11
187.536902008
 21
114.0081078978
  0
LINE
  5
2DD
100
AcDbEntity
  8
0
100
AcDbLine
 62
7
  6
CONTINUOUS
 10
187.7892350411
 20
114.3766733039
 11
187.7670671913
 21
114.5023934276
  0
LINE
  5
2DE
100
AcDbEntity
  8
0
100
AcDbLine
 62
7
  6
CONTINUOUS
 10
187.9727084804
 20
113.6960655053
 11
187.9394567057
 21
113.8846456908
  0
LINE
  5
2DF
100
AcDbEntity
  8
0
100
AcDbLine
 62
7
  6
CONTINUOUS
 10
189.478218585
 20
114.155970927
 11
189.5114703597
 21
113.9673907415
  0
LINE
  5
2E0
100
AcDbEntity
  8
0
100
AcDbLine
 62
7
  6
CONTINUOUS
 10
189.8303069422
 20
113.9587957765
 11
189.7748873021
 21
114.2730961738
  0
LINE
  5
2E1
100
AcDbEntity
  8
0
100
AcDbLine
 62
7
  6
CONTINUOUS
 10
187.443277309
 20
114.8990017333
 11
187.4593145336
 21
114.4481283307
  0
LINE
  5
2E2
100
AcDbEntity
  8
0
100
AcDbLine
 62
7
  6
CONTINUOUS
 10
185.0218185601
 20
115.314621344
 11
185.0515369961
 21
112.9865407867
  0
LINE
  5
2E3
100
AcDbEntity
  8
0
100
AcDbLine
 62
7
  6
CONTINUOUS
 10
187.7670671913
 20
114.5023934276
 11
187.7621138915
 21
114.8904067684
  0
LINE
  5
2E4
100
AcDbEntity
  8
0
100
AcDbLine
 62
7
  6
CONTINUOUS
 10
185.4196622413
 20
112.3384920835
 11
185.3911214674
 21
115.3797394106
  0
LINE
  5
2E5
100
AcDbEntity
  8
0
100
AcDbLine
 62
7
  6
CONTINUOUS
 10
183.5032194824
 20
248.1231086161
 11
183.5032194824
 21
308.1231086161
  0
LINE
  5
2E6
100
AcDbEntity
  8
0
100
AcDbLine
 62
7
  6
CONTINUOUS
 10
183.9424506118
 20
112.078019817
 11
184.0136651621
 21
114.5535265875
  0
LINE
  5
2E7
100
AcDbEntity
  8
0
100
AcDbLine
 62
7
  6
CONTINUOUS
 10
183.6677077823
 20
115.075855079
 11
183.5743253666
 21
112.7260685202
  0
LINE
  5
2E8
100
AcDbEntity
  8
RUNDUNGEN
100
AcDbLine
 62
7
  6
CONTINUOUS
 10
170.7918923763
 20
82.420852004
 11
169.5477913548
 21
73.5686132637
  0
LINE
  5
2E9
100
AcDbEntity
  8
KONSTRUKTIONSELEMENTE
100
AcDbLine
 62
7
  6
CONTINUOUS
 10
165.4953371592
 20
197.2114203707
 11
159.4849295191
 21
191.2010127306
  0
LINE
  5
2EA
100
AcDbEntity
  8
KONSTRUKTIONSELEMENTE
100
AcDbLine
 62
7
  6
CONTINUOUS
 10
108.2196878831
 20
139.9357710946
 11
102.209280243
 21
133.9253634545
  0
LINE
  5
2EB
100
AcDbEntity
  8
KONSTRUKTIONSELEMENTE
100
AcDbLine
 62
7
  6
CONTINUOUS
 10
165.8488905498
 20
197.2114203707
 11
194.7907584513
 21
226.1532882721
  0
LINE
  5
2EC
100
AcDbEntity
  8
KONSTRUKTIONSELEMENTE
100
AcDbLine
 62
7
  6
CONTINUOUS
 10
159.4849295191
 20
189.7867991682
 11
140.776244544
 21
171.0781141931
  0
LINE
  5
2ED
100
AcDbEntity
  8
KONSTRUKTIONSELEMENTE
100
AcDbLine
 62
7
  6
CONTINUOUS
 10
128.3722311469
 20
158.674100796
 11
109.6635461717
 21
139.9654158208
  0
LINE
  5
2EE
100
AcDbEntity
  8
KONSTRUKTIONSELEMENTE
100
AcDbLine
 62
7
  6
CONTINUOUS
 10
62.257747106
 20
91.4989565833
 11
103.8891491876
 21
133.1303586649
  0
LINE
  5
2EF
100
AcDbEntity
  8
BEZUGSACHSEN
100
AcDbLine
 62
7
  6
CONTINUOUS
 10
103.8891491876
 20
133.1303586649
 11
104.6839699065
 21
133.9251793839
  0
LINE
  5
2F0
100
AcDbEntity
  8
KONSTRUKTIONSELEMENTE
100
AcDbLine
 62
7
  6
CONTINUOUS
 10
62.4698791403
 20
91.2868245489
 11
70.9551605146
 21
99.7721059232
  0
LINE
  5
2F1
100
AcDbEntity
  8
KONSTRUKTIONSELEMENTE
100
AcDbLine
 62
7
  6
CONTINUOUS
 10
64.1669354152
 20
89.5897682741
 11
72.6522167894
 21
98.0750496483
  0
LINE
  5
2F2
100
AcDbEntity
  8
KONSTRUKTIONSELEMENTE
100
AcDbLine
 62
7
  6
CONTINUOUS
 10
64.3790674495
 20
89.3776362397
 11
106.0104695312
 21
131.0090383214
  0
LINE
  5
2F3
100
AcDbEntity
  8
BEZUGSACHSEN
100
AcDbLine
 62
7
  6
CONTINUOUS
 10
106.0104695312
 20
131.0090383214
 11
106.8052902501
 21
131.8038590403
  0
LINE
  5
2F4
100
AcDbEntity
  8
KONSTRUKTIONSELEMENTE
100
AcDbLine
 62
7
  6
CONTINUOUS
 10
162.6669100345
 20
186.6048186529
 11
143.9582250593
 21
167.8961336777
  0
LINE
  5
2F5
100
AcDbEntity
  8
KONSTRUKTIONSELEMENTE
100
AcDbLine
 62
7
  6
CONTINUOUS
 10
131.5542116623
 20
155.4921202807
 11
112.8455266871
 21
136.7834353055
  0
LINE
  5
2F6
100
AcDbEntity
  8
KONSTRUKTIONSELEMENTE
100
AcDbLine
 62
7
  6
CONTINUOUS
 10
170.0915312369
 20
192.9687796836
 11
199.0829092656
 21
221.9601577122
  0
LINE
  5
2F7
100
AcDbEntity
  8
KONSTRUKTIONSELEMENTE
100
AcDbLine
 62
7
  6
CONTINUOUS
 10
106.8054743207
 20
129.3291693768
 11
109.6339014455
 21
132.1575965015
  0
LINE
  5
2F8
100
AcDbEntity
  8
KONSTRUKTIONSELEMENTE
100
AcDbLine
 62
7
  6
CONTINUOUS
 10
109.9874548361
 20
132.5111498921
 11
112.8158819608
 21
135.3395770169
  0
LINE
  5
2F9
100
AcDbEntity
  8
KONSTRUKTIONSELEMENTE
100
AcDbLine
 62
7
  6
CONTINUOUS
 10
164.0811235968
 20
186.6048186529
 11
166.9095507216
 21
189.4332457776
  0
LINE
  5
2FA
100
AcDbEntity
  8
KONSTRUKTIONSELEMENTE
100
AcDbLine
 62
7
  6
CONTINUOUS
 10
167.2631041122
 20
189.7867991682
 11
170.0915312369
 21
192.615226293
  0
LINE
  5
2FB
100
AcDbEntity
  8
KONSTRUKTIONSELEMENTE
100
AcDbLine
 62
7
  6
CONTINUOUS
 10
143.928580333
 20
166.0987219985
 11
133.3219786152
 21
155.4921202807
  0
LINE
  5
2FC
100
AcDbEntity
  8
KONSTRUKTIONSELEMENTE
100
AcDbLine
 62
7
  6
CONTINUOUS
 10
147.1105608484
 20
162.9167414831
 11
136.5039591306
 21
152.3101397653
  0
LINE
  5
2FD
100
AcDbEntity
  8
KONSTRUKTIONSELEMENTE
100
AcDbLine
 62
7
  6
CONTINUOUS
 10
110.3410082267
 20
125.7936354709
 11
113.1694353514
 21
128.6220625956
  0
LINE
  5
2FE
100
AcDbEntity
  8
KONSTRUKTIONSELEMENTE
100
AcDbLine
 62
7
  6
CONTINUOUS
 10
113.522988742
 20
128.9756159862
 11
116.3514158668
 21
131.8040431109
  0
LINE
  5
2FF
100
AcDbEntity
  8
KONSTRUKTIONSELEMENTE
100
AcDbLine
 62
7
  6
CONTINUOUS
 10
167.6166575028
 20
183.069284747
 11
170.4450846275
 21
185.8977118717
  0
LINE
  5
300
100
AcDbEntity
  8
KONSTRUKTIONSELEMENTE
100
AcDbLine
 62
7
  6
CONTINUOUS
 10
170.7986380181
 20
186.2512652623
 11
173.6270651429
 21
189.079692387
  0
LINE
  5
301
100
AcDbEntity
  8
0
100
AcDbLine
 62
7
  6
CONTINUOUS
 10
226.9969694824
 20
119.5299172523
 11
226.8094691247
 21
119.9128959301
  0
LINE
  5
302
100
AcDbEntity
  8
0
100
AcDbLine
 62
7
  6
CONTINUOUS
 10
218.4657195718
 20
116.0831086161
 11
217.6219695718
 21
118.2852362814
  0
LINE
  5
303
100
AcDbEntity
  8
0
100
AcDbLine
 62
7
  6
CONTINUOUS
 10
217.0594694377
 20
118.0937469425
 11
217.809469393
 21
116.0831086161
  0
LINE
  5
304
100
AcDbEntity
  8
0
100
AcDbLine
 62
7
  6
CONTINUOUS
 10
217.7157194824
 20
119.8171512606
 11
217.809469393
 21
119.5299172523
  0
LINE
  5
305
100
AcDbEntity
  8
0
100
AcDbLine
 62
7
  6
CONTINUOUS
 10
218.371969393
 20
119.5299172523
 11
218.2782194824
 21
119.8171512606
  0
LINE
  5
306
100
AcDbEntity
  8
0
100
AcDbLine
 62
7
  6
CONTINUOUS
 10
195.8547033736
 20
117.2247512155
 11
196.3756479066
 21
114.2703279565
  0
LINE
  5
307
100
AcDbEntity
  8
0
100
AcDbLine
 62
7
  6
CONTINUOUS
 10
196.744950814
 20
114.3354460231
 11
196.224006281
 21
117.2898692822
  0
LINE
  5
308
100
AcDbEntity
  8
0
100
AcDbLine
 62
7
  6
CONTINUOUS
 10
196.7164110967
 20
117.3766935366
 11
197.2373556297
 21
114.4222702776
  0
LINE
  5
309
100
AcDbEntity
  8
0
100
AcDbLine
 62
7
  6
CONTINUOUS
 10
197.6066585371
 20
114.4873883442
 11
197.3738960828
 21
115.8074498191
  0
LINE
  5
30A
100
AcDbEntity
  8
0
100
AcDbLine
 62
7
  6
CONTINUOUS
 10
197.3073925334
 20
116.1846101902
 11
197.1411336286
 21
117.127511294
  0
LINE
  5
30B
100
AcDbEntity
  8
0
100
AcDbLine
 62
7
  6
CONTINUOUS
 10
198.746398353
 20
117.0216760349
 11
198.7796501588
 21
116.8330956733
  0
LINE
  5
30C
100
AcDbEntity
  8
0
100
AcDbLine
 62
7
  6
CONTINUOUS
 10
199.1600369911
 20
116.835353678
 11
199.1157012604
 21
117.0867941015
  0
LINE
  5
30D
100
AcDbEntity
  8
KONSTRUKTIONSELEMENTE
100
AcDbLine
 62
7
  6
CONTINUOUS
 10
204.0032194824
 20
157.4125920463
 11
204.0032194824
 21
153.1231086161
  0
LWPOLYLINE
  5
30E
100
AcDbEntity
  8
KONSTRUKTIONSELEMENTE
100
AcDbPolyline
 62
7
  6
CONTINUOUS
 90
4
 70
0
 10
204.0033115117
 20
158.132465555
 10
204.0031299564
 20
158.0989794498
 10
204.003061368
 20
158.0870800691
 10
204.0027504268
 20
158.0298881396
  0
LWPOLYLINE
  5
30F
100
AcDbEntity
  8
KONSTRUKTIONSELEMENTE
100
AcDbPolyline
 62
7
  6
CONTINUOUS
 90
3
 70
0
 10
204.0035900547
 20
158.616613745
 10
204.0033750795
 20
158.5835410082
 10
204.0032194824
 20
158.1147943193
  0
LINE
  5
310
100
AcDbEntity
  8
KONSTRUKTIONSELEMENTE
100
AcDbLine
 62
7
  6
CONTINUOUS
 10
204.0036514173
 20
158.5521035672
 11
204.0032284452
 21
158.4452662724
  0
LINE
  5
311
100
AcDbEntity
  8
0
100
AcDbLine
 62
7
  6
CONTINUOUS
 10
187.7621138915
 20
114.8904067684
 11
187.7904123355
 21
115.0898400998
  0
LINE
  5
312
100
AcDbEntity
  8
0
100
AcDbLine
 62
7
  6
CONTINUOUS
 10
187.9394567057
 20
113.8846456908
 11
187.9677551652
 21
114.0840789341
  0
LINE
  5
313
100
AcDbEntity
  8
0
100
AcDbLine
 62
7
  6
CONTINUOUS
 10
189.5114703597
 20
113.9673907415
 11
189.4831718847
 21
113.7679575862
  0
LINE
  5
314
100
AcDbEntity
  8
0
100
AcDbLine
 62
7
  6
CONTINUOUS
 10
181.4804311119
 20
111.6438993521
 11
181.9442942732
 21
114.7719707784
  0
LINE
  5
315
100
AcDbEntity
  8
0
100
AcDbLine
 62
7
  6
CONTINUOUS
 10
181.5749913658
 20
114.7068527118
 11
181.167725587
 21
111.9776477176
  0
LINE
  5
316
100
AcDbEntity
  8
BEZUGSACHSEN
100
AcDbLine
 62
7
  6
CONTINUOUS
 10
243.3889109885
 20
129.7565212933
 11
239.4667752312
 21
137.6231086161
  0
LINE
  5
317
100
AcDbEntity
  8
0
100
AcDbLine
 62
7
  6
CONTINUOUS
 10
219.8719693036
 20
117.2320447835
 11
219.7782196612
 21
117.6150234612
  0
LINE
  5
318
100
AcDbEntity
  8
0
100
AcDbLine
 62
7
  6
CONTINUOUS
 10
226.4344694824
 20
119.4341723147
 11
226.5282191247
 21
119.0511936369
  0
LINE
  5
319
100
AcDbEntity
  8
0
100
AcDbLine
 62
7
  6
CONTINUOUS
 10
219.215719393
 20
117.6150234612
 11
219.3094695718
 21
117.136300114
  0
LINE
  5
31A
100
AcDbEntity
  8
KONSTRUKTIONSELEMENTE
100
AcDbLine
 62
7
  6
CONTINUOUS
 10
214.5032185662
 20
199.6716631176
 11
214.5038484959
 21
199.6176903305
  0
LINE
  5
31B
100
AcDbEntity
  8
KONSTRUKTIONSELEMENTE
100
AcDbLine
 62
7
  6
CONTINUOUS
 10
209.2532194824
 20
141.2724757216
 11
209.2532194824
 21
167.7015702425
  0
LINE
  5
31C
100
AcDbEntity
  8
KONSTRUKTIONSELEMENTE
100
AcDbLine
 62
7
  6
CONTINUOUS
 10
214.2532194824
 20
182.1231086161
 11
214.2532194824
 21
185.1391467613
  0
LINE
  5
31D
100
AcDbEntity
  8
KONSTRUKTIONSELEMENTE
100
AcDbLine
 62
7
  6
CONTINUOUS
 10
214.2532194824
 20
185.5035234931
 11
214.2532194824
 21
188.8646197989
  0
LINE
  5
31E
100
AcDbEntity
  8
KONSTRUKTIONSELEMENTE
100
AcDbLine
 62
7
  6
CONTINUOUS
 10
214.2532194824
 20
188.88393837
 11
214.2532194824
 21
194.9608491546
  0
LINE
  5
31F
100
AcDbEntity
  8
KONSTRUKTIONSELEMENTE
100
AcDbLine
 62
7
  6
CONTINUOUS
 10
214.2532194824
 20
195.6382072721
 11
214.2532194824
 21
196.1462263447
  0
LINE
  5
320
100
AcDbEntity
  8
KONSTRUKTIONSELEMENTE
100
AcDbLine
 62
7
  6
CONTINUOUS
 10
214.2532194824
 20
196.8235854312
 11
214.2532194824
 21
199.9563693892
  0
LINE
  5
321
100
AcDbEntity
  8
KONSTRUKTIONSELEMENTE
100
AcDbLine
 62
7
  6
CONTINUOUS
 10
214.5032194824
 20
176.1231086161
 11
214.5032194824
 21
184.6311276887
  0
LINE
  5
322
100
AcDbEntity
  8
KONSTRUKTIONSELEMENTE
100
AcDbLine
 62
7
  6
CONTINUOUS
 10
214.5032194824
 20
185.1391467613
 11
214.5032194824
 21
185.8165054844
  0
LINE
  5
323
100
AcDbEntity
  8
KONSTRUKTIONSELEMENTE
100
AcDbLine
 62
7
  6
CONTINUOUS
 10
214.5032194824
 20
188.8646197989
 11
214.5032194824
 21
189.5419788854
  0
LINE
  5
324
100
AcDbEntity
  8
KONSTRUKTIONSELEMENTE
100
AcDbLine
 62
7
  6
CONTINUOUS
 10
214.5032194824
 20
190.4934807904
 11
214.5032194824
 21
192.1838976404
  0
LINE
  5
325
100
AcDbEntity
  8
KONSTRUKTIONSELEMENTE
100
AcDbLine
 62
7
  6
CONTINUOUS
 10
214.5032194824
 20
194.3510064719
 11
214.5032194824
 21
195.6382072721
  0
LINE
  5
326
100
AcDbEntity
  8
KONSTRUKTIONSELEMENTE
100
AcDbLine
 62
7
  6
CONTINUOUS
 10
214.5032194824
 20
196.1462263447
 11
214.5032194824
 21
196.8235854312
  0
LINE
  5
327
100
AcDbEntity
  8
KONSTRUKTIONSELEMENTE
100
AcDbLine
 62
7
  6
CONTINUOUS
 10
214.5032194824
 20
199.671666544
 11
214.5032194824
 21
216.6231086161
  0
LINE
  5
328
100
AcDbEntity
  8
KONSTRUKTIONSELEMENTE
100
AcDbLine
 62
7
  6
CONTINUOUS
 10
214.5237296918
 20
197.3316045038
 11
214.5237296918
 21
198.8556617216
  0
LINE
  5
329
100
AcDbEntity
  8
0
100
AcDbLine
 62
7
  6
CONTINUOUS
 10
214.9032194824
 20
120.5831086161
 11
214.9032194824
 21
116.0831086161
  0
LINE
  5
32A
100
AcDbEntity
  8
KONSTRUKTIONSELEMENTE
100
AcDbLine
 62
7
  6
CONTINUOUS
 10
215.1136099877
 20
185.1391467613
 11
215.1136099877
 21
184.6311276887
  0
LINE
  5
32B
100
AcDbEntity
  8
KONSTRUKTIONSELEMENTE
100
AcDbLine
 62
7
  6
CONTINUOUS
 10
215.1136099877
 20
192.9287728642
 11
215.1136099877
 21
193.6061309817
  0
LINE
  5
32C
100
AcDbEntity
  8
KONSTRUKTIONSELEMENTE
100
AcDbLine
 62
7
  6
CONTINUOUS
 10
215.1136099877
 20
195.6382072721
 11
215.1136099877
 21
196.1462263447
  0
LINE
  5
32D
100
AcDbEntity
  8
KONSTRUKTIONSELEMENTE
100
AcDbLine
 62
7
  6
CONTINUOUS
 10
215.1136099877
 20
196.8235854312
 11
215.1136099877
 21
197.3316045038
  0
LINE
  5
32E
100
AcDbEntity
  8
0
100
AcDbLine
 62
7
  6
CONTINUOUS
 10
215.4657194824
 20
116.0831086161
 11
215.4657194824
 21
118.0937469425
  0
LINE
  5
32F
100
AcDbEntity
  8
0
100
AcDbLine
 62
7
  6
CONTINUOUS
 10
215.4657194824
 20
118.6682149592
 11
215.4657194824
 21
120.1043852689
  0
LINE
  5
330
100
AcDbEntity
  8
KONSTRUKTIONSELEMENTE
100
AcDbLine
 62
7
  6
CONTINUOUS
 10
204.0043809863
 20
158.6158050866
 11
204.0036929511
 21
158.5129394127
  0
LINE
  5
331
100
AcDbEntity
  8
KONSTRUKTIONSELEMENTE
100
AcDbLine
 62
7
  6
CONTINUOUS
 10
204.0043059829
 20
158.6837141398
 11
204.0035900547
 21
158.616613745
  0
LINE
  5
332
100
AcDbEntity
  8
KONSTRUKTIONSELEMENTE
100
AcDbLine
 62
7
  6
CONTINUOUS
 10
204.0051378772
 20
158.6269857228
 11
204.0046260536
 21
158.5927632396
  0
LINE
  5
333
100
AcDbEntity
  8
KONSTRUKTIONSELEMENTE
100
AcDbLine
 62
7
  6
CONTINUOUS
 10
204.00542026
 20
158.7520422032
 11
204.0043059829
 21
158.6837141398
  0
LINE
  5
334
100
AcDbEntity
  8
KONSTRUKTIONSELEMENTE
100
AcDbLine
 62
7
  6
CONTINUOUS
 10
204.0069520932
 20
158.8215223486
 11
204.00542026
 21
158.7520422032
  0
LINE
  5
335
100
AcDbEntity
  8
KONSTRUKTIONSELEMENTE
100
AcDbLine
 62
7
  6
CONTINUOUS
 10
204.0089206198
 20
158.8921207809
 11
204.0069520932
 21
158.8215223486
  0
LINE
  5
336
100
AcDbEntity
  8
KONSTRUKTIONSELEMENTE
100
AcDbLine
 62
7
  6
CONTINUOUS
 10
204.0113447615
 20
158.9638091446
 11
204.0089206198
 21
158.8921207809
  0
LINE
  5
337
100
AcDbEntity
  8
KONSTRUKTIONSELEMENTE
100
AcDbLine
 62
7
  6
CONTINUOUS
 10
204.0142431076
 20
159.0365585043
 11
204.0113447615
 21
158.9638091446
  0
LINE
  5
338
100
AcDbEntity
  8
KONSTRUKTIONSELEMENTE
100
AcDbLine
 62
7
  6
CONTINUOUS
 10
204.0176338723
 20
159.1103392285
 11
204.0142431076
 21
159.0365585043
  0
LINE
  5
339
100
AcDbEntity
  8
KONSTRUKTIONSELEMENTE
100
AcDbLine
 62
7
  6
CONTINUOUS
 10
204.0215348503
 20
159.1851209092
 11
204.0176338723
 21
159.1103392285
  0
LINE
  5
33A
100
AcDbEntity
  8
KONSTRUKTIONSELEMENTE
100
AcDbLine
 62
7
  6
CONTINUOUS
 10
204.0259633707
 20
159.2608723152
 11
204.0215348503
 21
159.1851209092
  0
LINE
  5
33B
100
AcDbEntity
  8
KONSTRUKTIONSELEMENTE
100
AcDbLine
 62
7
  6
CONTINUOUS
 10
204.0309362498
 20
159.3375613572
 11
204.0259633707
 21
159.2608723152
  0
LINE
  5
33C
100
AcDbEntity
  8
KONSTRUKTIONSELEMENTE
100
AcDbLine
 62
7
  6
CONTINUOUS
 10
204.0364710021
 20
159.4151719486
 11
204.0309362498
 21
159.3375613572
  0
LINE
  5
33D
100
AcDbEntity
  8
KONSTRUKTIONSELEMENTE
100
AcDbLine
 62
7
  6
CONTINUOUS
 10
204.0425914701
 20
159.4937670861
 11
204.0364710021
 21
159.4151719486
  0
LINE
  5
33E
100
AcDbEntity
  8
KONSTRUKTIONSELEMENTE
100
AcDbLine
 62
7
  6
CONTINUOUS
 10
204.0493253812
 20
159.5734309625
 11
204.0425914701
 21
159.4937670861
  0
LINE
  5
33F
100
AcDbEntity
  8
KONSTRUKTIONSELEMENTE
100
AcDbLine
 62
7
  6
CONTINUOUS
 10
204.0567030818
 20
159.6542472196
 11
204.0493253812
 21
159.5734309625
  0
LINE
  5
340
100
AcDbEntity
  8
KONSTRUKTIONSELEMENTE
100
AcDbLine
 62
7
  6
CONTINUOUS
 10
204.0647576184
 20
159.7362989278
 11
204.0567030818
 21
159.6542472196
  0
LINE
  5
341
100
AcDbEntity
  8
KONSTRUKTIONSELEMENTE
100
AcDbLine
 62
7
  6
CONTINUOUS
 10
204.0735248247
 20
159.8196685558
 11
204.0647576184
 21
159.7362989278
  0
LINE
  5
342
100
AcDbEntity
  8
KONSTRUKTIONSELEMENTE
100
AcDbLine
 62
7
  6
CONTINUOUS
 10
204.0830434148
 20
159.9044379313
 11
204.0735248247
 21
159.8196685558
  0
LINE
  5
343
100
AcDbEntity
  8
KONSTRUKTIONSELEMENTE
100
AcDbLine
 62
7
  6
CONTINUOUS
 10
204.093355083
 20
159.9906881917
 11
204.0830434148
 21
159.9044379313
  0
LINE
  5
344
100
AcDbEntity
  8
KONSTRUKTIONSELEMENTE
100
AcDbLine
 62
7
  6
CONTINUOUS
 10
204.1045046084
 20
160.0784997257
 11
204.093355083
 21
159.9906881917
  0
LINE
  5
345
100
AcDbEntity
  8
KONSTRUKTIONSELEMENTE
100
AcDbLine
 62
7
  6
CONTINUOUS
 10
204.1165383369
 20
160.1679403345
 11
204.1045046084
 21
160.0784997257
  0
LINE
  5
346
100
AcDbEntity
  8
0
100
AcDbLine
 62
7
  6
CONTINUOUS
 10
198.7796501588
 20
116.8330956733
 11
198.7513523881
 21
116.6336626422
  0
LINE
  5
347
100
AcDbEntity
  8
0
100
AcDbLine
 62
7
  6
CONTINUOUS
 10
199.1317392204
 20
116.635920647
 11
199.1600369911
 21
116.835353678
  0
LINE
  5
348
100
AcDbEntity
  8
KONSTRUKTIONSELEMENTE
100
AcDbLine
 62
7
  6
CONTINUOUS
 10
204.1294987382
 20
160.259030282
 11
204.1165383369
 21
160.1679403345
  0
LINE
  5
349
100
AcDbEntity
  8
0
100
AcDbLine
 62
7
  6
CONTINUOUS
 10
194.8984362771
 20
114.00985569
 11
195.3622999667
 21
117.1379272095
  0
LINE
  5
34A
100
AcDbEntity
  8
0
100
AcDbLine
 62
7
  6
CONTINUOUS
 10
194.9929970593
 20
117.0728091429
 11
194.5857317208
 21
114.3436042263
  0
LINE
  5
34B
100
AcDbEntity
  8
KONSTRUKTIONSELEMENTE
100
AcDbLine
 62
7
  6
CONTINUOUS
 10
204.143428084
 20
160.3517775136
 11
204.1294987382
 21
160.259030282
  0
LINE
  5
34C
100
AcDbEntity
  8
KONSTRUKTIONSELEMENTE
100
AcDbLine
 62
7
  6
CONTINUOUS
 10
204.1583698972
 20
160.4461892293
 11
204.143428084
 21
160.3517775136
  0
LINE
  5
34D
100
AcDbEntity
  8
KONSTRUKTIONSELEMENTE
100
AcDbLine
 62
7
  6
CONTINUOUS
 10
204.1743689689
 20
160.5422718383
 11
204.1583698972
 21
160.4461892293
  0
LINE
  5
34E
100
AcDbEntity
  8
KONSTRUKTIONSELEMENTE
100
AcDbLine
 62
7
  6
CONTINUOUS
 10
204.1914713742
 20
160.6400309098
 11
204.1743689689
 21
160.5422718383
  0
LINE
  5
34F
100
AcDbEntity
  8
KONSTRUKTIONSELEMENTE
100
AcDbLine
 62
7
  6
CONTINUOUS
 10
204.2097240018
 20
160.7394685385
 11
204.1914713742
 21
160.6400309098
  0
LINE
  5
350
100
AcDbEntity
  8
KONSTRUKTIONSELEMENTE
100
AcDbLine
 62
7
  6
CONTINUOUS
 10
204.2291635559
 20
160.8405279234
 11
204.2097240018
 21
160.7394685385
  0
LINE
  5
351
100
AcDbEntity
  8
0
100
AcDbLine
 62
7
  6
CONTINUOUS
 10
187.5109588573
 20
115.2350082823
 11
187.443277309
 21
114.8990017333
  0
LINE
  5
352
100
AcDbEntity
  8
0
100
AcDbLine
 62
7
  6
CONTINUOUS
 10
189.7626253706
 20
113.6227893597
 11
189.8303069422
 21
113.9587957765
  0
LINE
  5
353
100
AcDbEntity
  8
BEZUGSACHSEN
100
AcDbLine
 62
7
  6
CONTINUOUS
 10
255.9394161411
 20
122.5133698893
 11
246.2779171769
 21
141.891338928
  0
LINE
  5
354
100
AcDbEntity
  8
0
100
AcDbLine
 62
7
  6
CONTINUOUS
 10
227.0907191247
 20
119.0511936369
 11
226.9969694824
 21
119.5299172523
  0
LINE
  5
355
100
AcDbEntity
  8
BEZUGSACHSEN
100
AcDbLine
 62
7
  6
CONTINUOUS
 10
226.5599611677
 20
121.1092605197
 11
225.6917202794
 21
126.0332992848
  0
LINE
  5
356
100
AcDbEntity
  8
0
100
AcDbLine
 62
7
  6
CONTINUOUS
 10
217.809469393
 20
119.5299172523
 11
217.809469393
 21
119.2426829758
  0
LINE
  5
357
100
AcDbEntity
  8
0
100
AcDbLine
 62
7
  6
CONTINUOUS
 10
218.371969393
 20
119.1469383063
 11
218.371969393
 21
119.5299172523
  0
LINE
  5
358
100
AcDbEntity
  8
0
100
AcDbLine
 62
7
  6
CONTINUOUS
 10
219.215719393
 20
120.5831086161
 11
219.215719393
 21
117.6150234612
  0
LINE
  5
359
100
AcDbEntity
  8
0
100
AcDbLine
 62
7
  6
CONTINUOUS
 10
219.7782196612
 20
117.6150234612
 11
219.7782196612
 21
120.5831086161
  0
LINE
  5
35A
100
AcDbEntity
  8
0
100
AcDbLine
 62
7
  6
CONTINUOUS
 10
222.0282196612
 20
120.5831086161
 11
222.0282196612
 21
117.6150234612
  0
LINE
  5
35B
100
AcDbEntity
  8
0
100
AcDbLine
 62
7
  6
CONTINUOUS
 10
222.5907196612
 20
117.6150234612
 11
222.5907196612
 21
120.5831086161
  0
LINE
  5
35C
100
AcDbEntity
  8
0
100
AcDbLine
 62
7
  6
CONTINUOUS
 10
223.3407194824
 20
120.5831086161
 11
223.3407194824
 21
116.0831086161
  0
LINE
  5
35D
100
AcDbEntity
  8
0
100
AcDbLine
 62
7
  6
CONTINUOUS
 10
223.9032194824
 20
116.6575766998
 11
223.9032194824
 21
120.0086405995
  0
LINE
  5
35E
100
AcDbEntity
  8
0
100
AcDbLine
 62
7
  6
CONTINUOUS
 10
226.5282191247
 20
119.0511936369
 11
226.5282191247
 21
117.6150234612
  0
LINE
  5
35F
100
AcDbEntity
  8
0
100
AcDbLine
 62
7
  6
CONTINUOUS
 10
227.0907191247
 20
117.6150234612
 11
227.0907191247
 21
119.0511936369
  0
LINE
  5
360
100
AcDbEntity
  8
KONSTRUKTIONSELEMENTE
100
AcDbLine
 62
7
  6
CONTINUOUS
 10
227.5032194824
 20
176.1231086161
 11
227.5032194824
 21
216.6231086161
  0
LINE
  5
361
100
AcDbEntity
  8
0
100
AcDbLine
 62
7
  6
CONTINUOUS
 10
187.7904123355
 20
115.0898400998
 11
187.8802617647
 21
115.3001263489
  0
LINE
  5
362
100
AcDbEntity
  8
0
100
AcDbLine
 62
7
  6
CONTINUOUS
 10
189.4831718847
 20
113.7679575862
 11
189.3933224632
 21
113.557671293
  0
LINE
  5
363
100
AcDbEntity
  8
0
100
AcDbLine
 62
7
  6
CONTINUOUS
 10
187.6512746114
 20
115.519007563
 11
187.5109588573
 21
115.2350082823
  0
LINE
  5
364
100
AcDbEntity
  8
RUNDUNGEN
100
AcDbLine
 62
7
  6
CONTINUOUS
 10
186.0670228237
 20
122.5133698893
 11
195.7285217878
 21
141.891338928
  0
LWPOLYLINE
  5
365
100
AcDbEntity
  8
KONSTRUKTIONSELEMENTE
100
AcDbPolyline
 62
7
  6
CONTINUOUS
 90
10
 70
0
 10
206.7025664386
 20
167.9971160764
 10
206.280414151
 20
167.8271782169
 10
205.8433346207
 20
167.583933841
 10
205.4400305082
 20
167.2880402262
 10
205.0768098454
 20
166.9441253813
 10
204.7593533339
 20
166.5575687998
 10
204.4926253768
 20
166.1344171915
 10
204.2807963353
 20
165.6812897372
 10
204.1271772342
 20
165.2052743191
 10
204.0994394751
 20
165.0587089514
  0
LWPOLYLINE
  5
366
100
AcDbEntity
  8
KONSTRUKTIONSELEMENTE
100
AcDbPolyline
 62
7
  6
CONTINUOUS
 90
10
 70
0
 10
237.9068337453
 20
165.0589368065
 10
237.8783764682
 20
165.2087387112
 10
237.7237297479
 20
165.6861422014
 10
237.51052102
 20
166.1404322961
 10
237.2421044986
 20
166.5644559169
 10
236.9227043831
 20
166.9515363365
 10
236.5573482794
 20
167.2955785705
 10
236.1517879263
 20
167.5911655429
 10
235.7124085045
 20
167.8336435217
 10
235.3057809087
 20
167.9954571715
  0
LWPOLYLINE
  5
367
100
AcDbEntity
  8
KONSTRUKTIONSELEMENTE
100
AcDbPolyline
 62
7
  6
CONTINUOUS
 90
12
 70
0
 10
238.0032194824
 20
158.5233920048
 10
237.9439460327
 20
159.7146236692
 10
237.7667110793
 20
160.8940881738
 10
237.473265256
 20
162.0501336637
 10
237.0665073101
 20
163.1713393946
 10
236.5504554505
 20
164.2466288264
 10
235.9302076064
 20
165.2653790965
 10
235.211891113
 20
166.217525845
 10
234.4026020978
 20
167.0936627578
 10
233.510335442
 20
167.8851343851
 10
232.5439057548
 20
168.5841216994
 10
231.71722482
 20
169.0748478515
  0
LINE
  5
368
100
AcDbEntity
  8
KONSTRUKTIONSELEMENTE
100
AcDbLine
 62
7
  6
CONTINUOUS
 10
232.7532194824
 20
141.2724757216
 11
232.7532194824
 21
167.7017772768
  0
LINE
  5
369
100
AcDbEntity
  8
KONSTRUKTIONSELEMENTE
100
AcDbLine
 62
7
  6
CONTINUOUS
 10
238.0032194824
 20
153.1231086161
 11
238.0032194824
 21
158.5238333357
  0
LINE
  5
36A
100
AcDbEntity
  8
0
100
AcDbLine
 62
7
  6
CONTINUOUS
 10
215.446477797
 20
121.1092605197
 11
216.3147186854
 21
126.0332992848
  0
LINE
  5
36B
100
AcDbEntity
  8
0
100
AcDbLine
 62
7
  6
CONTINUOUS
 10
222.4969694824
 20
117.136300114
 11
222.5907196612
 21
117.6150234612
  0
LINE
  5
36C
100
AcDbEntity
  8
0
100
AcDbLine
 62
7
  6
CONTINUOUS
 10
189.6223096205
 20
113.3387900569
 11
189.7626253706
 21
113.6227893597
  0
LINE
  5
36D
100
AcDbEntity
  8
0
100
AcDbLine
 62
7
  6
CONTINUOUS
 10
198.9914234664
 20
116.3519213663
 11
199.1317392204
 21
116.635920647
  0
LINE
  5
36E
100
AcDbEntity
  8
0
100
AcDbLine
 62
7
  6
CONTINUOUS
 10
198.6175279762
 20
129.7565212933
 11
202.5396637335
 21
137.6231086161
  0
LINE
  5
36F
100
AcDbEntity
  8
0
100
AcDbLine
 62
7
  6
CONTINUOUS
 10
187.9677551652
 20
114.0840789341
 11
188.0686885193
 21
114.2315051214
  0
LWPOLYLINE
  5
370
100
AcDbEntity
  8
KONSTRUKTIONSELEMENTE
100
AcDbPolyline
 62
7
  6
CONTINUOUS
 90
140
 70
0
 10
210.3032363382
 20
169.0831941948
 10
210.193685315
 20
169.0233225613
 10
210.0937335452
 20
168.9673952122
 10
209.9951727976
 20
168.9110096069
 10
209.8979864312
 20
168.8541882215
 10
209.8021576816
 20
168.7969527117
 10
209.7076696783
 20
168.7393239263
 10
209.6145054616
 20
168.6813219207
 10
209.5226479987
 20
168.6229659703
 10
209.4320801993
 20
168.5642745842
 10
209.3427849301
 20
168.5052655186
 10
209.2547450294
 20
168.4459557899
 10
209.1679433204
 20
168.3863616887
 10
209.0823626245
 20
168.3264987925
 10
208.9979857736
 20
168.2663819794
 10
208.9147956225
 20
168.2060254409
 10
208.8327750598
 20
168.1454426949
 10
208.7519070193
 20
168.0846465989
 10
208.6721744902
 20
168.0236493627
 10
208.5935605273
 20
167.9624625609
 10
208.5160482605
 20
167.9010971458
 10
208.439620904
 20
167.8395634594
 10
208.3642617648
 20
167.777871246
 10
208.2899542513
 20
167.7160296644
 10
208.2166818811
 20
167.6540472993
 10
208.1444282889
 20
167.5919321738
 10
208.073177233
 20
167.529691761
 10
208.0029126031
 20
167.4673329949
 10
207.9336184261
 20
167.4048622824
 10
207.865278873
 20
167.3422855143
 10
207.7978782643
 20
167.279608076
 10
207.7314010728
 20
167.2168348557
 10
207.6658319451
 20
167.1539702701
 10
207.6011542589
 20
167.0910168563
 10
207.5373572874
 20
167.0279823025
 10
207.4744253011
 20
166.9648688678
 10
207.4123572315
 20
166.9016931662
 10
207.3511476239
 20
166.8384674496
 10
207.2907931933
 20
166.7752062043
 10
207.2312899279
 20
166.7119232195
 10
207.1726336723
 20
166.648632172
 10
207.1148201316
 20
166.5853466249
 10
207.0578448737
 20
166.5220800263
 10
207.0017033337
 20
166.4588457082
 10
206.9463908169
 20
166.3956568852
 10
206.8919025021
 20
166.3325266536
 10
206.8382334456
 20
166.2694679903
 10
206.7853785839
 20
166.2064937518
 10
206.7333327379
 20
166.1436166738
 10
206.6820906158
 20
166.0808493697
 10
206.631646817
 20
166.0182043305
 10
206.581995835
 20
165.9556939236
 10
206.5331320616
 20
165.8933303926
 10
206.4850497987
 20
165.8311258681
 10
206.4377432172
 20
165.7690923093
 10
206.3912082299
 20
165.7072440007
 10
206.3454333676
 20
165.6455853413
 10
206.3004130391
 20
165.5841284004
 10
206.2561257678
 20
165.522863144
 10
206.2125549764
 20
165.4617852953
 10
206.1696823005
 20
165.4008872072
 10
206.1274902693
 20
165.3401615593
 10
206.0859617693
 20
165.2796006326
 10
206.0450800431
 20
165.2191963211
 10
206.0048286895
 20
165.1589401433
 10
205.9651916625
 20
165.0988232525
 10
205.926153271
 20
165.038836448
 10
205.8876981783
 20
164.9789701847
 10
205.8498114011
 20
164.9192145833
 10
205.8124783099
 20
164.8595594399
 10
205.7756846276
 20
164.7999942352
 10
205.7394162357
 20
164.7405078232
 10
205.7036601441
 20
164.6810900416
 10
205.6684011331
 20
164.6217261153
 10
205.6336337947
 20
164.5624170535
 10
205.5993488842
 20
164.5031569806
 10
205.5655436085
 20
164.4439508255
 10
205.5322135686
 20
164.3848006623
 10
205.4993545115
 20
164.3257086952
 10
205.4669621826
 20
164.2666769992
 10
205.435032355
 20
164.2077075734
 10
205.4035608307
 20
164.1488023421
 10
205.372543441
 20
164.0899631559
 10
205.3419760469
 20
164.0311917928
 10
205.3118545396
 20
163.9724899593
 10
205.282174841
 20
163.9138592914
 10
205.2529329041
 20
163.8553013559
 10
205.2241247137
 20
163.7968176512
 10
205.1957462863
 20
163.7384096085
 10
205.1677936709
 20
163.6800785926
 10
205.1402629493
 20
163.6218259036
 10
205.1131502365
 20
163.5636527772
 10
205.0864516808
 20
163.5055603859
 10
205.0601634645
 20
163.4475498404
 10
205.0342818041
 20
163.3896221903
 10
205.0088029505
 20
163.331778425
 10
204.9837231893
 20
163.2740194751
 10
204.9590388414
 20
163.2163462128
 10
204.9347462629
 20
163.1587594537
 10
204.9108418455
 20
163.1012599567
 10
204.8873220169
 20
163.0438484265
 10
204.8641832407
 20
162.9865255126
 10
204.8414220171
 20
162.9292918123
 10
204.8190348826
 20
162.87214787
 10
204.7970184109
 20
162.8150941796
 10
204.7753692121
 20
162.7581311837
 10
204.7540839341
 20
162.7012592772
 10
204.7331592616
 20
162.6444788046
 10
204.7125919174
 20
162.5877900653
 10
204.6923786613
 20
162.5311933099
 10
204.6725162919
 20
162.4746887464
 10
204.6530016447
 20
162.418276535
 10
204.6338315946
 20
162.3619567962
 10
204.6150030534
 20
162.3057296039
 10
204.5965129729
 20
162.249594995
 10
204.5783583418
 20
162.1935529609
 10
204.560536189
 20
162.137603459
 10
204.5430435807
 20
162.0817464023
 10
204.5258776235
 20
162.025981673
 10
204.5090352715
 20
161.9703084771
 10
204.4925142787
 20
161.9147285233
 10
204.4763108841
 20
161.8592382531
 10
204.46042667
 20
161.8038524947
 10
204.4448611116
 20
161.7485794705
 10
204.4296157944
 20
161.6934355629
 10
204.4146914759
 20
161.6384351523
 10
204.4000886876
 20
161.5835926907
 10
204.3858077236
 20
161.5289226508
 10
204.371848646
 20
161.4744395362
 10
204.3582112864
 20
161.4201578734
 10
204.3448952494
 20
161.3660922152
 10
204.3318999137
 20
161.3122571303
 10
204.3192244372
 20
161.2586672095
 10
204.3068677567
 20
161.2053370526
 10
204.294828595
 20
161.152281278
 10
204.2831054599
 20
161.0995145059
 10
204.271696652
 20
161.047051372
 10
204.260600264
 20
160.994906507
 10
204.2498141889
 20
160.9430945545
 10
204.2291635559
 20
160.8405279234
  0
LINE
  5
371
100
AcDbEntity
  8
BEZUGSACHSEN
100
AcDbLine
 62
7
  6
CONTINUOUS
 10
201.3890959269
 20
160.1255187057
 11
158.2569386964
 21
137.1917438983
  0
LINE
  5
372
100
AcDbEntity
  8
RUNDUNGEN
100
AcDbLine
 62
7
  6
CONTINUOUS
 10
191.6353040146
 20
145.8787751459
 11
176.0707014973
 21
137.6029291874
  0
LINE
  5
373
100
AcDbEntity
  8
0
100
AcDbLine
 62
7
  6
CONTINUOUS
 10
226.9969694824
 20
117.136300114
 11
227.0907191247
 21
117.6150234612
  0
LINE
  5
374
100
AcDbEntity
  8
0
100
AcDbLine
 62
7
  6
CONTINUOUS
 10
222.0282196612
 20
117.6150234612
 11
221.9344694824
 21
117.2320447835
  0
LINE
  5
375
100
AcDbEntity
  8
0
100
AcDbLine
 62
7
  6
CONTINUOUS
 10
226.5282191247
 20
117.6150234612
 11
226.4344694824
 21
117.2320447835
  0
LINE
  5
376
100
AcDbEntity
  8
0
100
AcDbLine
 62
7
  6
CONTINUOUS
 10
217.809469393
 20
119.2426829758
 11
217.7157194824
 21
118.9554489675
  0
LINE
  5
377
100
AcDbEntity
  8
0
100
AcDbLine
 62
7
  6
CONTINUOUS
 10
218.2782194824
 20
118.859704298
 11
218.371969393
 21
119.1469383063
  0
LINE
  5
378
100
AcDbEntity
  8
0
100
AcDbLine
 62
7
  6
CONTINUOUS
 10
198.7513523881
 20
116.6336626422
 11
198.6504183296
 21
116.4862363307
  0
LINE
  5
379
100
AcDbEntity
  8
BEZUGSACHSEN
100
AcDbLine
 62
7
  6
CONTINUOUS
 10
160.8023819733
 20
102.7849238011
 11
160.0397928354
 21
102.0223346632
  0
LINE
  5
37A
100
AcDbEntity
  8
0
100
AcDbLine
 62
7
  6
CONTINUOUS
 10
187.8802617647
 20
115.3001263489
 11
188.0427453686
 21
115.4584055059
  0
LINE
  5
37B
100
AcDbEntity
  8
0
100
AcDbLine
 62
7
  6
CONTINUOUS
 10
188.1142022488
 20
114.6932316179
 11
187.7892350411
 21
114.3766733039
  0
LINE
  5
37C
100
AcDbEntity
  8
0
100
AcDbLine
 62
7
  6
CONTINUOUS
 10
188.0686885193
 20
114.2315051214
 11
188.2311721231
 21
114.3897842784
  0
LINE
  5
37D
100
AcDbEntity
  8
BEZUGSACHSEN
100
AcDbLine
 62
7
  6
CONTINUOUS
 10
271.2145465884
 20
82.420852004
 11
272.45864761
 21
73.5686132637
  0
LINE
  5
37E
100
AcDbEntity
  8
0
100
AcDbLine
 62
7
  6
CONTINUOUS
 10
258.5032194824
 20
308.1231086161
 11
258.5032194824
 21
248.1231086161
  0
LINE
  5
37F
100
AcDbEntity
  8
0
100
AcDbLine
 62
7
  6
CONTINUOUS
 10
222.3094696612
 20
116.7533213692
 11
222.4969694824
 21
117.136300114
  0
LINE
  5
380
100
AcDbEntity
  8
0
100
AcDbLine
 62
7
  6
CONTINUOUS
 10
226.8094691247
 20
116.7533213692
 11
226.9969694824
 21
117.136300114
  0
LINE
  5
381
100
AcDbEntity
  8
0
100
AcDbLine
 62
7
  6
CONTINUOUS
 10
221.9344694824
 20
117.2320447835
 11
221.7469696612
 21
116.9448107752
  0
LINE
  5
382
100
AcDbEntity
  8
0
100
AcDbLine
 62
7
  6
CONTINUOUS
 10
217.9969694824
 20
118.4767256203
 11
218.2782194824
 21
118.859704298
  0
LINE
  5
383
100
AcDbEntity
  8
0
100
AcDbLine
 62
7
  6
CONTINUOUS
 10
198.7784728333
 20
116.1199290535
 11
198.9914234664
 21
116.3519213663
  0
LINE
  5
384
100
AcDbEntity
  8
RUNDUNGEN
100
AcDbLine
 62
7
  6
CONTINUOUS
 10
171.9666299207
 20
84.1172863605
 11
171.3106410659
 21
83.4612975057
  0
LINE
  5
385
100
AcDbEntity
  8
0
100
AcDbLine
 62
7
  6
CONTINUOUS
 10
189.3933224632
 20
113.557671293
 11
189.2308388594
 21
113.399392136
  0
LINE
  5
386
100
AcDbEntity
  8
0
100
AcDbLine
 62
7
  6
CONTINUOUS
 10
187.9257754942
 20
115.7618528454
 11
187.6512746114
 21
115.519007563
  0
LINE
  5
387
100
AcDbEntity
  8
0
100
AcDbLine
 62
7
  6
CONTINUOUS
 10
189.3478094449
 20
113.0959448822
 11
189.6223096205
 21
113.3387900569
  0
LINE
  5
388
100
AcDbEntity
  8
0
100
AcDbLine
 62
7
  6
CONTINUOUS
 10
188.0427453686
 20
115.4584055059
 11
188.2163128973
 21
115.5538246011
  0
LINE
  5
389
100
AcDbEntity
  8
0
100
AcDbLine
 62
7
  6
CONTINUOUS
 10
188.2311721231
 20
114.3897842784
 11
188.4047396519
 21
114.4852033736
  0
LINE
  5
38A
100
AcDbEntity
  8
RUNDUNGEN
100
AcDbLine
 62
7
  6
CONTINUOUS
 10
280.2814696439
 20
106.6988555789
 11
280.6853124622
 21
103.8253646174
  0
LINE
  5
38B
100
AcDbEntity
  8
BEZUGSACHSEN
100
AcDbLine
 62
7
  6
CONTINUOUS
 10
280.2814696439
 20
106.6988555789
 11
280.6853124622
 21
103.8253646174
  0
LINE
  5
38C
100
AcDbEntity
  8
BEZUGSACHSEN
100
AcDbLine
 62
7
  6
CONTINUOUS
 10
269.5032194824
 20
100.726931997
 11
269.5032194824
 21
97.8017976169
  0
LINE
  5
38D
100
AcDbEntity
  8
RUNDUNGEN
100
AcDbLine
 62
7
  6
CONTINUOUS
 10
269.5032194824
 20
100.726931997
 11
269.5032194824
 21
96.8319669075
  0
LINE
  5
38E
100
AcDbEntity
  8
BEZUGSACHSEN
100
AcDbLine
 62
7
  6
CONTINUOUS
 10
269.5032194824
 20
96.8319669075
 11
269.5032194824
 21
85.4127052352
  0
LINE
  5
38F
100
AcDbEntity
  8
BEZUGSACHSEN
100
AcDbLine
 62
7
  6
CONTINUOUS
 10
272.5032194824
 20
72.931206068
 11
272.5032194824
 21
61.4291069783
  0
LINE
  5
390
100
AcDbEntity
  8
RUNDUNGEN
100
AcDbLine
 62
7
  6
CONTINUOUS
 10
272.6097994824
 20
100.5881746871
 11
272.6097994824
 21
124.8283122634
  0
LINE
  5
391
100
AcDbEntity
  8
BEZUGSACHSEN
100
AcDbLine
 62
7
  6
CONTINUOUS
 10
272.6097994824
 20
100.5881746871
 11
272.6097994824
 21
124.8283122634
  0
LINE
  5
392
100
AcDbEntity
  8
0
100
AcDbLine
 62
7
  6
CONTINUOUS
 10
276.5032194824
 20
308.1231086161
 11
276.5032194824
 21
248.1231086161
  0
LINE
  5
393
100
AcDbEntity
  8
RUNDUNGEN
100
AcDbLine
 62
7
  6
CONTINUOUS
 10
279.3966394824
 20
124.8283122634
 11
279.3966394824
 21
100.5887898609
  0
LINE
  5
394
100
AcDbEntity
  8
BEZUGSACHSEN
100
AcDbLine
 62
7
  6
CONTINUOUS
 10
279.3966394824
 20
124.8283122634
 11
279.3966394824
 21
100.5887898609
  0
LINE
  5
395
100
AcDbEntity
  8
0
100
AcDbLine
 62
7
  6
CONTINUOUS
 10
279.3966394824
 20
100.5887898609
 11
279.3966394824
 21
104.62211404
  0
LINE
  5
396
100
AcDbEntity
  8
RUNDUNGEN
100
AcDbLine
 62
7
  6
CONTINUOUS
 10
279.5032194824
 20
72.9312073059
 11
279.5032194824
 21
61.4291069783
  0
LINE
  5
397
100
AcDbEntity
  8
0
100
AcDbLine
 62
7
  6
CONTINUOUS
 10
226.4344694824
 20
117.2320447835
 11
226.2469691247
 21
116.9448107752
  0
LINE
  5
398
100
AcDbEntity
  8
0
100
AcDbLine
 62
7
  6
CONTINUOUS
 10
217.7157194824
 20
118.9554489675
 11
217.528219393
 21
118.7639596286
  0
LINE
  5
399
100
AcDbEntity
  8
0
100
AcDbLine
 62
7
  6
CONTINUOUS
 10
221.9344694824
 20
116.370342658
 11
222.3094696612
 21
116.7533213692
  0
LINE
  5
39A
100
AcDbEntity
  8
0
100
AcDbLine
 62
7
  6
CONTINUOUS
 10
226.4344694824
 20
116.370342658
 11
226.8094691247
 21
116.7533213692
  0
LINE
  5
39B
100
AcDbEntity
  8
0
100
AcDbLine
 62
7
  6
CONTINUOUS
 10
221.7469696612
 20
116.9448107752
 11
221.4657196612
 21
116.7533213692
  0
LINE
  5
39C
100
AcDbEntity
  8
0
100
AcDbLine
 62
7
  6
CONTINUOUS
 10
189.2308388594
 20
113.399392136
 11
189.0572713306
 21
113.3039730409
  0
LINE
  5
39D
100
AcDbEntity
  8
0
100
AcDbLine
 62
7
  6
CONTINUOUS
 10
198.6504183296
 20
116.4862363307
 11
198.4768508009
 21
116.3908172355
  0
LINE
  5
39E
100
AcDbEntity
  8
0
100
AcDbLine
 62
7
  6
CONTINUOUS
 10
217.6219695718
 20
118.2852362814
 11
217.9969694824
 21
118.4767256203
  0
LINE
  5
39F
100
AcDbEntity
  8
0
100
AcDbLine
 62
7
  6
CONTINUOUS
 10
188.2224435226
 20
115.87897788
 11
187.9257754942
 21
115.7618528454
  0
LINE
  5
3A0
100
AcDbEntity
  8
0
100
AcDbLine
 62
7
  6
CONTINUOUS
 10
188.4108702771
 20
114.8103566525
 11
188.1142022488
 21
114.6932316179
  0
LINE
  5
3A1
100
AcDbEntity
  8
0
100
AcDbLine
 62
7
  6
CONTINUOUS
 10
189.0511407132
 20
112.9788197179
 11
189.3478094449
 21
113.0959448822
  0
LINE
  5
3A2
100
AcDbEntity
  8
0
100
AcDbLine
 62
7
  6
CONTINUOUS
 10
198.481804805
 20
116.002804019
 11
198.7784728333
 21
116.1199290535
  0
LINE
  5
3A3
100
AcDbEntity
  8
0
100
AcDbLine
 62
7
  6
CONTINUOUS
 10
217.528219393
 20
118.7639596286
 11
217.246969393
 21
118.6682149592
  0
LINE
  5
3A4
100
AcDbEntity
  8
BEZUGSACHSEN
100
AcDbLine
 62
7
  6
CONTINUOUS
 10
282.5032194824
 20
100.726931997
 11
282.5032194824
 21
97.8017976169
  0
LINE
  5
3A5
100
AcDbEntity
  8
RUNDUNGEN
100
AcDbLine
 62
7
  6
CONTINUOUS
 10
282.5032194824
 20
100.726931997
 11
282.5032194824
 21
85.4127052352
  0
LINE
  5
3A6
100
AcDbEntity
  8
BEZUGSACHSEN
100
AcDbLine
 62
7
  6
CONTINUOUS
 10
271.7145581465
 20
106.6247762246
 11
271.3211265026
 21
103.8253646174
  0
LINE
  5
3A7
100
AcDbEntity
  8
BEZUGSACHSEN
100
AcDbLine
 62
7
  6
CONTINUOUS
 10
267.1761655577
 20
133.5456717205
 11
261.2730620044
 21
122.4435486403
  0
LINE
  5
3A8
100
AcDbEntity
  8
0
100
AcDbLine
 62
7
  6
CONTINUOUS
 10
226.2469691247
 20
116.9448107752
 11
225.9657191247
 21
116.7533213692
  0
LINE
  5
3A9
100
AcDbEntity
  8
0
100
AcDbLine
 62
7
  6
CONTINUOUS
 10
221.5594693036
 20
116.1788532939
 11
221.9344694824
 21
116.370342658
  0
LINE
  5
3AA
100
AcDbEntity
  8
0
100
AcDbLine
 62
7
  6
CONTINUOUS
 10
226.05946984
 20
116.1788532939
 11
226.4344694824
 21
116.370342658
  0
LINE
  5
3AB
100
AcDbEntity
  8
RUNDUNGEN
100
AcDbLine
 62
7
  6
CONTINUOUS
 10
280.7918923763
 20
82.420852004
 11
279.5477913548
 21
73.5686132637
  0
LINE
  5
3AC
100
AcDbEntity
  8
BEZUGSACHSEN
100
AcDbLine
 62
7
  6
CONTINUOUS
 10
270.8023819733
 20
102.7849238011
 11
270.0397928354
 21
102.0223346632
  0
LINE
  5
3AD
100
AcDbEntity
  8
RUNDUNGEN
100
AcDbLine
 62
7
  6
CONTINUOUS
 10
281.9666299207
 20
84.1172863605
 11
281.3106410659
 21
83.4612975057
  0
LINE
  5
3AE
100
AcDbEntity
  8
BEZUGSACHSEN
100
AcDbLine
 62
7
  6
CONTINUOUS
 10
431.053128073
 20
84.92211404
 11
428.8965219979
 21
84.92211404
  0
LINE
  5
3AF
100
AcDbEntity
  8
BEZUGSACHSEN
100
AcDbLine
 62
7
  6
CONTINUOUS
 10
418.2327056659
 20
84.92211404
 11
414.3497442965
 21
84.92211404
  0
LINE
  5
3B0
100
AcDbEntity
  8
BEZUGSACHSEN
100
AcDbLine
 62
7
  6
CONTINUOUS
 10
457.8963862915
 20
85.8683826449
 11
450.8965219979
 21
85.8683826449
  0
LINE
  5
3B1
100
AcDbEntity
  8
0
100
AcDbLine
 62
7
  6
CONTINUOUS
 10
457.7440479969
 20
86.4992283815
 11
450.9965219979
 21
86.4992283815
  0
LINE
  5
3B2
100
AcDbEntity
  8
BEZUGSACHSEN
100
AcDbLine
 62
7
  6
CONTINUOUS
 10
457.7440479969
 20
86.4992283815
 11
450.9965219979
 21
86.4992283815
  0
LINE
  5
3B3
100
AcDbEntity
  8
KONSTRUKTIONSELEMENTE
100
AcDbLine
 62
7
  6
CONTINUOUS
 10
436.2505339883
 20
89.3776362397
 11
441.7105339883
 21
89.3776362397
  0
LINE
  5
3B4
100
AcDbEntity
  8
KONSTRUKTIONSELEMENTE
100
AcDbLine
 62
7
  6
CONTINUOUS
 10
435.9505339883
 20
89.5897682741
 11
436.2505339883
 21
89.5897682741
  0
LINE
  5
3B5
100
AcDbEntity
  8
KONSTRUKTIONSELEMENTE
100
AcDbLine
 62
7
  6
CONTINUOUS
 10
441.7105339883
 20
89.5897682741
 11
442.0105339883
 21
89.5897682741
  0
LINE
  5
3B6
100
AcDbEntity
  8
0
100
AcDbLine
 62
7
  6
CONTINUOUS
 10
458.8123743011
 20
90.7255836161
 11
458.6600360065
 21
90.7255836161
  0
LINE
  5
3B7
100
AcDbEntity
  8
0
100
AcDbLine
 62
7
  6
CONTINUOUS
 10
450.0805339883
 20
90.7255836161
 11
449.9805339883
 21
90.7255836161
  0
LINE
  5
3B8
100
AcDbEntity
  8
0
100
AcDbLine
 62
7
  6
CONTINUOUS
 10
445.9805339883
 20
90.7255836161
 11
442.9105339883
 21
90.7255836161
  0
LINE
  5
3B9
100
AcDbEntity
  8
0
100
AcDbLine
 62
7
  6
CONTINUOUS
 10
435.0505339883
 20
90.7255836161
 11
431.9805339883
 21
90.7255836161
  0
LINE
  5
3BA
100
AcDbEntity
  8
0
100
AcDbLine
 62
7
  6
CONTINUOUS
 10
427.9805339883
 20
90.7255836161
 11
427.8805339883
 21
90.7255836161
  0
LINE
  5
3BB
100
AcDbEntity
  8
0
100
AcDbLine
 62
7
  6
CONTINUOUS
 10
419.3010319702
 20
90.7255836161
 11
419.1486936755
 21
90.7255836161
  0
LINE
  5
3BC
100
AcDbEntity
  8
KONSTRUKTIONSELEMENTE
100
AcDbLine
 62
7
  6
CONTINUOUS
 10
435.9505339883
 20
91.2868245489
 11
436.2505339883
 21
91.2868245489
  0
LINE
  5
3BD
100
AcDbEntity
  8
KONSTRUKTIONSELEMENTE
100
AcDbLine
 62
7
  6
CONTINUOUS
 10
441.7105339883
 20
91.2868245489
 11
442.0105339883
 21
91.2868245489
  0
LINE
  5
3BE
100
AcDbEntity
  8
KONSTRUKTIONSELEMENTE
100
AcDbLine
 62
7
  6
CONTINUOUS
 10
436.2505339883
 20
91.4989565833
 11
441.7105339883
 21
91.4989565833
  0
LINE
  5
3BF
100
AcDbEntity
  8
0
100
AcDbLine
 62
7
  6
CONTINUOUS
 10
458.8123743011
 20
95.5206336161
 11
458.6600360065
 21
95.5206336161
  0
LINE
  5
3C0
100
AcDbEntity
  8
0
100
AcDbLine
 62
7
  6
CONTINUOUS
 10
450.0805339883
 20
95.5206336161
 11
449.9805339883
 21
95.5206336161
  0
LINE
  5
3C1
100
AcDbEntity
  8
0
100
AcDbLine
 62
7
  6
CONTINUOUS
 10
445.9805339883
 20
95.5206336161
 11
442.9105339883
 21
95.5206336161
  0
LINE
  5
3C2
100
AcDbEntity
  8
0
100
AcDbLine
 62
7
  6
CONTINUOUS
 10
435.0505339883
 20
95.5206336161
 11
431.9805339883
 21
95.5206336161
  0
LINE
  5
3C3
100
AcDbEntity
  8
0
100
AcDbLine
 62
7
  6
CONTINUOUS
 10
427.9805339883
 20
95.5206336161
 11
427.8805339883
 21
95.5206336161
  0
LINE
  5
3C4
100
AcDbEntity
  8
0
100
AcDbLine
 62
7
  6
CONTINUOUS
 10
419.3010319702
 20
95.5206336161
 11
419.1486936755
 21
95.5206336161
  0
LINE
  5
3C5
100
AcDbEntity
  8
KONSTRUKTIONSELEMENTE
100
AcDbLine
 62
7
  6
CONTINUOUS
 10
456.1691537897
 20
97.862917614
 11
444.1516077662
 21
97.862917614
  0
LINE
  5
3C6
100
AcDbEntity
  8
KONSTRUKTIONSELEMENTE
100
AcDbLine
 62
7
  6
CONTINUOUS
 10
433.8094602104
 20
97.862917614
 11
430.3733054642
 21
97.862917614
  0
LINE
  5
3C7
100
AcDbEntity
  8
0
100
AcDbLine
 62
7
  6
CONTINUOUS
 10
420.2170199797
 20
99.7469888507
 11
426.9645459787
 21
99.7469888507
  0
LINE
  5
3C8
100
AcDbEntity
  8
KONSTRUKTIONSELEMENTE
100
AcDbLine
 62
7
  6
CONTINUOUS
 10
445.3105339883
 20
99.7721059232
 11
444.1105339883
 21
99.7721059232
  0
LINE
  5
3C9
100
AcDbEntity
  8
KONSTRUKTIONSELEMENTE
100
AcDbLine
 62
7
  6
CONTINUOUS
 10
433.8505339883
 20
99.7721059232
 11
432.6505339883
 21
99.7721059232
  0
LINE
  5
3CA
100
AcDbEntity
  8
KONSTRUKTIONSELEMENTE
100
AcDbLine
 62
7
  6
CONTINUOUS
 10
430.3733054642
 20
99.9842379575
 11
433.8505339883
 21
99.9842379575
  0
LINE
  5
3CB
100
AcDbEntity
  8
KONSTRUKTIONSELEMENTE
100
AcDbLine
 62
7
  6
CONTINUOUS
 10
444.1105339883
 20
99.9842379575
 11
456.1691537897
 21
99.9842379575
  0
LINE
  5
3CC
100
AcDbEntity
  8
BEZUGSACHSEN
100
AcDbLine
 62
7
  6
CONTINUOUS
 10
426.8036110192
 20
100.3778345874
 11
420.0646692407
 21
100.3778345874
  0
LINE
  5
3CD
100
AcDbEntity
  8
BEZUGSACHSEN
100
AcDbLine
 62
7
  6
CONTINUOUS
 10
459.7283623107
 20
101.3241031923
 11
463.6113236801
 21
101.3241031923
  0
LINE
  5
3CE
100
AcDbEntity
  8
KONSTRUKTIONSELEMENTE
100
AcDbLine
 62
7
  6
CONTINUOUS
 10
457.8456806529
 20
101.4309933417
 11
454.4923418408
 21
102.536687425
  0
LINE
  5
3CF
100
AcDbEntity
  8
KONSTRUKTIONSELEMENTE
100
AcDbLine
 62
7
  6
CONTINUOUS
 10
413.3823161661
 20
120.9419562083
 11
413.2555306876
 21
120.9220810886
  0
LINE
  5
3D0
100
AcDbEntity
  8
RUNDUNGEN
100
AcDbLine
 62
7
  6
CONTINUOUS
 10
413.590795523
 20
85.3162202752
 11
411.3924017033
 21
88.4558520269
  0
LINE
  5
3D1
100
AcDbEntity
  8
BEZUGSACHSEN
100
AcDbLine
 62
7
  6
CONTINUOUS
 10
413.590795523
 20
85.3162202752
 11
411.3924017033
 21
88.4558520269
  0
LINE
  5
3D2
100
AcDbEntity
  8
KONSTRUKTIONSELEMENTE
100
AcDbLine
 62
7
  6
CONTINUOUS
 10
415.4805339883
 20
137.1231086161
 11
428.4805339883
 21
137.1231086161
  0
LINE
  5
3D3
100
AcDbEntity
  8
KONSTRUKTIONSELEMENTE
100
AcDbLine
 62
7
  6
CONTINUOUS
 10
449.4805339883
 20
137.1231086161
 11
471.4805339883
 21
137.1231086161
  0
LINE
  5
3D4
100
AcDbEntity
  8
KONSTRUKTIONSELEMENTE
100
AcDbLine
 62
7
  6
CONTINUOUS
 10
415.4805339883
 20
140.1231086161
 11
411.4805339883
 21
140.1231086161
  0
LINE
  5
3D5
100
AcDbEntity
  8
KONSTRUKTIONSELEMENTE
100
AcDbLine
 62
7
  6
CONTINUOUS
 10
467.5512461286
 20
120.217829287
 11
471.0858464981
 21
119.0523679559
  0
LINE
  5
3D6
100
AcDbEntity
  8
KONSTRUKTIONSELEMENTE
100
AcDbLine
 62
7
  6
CONTINUOUS
 10
467.5512461286
 20
122.3391496306
 11
471.0858464981
 21
121.1736882995
  0
LINE
  5
3D7
100
AcDbEntity
  8
KONSTRUKTIONSELEMENTE
100
AcDbLine
 62
7
  6
CONTINUOUS
 10
444.0519531292
 20
133.1303586649
 11
470.2870266939
 21
124.4798860341
  0
LINE
  5
3D8
100
AcDbEntity
  8
KONSTRUKTIONSELEMENTE
100
AcDbLine
 62
7
  6
CONTINUOUS
 10
461.4805339883
 20
141.2724757216
 11
471.4805339883
 21
141.2724757216
  0
LINE
  5
3D9
100
AcDbEntity
  8
BEZUGSACHSEN
100
AcDbLine
 62
7
  6
CONTINUOUS
 10
428.4805339883
 20
145.1231086161
 11
430.9805339883
 21
145.1231086161
  0
LINE
  5
3DA
100
AcDbEntity
  8
BEZUGSACHSEN
100
AcDbLine
 62
7
  6
CONTINUOUS
 10
446.9805339883
 20
145.1231086161
 11
449.4805339883
 21
145.1231086161
  0
LINE
  5
3DB
100
AcDbEntity
  8
KONSTRUKTIONSELEMENTE
100
AcDbLine
 62
7
  6
CONTINUOUS
 10
415.4805339883
 20
145.3192610388
 11
411.4805339883
 21
145.3192610388
  0
LINE
  5
3DC
100
AcDbEntity
  8
KONSTRUKTIONSELEMENTE
100
AcDbLine
 62
7
  6
CONTINUOUS
 10
412.7483887735
 20
121.691108747
 11
413.2555306876
 21
120.9220810886
  0
LINE
  5
3DD
100
AcDbEntity
  8
KONSTRUKTIONSELEMENTE
100
AcDbLine
 62
7
  6
CONTINUOUS
 10
416.6660600599
 20
115.7503700854
 11
427.6543821031
 21
99.0877292414
  0
LINE
  5
3DE
100
AcDbEntity
  8
KONSTRUKTIONSELEMENTE
100
AcDbLine
 62
7
  6
CONTINUOUS
 10
416.6660600599
 20
115.9625021197
 11
416.5392745813
 21
116.1547590343
  0
LINE
  5
3DF
100
AcDbEntity
  8
KONSTRUKTIONSELEMENTE
100
AcDbLine
 62
7
  6
CONTINUOUS
 10
416.6660600599
 20
117.6595583946
 11
416.5392745813
 21
117.8518153092
  0
LINE
  5
3E0
100
AcDbEntity
  8
KONSTRUKTIONSELEMENTE
100
AcDbLine
 62
7
  6
CONTINUOUS
 10
412.7483887735
 20
123.8124290906
 11
413.2555306876
 21
123.0434014321
  0
LINE
  5
3E1
100
AcDbEntity
  8
KONSTRUKTIONSELEMENTE
100
AcDbLine
 62
7
  6
CONTINUOUS
 10
416.6660600599
 20
117.8716904289
 11
427.6543821031
 21
101.2090495849
  0
LINE
  5
3E2
100
AcDbEntity
  8
KONSTRUKTIONSELEMENTE
100
AcDbLine
 62
7
  6
CONTINUOUS
 10
419.4750355253
 20
119.5220071392
 11
418.1437132951
 21
121.5408180261
  0
LINE
  5
3E3
100
AcDbEntity
  8
KONSTRUKTIONSELEMENTE
100
AcDbLine
 62
7
  6
CONTINUOUS
 10
420.6359810021
 20
119.6707430843
 11
420.128839088
 21
120.4397707428
  0
LINE
  5
3E4
100
AcDbEntity
  8
KONSTRUKTIONSELEMENTE
100
AcDbLine
 62
7
  6
CONTINUOUS
 10
418.1437132951
 20
123.6621383697
 11
420.6359810021
 21
119.8828751187
  0
LINE
  5
3E5
100
AcDbEntity
  8
BEZUGSACHSEN
100
AcDbLine
 62
7
  6
CONTINUOUS
 10
431.4805339883
 20
160.1255187057
 11
436.7305339883
 21
160.1255187057
  0
LINE
  5
3E6
100
AcDbEntity
  8
BEZUGSACHSEN
100
AcDbLine
 62
7
  6
CONTINUOUS
 10
441.2305339883
 20
160.1255187057
 11
446.4805339883
 21
160.1255187057
  0
LINE
  5
3E7
100
AcDbEntity
  8
KONSTRUKTIONSELEMENTE
100
AcDbLine
 62
7
  6
CONTINUOUS
 10
415.4805339883
 20
160.6382810588
 11
411.4805339883
 21
160.6382810588
  0
LINE
  5
3E8
100
AcDbEntity
  8
BEZUGSACHSEN
100
AcDbLine
 62
7
  6
CONTINUOUS
 10
428.4805339883
 20
161.1231086161
 11
431.4805339883
 21
161.1231086161
  0
LINE
  5
3E9
100
AcDbEntity
  8
BEZUGSACHSEN
100
AcDbLine
 62
7
  6
CONTINUOUS
 10
446.4805339883
 20
161.1231086161
 11
449.4805339883
 21
161.1231086161
  0
LINE
  5
3EA
100
AcDbEntity
  8
KONSTRUKTIONSELEMENTE
100
AcDbLine
 62
7
  6
CONTINUOUS
 10
471.4805339883
 20
166.0446760326
 11
469.5911533056
 21
166.0446760326
  0
LINE
  5
3EB
100
AcDbEntity
  8
KONSTRUKTIONSELEMENTE
100
AcDbLine
 62
7
  6
CONTINUOUS
 10
415.4805339883
 20
166.1231086161
 11
411.4805339883
 21
166.1231086161
  0
LINE
  5
3EC
100
AcDbEntity
  8
KONSTRUKTIONSELEMENTE
100
AcDbLine
 62
7
  6
CONTINUOUS
 10
471.4805339883
 20
168.1231086161
 11
469.5911942897
 21
168.1231086161
  0
LINE
  5
3ED
100
AcDbEntity
  8
KONSTRUKTIONSELEMENTE
100
AcDbLine
 62
7
  6
CONTINUOUS
 10
428.4805339883
 20
168.1231086161
 11
428.4031502776
 21
168.1231086161
  0
LINE
  5
3EE
100
AcDbEntity
  8
KONSTRUKTIONSELEMENTE
100
AcDbLine
 62
7
  6
CONTINUOUS
 10
415.5579177498
 20
168.1231086161
 11
415.4805339883
 21
168.1231086161
  0
LINE
  5
3EF
100
AcDbEntity
  8
KONSTRUKTIONSELEMENTE
100
AcDbLine
 62
7
  6
CONTINUOUS
 10
413.2555306876
 20
123.0434014321
 11
413.3823161661
 21
122.6390124832
  0
LINE
  5
3F0
100
AcDbEntity
  8
KONSTRUKTIONSELEMENTE
100
AcDbLine
 62
7
  6
CONTINUOUS
 10
457.2411723147
 20
185.9011753702
 11
457.5603212128
 21
185.985845256
  0
LINE
  5
3F1
100
AcDbEntity
  8
BEZUGSACHSEN
100
AcDbLine
 62
7
  6
CONTINUOUS
 10
435.4805339883
 20
173.6231086161
 11
436.7305339883
 21
173.6231086161
  0
LINE
  5
3F2
100
AcDbEntity
  8
BEZUGSACHSEN
100
AcDbLine
 62
7
  6
CONTINUOUS
 10
441.2305339883
 20
173.6231086161
 11
442.4805339883
 21
173.6231086161
  0
LINE
  5
3F3
100
AcDbEntity
  8
KONSTRUKTIONSELEMENTE
100
AcDbLine
 62
7
  6
CONTINUOUS
 10
419.7305339883
 20
184.5175690868
 11
424.0922361176
 21
183.5316147813
  0
LINE
  5
3F4
100
AcDbEntity
  8
RUNDUNGEN
100
AcDbLine
 62
7
  6
CONTINUOUS
 10
464.3702724536
 20
100.9299969571
 11
466.5686662734
 21
97.7903652053
  0
LINE
  5
3F5
100
AcDbEntity
  8
0
100
AcDbLine
 62
7
  6
CONTINUOUS
 10
410.9805339883
 20
96.8703046025
 11
410.9805339883
 21
95.8710726449
  0
LINE
  5
3F6
100
AcDbEntity
  8
BEZUGSACHSEN
100
AcDbLine
 62
7
  6
CONTINUOUS
 10
410.9805339883
 20
96.8703046025
 11
410.9805339883
 21
95.8710726449
  0
LINE
  5
3F7
100
AcDbEntity
  8
0
100
AcDbLine
 62
7
  6
CONTINUOUS
 10
410.9805339883
 20
90.3751445874
 11
410.9805339883
 21
89.7621295309
  0
LINE
  5
3F8
100
AcDbEntity
  8
BEZUGSACHSEN
100
AcDbLine
 62
7
  6
CONTINUOUS
 10
410.9805339883
 20
90.3751445874
 11
410.9805339883
 21
89.7621295309
  0
LINE
  5
3F9
100
AcDbEntity
  8
KONSTRUKTIONSELEMENTE
100
AcDbLine
 62
7
  6
CONTINUOUS
 10
411.4805339883
 20
140.1231086161
 11
411.4805339883
 21
166.1231086161
  0
LINE
  5
3FA
100
AcDbEntity
  8
KONSTRUKTIONSELEMENTE
100
AcDbLine
 62
7
  6
CONTINUOUS
 10
412.4673121346
 20
124.7089378068
 11
412.4673121346
 21
122.5876174632
  0
LINE
  5
3FB
100
AcDbEntity
  8
KONSTRUKTIONSELEMENTE
100
AcDbLine
 62
7
  6
CONTINUOUS
 10
415.4805339883
 20
137.1231086161
 11
415.4805339883
 21
200.1231086161
  0
LINE
  5
3FC
100
AcDbEntity
  8
KONSTRUKTIONSELEMENTE
100
AcDbLine
 62
7
  6
CONTINUOUS
 10
458.0922361176
 20
193.267451923
 11
453.7305339883
 21
192.0820742484
  0
LINE
  5
3FD
100
AcDbEntity
  8
KONSTRUKTIONSELEMENTE
100
AcDbLine
 62
7
  6
CONTINUOUS
 10
453.7305339883
 20
191.5740551758
 11
458.7305339883
 21
192.9287728642
  0
LINE
  5
3FE
100
AcDbEntity
  8
KONSTRUKTIONSELEMENTE
100
AcDbLine
 62
7
  6
CONTINUOUS
 10
455.2198958109
 20
188.7799502765
 11
454.9007466148
 21
188.6952802695
  0
LINE
  5
3FF
100
AcDbEntity
  8
KONSTRUKTIONSELEMENTE
100
AcDbLine
 62
7
  6
CONTINUOUS
 10
424.0922361176
 20
183.5316147813
 11
419.7305339883
 21
182.5456604757
  0
LINE
  5
400
100
AcDbEntity
  8
KONSTRUKTIONSELEMENTE
100
AcDbLine
 62
7
  6
CONTINUOUS
 10
424.0922361176
 20
186.9120295575
 11
419.7305339883
 21
185.9260753527
  0
LINE
  5
401
100
AcDbEntity
  8
KONSTRUKTIONSELEMENTE
100
AcDbLine
 62
7
  6
CONTINUOUS
 10
419.7305339883
 20
182.1231086161
 11
424.7305339883
 21
183.2499136087
  0
LINE
  5
402
100
AcDbEntity
  8
KONSTRUKTIONSELEMENTE
100
AcDbLine
 62
7
  6
CONTINUOUS
 10
419.7305339883
 20
185.5035234931
 11
424.7305339883
 21
186.6303285864
  0
LINE
  5
403
100
AcDbEntity
  8
KONSTRUKTIONSELEMENTE
100
AcDbLine
 62
7
  6
CONTINUOUS
 10
456.7092573355
 20
185.8165054844
 11
457.2411723147
 21
185.9011753702
  0
LINE
  5
404
100
AcDbEntity
  8
KONSTRUKTIONSELEMENTE
100
AcDbLine
 62
7
  6
CONTINUOUS
 10
455.7518106411
 20
188.8646197989
 11
455.2198958109
 21
188.7799502765
  0
LINE
  5
405
100
AcDbEntity
  8
KONSTRUKTIONSELEMENTE
100
AcDbLine
 62
7
  6
CONTINUOUS
 10
457.2411723147
 20
186.3245246782
 11
456.6028743695
 21
186.2398546712
  0
LINE
  5
406
100
AcDbEntity
  8
KONSTRUKTIONSELEMENTE
100
AcDbLine
 62
7
  6
CONTINUOUS
 10
455.2198958109
 20
188.3566007263
 11
455.8581936072
 21
188.4412707332
  0
LINE
  5
407
100
AcDbEntity
  8
KONSTRUKTIONSELEMENTE
100
AcDbLine
 62
7
  6
CONTINUOUS
 10
454.4752147506
 20
184.1231086161
 11
455.326278777
 21
184.1231086161
  0
LINE
  5
408
100
AcDbEntity
  8
KONSTRUKTIONSELEMENTE
100
AcDbLine
 62
7
  6
CONTINUOUS
 10
454.5815977166
 20
184.6311276887
 11
458.7305339883
 21
184.6311276887
  0
LINE
  5
409
100
AcDbEntity
  8
KONSTRUKTIONSELEMENTE
100
AcDbLine
 62
7
  6
CONTINUOUS
 10
458.7305339883
 20
185.1391467613
 11
453.7305339883
 21
185.1391467613
  0
LINE
  5
40A
100
AcDbEntity
  8
KONSTRUKTIONSELEMENTE
100
AcDbLine
 62
7
  6
CONTINUOUS
 10
455.7518106411
 20
185.8165054844
 11
456.7092573355
 21
185.8165054844
  0
LINE
  5
40B
100
AcDbEntity
  8
KONSTRUKTIONSELEMENTE
100
AcDbLine
 62
7
  6
CONTINUOUS
 10
456.6028743695
 20
186.2398546712
 11
455.8581936072
 21
186.2398546712
  0
LINE
  5
40C
100
AcDbEntity
  8
KONSTRUKTIONSELEMENTE
100
AcDbLine
 62
7
  6
CONTINUOUS
 10
455.8581936072
 20
188.4412707332
 11
456.6028743695
 21
188.4412707332
  0
LINE
  5
40D
100
AcDbEntity
  8
KONSTRUKTIONSELEMENTE
100
AcDbLine
 62
7
  6
CONTINUOUS
 10
456.7092573355
 20
188.8646197989
 11
455.7518106411
 21
188.8646197989
  0
LINE
  5
40E
100
AcDbEntity
  8
KONSTRUKTIONSELEMENTE
100
AcDbLine
 62
7
  6
CONTINUOUS
 10
422.3901084374
 20
188.88393837
 11
422.9220234166
 21
188.88393837
  0
LINE
  5
40F
100
AcDbEntity
  8
KONSTRUKTIONSELEMENTE
100
AcDbLine
 62
7
  6
CONTINUOUS
 10
422.9220234166
 20
189.8698929778
 11
422.3901084374
 21
189.8698929778
  0
LINE
  5
410
100
AcDbEntity
  8
KONSTRUKTIONSELEMENTE
100
AcDbLine
 62
7
  6
CONTINUOUS
 10
420.9007466148
 20
190.6445708498
 11
421.326278777
 21
190.6445708498
  0
LINE
  5
411
100
AcDbEntity
  8
KONSTRUKTIONSELEMENTE
100
AcDbLine
 62
7
  6
CONTINUOUS
 10
421.2198958109
 20
191.0671227094
 11
421.0071298788
 21
191.0671227094
  0
LINE
  5
412
100
AcDbEntity
  8
KONSTRUKTIONSELEMENTE
100
AcDbLine
 62
7
  6
CONTINUOUS
 10
420.9007466148
 20
193.6728597144
 11
421.432661743
 21
193.6024338672
  0
LINE
  5
413
100
AcDbEntity
  8
KONSTRUKTIONSELEMENTE
100
AcDbLine
 62
7
  6
CONTINUOUS
 10
455.8581936072
 20
186.2398546712
 11
455.2198958109
 21
186.3245246782
  0
LINE
  5
414
100
AcDbEntity
  8
KONSTRUKTIONSELEMENTE
100
AcDbLine
 62
7
  6
CONTINUOUS
 10
456.6028743695
 20
188.4412707332
 11
457.2411723147
 21
188.3566007263
  0
LINE
  5
415
100
AcDbEntity
  8
KONSTRUKTIONSELEMENTE
100
AcDbLine
 62
7
  6
CONTINUOUS
 10
455.2198958109
 20
185.9011753702
 11
455.7518106411
 21
185.8165054844
  0
LINE
  5
416
100
AcDbEntity
  8
KONSTRUKTIONSELEMENTE
100
AcDbLine
 62
7
  6
CONTINUOUS
 10
420.4752147506
 20
190.714996697
 11
420.9007466148
 21
190.6445708498
  0
LINE
  5
417
100
AcDbEntity
  8
KONSTRUKTIONSELEMENTE
100
AcDbLine
 62
7
  6
CONTINUOUS
 10
421.432661743
 20
194.0249857268
 11
421.0071298788
 21
194.095411574
  0
LINE
  5
418
100
AcDbEntity
  8
KONSTRUKTIONSELEMENTE
100
AcDbLine
 62
7
  6
CONTINUOUS
 10
421.0071298788
 20
191.0671227094
 11
420.6879806827
 21
191.1375485567
  0
LINE
  5
419
100
AcDbEntity
  8
KONSTRUKTIONSELEMENTE
100
AcDbLine
 62
7
  6
CONTINUOUS
 10
424.7305339883
 20
183.8133160546
 11
419.7305339883
 21
184.9401209464
  0
LINE
  5
41A
100
AcDbEntity
  8
KONSTRUKTIONSELEMENTE
100
AcDbLine
 62
7
  6
CONTINUOUS
 10
424.7305339883
 20
187.1937309316
 11
419.7305339883
 21
188.3205360249
  0
LINE
  5
41B
100
AcDbEntity
  8
KONSTRUKTIONSELEMENTE
100
AcDbLine
 62
7
  6
CONTINUOUS
 10
419.7305339883
 20
187.8979841653
 11
424.0922361176
 21
186.9120295575
  0
LINE
  5
41C
100
AcDbEntity
  8
KONSTRUKTIONSELEMENTE
100
AcDbLine
 62
7
  6
CONTINUOUS
 10
454.9007466148
 20
185.985845256
 11
455.2198958109
 21
185.9011753702
  0
LINE
  5
41D
100
AcDbEntity
  8
KONSTRUKTIONSELEMENTE
100
AcDbLine
 62
7
  6
CONTINUOUS
 10
420.4752147506
 20
193.813709797
 11
420.9007466148
 21
193.6728597144
  0
LINE
  5
41E
100
AcDbEntity
  8
KONSTRUKTIONSELEMENTE
100
AcDbLine
 62
7
  6
CONTINUOUS
 10
423.9858531515
 20
192.8981810364
 11
423.5603212128
 21
193.039031925
  0
LINE
  5
41F
100
AcDbEntity
  8
KONSTRUKTIONSELEMENTE
100
AcDbLine
 62
7
  6
CONTINUOUS
 10
423.4539382468
 20
192.6164800653
 11
423.7730871449
 21
192.4756291768
  0
LINE
  5
420
100
AcDbEntity
  8
KONSTRUKTIONSELEMENTE
100
AcDbLine
 62
7
  6
CONTINUOUS
 10
421.0071298788
 20
194.095411574
 11
420.6879806827
 21
194.2362616566
  0
LINE
  5
421
100
AcDbEntity
  8
KONSTRUKTIONSELEMENTE
100
AcDbLine
 62
7
  6
CONTINUOUS
 10
420.0496828864
 20
190.9966976681
 11
420.4752147506
 21
190.714996697
  0
LINE
  5
422
100
AcDbEntity
  8
KONSTRUKTIONSELEMENTE
100
AcDbLine
 62
7
  6
CONTINUOUS
 10
420.0496828864
 20
194.095411574
 11
420.4752147506
 21
193.813709797
  0
LINE
  5
423
100
AcDbEntity
  8
KONSTRUKTIONSELEMENTE
100
AcDbLine
 62
7
  6
CONTINUOUS
 10
424.4113850529
 20
192.6164800653
 11
423.9858531515
 21
192.8981810364
  0
LINE
  5
424
100
AcDbEntity
  8
KONSTRUKTIONSELEMENTE
100
AcDbLine
 62
7
  6
CONTINUOUS
 10
420.6879806827
 20
191.1375485567
 11
420.4752147506
 21
191.3488244865
  0
LINE
  5
425
100
AcDbEntity
  8
KONSTRUKTIONSELEMENTE
100
AcDbLine
 62
7
  6
CONTINUOUS
 10
420.6879806827
 20
194.2362616566
 11
420.4752147506
 21
194.4475375864
  0
LINE
  5
426
100
AcDbEntity
  8
KONSTRUKTIONSELEMENTE
100
AcDbLine
 62
7
  6
CONTINUOUS
 10
423.7730871449
 20
192.4756291768
 11
423.9858531515
 21
192.264353247
  0
LINE
  5
427
100
AcDbEntity
  8
KONSTRUKTIONSELEMENTE
100
AcDbLine
 62
7
  6
CONTINUOUS
 10
419.8369169543
 20
191.2783986392
 11
420.0496828864
 21
190.9966976681
  0
LINE
  5
428
100
AcDbEntity
  8
KONSTRUKTIONSELEMENTE
100
AcDbLine
 62
7
  6
CONTINUOUS
 10
419.8369169543
 20
194.3771125451
 11
420.0496828864
 21
194.095411574
  0
LINE
  5
429
100
AcDbEntity
  8
KONSTRUKTIONSELEMENTE
100
AcDbLine
 62
7
  6
CONTINUOUS
 10
424.624151013
 20
192.3347782883
 11
424.4113850529
 21
192.6164800653
  0
LINE
  5
42A
100
AcDbEntity
  8
KONSTRUKTIONSELEMENTE
100
AcDbLine
 62
7
  6
CONTINUOUS
 10
420.4752147506
 20
191.3488244865
 11
420.3688317846
 21
191.5601004163
  0
LINE
  5
42B
100
AcDbEntity
  8
KONSTRUKTIONSELEMENTE
100
AcDbLine
 62
7
  6
CONTINUOUS
 10
419.7305339883
 20
191.5601004163
 11
419.8369169543
 21
191.2783986392
  0
LINE
  5
42C
100
AcDbEntity
  8
KONSTRUKTIONSELEMENTE
100
AcDbLine
 62
7
  6
CONTINUOUS
 10
420.4752147506
 20
194.4475375864
 11
420.3688317846
 21
194.7292393634
  0
LINE
  5
42D
100
AcDbEntity
  8
KONSTRUKTIONSELEMENTE
100
AcDbLine
 62
7
  6
CONTINUOUS
 10
419.7305339883
 20
194.7292393634
 11
419.8369169543
 21
194.3771125451
  0
LINE
  5
42E
100
AcDbEntity
  8
KONSTRUKTIONSELEMENTE
100
AcDbLine
 62
7
  6
CONTINUOUS
 10
416.4549515897
 20
118.1207679241
 11
416.4549515897
 21
116.4237116492
  0
LINE
  5
42F
100
AcDbEntity
  8
KONSTRUKTIONSELEMENTE
100
AcDbLine
 62
7
  6
CONTINUOUS
 10
416.6660600599
 20
117.8716904289
 11
416.6660600599
 21
117.6595583946
  0
LINE
  5
430
100
AcDbEntity
  8
KONSTRUKTIONSELEMENTE
100
AcDbLine
 62
7
  6
CONTINUOUS
 10
416.6660600599
 20
115.7503700854
 11
416.6660600599
 21
115.9625021197
  0
LINE
  5
431
100
AcDbEntity
  8
RUNDUNGEN
100
AcDbLine
 62
7
  6
CONTINUOUS
 10
419.1486936755
 20
99.4618465778
 11
419.1486936755
 21
85.8381020495
  0
LINE
  5
432
100
AcDbEntity
  8
BEZUGSACHSEN
100
AcDbLine
 62
7
  6
CONTINUOUS
 10
419.1486936755
 20
99.4618465778
 11
419.1486936755
 21
85.8381020495
  0
LINE
  5
433
100
AcDbEntity
  8
0
100
AcDbLine
 62
7
  6
CONTINUOUS
 10
419.3010319702
 20
89.5282646563
 11
419.3010319702
 21
92.0075183723
  0
LINE
  5
434
100
AcDbEntity
  8
BEZUGSACHSEN
100
AcDbLine
 62
7
  6
CONTINUOUS
 10
419.3010319702
 20
89.2726236283
 11
419.3010319702
 21
92.0075183723
  0
LINE
  5
435
100
AcDbEntity
  8
0
100
AcDbLine
 62
7
  6
CONTINUOUS
 10
419.3010319702
 20
94.23869886
 11
419.3010319702
 21
98.4218300769
  0
LINE
  5
436
100
AcDbEntity
  8
RUNDUNGEN
100
AcDbLine
 62
7
  6
CONTINUOUS
 10
419.3010319702
 20
98.4218300769
 11
419.3010319702
 21
98.830980176
  0
LINE
  5
437
100
AcDbEntity
  8
BEZUGSACHSEN
100
AcDbLine
 62
7
  6
CONTINUOUS
 10
419.3010319702
 20
94.23869886
 11
419.3010319702
 21
98.4218514411
  0
LINE
  5
438
100
AcDbEntity
  8
KONSTRUKTIONSELEMENTE
100
AcDbLine
 62
7
  6
CONTINUOUS
 10
419.7305339883
 20
199.524012144
 11
419.7305339883
 21
199.306884778
  0
LINE
  5
439
100
AcDbEntity
  8
KONSTRUKTIONSELEMENTE
100
AcDbLine
 62
7
  6
CONTINUOUS
 10
419.7305339883
 20
197.3349755624
 11
419.7305339883
 21
196.9124237028
  0
LINE
  5
43A
100
AcDbEntity
  8
KONSTRUKTIONSELEMENTE
100
AcDbLine
 62
7
  6
CONTINUOUS
 10
419.7305339883
 20
195.3630671529
 11
419.7305339883
 21
194.7292393634
  0
LINE
  5
43B
100
AcDbEntity
  8
KONSTRUKTIONSELEMENTE
100
AcDbLine
 62
7
  6
CONTINUOUS
 10
419.7305339883
 20
191.9122264287
 11
419.7305339883
 21
191.5601004163
  0
LINE
  5
43C
100
AcDbEntity
  8
KONSTRUKTIONSELEMENTE
100
AcDbLine
 62
7
  6
CONTINUOUS
 10
419.7305339883
 20
188.3205360249
 11
419.7305339883
 21
187.8979841653
  0
LINE
  5
43D
100
AcDbEntity
  8
KONSTRUKTIONSELEMENTE
100
AcDbLine
 62
7
  6
CONTINUOUS
 10
419.7305339883
 20
185.9260753527
 11
419.7305339883
 21
185.5035234931
  0
LINE
  5
43E
100
AcDbEntity
  8
KONSTRUKTIONSELEMENTE
100
AcDbLine
 62
7
  6
CONTINUOUS
 10
419.7305339883
 20
184.9401209464
 11
419.7305339883
 21
184.5175690868
  0
LINE
  5
43F
100
AcDbEntity
  8
KONSTRUKTIONSELEMENTE
100
AcDbLine
 62
7
  6
CONTINUOUS
 10
419.7305339883
 20
182.5456604757
 11
419.7305339883
 21
182.1231086161
  0
LINE
  5
440
100
AcDbEntity
  8
KONSTRUKTIONSELEMENTE
100
AcDbLine
 62
7
  6
CONTINUOUS
 10
420.3688317846
 20
191.5601004163
 11
420.3688317846
 21
191.9826522759
  0
LINE
  5
441
100
AcDbEntity
  8
KONSTRUKTIONSELEMENTE
100
AcDbLine
 62
7
  6
CONTINUOUS
 10
420.3688317846
 20
194.7292393634
 11
420.3688317846
 21
195.3630671529
  0
LINE
  5
442
100
AcDbEntity
  8
KONSTRUKTIONSELEMENTE
100
AcDbLine
 62
7
  6
CONTINUOUS
 10
420.9007466148
 20
192.4052041355
 11
420.9007466148
 21
192.8277559951
  0
LINE
  5
443
100
AcDbEntity
  8
KONSTRUKTIONSELEMENTE
100
AcDbLine
 62
7
  6
CONTINUOUS
 10
421.0071298788
 20
195.926469901
 11
421.0071298788
 21
196.3490217606
  0
LINE
  5
444
100
AcDbEntity
  8
KONSTRUKTIONSELEMENTE
100
AcDbLine
 62
7
  6
CONTINUOUS
 10
421.7518106411
 20
197.644567551
 11
421.7518106411
 21
197.3349755624
  0
LINE
  5
445
100
AcDbEntity
  8
KONSTRUKTIONSELEMENTE
100
AcDbLine
 62
7
  6
CONTINUOUS
 10
421.8581936072
 20
191.9826522759
 11
421.8581936072
 21
191.5601004163
  0
LINE
  5
446
100
AcDbEntity
  8
KONSTRUKTIONSELEMENTE
100
AcDbLine
 62
7
  6
CONTINUOUS
 10
422.3901084374
 20
189.8698929778
 11
422.3901084374
 21
188.88393837
  0
LINE
  5
447
100
AcDbEntity
  8
KONSTRUKTIONSELEMENTE
100
AcDbLine
 62
7
  6
CONTINUOUS
 10
422.4964914034
 20
191.5601004163
 11
422.4964914034
 21
191.9826522759
  0
LINE
  5
448
100
AcDbEntity
  8
KONSTRUKTIONSELEMENTE
100
AcDbLine
 62
7
  6
CONTINUOUS
 10
422.9220234166
 20
188.88393837
 11
422.9220234166
 21
189.8698929778
  0
LINE
  5
449
100
AcDbEntity
  8
KONSTRUKTIONSELEMENTE
100
AcDbLine
 62
7
  6
CONTINUOUS
 10
423.3475552808
 20
190.8558467796
 11
423.3475552808
 21
190.43329492
  0
LINE
  5
44A
100
AcDbEntity
  8
KONSTRUKTIONSELEMENTE
100
AcDbLine
 62
7
  6
CONTINUOUS
 10
423.4539382468
 20
196.3490217606
 11
423.4539382468
 21
195.926469901
  0
LINE
  5
44B
100
AcDbEntity
  8
KONSTRUKTIONSELEMENTE
100
AcDbLine
 62
7
  6
CONTINUOUS
 10
424.0922361176
 20
195.3630671529
 11
424.0922361176
 21
194.7292393634
  0
LINE
  5
44C
100
AcDbEntity
  8
KONSTRUKTIONSELEMENTE
100
AcDbLine
 62
7
  6
CONTINUOUS
 10
424.0922361176
 20
191.9826522759
 11
424.0922361176
 21
191.4192495278
  0
LINE
  5
44D
100
AcDbEntity
  8
KONSTRUKTIONSELEMENTE
100
AcDbLine
 62
7
  6
CONTINUOUS
 10
424.7305339883
 20
183.2499136087
 11
424.7305339883
 21
183.8133160546
  0
LINE
  5
44E
100
AcDbEntity
  8
KONSTRUKTIONSELEMENTE
100
AcDbLine
 62
7
  6
CONTINUOUS
 10
424.7305339883
 20
186.6303285864
 11
424.7305339883
 21
187.1937309316
  0
LINE
  5
44F
100
AcDbEntity
  8
KONSTRUKTIONSELEMENTE
100
AcDbLine
 62
7
  6
CONTINUOUS
 10
424.7305339883
 20
191.4192495278
 11
424.7305339883
 21
191.9826522759
  0
LINE
  5
450
100
AcDbEntity
  8
KONSTRUKTIONSELEMENTE
100
AcDbLine
 62
7
  6
CONTINUOUS
 10
424.7305339883
 20
194.7292393634
 11
424.7305339883
 21
195.3630671529
  0
LINE
  5
451
100
AcDbEntity
  8
KONSTRUKTIONSELEMENTE
100
AcDbLine
 62
7
  6
CONTINUOUS
 10
419.8369169543
 20
195.7151939712
 11
419.7305339883
 21
195.3630671529
  0
LINE
  5
452
100
AcDbEntity
  8
KONSTRUKTIONSELEMENTE
100
AcDbLine
 62
7
  6
CONTINUOUS
 10
419.8369169543
 20
192.264353247
 11
419.7305339883
 21
191.9122264287
  0
LINE
  5
453
100
AcDbEntity
  8
KONSTRUKTIONSELEMENTE
100
AcDbLine
 62
7
  6
CONTINUOUS
 10
423.6667041789
 20
190.9262726269
 11
423.3475552808
 21
190.8558467796
  0
LINE
  5
454
100
AcDbEntity
  8
KONSTRUKTIONSELEMENTE
100
AcDbLine
 62
7
  6
CONTINUOUS
 10
421.539044709
 20
191.1375485567
 11
421.2198958109
 21
191.0671227094
  0
LINE
  5
455
100
AcDbEntity
  8
KONSTRUKTIONSELEMENTE
100
AcDbLine
 62
7
  6
CONTINUOUS
 10
420.9007466148
 20
192.8277559951
 11
420.5815977166
 21
192.7573301479
  0
LINE
  5
456
100
AcDbEntity
  8
KONSTRUKTIONSELEMENTE
100
AcDbLine
 62
7
  6
CONTINUOUS
 10
420.6879806827
 20
195.8560440538
 11
421.0071298788
 21
195.926469901
  0
LINE
  5
457
100
AcDbEntity
  8
KONSTRUKTIONSELEMENTE
100
AcDbLine
 62
7
  6
CONTINUOUS
 10
423.3475552808
 20
190.43329492
 11
423.7730871449
 21
190.5037207672
  0
LINE
  5
458
100
AcDbEntity
  8
KONSTRUKTIONSELEMENTE
100
AcDbLine
 62
7
  6
CONTINUOUS
 10
421.326278777
 20
190.6445708498
 11
421.7518106411
 21
190.714996697
  0
LINE
  5
459
100
AcDbEntity
  8
KONSTRUKTIONSELEMENTE
100
AcDbLine
 62
7
  6
CONTINUOUS
 10
423.4539382468
 20
194.095411574
 11
423.0284063826
 21
194.0249857268
  0
LINE
  5
45A
100
AcDbEntity
  8
KONSTRUKTIONSELEMENTE
100
AcDbLine
 62
7
  6
CONTINUOUS
 10
423.0284063826
 20
193.6024338672
 11
423.5603212128
 21
193.6728597144
  0
LINE
  5
45B
100
AcDbEntity
  8
KONSTRUKTIONSELEMENTE
100
AcDbLine
 62
7
  6
CONTINUOUS
 10
421.0071298788
 20
196.3490217606
 11
420.4752147506
 21
196.2785959134
  0
LINE
  5
45C
100
AcDbEntity
  8
KONSTRUKTIONSELEMENTE
100
AcDbLine
 62
7
  6
CONTINUOUS
 10
423.1347893487
 20
192.6164800653
 11
423.4539382468
 21
192.6164800653
  0
LINE
  5
45D
100
AcDbEntity
  8
KONSTRUKTIONSELEMENTE
100
AcDbLine
 62
7
  6
CONTINUOUS
 10
423.5603212128
 20
193.039031925
 11
423.0284063826
 21
193.039031925
  0
LINE
  5
45E
100
AcDbEntity
  8
KONSTRUKTIONSELEMENTE
100
AcDbLine
 62
7
  6
CONTINUOUS
 10
421.432661743
 20
193.6024338672
 11
423.0284063826
 21
193.6024338672
  0
LINE
  5
45F
100
AcDbEntity
  8
KONSTRUKTIONSELEMENTE
100
AcDbLine
 62
7
  6
CONTINUOUS
 10
423.0284063826
 20
194.0249857268
 11
421.432661743
 21
194.0249857268
  0
LINE
  5
460
100
AcDbEntity
  8
KONSTRUKTIONSELEMENTE
100
AcDbLine
 62
7
  6
CONTINUOUS
 10
453.7305339883
 20
195.6382072721
 11
458.7305339883
 21
195.6382072721
  0
LINE
  5
461
100
AcDbEntity
  8
KONSTRUKTIONSELEMENTE
100
AcDbLine
 62
7
  6
CONTINUOUS
 10
458.7305339883
 20
196.1462263447
 11
454.0644504648
 21
196.1462263447
  0
LINE
  5
462
100
AcDbEntity
  8
KONSTRUKTIONSELEMENTE
100
AcDbLine
 62
7
  6
CONTINUOUS
 10
455.116222068
 20
196.8235854312
 11
458.7305339883
 21
196.8235854312
  0
LINE
  5
463
100
AcDbEntity
  8
KONSTRUKTIONSELEMENTE
100
AcDbLine
 62
7
  6
CONTINUOUS
 10
419.7305339883
 20
196.9124237028
 11
422.7366353781
 21
196.9124237028
  0
LINE
  5
464
100
AcDbEntity
  8
KONSTRUKTIONSELEMENTE
100
AcDbLine
 62
7
  6
CONTINUOUS
 10
458.7305339883
 20
197.3316045038
 11
456.4964914034
 21
197.3316045038
  0
LINE
  5
465
100
AcDbEntity
  8
KONSTRUKTIONSELEMENTE
100
AcDbLine
 62
7
  6
CONTINUOUS
 10
421.7518106411
 20
197.3349755624
 11
419.7305339883
 21
197.3349755624
  0
LINE
  5
466
100
AcDbEntity
  8
KONSTRUKTIONSELEMENTE
100
AcDbLine
 62
7
  6
CONTINUOUS
 10
419.7305339883
 20
199.306884778
 11
419.9375176589
 21
199.306884778
  0
LINE
  5
467
100
AcDbEntity
  8
KONSTRUKTIONSELEMENTE
100
AcDbLine
 62
7
  6
CONTINUOUS
 10
423.6112704894
 20
196.3281908789
 11
423.4539382468
 21
196.3490217606
  0
LINE
  5
468
100
AcDbEntity
  8
KONSTRUKTIONSELEMENTE
100
AcDbLine
 62
7
  6
CONTINUOUS
 10
457.2411723147
 20
188.7799502765
 11
456.7092573355
 21
188.8646197989
  0
LINE
  5
469
100
AcDbEntity
  8
KONSTRUKTIONSELEMENTE
100
AcDbLine
 62
7
  6
CONTINUOUS
 10
423.4539382468
 20
195.926469901
 11
423.7730871449
 21
195.8560440538
  0
LINE
  5
46A
100
AcDbEntity
  8
KONSTRUKTIONSELEMENTE
100
AcDbLine
 62
7
  6
CONTINUOUS
 10
457.5603212128
 20
188.6952802695
 11
457.2411723147
 21
188.7799502765
  0
LINE
  5
46B
100
AcDbEntity
  8
KONSTRUKTIONSELEMENTE
100
AcDbLine
 62
7
  6
CONTINUOUS
 10
458.7305339883
 20
193.6061309817
 11
453.7305339883
 21
194.9608491546
  0
LINE
  5
46C
100
AcDbEntity
  8
KONSTRUKTIONSELEMENTE
100
AcDbLine
 62
7
  6
CONTINUOUS
 10
453.7305339883
 20
194.452830082
 11
458.0922361176
 21
193.267451923
  0
LINE
  5
46D
100
AcDbEntity
  8
KONSTRUKTIONSELEMENTE
100
AcDbLine
 62
7
  6
CONTINUOUS
 10
454.4752147506
 20
186.1551849065
 11
454.9007466148
 21
185.985845256
  0
LINE
  5
46E
100
AcDbEntity
  8
KONSTRUKTIONSELEMENTE
100
AcDbLine
 62
7
  6
CONTINUOUS
 10
457.9858531515
 20
188.5259407402
 11
457.5603212128
 21
188.6952802695
  0
LINE
  5
46F
100
AcDbEntity
  8
KONSTRUKTIONSELEMENTE
100
AcDbLine
 62
7
  6
CONTINUOUS
 10
454.7943636487
 20
190.642686553
 11
457.4539382468
 21
189.5419788854
  0
LINE
  5
470
100
AcDbEntity
  8
KONSTRUKTIONSELEMENTE
100
AcDbLine
 62
7
  6
CONTINUOUS
 10
457.6667041789
 20
189.7959884217
 11
455.0071298788
 21
190.8966960893
  0
LINE
  5
471
100
AcDbEntity
  8
KONSTRUKTIONSELEMENTE
100
AcDbLine
 62
7
  6
CONTINUOUS
 10
455.2198958109
 20
186.3245246782
 11
454.5815977166
 21
186.6632039791
  0
LINE
  5
472
100
AcDbEntity
  8
KONSTRUKTIONSELEMENTE
100
AcDbLine
 62
7
  6
CONTINUOUS
 10
457.2411723147
 20
188.3566007263
 11
457.8794701855
 21
188.0179214253
  0
LINE
  5
473
100
AcDbEntity
  8
KONSTRUKTIONSELEMENTE
100
AcDbLine
 62
7
  6
CONTINUOUS
 10
453.7305339883
 20
184.6311276887
 11
454.4752147506
 21
184.1231086161
  0
LINE
  5
474
100
AcDbEntity
  8
KONSTRUKTIONSELEMENTE
100
AcDbLine
 62
7
  6
CONTINUOUS
 10
455.326278777
 20
184.1231086161
 11
454.5815977166
 21
184.6311276887
  0
LINE
  5
475
100
AcDbEntity
  8
KONSTRUKTIONSELEMENTE
100
AcDbLine
 62
7
  6
CONTINUOUS
 10
423.7730871449
 20
195.8560440538
 11
423.9858531515
 21
195.644768124
  0
LINE
  5
476
100
AcDbEntity
  8
KONSTRUKTIONSELEMENTE
100
AcDbLine
 62
7
  6
CONTINUOUS
 10
423.9858531515
 20
192.264353247
 11
424.0922361176
 21
191.9826522759
  0
LINE
  5
477
100
AcDbEntity
  8
KONSTRUKTIONSELEMENTE
100
AcDbLine
 62
7
  6
CONTINUOUS
 10
423.9858531515
 20
195.644768124
 11
424.0922361176
 21
195.3630671529
  0
LINE
  5
478
100
AcDbEntity
  8
KONSTRUKTIONSELEMENTE
100
AcDbLine
 62
7
  6
CONTINUOUS
 10
424.7305339883
 20
191.9826522759
 11
424.624151013
 21
192.3347782883
  0
LINE
  5
479
100
AcDbEntity
  8
KONSTRUKTIONSELEMENTE
100
AcDbLine
 62
7
  6
CONTINUOUS
 10
424.7305339883
 20
195.3630671529
 11
424.6295701539
 21
195.697256657
  0
LINE
  5
47A
100
AcDbEntity
  8
RUNDUNGEN
100
AcDbLine
 62
7
  6
CONTINUOUS
 10
427.8805339883
 20
98.8078630168
 11
427.8805339883
 21
98.4218501994
  0
LINE
  5
47B
100
AcDbEntity
  8
BEZUGSACHSEN
100
AcDbLine
 62
7
  6
CONTINUOUS
 10
427.8805339883
 20
86.9467538153
 11
427.8805339883
 21
92.0075183723
  0
LINE
  5
47C
100
AcDbEntity
  8
BEZUGSACHSEN
100
AcDbLine
 62
7
  6
CONTINUOUS
 10
427.8805339883
 20
94.23869886
 11
427.8805339883
 21
98.4218501994
  0
LINE
  5
47D
100
AcDbEntity
  8
RUNDUNGEN
100
AcDbLine
 62
7
  6
CONTINUOUS
 10
427.9805339883
 20
84.6478842223
 11
427.9805339883
 21
81.6241031923
  0
LINE
  5
47E
100
AcDbEntity
  8
RUNDUNGEN
100
AcDbLine
 62
7
  6
CONTINUOUS
 10
427.9805339883
 20
85.8381020495
 11
427.9805339883
 21
98.7075734625
  0
LINE
  5
47F
100
AcDbEntity
  8
BEZUGSACHSEN
100
AcDbLine
 62
7
  6
CONTINUOUS
 10
427.9805339883
 20
85.8381020495
 11
427.9805339883
 21
98.7075734625
  0
LINE
  5
480
100
AcDbEntity
  8
KONSTRUKTIONSELEMENTE
100
AcDbLine
 62
7
  6
CONTINUOUS
 10
428.4805339883
 20
168.1231086161
 11
428.4805339883
 21
137.1231086161
  0
LINE
  5
481
100
AcDbEntity
  8
KONSTRUKTIONSELEMENTE
100
AcDbLine
 62
7
  6
CONTINUOUS
 10
428.4805339883
 20
168.1629211918
 11
428.4805339883
 21
193.9272942627
  0
LINE
  5
482
100
AcDbEntity
  8
0
100
AcDbLine
 62
7
  6
CONTINUOUS
 10
429.9805339883
 20
201.6231086161
 11
429.9805339883
 21
354.6231086161
  0
LINE
  5
483
100
AcDbEntity
  8
KONSTRUKTIONSELEMENTE
100
AcDbLine
 62
7
  6
CONTINUOUS
 10
430.9805339883
 20
142.4106448287
 11
430.9805339883
 21
153.0172465465
  0
LINE
  5
484
100
AcDbEntity
  8
KONSTRUKTIONSELEMENTE
100
AcDbLine
 62
7
  6
CONTINUOUS
 10
430.9805339883
 20
173.5233432009
 11
430.9805339883
 21
184.1299449187
  0
LINE
  5
485
100
AcDbEntity
  8
BEZUGSACHSEN
100
AcDbLine
 62
7
  6
CONTINUOUS
 10
431.4805339883
 20
140.1944301521
 11
431.4805339883
 21
132.3295843808
  0
LINE
  5
486
100
AcDbEntity
  8
BEZUGSACHSEN
100
AcDbLine
 62
7
  6
CONTINUOUS
 10
431.4805339883
 20
155.2386548332
 11
431.4805339883
 21
171.3071285244
  0
LINE
  5
487
100
AcDbEntity
  8
0
100
AcDbLine
 62
7
  6
CONTINUOUS
 10
431.9805339883
 20
85.8395114244
 11
431.9805339883
 21
90.7255836161
  0
LINE
  5
488
100
AcDbEntity
  8
BEZUGSACHSEN
100
AcDbLine
 62
7
  6
CONTINUOUS
 10
431.9805339883
 20
85.8395114244
 11
431.9805339883
 21
90.7255836161
  0
LINE
  5
489
100
AcDbEntity
  8
0
100
AcDbLine
 62
7
  6
CONTINUOUS
 10
431.9805339883
 20
95.5206336161
 11
431.9805339883
 21
97.862917614
  0
LINE
  5
48A
100
AcDbEntity
  8
BEZUGSACHSEN
100
AcDbLine
 62
7
  6
CONTINUOUS
 10
431.9805339883
 20
95.5206336161
 11
431.9805339883
 21
97.862917614
  0
LINE
  5
48B
100
AcDbEntity
  8
KONSTRUKTIONSELEMENTE
100
AcDbLine
 62
7
  6
CONTINUOUS
 10
435.0505339883
 20
90.2261643772
 11
435.0505339883
 21
98.0750496483
  0
LINE
  5
48C
100
AcDbEntity
  8
KONSTRUKTIONSELEMENTE
100
AcDbLine
 62
7
  6
CONTINUOUS
 10
435.4805339883
 20
142.4106448287
 11
435.4805339883
 21
153.0172465465
  0
LINE
  5
48D
100
AcDbEntity
  8
KONSTRUKTIONSELEMENTE
100
AcDbLine
 62
7
  6
CONTINUOUS
 10
435.4805339883
 20
173.5233432009
 11
435.4805339883
 21
184.1299449187
  0
LINE
  5
48E
100
AcDbEntity
  8
KONSTRUKTIONSELEMENTE
100
AcDbLine
 62
7
  6
CONTINUOUS
 10
436.2505339883
 20
89.3776362397
 11
436.2505339883
 21
89.5897682741
  0
LINE
  5
48F
100
AcDbEntity
  8
KONSTRUKTIONSELEMENTE
100
AcDbLine
 62
7
  6
CONTINUOUS
 10
436.2505339883
 20
91.2868245489
 11
436.2505339883
 21
98.2871816827
  0
LINE
  5
490
100
AcDbEntity
  8
KONSTRUKTIONSELEMENTE
100
AcDbLine
 62
7
  6
CONTINUOUS
 10
436.4805339883
 20
200.6486729908
 11
436.4805339883
 21
183.1675660327
  0
LINE
  5
491
100
AcDbEntity
  8
KONSTRUKTIONSELEMENTE
100
AcDbLine
 62
7
  6
CONTINUOUS
 10
436.4805339883
 20
143.3730237147
 11
436.4805339883
 21
126.0655893816
  0
LINE
  5
492
100
AcDbEntity
  8
KONSTRUKTIONSELEMENTE
100
AcDbLine
 62
7
  6
CONTINUOUS
 10
421.9645765732
 20
192.3347782883
 11
421.8581936072
 21
191.9826522759
  0
LINE
  5
493
100
AcDbEntity
  8
KONSTRUKTIONSELEMENTE
100
AcDbLine
 62
7
  6
CONTINUOUS
 10
424.624151013
 20
194.3771125451
 11
424.7305339883
 21
194.7292393634
  0
LINE
  5
494
100
AcDbEntity
  8
KONSTRUKTIONSELEMENTE
100
AcDbLine
 62
7
  6
CONTINUOUS
 10
424.624151013
 20
191.0671227094
 11
424.7305339883
 21
191.4192495278
  0
LINE
  5
495
100
AcDbEntity
  8
KONSTRUKTIONSELEMENTE
100
AcDbLine
 62
7
  6
CONTINUOUS
 10
420.3688317846
 20
195.3630671529
 11
420.4752147506
 21
195.644768124
  0
LINE
  5
496
100
AcDbEntity
  8
KONSTRUKTIONSELEMENTE
100
AcDbLine
 62
7
  6
CONTINUOUS
 10
422.4964914034
 20
191.9826522759
 11
422.6028743695
 21
192.264353247
  0
LINE
  5
497
100
AcDbEntity
  8
KONSTRUKTIONSELEMENTE
100
AcDbLine
 62
7
  6
CONTINUOUS
 10
422.3901084374
 20
191.2783986392
 11
422.4964914034
 21
191.5601004163
  0
LINE
  5
498
100
AcDbEntity
  8
KONSTRUKTIONSELEMENTE
100
AcDbLine
 62
7
  6
CONTINUOUS
 10
424.0922361176
 20
194.7292393634
 11
423.9858531515
 21
194.4475375864
  0
LINE
  5
499
100
AcDbEntity
  8
KONSTRUKTIONSELEMENTE
100
AcDbLine
 62
7
  6
CONTINUOUS
 10
424.0922361176
 20
191.4192495278
 11
423.9858531515
 21
191.1375485567
  0
LINE
  5
49A
100
AcDbEntity
  8
KONSTRUKTIONSELEMENTE
100
AcDbLine
 62
7
  6
CONTINUOUS
 10
420.3688317846
 20
191.9826522759
 11
420.4752147506
 21
192.1939282057
  0
LINE
  5
49B
100
AcDbEntity
  8
KONSTRUKTIONSELEMENTE
100
AcDbLine
 62
7
  6
CONTINUOUS
 10
421.8581936072
 20
191.5601004163
 11
421.7518106411
 21
191.3488244865
  0
LINE
  5
49C
100
AcDbEntity
  8
KONSTRUKTIONSELEMENTE
100
AcDbLine
 62
7
  6
CONTINUOUS
 10
420.0496828864
 20
195.9968941363
 11
419.8369169543
 21
195.7151939712
  0
LINE
  5
49D
100
AcDbEntity
  8
KONSTRUKTIONSELEMENTE
100
AcDbLine
 62
7
  6
CONTINUOUS
 10
422.1773425053
 20
192.6164800653
 11
421.9645765732
 21
192.3347782883
  0
LINE
  5
49E
100
AcDbEntity
  8
KONSTRUKTIONSELEMENTE
100
AcDbLine
 62
7
  6
CONTINUOUS
 10
420.4752147506
 20
195.644768124
 11
420.6879806827
 21
195.8560440538
  0
LINE
  5
49F
100
AcDbEntity
  8
KONSTRUKTIONSELEMENTE
100
AcDbLine
 62
7
  6
CONTINUOUS
 10
454.1560658525
 20
186.4091944428
 11
454.4752147506
 21
186.1551849065
  0
LINE
  5
4A0
100
AcDbEntity
  8
KONSTRUKTIONSELEMENTE
100
AcDbLine
 62
7
  6
CONTINUOUS
 10
458.3050020869
 20
188.2719312039
 11
457.9858531515
 21
188.5259407402
  0
LINE
  5
4A1
100
AcDbEntity
  8
KONSTRUKTIONSELEMENTE
100
AcDbLine
 62
7
  6
CONTINUOUS
 10
454.5815977166
 20
186.6632039791
 11
454.3688317846
 21
186.9172135154
  0
LINE
  5
4A2
100
AcDbEntity
  8
KONSTRUKTIONSELEMENTE
100
AcDbLine
 62
7
  6
CONTINUOUS
 10
453.8369169543
 20
186.8325437508
 11
454.1560658525
 21
186.4091944428
  0
LINE
  5
4A3
100
AcDbEntity
  8
KONSTRUKTIONSELEMENTE
100
AcDbLine
 62
7
  6
CONTINUOUS
 10
436.7305339883
 20
152.2274845781
 11
436.7305339883
 21
174.3131051694
  0
LINE
  5
4A4
100
AcDbEntity
  8
KONSTRUKTIONSELEMENTE
100
AcDbLine
 62
7
  6
CONTINUOUS
 10
441.2305339883
 20
152.2274845781
 11
441.2305339883
 21
174.3131051694
  0
LINE
  5
4A5
100
AcDbEntity
  8
KONSTRUKTIONSELEMENTE
100
AcDbLine
 62
7
  6
CONTINUOUS
 10
441.4805339883
 20
200.6486729908
 11
441.4805339883
 21
183.1675660327
  0
LINE
  5
4A6
100
AcDbEntity
  8
KONSTRUKTIONSELEMENTE
100
AcDbLine
 62
7
  6
CONTINUOUS
 10
441.4805339883
 20
143.3730237147
 11
441.4805339883
 21
126.0655893816
  0
LINE
  5
4A7
100
AcDbEntity
  8
KONSTRUKTIONSELEMENTE
100
AcDbLine
 62
7
  6
CONTINUOUS
 10
441.7105339883
 20
89.3776362397
 11
441.7105339883
 21
89.5897682741
  0
LINE
  5
4A8
100
AcDbEntity
  8
KONSTRUKTIONSELEMENTE
100
AcDbLine
 62
7
  6
CONTINUOUS
 10
441.7105339883
 20
91.2868245489
 11
441.7105339883
 21
98.2871816827
  0
LINE
  5
4A9
100
AcDbEntity
  8
KONSTRUKTIONSELEMENTE
100
AcDbLine
 62
7
  6
CONTINUOUS
 10
442.4805339883
 20
184.1299449187
 11
442.4805339883
 21
173.5233432009
  0
LINE
  5
4AA
100
AcDbEntity
  8
KONSTRUKTIONSELEMENTE
100
AcDbLine
 62
7
  6
CONTINUOUS
 10
442.4805339883
 20
153.0172465465
 11
442.4805339883
 21
142.4106448287
  0
LINE
  5
4AB
100
AcDbEntity
  8
KONSTRUKTIONSELEMENTE
100
AcDbLine
 62
7
  6
CONTINUOUS
 10
442.9105339883
 20
90.2261643772
 11
442.9105339883
 21
98.0750496483
  0
LINE
  5
4AC
100
AcDbEntity
  8
0
100
AcDbLine
 62
7
  6
CONTINUOUS
 10
445.9805339883
 20
97.862917614
 11
445.9805339883
 21
95.5206336161
  0
LINE
  5
4AD
100
AcDbEntity
  8
0
100
AcDbLine
 62
7
  6
CONTINUOUS
 10
445.9805339883
 20
90.7255836161
 11
445.9805339883
 21
83.5393732862
  0
LINE
  5
4AE
100
AcDbEntity
  8
BEZUGSACHSEN
100
AcDbLine
 62
7
  6
CONTINUOUS
 10
446.4805339883
 20
171.3019349143
 11
446.4805339883
 21
155.2334612231
  0
LINE
  5
4AF
100
AcDbEntity
  8
BEZUGSACHSEN
100
AcDbLine
 62
7
  6
CONTINUOUS
 10
446.4805339883
 20
140.1892365421
 11
446.4805339883
 21
132.3295843808
  0
LINE
  5
4B0
100
AcDbEntity
  8
KONSTRUKTIONSELEMENTE
100
AcDbLine
 62
7
  6
CONTINUOUS
 10
446.9805339883
 20
184.1299449187
 11
446.9805339883
 21
173.5233432009
  0
LINE
  5
4B1
100
AcDbEntity
  8
KONSTRUKTIONSELEMENTE
100
AcDbLine
 62
7
  6
CONTINUOUS
 10
446.9805339883
 20
153.0172465465
 11
446.9805339883
 21
142.4106448287
  0
LINE
  5
4B2
100
AcDbEntity
  8
KONSTRUKTIONSELEMENTE
100
AcDbLine
 62
7
  6
CONTINUOUS
 10
424.4113850529
 20
194.095411574
 11
424.624151013
 21
194.3771125451
  0
LINE
  5
4B3
100
AcDbEntity
  8
KONSTRUKTIONSELEMENTE
100
AcDbLine
 62
7
  6
CONTINUOUS
 10
422.1773425053
 20
190.9966976681
 11
422.3901084374
 21
191.2783986392
  0
LINE
  5
4B4
100
AcDbEntity
  8
KONSTRUKTIONSELEMENTE
100
AcDbLine
 62
7
  6
CONTINUOUS
 10
424.3050020869
 20
190.714996697
 11
424.624151013
 21
191.0671227094
  0
LINE
  5
4B5
100
AcDbEntity
  8
KONSTRUKTIONSELEMENTE
100
AcDbLine
 62
7
  6
CONTINUOUS
 10
423.9858531515
 20
194.4475375864
 11
423.7730871449
 21
194.2362616566
  0
LINE
  5
4B6
100
AcDbEntity
  8
KONSTRUKTIONSELEMENTE
100
AcDbLine
 62
7
  6
CONTINUOUS
 10
422.6028743695
 20
192.264353247
 11
422.8156403015
 21
192.4756291768
  0
LINE
  5
4B7
100
AcDbEntity
  8
KONSTRUKTIONSELEMENTE
100
AcDbLine
 62
7
  6
CONTINUOUS
 10
421.7518106411
 20
191.3488244865
 11
421.539044709
 21
191.1375485567
  0
LINE
  5
4B8
100
AcDbEntity
  8
KONSTRUKTIONSELEMENTE
100
AcDbLine
 62
7
  6
CONTINUOUS
 10
420.1560658525
 20
192.5460542181
 11
419.8369169543
 21
192.264353247
  0
LINE
  5
4B9
100
AcDbEntity
  8
KONSTRUKTIONSELEMENTE
100
AcDbLine
 62
7
  6
CONTINUOUS
 10
420.4752147506
 20
196.2785959134
 11
420.0496828864
 21
195.9968941363
  0
LINE
  5
4BA
100
AcDbEntity
  8
KONSTRUKTIONSELEMENTE
100
AcDbLine
 62
7
  6
CONTINUOUS
 10
420.4752147506
 20
192.1939282057
 11
420.6879806827
 21
192.3347782883
  0
LINE
  5
4BB
100
AcDbEntity
  8
KONSTRUKTIONSELEMENTE
100
AcDbLine
 62
7
  6
CONTINUOUS
 10
423.9858531515
 20
193.813709797
 11
424.4113850529
 21
194.095411574
  0
LINE
  5
4BC
100
AcDbEntity
  8
KONSTRUKTIONSELEMENTE
100
AcDbLine
 62
7
  6
CONTINUOUS
 10
422.6028743695
 20
192.8981810364
 11
422.1773425053
 21
192.6164800653
  0
LINE
  5
4BD
100
AcDbEntity
  8
KONSTRUKTIONSELEMENTE
100
AcDbLine
 62
7
  6
CONTINUOUS
 10
421.7518106411
 20
190.714996697
 11
422.1773425053
 21
190.9966976681
  0
LINE
  5
4BE
100
AcDbEntity
  8
KONSTRUKTIONSELEMENTE
100
AcDbLine
 62
7
  6
CONTINUOUS
 10
423.9858531515
 20
191.1375485567
 11
423.6667041789
 21
190.9262726269
  0
LINE
  5
4BF
100
AcDbEntity
  8
KONSTRUKTIONSELEMENTE
100
AcDbLine
 62
7
  6
CONTINUOUS
 10
420.5815977166
 20
192.7573301479
 11
420.1560658525
 21
192.5460542181
  0
LINE
  5
4C0
100
AcDbEntity
  8
KONSTRUKTIONSELEMENTE
100
AcDbLine
 62
7
  6
CONTINUOUS
 10
423.7730871449
 20
194.2362616566
 11
423.4539382468
 21
194.095411574
  0
LINE
  5
4C1
100
AcDbEntity
  8
KONSTRUKTIONSELEMENTE
100
AcDbLine
 62
7
  6
CONTINUOUS
 10
457.8794701855
 20
188.0179214253
 11
458.0922361176
 21
187.763911889
  0
LINE
  5
4C2
100
AcDbEntity
  8
KONSTRUKTIONSELEMENTE
100
AcDbLine
 62
7
  6
CONTINUOUS
 10
458.624151013
 20
187.848581896
 11
458.3050020869
 21
188.2719312039
  0
LINE
  5
4C3
100
AcDbEntity
  8
0
100
AcDbLine
 62
7
  6
CONTINUOUS
 10
447.9805339883
 20
201.6231086161
 11
447.9805339883
 21
354.6231086161
  0
LINE
  5
4C4
100
AcDbEntity
  8
KONSTRUKTIONSELEMENTE
100
AcDbLine
 62
7
  6
CONTINUOUS
 10
449.4805339883
 20
137.1231086161
 11
449.4805339883
 21
193.9285655559
  0
LINE
  5
4C5
100
AcDbEntity
  8
RUNDUNGEN
100
AcDbLine
 62
7
  6
CONTINUOUS
 10
449.9805339883
 20
97.862917614
 11
449.9805339883
 21
86.7843706545
  0
LINE
  5
4C6
100
AcDbEntity
  8
RUNDUNGEN
100
AcDbLine
 62
7
  6
CONTINUOUS
 10
450.0805339883
 20
97.862917614
 11
450.0805339883
 21
94.23869886
  0
LINE
  5
4C7
100
AcDbEntity
  8
BEZUGSACHSEN
100
AcDbLine
 62
7
  6
CONTINUOUS
 10
450.0805339883
 20
97.862917614
 11
450.0805339883
 21
94.23869886
  0
LINE
  5
4C8
100
AcDbEntity
  8
RUNDUNGEN
100
AcDbLine
 62
7
  6
CONTINUOUS
 10
450.0805339883
 20
87.4152370482
 11
450.0805339883
 21
92.0075183723
  0
LINE
  5
4C9
100
AcDbEntity
  8
BEZUGSACHSEN
100
AcDbLine
 62
7
  6
CONTINUOUS
 10
450.0805339883
 20
87.4152370482
 11
450.0805339883
 21
92.0075183723
  0
LINE
  5
4CA
100
AcDbEntity
  8
KONSTRUKTIONSELEMENTE
100
AcDbLine
 62
7
  6
CONTINUOUS
 10
453.7305339883
 20
195.9324490347
 11
453.7305339883
 21
195.6382072721
  0
LINE
  5
4CB
100
AcDbEntity
  8
KONSTRUKTIONSELEMENTE
100
AcDbLine
 62
7
  6
CONTINUOUS
 10
453.7305339883
 20
194.9608491546
 11
453.7305339883
 21
194.452830082
  0
LINE
  5
4CC
100
AcDbEntity
  8
KONSTRUKTIONSELEMENTE
100
AcDbLine
 62
7
  6
CONTINUOUS
 10
453.7305339883
 20
192.0820742484
 11
453.7305339883
 21
191.5740551758
  0
LINE
  5
4CD
100
AcDbEntity
  8
KONSTRUKTIONSELEMENTE
100
AcDbLine
 62
7
  6
CONTINUOUS
 10
453.7305339883
 20
185.1391467613
 11
453.7305339883
 21
184.6311276887
  0
LINE
  5
4CE
100
AcDbEntity
  8
KONSTRUKTIONSELEMENTE
100
AcDbLine
 62
7
  6
CONTINUOUS
 10
455.8581936072
 20
197.3852587414
 11
455.8581936072
 21
197.3316045038
  0
LINE
  5
4CF
100
AcDbEntity
  8
KONSTRUKTIONSELEMENTE
100
AcDbLine
 62
7
  6
CONTINUOUS
 10
456.4964914034
 20
197.3316045038
 11
456.4964914034
 21
197.8770830581
  0
LINE
  5
4D0
100
AcDbEntity
  8
KONSTRUKTIONSELEMENTE
100
AcDbLine
 62
7
  6
CONTINUOUS
 10
422.8156403015
 20
192.4756291768
 11
423.1347893487
 21
192.6164800653
  0
LINE
  5
4D1
100
AcDbEntity
  8
KONSTRUKTIONSELEMENTE
100
AcDbLine
 62
7
  6
CONTINUOUS
 10
423.7730871449
 20
190.5037207672
 11
424.3050020869
 21
190.714996697
  0
LINE
  5
4D2
100
AcDbEntity
  8
KONSTRUKTIONSELEMENTE
100
AcDbLine
 62
7
  6
CONTINUOUS
 10
423.5603212128
 20
193.6728597144
 11
423.9858531515
 21
193.813709797
  0
LINE
  5
4D3
100
AcDbEntity
  8
KONSTRUKTIONSELEMENTE
100
AcDbLine
 62
7
  6
CONTINUOUS
 10
420.6879806827
 20
192.3347782883
 11
420.9007466148
 21
192.4052041355
  0
LINE
  5
4D4
100
AcDbEntity
  8
KONSTRUKTIONSELEMENTE
100
AcDbLine
 62
7
  6
CONTINUOUS
 10
423.0284063826
 20
193.039031925
 11
422.6028743695
 21
192.8981810364
  0
LINE
  5
4D5
100
AcDbEntity
  8
KONSTRUKTIONSELEMENTE
100
AcDbLine
 62
7
  6
CONTINUOUS
 10
454.3688317846
 20
186.9172135154
 11
454.2624488185
 21
187.3405628234
  0
LINE
  5
4D6
100
AcDbEntity
  8
KONSTRUKTIONSELEMENTE
100
AcDbLine
 62
7
  6
CONTINUOUS
 10
458.0922361176
 20
187.763911889
 11
458.1986190836
 21
187.3405628234
  0
LINE
  5
4D7
100
AcDbEntity
  8
KONSTRUKTIONSELEMENTE
100
AcDbLine
 62
7
  6
CONTINUOUS
 10
453.7305339883
 20
187.3405628234
 11
453.8369169543
 21
186.8325437508
  0
LINE
  5
4D8
100
AcDbEntity
  8
KONSTRUKTIONSELEMENTE
100
AcDbLine
 62
7
  6
CONTINUOUS
 10
458.7305339883
 20
187.3405628234
 11
458.624151013
 21
187.848581896
  0
LINE
  5
4D9
100
AcDbEntity
  8
KONSTRUKTIONSELEMENTE
100
AcDbLine
 62
7
  6
CONTINUOUS
 10
458.134371522
 20
98.9892448071
 11
458.134371522
 21
101.1105651507
  0
LINE
  5
4DA
100
AcDbEntity
  8
0
100
AcDbLine
 62
7
  6
CONTINUOUS
 10
458.6600360065
 20
96.7179525759
 11
458.6600360065
 21
94.23869886
  0
LINE
  5
4DB
100
AcDbEntity
  8
RUNDUNGEN
100
AcDbLine
 62
7
  6
CONTINUOUS
 10
458.6600360065
 20
96.7179525759
 11
458.6600360065
 21
94.23869886
  0
LINE
  5
4DC
100
AcDbEntity
  8
BEZUGSACHSEN
100
AcDbLine
 62
7
  6
CONTINUOUS
 10
458.6600360065
 20
96.9716096666
 11
458.6600360065
 21
94.23869886
  0
LINE
  5
4DD
100
AcDbEntity
  8
0
100
AcDbLine
 62
7
  6
CONTINUOUS
 10
458.6600360065
 20
92.0075183723
 11
458.6600360065
 21
87.8243871553
  0
LINE
  5
4DE
100
AcDbEntity
  8
RUNDUNGEN
100
AcDbLine
 62
7
  6
CONTINUOUS
 10
458.6600360065
 20
92.0075183723
 11
458.6600360065
 21
87.4152370562
  0
LINE
  5
4DF
100
AcDbEntity
  8
BEZUGSACHSEN
100
AcDbLine
 62
7
  6
CONTINUOUS
 10
458.6600360065
 20
92.0075183723
 11
458.6600360065
 21
87.4152370562
  0
LINE
  5
4E0
100
AcDbEntity
  8
KONSTRUKTIONSELEMENTE
100
AcDbLine
 62
7
  6
CONTINUOUS
 10
458.7305339883
 20
184.6311276887
 11
458.7305339883
 21
185.1391467613
  0
LINE
  5
4E1
100
AcDbEntity
  8
KONSTRUKTIONSELEMENTE
100
AcDbLine
 62
7
  6
CONTINUOUS
 10
458.7305339883
 20
192.9287728642
 11
458.7305339883
 21
193.6061309817
  0
LINE
  5
4E2
100
AcDbEntity
  8
KONSTRUKTIONSELEMENTE
100
AcDbLine
 62
7
  6
CONTINUOUS
 10
458.7305339883
 20
195.6382072721
 11
458.7305339883
 21
196.1462263447
  0
LINE
  5
4E3
100
AcDbEntity
  8
KONSTRUKTIONSELEMENTE
100
AcDbLine
 62
7
  6
CONTINUOUS
 10
458.7305339883
 20
196.8235854312
 11
458.7305339883
 21
197.3316045038
  0
LINE
  5
4E4
100
AcDbEntity
  8
RUNDUNGEN
100
AcDbLine
 62
7
  6
CONTINUOUS
 10
458.8123743011
 20
86.7843706545
 11
458.8123743011
 21
100.4081151827
  0
LINE
  5
4E5
100
AcDbEntity
  8
KONSTRUKTIONSELEMENTE
100
AcDbLine
 62
7
  6
CONTINUOUS
 10
461.4805339883
 20
141.2724757216
 11
461.4805339883
 21
167.7015702425
  0
LINE
  5
4E6
100
AcDbEntity
  8
KONSTRUKTIONSELEMENTE
100
AcDbLine
 62
7
  6
CONTINUOUS
 10
462.4805339883
 20
176.1231086161
 11
462.4805339883
 21
200.1231086161
  0
LINE
  5
4E7
100
AcDbEntity
  8
0
100
AcDbLine
 62
7
  6
CONTINUOUS
 10
466.9805339883
 20
89.3759126297
 11
466.9805339883
 21
90.3751445874
  0
LINE
  5
4E8
100
AcDbEntity
  8
0
100
AcDbLine
 62
7
  6
CONTINUOUS
 10
466.9805339883
 20
95.8710726449
 11
466.9805339883
 21
96.4840877013
  0
LINE
  5
4E9
100
AcDbEntity
  8
KONSTRUKTIONSELEMENTE
100
AcDbLine
 62
7
  6
CONTINUOUS
 10
453.8369169543
 20
187.848581896
 11
453.7305339883
 21
187.3405628234
  0
LINE
  5
4EA
100
AcDbEntity
  8
KONSTRUKTIONSELEMENTE
100
AcDbLine
 62
7
  6
CONTINUOUS
 10
458.624151013
 20
186.8325437508
 11
458.7305339883
 21
187.3405628234
  0
LINE
  5
4EB
100
AcDbEntity
  8
KONSTRUKTIONSELEMENTE
100
AcDbLine
 62
7
  6
CONTINUOUS
 10
454.2624488185
 20
187.3405628234
 11
454.3688317846
 21
187.763911889
  0
LINE
  5
4EC
100
AcDbEntity
  8
KONSTRUKTIONSELEMENTE
100
AcDbLine
 62
7
  6
CONTINUOUS
 10
458.1986190836
 20
187.3405628234
 11
458.0922361176
 21
186.9172135154
  0
LINE
  5
4ED
100
AcDbEntity
  8
KONSTRUKTIONSELEMENTE
100
AcDbLine
 62
7
  6
CONTINUOUS
 10
454.1560658525
 20
188.2719312039
 11
453.8369169543
 21
187.848581896
  0
LINE
  5
4EE
100
AcDbEntity
  8
KONSTRUKTIONSELEMENTE
100
AcDbLine
 62
7
  6
CONTINUOUS
 10
455.0071298788
 20
190.8966960893
 11
454.7943636487
 21
190.642686553
  0
LINE
  5
4EF
100
AcDbEntity
  8
KONSTRUKTIONSELEMENTE
100
AcDbLine
 62
7
  6
CONTINUOUS
 10
454.3688317846
 20
187.763911889
 11
454.5815977166
 21
188.0179214253
  0
LINE
  5
4F0
100
AcDbEntity
  8
KONSTRUKTIONSELEMENTE
100
AcDbLine
 62
7
  6
CONTINUOUS
 10
457.4539382468
 20
189.5419788854
 11
457.6667041789
 21
189.7959884217
  0
LINE
  5
4F1
100
AcDbEntity
  8
KONSTRUKTIONSELEMENTE
100
AcDbLine
 62
7
  6
CONTINUOUS
 10
454.4752147506
 20
188.5259407402
 11
454.1560658525
 21
188.2719312039
  0
LINE
  5
4F2
100
AcDbEntity
  8
KONSTRUKTIONSELEMENTE
100
AcDbLine
 62
7
  6
CONTINUOUS
 10
454.5815977166
 20
188.0179214253
 11
455.2198958109
 21
188.3566007263
  0
LINE
  5
4F3
100
AcDbEntity
  8
KONSTRUKTIONSELEMENTE
100
AcDbLine
 62
7
  6
CONTINUOUS
 10
454.9007466148
 20
188.6952802695
 11
454.4752147506
 21
188.5259407402
  0
LINE
  5
4F4
100
AcDbEntity
  8
KONSTRUKTIONSELEMENTE
100
AcDbLine
 62
7
  6
CONTINUOUS
 10
457.5603212128
 20
185.985845256
 11
457.9858531515
 21
186.1551849065
  0
LINE
  5
4F5
100
AcDbEntity
  8
KONSTRUKTIONSELEMENTE
100
AcDbLine
 62
7
  6
CONTINUOUS
 10
471.4805339883
 20
137.1231086161
 11
471.4805339883
 21
168.1231086161
  0
LINE
  5
4F6
100
AcDbEntity
  8
KONSTRUKTIONSELEMENTE
100
AcDbLine
 62
7
  6
CONTINUOUS
 10
472.0191719086
 20
120.4359965444
 11
472.0191719086
 21
122.5573168879
  0
LINE
  5
4F7
100
AcDbEntity
  8
BEZUGSACHSEN
100
AcDbLine
 62
7
  6
CONTINUOUS
 10
419.3599354143
 20
111.6653899281
 11
411.6701240485
 21
99.2871264444
  0
LINE
  5
4F8
100
AcDbEntity
  8
KONSTRUKTIONSELEMENTE
100
AcDbLine
 62
7
  6
CONTINUOUS
 10
458.3050020869
 20
186.4091944428
 11
458.624151013
 21
186.8325437508
  0
LINE
  5
4F9
100
AcDbEntity
  8
KONSTRUKTIONSELEMENTE
100
AcDbLine
 62
7
  6
CONTINUOUS
 10
458.0922361176
 20
186.9172135154
 11
457.8794701855
 21
186.6632039791
  0
LINE
  5
4FA
100
AcDbEntity
  8
KONSTRUKTIONSELEMENTE
100
AcDbLine
 62
7
  6
CONTINUOUS
 10
457.9858531515
 20
186.1551849065
 11
458.3050020869
 21
186.4091944428
  0
LINE
  5
4FB
100
AcDbEntity
  8
KONSTRUKTIONSELEMENTE
100
AcDbLine
 62
7
  6
CONTINUOUS
 10
457.8794701855
 20
186.6632039791
 11
457.2411723147
 21
186.3245246782
  0
LINE
  5
4FC
100
AcDbEntity
  8
KONSTRUKTIONSELEMENTE
100
AcDbLine
 62
7
  6
CONTINUOUS
 10
453.041273265
 20
105.3557652874
 11
463.5644679823
 21
121.3130892006
  0
LINE
  5
4FD
100
AcDbEntity
  8
KONSTRUKTIONSELEMENTE
100
AcDbLine
 62
7
  6
CONTINUOUS
 10
433.9091148474
 20
133.1303586649
 11
414.1994573494
 21
126.631506953
  0
LINE
  5
4FE
100
AcDbEntity
  8
KONSTRUKTIONSELEMENTE
100
AcDbLine
 62
7
  6
CONTINUOUS
 10
453.1567337564
 20
103.4095287003
 11
463.5644679823
 21
119.191768857
  0
LINE
  5
4FF
100
AcDbEntity
  8
KONSTRUKTIONSELEMENTE
100
AcDbLine
 62
7
  6
CONTINUOUS
 10
457.9817693638
 20
100.8007790425
 11
458.0875254155
 21
100.9611470313
  0
LINE
  5
500
100
AcDbEntity
  8
KONSTRUKTIONSELEMENTE
100
AcDbLine
 62
7
  6
CONTINUOUS
 10
471.4845243127
 20
121.2762943425
 11
471.7380952697
 21
121.6608081717
  0
LINE
  5
501
100
AcDbEntity
  8
KONSTRUKTIONSELEMENTE
100
AcDbLine
 62
7
  6
CONTINUOUS
 10
457.9817693638
 20
98.6794586989
 11
458.0875254155
 21
98.8398266878
  0
LINE
  5
502
100
AcDbEntity
  8
KONSTRUKTIONSELEMENTE
100
AcDbLine
 62
7
  6
CONTINUOUS
 10
471.4845243127
 20
119.1549739989
 11
471.7380952697
 21
119.5394878282
  0
LINE
  5
503
100
AcDbEntity
  8
KONSTRUKTIONSELEMENTE
100
AcDbLine
 62
7
  6
CONTINUOUS
 10
416.7901310571
 20
124.2088627632
 11
413.2555306876
 21
123.0434014321
  0
LINE
  5
504
100
AcDbEntity
  8
KONSTRUKTIONSELEMENTE
100
AcDbLine
 62
7
  6
CONTINUOUS
 10
414.57834961
 20
121.6947982511
 11
417.2972729712
 21
122.5913069673
  0
LINE
  5
505
100
AcDbEntity
  8
KONSTRUKTIONSELEMENTE
100
AcDbLine
 62
7
  6
CONTINUOUS
 10
417.2972729712
 20
122.1670428986
 11
414.57834961
 21
121.2705341824
  0
LINE
  5
506
100
AcDbEntity
  8
KONSTRUKTIONSELEMENTE
100
AcDbLine
 62
7
  6
CONTINUOUS
 10
416.9745951541
 20
118.6975386679
 11
419.6935185152
 21
119.5940473841
  0
LINE
  5
507
100
AcDbEntity
  8
KONSTRUKTIONSELEMENTE
100
AcDbLine
 62
7
  6
CONTINUOUS
 10
416.6660600599
 20
117.8716904289
 11
420.2006604293
 21
119.03715176
  0
LINE
  5
508
100
AcDbEntity
  8
BEZUGSACHSEN
100
AcDbLine
 62
7
  6
CONTINUOUS
 10
454.9498652468
 20
68.7033945907
 11
466.2909439281
 21
86.9590907878
  0
ARC
  5
509
100
AcDbEntity
  8
KONSTRUKTIONSELEMENTE
100
AcDbCircle
 62
7
  6
CONTINUOUS
 10
110.517784922
 20
137.6376740557
 40
8.25
100
AcDbArc
 50
315.0
 51
29.164844507
  0
ARC
  5
50A
100
AcDbEntity
  8
KONSTRUKTIONSELEMENTE
100
AcDbCircle
 62
7
  6
CONTINUOUS
 10
110.517784922
 20
137.6376740557
 40
8.25
100
AcDbArc
 50
60.835155493
 51
135.0
  0
ARC
  5
50B
100
AcDbEntity
  8
KONSTRUKTIONSELEMENTE
100
AcDbCircle
 62
7
  6
CONTINUOUS
 10
104.5073772819
 20
131.6272664156
 40
8.25
100
AcDbArc
 50
135.0
 51
214.5014703599
  0
ARC
  5
50C
100
AcDbEntity
  8
KONSTRUKTIONSELEMENTE
100
AcDbCircle
 62
7
  6
CONTINUOUS
 10
104.5073772819
 20
131.6272664156
 40
8.25
100
AcDbArc
 50
235.4985296401
 51
315.0
  0
ARC
  5
50D
100
AcDbEntity
  8
KONSTRUKTIONSELEMENTE
100
AcDbCircle
 62
7
  6
CONTINUOUS
 10
110.517784922
 20
137.6376740557
 40
3.25
100
AcDbArc
 50
315.0
 51
1.1162428201
  0
ARC
  5
50E
100
AcDbEntity
  8
KONSTRUKTIONSELEMENTE
100
AcDbCircle
 62
7
  6
CONTINUOUS
 10
110.517784922
 20
137.6376740557
 40
3.25
100
AcDbArc
 50
88.8837571799
 51
135.0
  0
ARC
  5
50F
100
AcDbEntity
  8
KONSTRUKTIONSELEMENTE
100
AcDbCircle
 62
7
  6
CONTINUOUS
 10
104.5073772819
 20
131.6272664156
 40
3.25
100
AcDbArc
 50
135.0
 51
197.4922696526
  0
ARC
  5
510
100
AcDbEntity
  8
KONSTRUKTIONSELEMENTE
100
AcDbCircle
 62
7
  6
CONTINUOUS
 10
104.5073772819
 20
131.6272664156
 40
3.25
100
AcDbArc
 50
252.5077303474
 51
315.0
  0
ARC
  5
511
100
AcDbEntity
  8
KONSTRUKTIONSELEMENTE
100
AcDbCircle
 62
7
  6
CONTINUOUS
 10
111.2248917032
 20
138.3447808369
 40
2.25
100
AcDbArc
 50
135.0
 51
315.0
  0
ARC
  5
512
100
AcDbEntity
  8
KONSTRUKTIONSELEMENTE
100
AcDbCircle
 62
7
  6
CONTINUOUS
 10
130.8471048811
 20
157.9669940148
 40
8.0
100
AcDbArc
 50
241.3642958278
 51
315.0
  0
ARC
  5
513
100
AcDbEntity
  8
KONSTRUKTIONSELEMENTE
100
AcDbCircle
 62
7
  6
CONTINUOUS
 10
130.8471048811
 20
157.9669940148
 40
8.0
100
AcDbArc
 50
135.0
 51
208.6357041722
  0
ARC
  5
514
100
AcDbEntity
  8
KONSTRUKTIONSELEMENTE
100
AcDbCircle
 62
7
  6
CONTINUOUS
 10
141.4537065989
 20
168.5735957326
 40
8.0
100
AcDbArc
 50
61.3642958278
 51
135.0
  0
ARC
  5
515
100
AcDbEntity
  8
KONSTRUKTIONSELEMENTE
100
AcDbCircle
 62
7
  6
CONTINUOUS
 10
141.4537065989
 20
168.5735957326
 40
8.0
100
AcDbArc
 50
315.0
 51
28.6357041722
  0
ARC
  5
516
100
AcDbEntity
  8
KONSTRUKTIONSELEMENTE
100
AcDbCircle
 62
7
  6
CONTINUOUS
 10
130.8471048811
 20
157.9669940148
 40
3.5
100
AcDbArc
 50
265.1538775079
 51
315.0
  0
ARC
  5
517
100
AcDbEntity
  8
KONSTRUKTIONSELEMENTE
100
AcDbCircle
 62
7
  6
CONTINUOUS
 10
130.8471048811
 20
157.9669940148
 40
3.5
100
AcDbArc
 50
135.0
 51
184.8461224921
  0
ARC
  5
518
100
AcDbEntity
  8
KONSTRUKTIONSELEMENTE
100
AcDbCircle
 62
7
  6
CONTINUOUS
 10
141.4537065989
 20
168.5735957326
 40
3.5
100
AcDbArc
 50
85.1538775079
 51
135.0
  0
ARC
  5
519
100
AcDbEntity
  8
KONSTRUKTIONSELEMENTE
100
AcDbCircle
 62
7
  6
CONTINUOUS
 10
141.4537065989
 20
168.5735957326
 40
3.5
100
AcDbArc
 50
315.0
 51
4.8461224921
  0
ARC
  5
51A
100
AcDbEntity
  8
KONSTRUKTIONSELEMENTE
100
AcDbCircle
 62
7
  6
CONTINUOUS
 10
129.9632214046
 20
157.0831105384
 40
2.25
100
AcDbArc
 50
315.0
 51
135.0
  0
ARC
  5
51B
100
AcDbEntity
  8
KONSTRUKTIONSELEMENTE
100
AcDbCircle
 62
7
  6
CONTINUOUS
 10
142.3375900754
 20
169.4574792091
 40
2.25
100
AcDbArc
 50
135.0
 51
315.0
  0
ARC
  5
51C
100
AcDbEntity
  8
BEZUGSACHSEN
100
AcDbCircle
 62
7
  6
CONTINUOUS
 10
157.9232794344
 20
72.9312073059
 40
4.5799400479
100
AcDbArc
 50
359.9999845138
 51
8.0000189393
  0
ARC
  5
51D
100
AcDbEntity
  8
BEZUGSACHSEN
100
AcDbCircle
 62
7
  6
CONTINUOUS
 10
159.4003991329
 20
82.1658909394
 40
1.8319760192
100
AcDbArc
 50
7.9999772982
 51
45.0001725057
  0
ARC
  5
51E
100
AcDbEntity
  8
BEZUGSACHSEN
100
AcDbCircle
 62
7
  6
CONTINUOUS
 10
163.8772014967
 20
61.4291069783
 40
1.3739820144
100
AcDbArc
 50
180.0
 51
264.0
  0
ARC
  5
51F
100
AcDbEntity
  8
BEZUGSACHSEN
100
AcDbCircle
 62
7
  6
CONTINUOUS
 10
159.5069791329
 20
104.0803262929
 40
1.8319760192
100
AcDbArc
 50
315.0000077094
 51
352.0000034096
  0
ARC
  5
520
100
AcDbEntity
  8
BEZUGSACHSEN
100
AcDbCircle
 62
7
  6
CONTINUOUS
 10
161.3351955015
 20
100.726931997
 40
1.8319760192
100
AcDbArc
 50
135.0
 51
180.0
  0
ARC
  5
521
100
AcDbEntity
  8
BEZUGSACHSEN
100
AcDbCircle
 62
7
  6
CONTINUOUS
 10
161.3351955015
 20
85.4127052352
 40
1.8319760192
100
AcDbArc
 50
179.9992760679
 51
224.9996179208
  0
ARC
  5
522
100
AcDbEntity
  8
RUNDUNGEN
100
AcDbCircle
 62
7
  6
CONTINUOUS
 10
160.419207492
 20
97.8017976169
 40
0.9159880096
100
AcDbArc
 50
140.0412907549
 51
180.0
  0
ARC
  5
523
100
AcDbEntity
  8
RUNDUNGEN
100
AcDbCircle
 62
7
  6
CONTINUOUS
 10
174.0831595303
 20
72.9312073059
 40
4.5799400479
100
AcDbArc
 50
171.9999810607
 51
180.0000154862
  0
ARC
  5
524
100
AcDbEntity
  8
RUNDUNGEN
100
AcDbCircle
 62
7
  6
CONTINUOUS
 10
172.6060398318
 20
82.1658909394
 40
1.8319760192
100
AcDbArc
 50
134.9998274943
 51
172.0000227018
  0
ARC
  5
525
100
AcDbEntity
  8
RUNDUNGEN
100
AcDbCircle
 62
7
  6
CONTINUOUS
 10
168.129237468
 20
61.4291069783
 40
1.3739820144
100
AcDbArc
 50
276.0
 51
360.0
  0
ARC
  5
526
100
AcDbEntity
  8
RUNDUNGEN
100
AcDbCircle
 62
7
  6
CONTINUOUS
 10
166.0032194824
 20
93.1231086161
 40
8.2009945762
100
AcDbArc
 50
39.9587092451
 51
140.0412907549
  0
CIRCLE
  5
527
100
AcDbEntity
  8
0
100
AcDbCircle
 62
7
  6
CONTINUOUS
 10
166.0032194824
 20
93.1231086161
 40
2.7479640288
  0
ARC
  5
528
100
AcDbEntity
  8
RUNDUNGEN
100
AcDbCircle
 62
7
  6
CONTINUOUS
 10
170.6712434632
 20
85.4127052352
 40
1.8319760192
100
AcDbArc
 50
315.0003820792
 51
0.0007239321
  0
ARC
  5
529
100
AcDbEntity
  8
RUNDUNGEN
100
AcDbCircle
 62
7
  6
CONTINUOUS
 10
172.4994598318
 20
104.0803262929
 40
1.8319760192
100
AcDbArc
 50
187.9999965904
 51
224.9999922906
  0
ARC
  5
52A
100
AcDbEntity
  8
RUNDUNGEN
100
AcDbCircle
 62
7
  6
CONTINUOUS
 10
170.6712434632
 20
100.726931997
 40
1.8319760192
100
AcDbArc
 50
0.0
 51
45.0
  0
ARC
  5
52B
100
AcDbEntity
  8
BEZUGSACHSEN
100
AcDbCircle
 62
7
  6
CONTINUOUS
 10
172.4994598318
 20
104.0803262929
 40
1.8319760192
100
AcDbArc
 50
187.9999965904
 51
224.9999922906
  0
ARC
  5
52C
100
AcDbEntity
  8
BEZUGSACHSEN
100
AcDbCircle
 62
7
  6
CONTINUOUS
 10
170.6712434632
 20
100.726931997
 40
1.8319760192
100
AcDbArc
 50
0.0
 51
45.0
  0
ARC
  5
52D
100
AcDbEntity
  8
RUNDUNGEN
100
AcDbCircle
 62
7
  6
CONTINUOUS
 10
171.5872314728
 20
97.8017976169
 40
0.9159880096
100
AcDbArc
 50
359.9999371173
 51
39.9587092451
  0
ARC
  5
52E
100
AcDbEntity
  8
BEZUGSACHSEN
100
AcDbCircle
 62
7
  6
CONTINUOUS
 10
166.0032194824
 20
122.6231086161
 40
16.5
100
AcDbArc
 50
118.0
 51
258.1255304643
  0
ARC
  5
52F
100
AcDbEntity
  8
RUNDUNGEN
100
AcDbCircle
 62
7
  6
CONTINUOUS
 10
166.0032194824
 20
122.6231086161
 40
7.0
100
AcDbArc
 50
299.0189717998
 51
240.98102817
  0
ARC
  5
530
100
AcDbEntity
  8
RUNDUNGEN
100
AcDbCircle
 62
7
  6
CONTINUOUS
 10
183.3822197389
 20
123.8519633286
 40
3.0
100
AcDbArc
 50
208.0
 51
333.5
  0
ARC
  5
531
100
AcDbEntity
  8
RUNDUNGEN
100
AcDbCircle
 62
7
  6
CONTINUOUS
 10
177.4791161856
 20
134.9540864088
 40
3.0
100
AcDbArc
 50
118.0
 51
208.0
  0
ARC
  5
532
100
AcDbEntity
  8
RUNDUNGEN
100
AcDbCircle
 62
7
  6
CONTINUOUS
 10
193.043718703
 20
143.2299323674
 40
3.0
100
AcDbArc
 50
333.5
 51
118.0
  0
ARC
  5
533
100
AcDbEntity
  8
RUNDUNGEN
100
AcDbCircle
 62
7
  6
CONTINUOUS
 10
168.022657468
 20
124.8283122634
 40
1.3739820144
100
AcDbArc
 50
0.0
 51
84.0
  0
ARC
  5
534
100
AcDbEntity
  8
BEZUGSACHSEN
100
AcDbCircle
 62
7
  6
CONTINUOUS
 10
168.022657468
 20
124.8283122634
 40
1.3739820144
100
AcDbArc
 50
0.0
 51
84.0
  0
ARC
  5
535
100
AcDbEntity
  8
BEZUGSACHSEN
100
AcDbCircle
 62
7
  6
CONTINUOUS
 10
163.9837814967
 20
124.8283122634
 40
1.3739820144
100
AcDbArc
 50
96.0
 51
180.0
  0
ARC
  5
536
100
AcDbEntity
  8
KONSTRUKTIONSELEMENTE
100
AcDbCircle
 62
7
  6
CONTINUOUS
 10
161.783026558
 20
188.9029156918
 40
8.25
100
AcDbArc
 50
135.0
 51
209.164844507
  0
ARC
  5
537
100
AcDbEntity
  8
KONSTRUKTIONSELEMENTE
100
AcDbCircle
 62
7
  6
CONTINUOUS
 10
161.783026558
 20
188.9029156918
 40
8.25
100
AcDbArc
 50
240.835155493
 51
315.0
  0
ARC
  5
538
100
AcDbEntity
  8
KONSTRUKTIONSELEMENTE
100
AcDbCircle
 62
7
  6
CONTINUOUS
 10
161.783026558
 20
188.9029156918
 40
3.25
100
AcDbArc
 50
135.0
 51
181.1162428201
  0
ARC
  5
539
100
AcDbEntity
  8
KONSTRUKTIONSELEMENTE
100
AcDbCircle
 62
7
  6
CONTINUOUS
 10
161.783026558
 20
188.9029156918
 40
3.25
100
AcDbArc
 50
268.8837571799
 51
315.0
  0
ARC
  5
53A
100
AcDbEntity
  8
KONSTRUKTIONSELEMENTE
100
AcDbCircle
 62
7
  6
CONTINUOUS
 10
161.0759197768
 20
188.1958089106
 40
2.25
100
AcDbArc
 50
315.0
 51
135.0
  0
ARC
  5
53B
100
AcDbEntity
  8
KONSTRUKTIONSELEMENTE
100
AcDbCircle
 62
7
  6
CONTINUOUS
 10
167.7934341981
 20
194.9133233318
 40
8.25
100
AcDbArc
 50
315.0
 51
23.653301757
  0
ARC
  5
53C
100
AcDbEntity
  8
KONSTRUKTIONSELEMENTE
100
AcDbCircle
 62
7
  6
CONTINUOUS
 10
167.7934341981
 20
194.9133233318
 40
8.25
100
AcDbArc
 50
66.346698243
 51
135.0
  0
ARC
  5
53D
100
AcDbEntity
  8
KONSTRUKTIONSELEMENTE
100
AcDbCircle
 62
7
  6
CONTINUOUS
 10
167.7934341981
 20
194.9133233318
 40
3.25
100
AcDbArc
 50
315.0
 51
337.1934449969
  0
ARC
  5
53E
100
AcDbEntity
  8
KONSTRUKTIONSELEMENTE
100
AcDbCircle
 62
7
  6
CONTINUOUS
 10
167.7934341981
 20
194.9133233318
 40
3.25
100
AcDbArc
 50
112.8065550031
 51
135.0
  0
ARC
  5
53F
100
AcDbEntity
  8
KONSTRUKTIONSELEMENTE
100
AcDbCircle
 62
7
  6
CONTINUOUS
 10
167.9702108934
 20
195.0901000271
 40
3.0
100
AcDbArc
 50
135.0
 51
315.0
  0
ARC
  5
540
100
AcDbEntity
  8
BEZUGSACHSEN
100
AcDbCircle
 62
7
  6
CONTINUOUS
 10
221.0032194824
 20
152.6231086161
 40
32.0
100
AcDbArc
 50
280.0
 51
314.391140861
  0
ARC
  5
541
100
AcDbEntity
  8
0
100
AcDbCircle
 62
7
  6
CONTINUOUS
 10
221.0032194824
 20
152.6231086161
 40
32.0
100
AcDbArc
 50
225.608859139
 51
260.0
  0
ARC
  5
542
100
AcDbEntity
  8
BEZUGSACHSEN
100
AcDbCircle
 62
7
  6
CONTINUOUS
 10
221.0032194824
 20
152.6231086161
 40
27.0
100
AcDbArc
 50
260.0
 51
280.0
  0
ARC
  5
543
100
AcDbEntity
  8
BEZUGSACHSEN
100
AcDbCircle
 62
7
  6
CONTINUOUS
 10
221.0032194824
 20
152.6231086161
 40
21.0
100
AcDbArc
 50
20.9318724931
 51
68.9761778838
  0
ARC
  5
544
100
AcDbEntity
  8
BEZUGSACHSEN
100
AcDbCircle
 62
7
  6
CONTINUOUS
 10
221.0032194824
 20
152.6231086161
 40
21.0
100
AcDbArc
 50
111.0238221162
 51
159.0681275069
  0
ARC
  5
545
100
AcDbEntity
  8
KONSTRUKTIONSELEMENTE
100
AcDbCircle
 62
7
  6
CONTINUOUS
 10
220.0032194824
 20
153.1231086161
 40
16.0
100
AcDbArc
 50
180.0
 51
270.0
  0
ARC
  5
546
100
AcDbEntity
  8
KONSTRUKTIONSELEMENTE
100
AcDbCircle
 62
7
  6
CONTINUOUS
 10
222.0032194824
 20
153.1231086161
 40
16.0
100
AcDbArc
 50
270.0
 51
360.0
  0
ARC
  5
547
100
AcDbEntity
  8
KONSTRUKTIONSELEMENTE
100
AcDbCircle
 62
7
  6
CONTINUOUS
 10
216.0032194824
 20
156.1231086161
 40
12.0
100
AcDbArc
 50
90.0
 51
124.2288663278
  0
ARC
  5
548
100
AcDbEntity
  8
KONSTRUKTIONSELEMENTE
100
AcDbCircle
 62
7
  6
CONTINUOUS
 10
226.0032194824
 20
156.1231086161
 40
12.0
100
AcDbArc
 50
55.7711336722
 51
90.0
  0
CIRCLE
  5
549
100
AcDbEntity
  8
BEZUGSACHSEN
100
AcDbCircle
 62
7
  6
CONTINUOUS
 10
221.0032194824
 20
153.1231086161
 40
8.5
  0
ARC
  5
54A
100
AcDbEntity
  8
KONSTRUKTIONSELEMENTE
100
AcDbCircle
 62
7
  6
CONTINUOUS
 10
206.5032194824
 20
176.1231086161
 40
8.0
100
AcDbArc
 50
298.3147533278
 51
360.0
  0
ARC
  5
54B
100
AcDbEntity
  8
KONSTRUKTIONSELEMENTE
100
AcDbCircle
 62
7
  6
CONTINUOUS
 10
235.5032194824
 20
176.1231086161
 40
8.0
100
AcDbArc
 50
180.0
 51
241.7576211118
  0
ARC
  5
54C
100
AcDbEntity
  8
KONSTRUKTIONSELEMENTE
100
AcDbCircle
 62
7
  6
CONTINUOUS
 10
234.0032194824
 20
164.1231086161
 40
4.0
100
AcDbArc
 50
14.0784283645
 51
68.4877949948
  0
ARC
  5
54D
100
AcDbEntity
  8
KONSTRUKTIONSELEMENTE
100
AcDbCircle
 62
7
  6
CONTINUOUS
 10
208.0032194824
 20
164.1231086161
 40
4.0
100
AcDbArc
 50
111.5138220797
 51
165.9222296459
  0
ARC
  5
54E
100
AcDbEntity
  8
BEZUGSACHSEN
100
AcDbCircle
 62
7
  6
CONTINUOUS
 10
267.9232794344
 20
72.9312073059
 40
4.5799400479
100
AcDbArc
 50
359.9999845138
 51
8.0000189393
  0
ARC
  5
54F
100
AcDbEntity
  8
BEZUGSACHSEN
100
AcDbCircle
 62
7
  6
CONTINUOUS
 10
269.4003991329
 20
82.1658909394
 40
1.8319760192
100
AcDbArc
 50
7.9999772982
 51
45.0001725057
  0
ARC
  5
550
100
AcDbEntity
  8
BEZUGSACHSEN
100
AcDbCircle
 62
7
  6
CONTINUOUS
 10
273.8772014967
 20
61.4291069783
 40
1.3739820144
100
AcDbArc
 50
180.0
 51
264.0
  0
ARC
  5
551
100
AcDbEntity
  8
BEZUGSACHSEN
100
AcDbCircle
 62
7
  6
CONTINUOUS
 10
269.5069791329
 20
104.0803262929
 40
1.8319760192
100
AcDbArc
 50
315.0000077094
 51
352.0000034096
  0
ARC
  5
552
100
AcDbEntity
  8
BEZUGSACHSEN
100
AcDbCircle
 62
7
  6
CONTINUOUS
 10
271.3351955015
 20
100.726931997
 40
1.8319760192
100
AcDbArc
 50
135.0
 51
180.0
  0
ARC
  5
553
100
AcDbEntity
  8
BEZUGSACHSEN
100
AcDbCircle
 62
7
  6
CONTINUOUS
 10
271.3351955015
 20
85.4127052352
 40
1.8319760192
100
AcDbArc
 50
179.9992760679
 51
224.9996179208
  0
ARC
  5
554
100
AcDbEntity
  8
RUNDUNGEN
100
AcDbCircle
 62
7
  6
CONTINUOUS
 10
270.419207492
 20
97.8017976169
 40
0.9159880096
100
AcDbArc
 50
140.0412907549
 51
180.0
  0
ARC
  5
555
100
AcDbEntity
  8
RUNDUNGEN
100
AcDbCircle
 62
7
  6
CONTINUOUS
 10
284.0831595303
 20
72.9312073059
 40
4.5799400479
100
AcDbArc
 50
171.9999810607
 51
180.0000154862
  0
ARC
  5
556
100
AcDbEntity
  8
RUNDUNGEN
100
AcDbCircle
 62
7
  6
CONTINUOUS
 10
282.6060398318
 20
82.1658909394
 40
1.8319760192
100
AcDbArc
 50
134.9998274943
 51
172.0000227018
  0
ARC
  5
557
100
AcDbEntity
  8
RUNDUNGEN
100
AcDbCircle
 62
7
  6
CONTINUOUS
 10
278.129237468
 20
61.4291069783
 40
1.3739820144
100
AcDbArc
 50
276.0
 51
360.0
  0
ARC
  5
558
100
AcDbEntity
  8
RUNDUNGEN
100
AcDbCircle
 62
7
  6
CONTINUOUS
 10
276.0032194824
 20
93.1231086161
 40
8.2009945762
100
AcDbArc
 50
39.9587092451
 51
140.0412907549
  0
CIRCLE
  5
559
100
AcDbEntity
  8
0
100
AcDbCircle
 62
7
  6
CONTINUOUS
 10
276.0032194824
 20
93.1231086161
 40
2.7479640288
  0
ARC
  5
55A
100
AcDbEntity
  8
RUNDUNGEN
100
AcDbCircle
 62
7
  6
CONTINUOUS
 10
280.6712434632
 20
85.4127052352
 40
1.8319760192
100
AcDbArc
 50
315.0003820792
 51
0.0007239321
  0
ARC
  5
55B
100
AcDbEntity
  8
RUNDUNGEN
100
AcDbCircle
 62
7
  6
CONTINUOUS
 10
282.4994598318
 20
104.0803262929
 40
1.8319760192
100
AcDbArc
 50
187.9999965904
 51
224.9999922906
  0
ARC
  5
55C
100
AcDbEntity
  8
RUNDUNGEN
100
AcDbCircle
 62
7
  6
CONTINUOUS
 10
280.6712434632
 20
100.726931997
 40
1.8319760192
100
AcDbArc
 50
0.0
 51
45.0
  0
ARC
  5
55D
100
AcDbEntity
  8
BEZUGSACHSEN
100
AcDbCircle
 62
7
  6
CONTINUOUS
 10
282.4994598318
 20
104.0803262929
 40
1.8319760192
100
AcDbArc
 50
187.9999965904
 51
224.9999922906
  0
ARC
  5
55E
100
AcDbEntity
  8
BEZUGSACHSEN
100
AcDbCircle
 62
7
  6
CONTINUOUS
 10
280.6712434632
 20
100.726931997
 40
1.8319760192
100
AcDbArc
 50
0.0
 51
45.0
  0
ARC
  5
55F
100
AcDbEntity
  8
RUNDUNGEN
100
AcDbCircle
 62
7
  6
CONTINUOUS
 10
281.5872314728
 20
97.8017976169
 40
0.9159880096
100
AcDbArc
 50
359.9999371173
 51
39.9587092451
  0
ARC
  5
560
100
AcDbEntity
  8
BEZUGSACHSEN
100
AcDbCircle
 62
7
  6
CONTINUOUS
 10
258.6242192259
 20
123.8519633286
 40
3.0
100
AcDbArc
 50
206.5
 51
332.0
  0
ARC
  5
561
100
AcDbEntity
  8
BEZUGSACHSEN
100
AcDbCircle
 62
7
  6
CONTINUOUS
 10
248.9627202617
 20
143.2299323674
 40
3.0
100
AcDbArc
 50
62.0
 51
206.5
  0
ARC
  5
562
100
AcDbEntity
  8
BEZUGSACHSEN
100
AcDbCircle
 62
7
  6
CONTINUOUS
 10
273.9837814967
 20
124.8283122634
 40
1.3739820144
100
AcDbArc
 50
96.0
 51
180.0
  0
ARC
  5
563
100
AcDbEntity
  8
BEZUGSACHSEN
100
AcDbCircle
 62
7
  6
CONTINUOUS
 10
276.0032194824
 20
122.6231086161
 40
16.5
100
AcDbArc
 50
281.8744695357
 51
62.0
  0
ARC
  5
564
100
AcDbEntity
  8
BEZUGSACHSEN
100
AcDbCircle
 62
7
  6
CONTINUOUS
 10
276.0032194824
 20
122.6231086161
 40
7.0
100
AcDbArc
 50
299.01897183
 51
240.9810282002
  0
ARC
  5
565
100
AcDbEntity
  8
RUNDUNGEN
100
AcDbCircle
 62
7
  6
CONTINUOUS
 10
278.022657468
 20
124.8283122634
 40
1.3739820144
100
AcDbArc
 50
0.0
 51
84.0
  0
ARC
  5
566
100
AcDbEntity
  8
BEZUGSACHSEN
100
AcDbCircle
 62
7
  6
CONTINUOUS
 10
278.022657468
 20
124.8283122634
 40
1.3739820144
100
AcDbArc
 50
0.0
 51
84.0
  0
ARC
  5
567
100
AcDbEntity
  8
BEZUGSACHSEN
100
AcDbCircle
 62
7
  6
CONTINUOUS
 10
264.5273227791
 20
134.9540864088
 40
3.0
100
AcDbArc
 50
332.0
 51
62.0
  0
ARC
  5
568
100
AcDbEntity
  8
0
100
AcDbCircle
 62
7
  6
CONTINUOUS
 10
221.0032194824
 20
248.1231086161
 40
55.5
100
AcDbArc
 50
276.7267626313
 51
360.0
  0
ARC
  5
569
100
AcDbEntity
  8
0
100
AcDbCircle
 62
7
  6
CONTINUOUS
 10
221.0032194824
 20
248.1231086161
 40
55.5
100
AcDbArc
 50
228.0986942731
 51
263.0125548153
  0
ARC
  5
56A
100
AcDbEntity
  8
0
100
AcDbCircle
 62
7
  6
CONTINUOUS
 10
221.0032194824
 20
248.1231086161
 40
55.5
100
AcDbArc
 50
180.0
 51
221.9013057269
  0
ARC
  5
56B
100
AcDbEntity
  8
0
100
AcDbCircle
 62
7
  6
CONTINUOUS
 10
221.0032194824
 20
308.1231086161
 40
55.5
100
AcDbArc
 50
0.0
 51
180.0
  0
ARC
  5
56C
100
AcDbEntity
  8
0
100
AcDbCircle
 62
7
  6
CONTINUOUS
 10
221.0032194824
 20
248.1231086161
 40
37.5
100
AcDbArc
 50
279.983311474
 51
360.0
  0
ARC
  5
56D
100
AcDbEntity
  8
0
100
AcDbCircle
 62
7
  6
CONTINUOUS
 10
221.0032194824
 20
248.1231086161
 40
37.5
100
AcDbArc
 50
229.5903972803
 51
260.016688526
  0
ARC
  5
56E
100
AcDbEntity
  8
0
100
AcDbCircle
 62
7
  6
CONTINUOUS
 10
221.0032194824
 20
248.1231086161
 40
37.5
100
AcDbArc
 50
180.0
 51
220.4096027197
  0
ARC
  5
56F
100
AcDbEntity
  8
0
100
AcDbCircle
 62
7
  6
CONTINUOUS
 10
221.0032194824
 20
308.1231086161
 40
37.5
100
AcDbArc
 50
0.0
 51
180.0
  0
ARC
  5
570
100
AcDbEntity
  8
KONSTRUKTIONSELEMENTE
100
AcDbCircle
 62
7
  6
CONTINUOUS
 10
221.0032194824
 20
216.6231086161
 40
6.5
100
AcDbArc
 50
0.0
 51
180.0
  0
ARC
  5
571
100
AcDbEntity
  8
KONSTRUKTIONSELEMENTE
100
AcDbCircle
 62
7
  6
CONTINUOUS
 10
196.961588922
 20
224.0814780558
 40
3.0
100
AcDbArc
 50
315.0
 51
135.0
  0
ARC
  5
572
100
AcDbEntity
  8
BEZUGSACHSEN
100
AcDbCircle
 62
7
  6
CONTINUOUS
 10
415.5604740362
 20
96.8703046025
 40
4.5799400479
100
AcDbArc
 50
148.15
 51
180.0
  0
ARC
  5
573
100
AcDbEntity
  8
BEZUGSACHSEN
100
AcDbCircle
 62
7
  6
CONTINUOUS
 10
413.2574086122
 20
89.7619558944
 40
2.2768746305
100
AcDbArc
 50
179.9956305717
 51
215.0043694283
  0
CIRCLE
  5
574
100
AcDbEntity
  8
BEZUGSACHSEN
100
AcDbCircle
 62
7
  6
CONTINUOUS
 10
415.6600360065
 20
93.1231086161
 40
1.25
  0
ARC
  5
575
100
AcDbEntity
  8
BEZUGSACHSEN
100
AcDbCircle
 62
7
  6
CONTINUOUS
 10
417.0873182057
 20
86.0700308507
 40
3.8932157826
100
AcDbArc
 50
282.1939027367
 51
55.3467834732
  0
ARC
  5
576
100
AcDbEntity
  8
RUNDUNGEN
100
AcDbCircle
 62
7
  6
CONTINUOUS
 10
418.2327056659
 20
85.8381020495
 40
0.9159880096
100
AcDbArc
 50
270.0
 51
360.0
  0
ARC
  5
577
100
AcDbEntity
  8
BEZUGSACHSEN
100
AcDbCircle
 62
7
  6
CONTINUOUS
 10
418.2327056659
 20
85.8381020495
 40
0.9159880096
100
AcDbArc
 50
270.0
 51
360.0
  0
ARC
  5
578
100
AcDbEntity
  8
RUNDUNGEN
100
AcDbCircle
 62
7
  6
CONTINUOUS
 10
420.2170199797
 20
98.8310008411
 40
0.9159880096
100
AcDbArc
 50
90.0
 51
180.0
  0
ARC
  5
579
100
AcDbEntity
  8
BEZUGSACHSEN
100
AcDbCircle
 62
7
  6
CONTINUOUS
 10
420.0646816851
 20
99.4618465778
 40
0.9159880096
100
AcDbArc
 50
90.0007784036
 51
180.0
  0
ARC
  5
57A
100
AcDbEntity
  8
KONSTRUKTIONSELEMENTE
100
AcDbCircle
 62
7
  6
CONTINUOUS
 10
417.5558356496
 20
121.3794482736
 40
0.8289511156
100
AcDbArc
 50
98.816572065
 51
108.1747037042
  0
ARC
  5
57B
100
AcDbEntity
  8
KONSTRUKTIONSELEMENTE
100
AcDbCircle
 62
7
  6
CONTINUOUS
 10
420.2340861764
 20
119.3937482645
 40
0.4871609892
100
AcDbArc
 50
13.4753960076
 51
21.9722612622
  0
ARC
  5
57C
100
AcDbEntity
  8
KONSTRUKTIONSELEMENTE
100
AcDbCircle
 62
7
  6
CONTINUOUS
 10
411.4805339883
 20
153.1231086161
 40
13.0
100
AcDbArc
 50
90.0
 51
270.0
  0
CIRCLE
  5
57D
100
AcDbEntity
  8
BEZUGSACHSEN
100
AcDbCircle
 62
7
  6
CONTINUOUS
 10
421.9805339883
 20
160.1231086161
 40
2.5
  0
ARC
  5
57E
100
AcDbEntity
  8
RUNDUNGEN
100
AcDbCircle
 62
7
  6
CONTINUOUS
 10
438.9805339883
 20
104.62211404
 40
21.8
100
AcDbArc
 50
0.7051699541
 51
21.5994955402
  0
ARC
  5
57F
100
AcDbEntity
  8
RUNDUNGEN
100
AcDbCircle
 62
7
  6
CONTINUOUS
 10
438.9805339883
 20
81.6241031923
 40
21.8
100
AcDbArc
 50
180.7051699541
 51
270.0
  0
ARC
  5
580
100
AcDbEntity
  8
BEZUGSACHSEN
100
AcDbCircle
 62
7
  6
CONTINUOUS
 10
438.9805339883
 20
104.62211404
 40
21.8
100
AcDbArc
 50
0.7051699541
 51
21.5994955402
  0
ARC
  5
581
100
AcDbEntity
  8
BEZUGSACHSEN
100
AcDbCircle
 62
7
  6
CONTINUOUS
 10
438.9805339883
 20
78.6241031923
 40
18.8
100
AcDbArc
 50
270.0
 51
328.15
  0
ARC
  5
582
100
AcDbEntity
  8
BEZUGSACHSEN
100
AcDbCircle
 62
7
  6
CONTINUOUS
 10
438.9805339883
 20
81.6241031923
 40
11.0
100
AcDbArc
 50
180.0
 51
270.0
  0
ARC
  5
583
100
AcDbEntity
  8
BEZUGSACHSEN
100
AcDbCircle
 62
7
  6
CONTINUOUS
 10
438.9805339883
 20
78.6241031923
 40
8.0
100
AcDbArc
 50
270.0
 51
22.9994850401
  0
ARC
  5
584
100
AcDbEntity
  8
BEZUGSACHSEN
100
AcDbCircle
 62
7
  6
CONTINUOUS
 10
431.6737497709
 20
86.0700308507
 40
3.8932157826
100
AcDbArc
 50
166.9858023527
 51
196.0983267339
  0
ARC
  5
585
100
AcDbEntity
  8
RUNDUNGEN
100
AcDbCircle
 62
7
  6
CONTINUOUS
 10
431.6737497709
 20
86.0700308507
 40
3.8932157826
100
AcDbArc
 50
166.9858023527
 51
196.0983267339
  0
ARC
  5
586
100
AcDbEntity
  8
KONSTRUKTIONSELEMENTE
100
AcDbCircle
 62
7
  6
CONTINUOUS
 10
432.7905564108
 20
95.2506924195
 40
2.8049761656
100
AcDbArc
 50
67.9069648584
 51
68.6850824747
  0
ARC
  5
587
100
AcDbEntity
  8
KONSTRUKTIONSELEMENTE
100
AcDbCircle
 62
7
  6
CONTINUOUS
 10
435.0205547248
 20
98.0714171116
 40
1.2301884659
100
AcDbArc
 50
9.1122156587
 51
9.8872067213
  0
ARC
  5
588
100
AcDbEntity
  8
KONSTRUKTIONSELEMENTE
100
AcDbCircle
 62
7
  6
CONTINUOUS
 10
435.04130857
 20
98.0743910981
 40
1.2092255976
100
AcDbArc
 50
0.0312035642
 51
9.1288137427
  0
ARC
  5
589
100
AcDbEntity
  8
RUNDUNGEN
100
AcDbCircle
 62
7
  6
CONTINUOUS
 10
428.8965219979
 20
85.8381020495
 40
0.9159880096
100
AcDbArc
 50
180.0
 51
270.0
  0
ARC
  5
58A
100
AcDbEntity
  8
BEZUGSACHSEN
100
AcDbCircle
 62
7
  6
CONTINUOUS
 10
428.8965219979
 20
85.8381020495
 40
0.9159880096
100
AcDbArc
 50
180.0
 51
270.0
  0
ARC
  5
58B
100
AcDbEntity
  8
RUNDUNGEN
100
AcDbCircle
 62
7
  6
CONTINUOUS
 10
426.9645459787
 20
98.8310008411
 40
0.9159880096
100
AcDbArc
 50
71.8598343886
 51
90.0
  0
ARC
  5
58C
100
AcDbEntity
  8
KONSTRUKTIONSELEMENTE
100
AcDbCircle
 62
7
  6
CONTINUOUS
 10
439.4805339883
 20
200.1231086161
 40
23.0
100
AcDbArc
 50
0.0
 51
13.5066993188
  0
ARC
  5
58D
100
AcDbEntity
  8
KONSTRUKTIONSELEMENTE
100
AcDbCircle
 62
7
  6
CONTINUOUS
 10
438.4805339883
 20
200.1231086161
 40
23.0
100
AcDbArc
 50
166.4890814009
 51
180.0
  0
ARC
  5
58E
100
AcDbEntity
  8
KONSTRUKTIONSELEMENTE
100
AcDbCircle
 62
7
  6
CONTINUOUS
 10
438.4805339883
 20
200.1231086161
 40
10.0
100
AcDbArc
 50
148.3160062966
 51
178.2003609057
  0
ARC
  5
58F
100
AcDbEntity
  8
KONSTRUKTIONSELEMENTE
100
AcDbCircle
 62
7
  6
CONTINUOUS
 10
439.4805339883
 20
200.1231086161
 40
10.0
100
AcDbArc
 50
1.8073804164
 51
31.6839937034
  0
ARC
  5
590
100
AcDbEntity
  8
0
100
AcDbCircle
 62
7
  6
CONTINUOUS
 10
438.9805339883
 20
201.6231086161
 40
9.0
100
AcDbArc
 50
347.5314510143
 51
360.0
  0
ARC
  5
591
100
AcDbEntity
  8
0
100
AcDbCircle
 62
7
  6
CONTINUOUS
 10
438.9805339883
 20
201.6231086161
 40
9.0
100
AcDbArc
 50
180.0
 51
192.4908735868
  0
ARC
  5
592
100
AcDbEntity
  8
KONSTRUKTIONSELEMENTE
100
AcDbCircle
 62
7
  6
CONTINUOUS
 10
438.9805339883
 20
200.6633233318
 40
2.5
100
AcDbArc
 50
0.0
 51
180.0
  0
ARC
  5
593
100
AcDbEntity
  8
KONSTRUKTIONSELEMENTE
100
AcDbCircle
 62
7
  6
CONTINUOUS
 10
438.9805339883
 20
183.1529156918
 40
2.5
100
AcDbArc
 50
180.0
 51
360.0
  0
ARC
  5
594
100
AcDbEntity
  8
KONSTRUKTIONSELEMENTE
100
AcDbCircle
 62
7
  6
CONTINUOUS
 10
438.9805339883
 20
143.3876740557
 40
2.5
100
AcDbArc
 50
0.0
 51
180.0
  0
ARC
  5
595
100
AcDbEntity
  8
KONSTRUKTIONSELEMENTE
100
AcDbCircle
 62
7
  6
CONTINUOUS
 10
438.9805339883
 20
152.2169940148
 40
2.25
100
AcDbArc
 50
180.0
 51
360.0
  0
ARC
  5
596
100
AcDbEntity
  8
KONSTRUKTIONSELEMENTE
100
AcDbCircle
 62
7
  6
CONTINUOUS
 10
438.9805339883
 20
174.3235957326
 40
2.25
100
AcDbArc
 50
0.0
 51
180.0
  0
ARC
  5
597
100
AcDbEntity
  8
0
100
AcDbCircle
 62
7
  6
CONTINUOUS
 10
438.9805339883
 20
354.6231086161
 40
9.0
100
AcDbArc
 50
0.0
 51
180.0
  0
ARC
  5
598
100
AcDbEntity
  8
BEZUGSACHSEN
100
AcDbCircle
 62
7
  6
CONTINUOUS
 10
450.5604740362
 20
83.5393732862
 40
4.5799400479
100
AcDbArc
 50
180.0
 51
202.9994850401
  0
ARC
  5
599
100
AcDbEntity
  8
KONSTRUKTIONSELEMENTE
100
AcDbCircle
 62
7
  6
CONTINUOUS
 10
445.1705115663
 20
95.2506924181
 40
2.8049761671
100
AcDbArc
 50
111.3149175256
 51
112.0930351415
  0
ARC
  5
59A
100
AcDbEntity
  8
KONSTRUKTIONSELEMENTE
100
AcDbCircle
 62
7
  6
CONTINUOUS
 10
442.9405132519
 20
98.0714171116
 40
1.230188466
100
AcDbArc
 50
170.1127932787
 51
170.8877843413
  0
ARC
  5
59B
100
AcDbEntity
  8
KONSTRUKTIONSELEMENTE
100
AcDbCircle
 62
7
  6
CONTINUOUS
 10
442.9197594066
 20
98.0743910981
 40
1.2092255976
100
AcDbArc
 50
170.8711862573
 51
179.9687964358
  0
ARC
  5
59C
100
AcDbEntity
  8
RUNDUNGEN
100
AcDbCircle
 62
7
  6
CONTINUOUS
 10
450.9965219979
 20
87.4152163911
 40
0.9159880096
100
AcDbArc
 50
180.0
 51
270.0
  0
ARC
  5
59D
100
AcDbEntity
  8
BEZUGSACHSEN
100
AcDbCircle
 62
7
  6
CONTINUOUS
 10
450.9965219979
 20
87.4152163911
 40
0.9159880096
100
AcDbArc
 50
180.0
 51
270.0
  0
ARC
  5
59E
100
AcDbEntity
  8
RUNDUNGEN
100
AcDbCircle
 62
7
  6
CONTINUOUS
 10
450.8965219979
 20
86.7843706545
 40
0.9159880096
100
AcDbArc
 50
244.3221889824
 51
270.0005620138
  0
ARC
  5
59F
100
AcDbEntity
  8
BEZUGSACHSEN
100
AcDbCircle
 62
7
  6
CONTINUOUS
 10
450.8965219979
 20
86.7843706545
 40
0.9159880096
100
AcDbArc
 50
180.0
 51
270.0005620138
  0
ARC
  5
5A0
100
AcDbEntity
  8
BEZUGSACHSEN
100
AcDbCircle
 62
7
  6
CONTINUOUS
 10
462.4005939404
 20
89.3759126297
 40
4.5799400479
100
AcDbArc
 50
328.15
 51
360.0
  0
ARC
  5
5A1
100
AcDbEntity
  8
BEZUGSACHSEN
100
AcDbCircle
 62
7
  6
CONTINUOUS
 10
460.8737497709
 20
100.1761863815
 40
3.8932157826
100
AcDbArc
 50
102.1939027367
 51
158.1642160067
  0
ARC
  5
5A2
100
AcDbEntity
  8
BEZUGSACHSEN
100
AcDbCircle
 62
7
  6
CONTINUOUS
 10
460.8737497709
 20
100.1761863815
 40
3.8932157826
100
AcDbArc
 50
210.0707235399
 51
235.3467834732
  0
ARC
  5
5A3
100
AcDbEntity
  8
BEZUGSACHSEN
100
AcDbCircle
 62
7
  6
CONTINUOUS
 10
464.7036593645
 20
96.4842613378
 40
2.2768746305
100
AcDbArc
 50
359.9956305717
 51
35.0043694283
  0
CIRCLE
  5
5A4
100
AcDbEntity
  8
BEZUGSACHSEN
100
AcDbCircle
 62
7
  6
CONTINUOUS
 10
462.3010319702
 20
93.1231086161
 40
1.25
  0
ARC
  5
5A5
100
AcDbEntity
  8
RUNDUNGEN
100
AcDbCircle
 62
7
  6
CONTINUOUS
 10
457.7440479969
 20
87.4152163911
 40
0.9159880096
100
AcDbArc
 50
270.0
 51
360.0
  0
ARC
  5
5A6
100
AcDbEntity
  8
BEZUGSACHSEN
100
AcDbCircle
 62
7
  6
CONTINUOUS
 10
457.7440479969
 20
87.4152163911
 40
0.9159880096
100
AcDbArc
 50
270.0
 51
360.0
  0
ARC
  5
5A7
100
AcDbEntity
  8
RUNDUNGEN
100
AcDbCircle
 62
7
  6
CONTINUOUS
 10
459.7283623107
 20
100.4081151827
 40
0.9159880096
100
AcDbArc
 50
90.0
 51
180.0
  0
ARC
  5
5A8
100
AcDbEntity
  8
BEZUGSACHSEN
100
AcDbCircle
 62
7
  6
CONTINUOUS
 10
457.8963862915
 20
86.7843706545
 40
0.9159880096
100
AcDbArc
 50
270.0008197706
 51
360.0
  0
ARC
  5
5A9
100
AcDbEntity
  8
KONSTRUKTIONSELEMENTE
100
AcDbCircle
 62
7
  6
CONTINUOUS
 10
470.4805339883
 20
176.1231086161
 40
8.0
100
AcDbArc
 50
180.0
 51
270.0
  0
SPLINE
  5
5AA
100
AcDbEntity
  8
KONSTRUKTIONSELEMENTE
100
AcDbSpline
 62
7
  6
CONTINUOUS
 70
0
 71
3
 72
11
 73
7
 74
0
 42
0.0000001
 43
0.0000001
 44
0.0000000001
 40
0.0
 40
0.0
 40
0.0
 40
0.0
 40
0.2499473501
 40
0.4999199353
 40
0.749922101
 40
1.0
 40
1.0
 40
1.0
 40
1.0
 10
232.7532194824
 20
167.7017772768
 30
0.0
 10
233.5700727743
 20
167.1289110537
 30
0.0
 10
235.065512142
 20
165.7708799615
 30
0.0
 10
236.7386205612
 20
163.2545307166
 30
0.0
 10
237.7705732435
 20
160.415522784
 30
0.0
 10
238.0032194824
 20
158.4117417302
 30
0.0
 10
238.0032194824
 20
157.4135107379
 30
0.0
  0
SPLINE
  5
5AB
100
AcDbEntity
  8
KONSTRUKTIONSELEMENTE
100
AcDbSpline
 62
7
  6
CONTINUOUS
 70
0
 71
3
 72
11
 73
7
 74
0
 42
0.0000001
 43
0.0000001
 44
0.0000000001
 40
0.0
 40
0.0
 40
0.0
 40
0.0
 40
0.2500469809
 40
0.5000507703
 40
0.750027636
 40
1.0
 40
1.0
 40
1.0
 40
1.0
 10
204.0032194824
 20
157.4125920442
 30
0.0
 10
204.0032194824
 20
158.410769112
 30
0.0
 10
204.2353323925
 20
160.4146024332
 30
0.0
 10
205.2671207034
 20
163.2538762719
 30
0.0
 10
206.9407304788
 20
165.7702842676
 30
0.0
 10
208.4362590876
 20
167.1285618556
 30
0.0
 10
209.2532194824
 20
167.7015702425
 30
0.0
  0
SPLINE
  5
5AC
100
AcDbEntity
  8
KONSTRUKTIONSELEMENTE
100
AcDbSpline
 62
7
  6
CONTINUOUS
 70
0
 71
3
 72
12
 73
8
 74
0
 42
0.0000001
 43
0.0000001
 44
0.0000000001
 40
0.0
 40
0.0
 40
0.0
 40
0.0
 40
0.1282453638
 40
0.2146169864
 40
0.321985829
 40
0.6101725692
 40
1.0
 40
1.0
 40
1.0
 40
1.0
 10
435.4805339883
 20
184.1299449187
 30
0.0
 10
435.4805339883
 20
184.1992079286
 30
0.0
 10
435.500196974
 20
184.3157517782
 30
0.0
 10
435.5668868677
 20
184.4767753021
 30
0.0
 10
435.6980517585
 20
184.7025864761
 30
0.0
 10
435.9893462189
 20
185.0175609195
 30
0.0
 10
436.2916436223
 20
185.2289281616
 30
0.0
 10
436.4741799233
 20
185.333842758
 30
0.0
  0
SPLINE
  5
5AD
100
AcDbEntity
  8
KONSTRUKTIONSELEMENTE
100
AcDbSpline
 62
7
  6
CONTINUOUS
 70
0
 71
3
 72
12
 73
8
 74
0
 42
0.0000001
 43
0.0000001
 44
0.0000000001
 40
0.0
 40
0.0
 40
0.0
 40
0.0
 40
0.3898396094
 40
0.6780156338
 40
0.7853729626
 40
0.8717632718
 40
1.0
 40
1.0
 40
1.0
 40
1.0
 10
441.4869795894
 20
185.3337902869
 30
0.0
 10
441.6695068328
 20
185.2288748774
 30
0.0
 10
441.9717545965
 20
185.0174855396
 30
0.0
 10
442.2630595727
 20
184.7025676221
 30
0.0
 10
442.394197731
 20
184.4767591601
 30
0.0
 10
442.4608435381
 20
184.3157334257
 30
0.0
 10
442.4805339883
 20
184.1991986511
 30
0.0
 10
442.4805339883
 20
184.1299449187
 30
0.0
  0
SPLINE
  5
5AE
100
AcDbEntity
  8
KONSTRUKTIONSELEMENTE
100
AcDbSpline
 62
7
  6
CONTINUOUS
 70
0
 71
3
 72
13
 73
9
 74
0
 42
0.0000001
 43
0.0000001
 44
0.0000000001
 40
0.0
 40
0.0
 40
0.0
 40
0.0
 40
0.1197290731
 40
0.2397365246
 40
0.3609040964
 40
0.4836831257
 40
0.7359942557
 40
1.0
 40
1.0
 40
1.0
 40
1.0
 10
430.9805339883
 20
184.1299449187
 30
0.0
 10
430.9805339883
 20
184.4791586208
 30
0.0
 10
431.0526376101
 20
185.1804996569
 30
0.0
 10
431.3709229449
 20
186.190717905
 30
0.0
 10
431.8803064865
 20
187.1292961237
 30
0.0
 10
432.7921070151
 20
188.2620706303
 30
0.0
 10
434.3079982807
 20
189.3992140464
 30
0.0
 10
435.7308851307
 20
189.9457597704
 30
0.0
 10
436.4771096524
 20
190.135728261
 30
0.0
  0
SPLINE
  5
5AF
100
AcDbEntity
  8
KONSTRUKTIONSELEMENTE
100
AcDbSpline
 62
7
  6
CONTINUOUS
 70
0
 71
3
 72
13
 73
9
 74
0
 42
0.0000001
 43
0.0000001
 44
0.0000000001
 40
0.0
 40
0.0
 40
0.0
 40
0.0
 40
0.2640112835
 40
0.5163080567
 40
0.6390830379
 40
0.7602378991
 40
0.8802701562
 40
1.0
 40
1.0
 40
1.0
 40
1.0
 10
441.4848617908
 20
190.1354810714
 30
0.0
 10
442.2310016131
 20
189.9454464701
 30
0.0
 10
443.6536780545
 20
189.3988798389
 30
0.0
 10
445.1692681216
 20
188.261734498
 30
0.0
 10
446.080858399
 20
187.1291189894
 30
0.0
 10
446.5902493149
 20
186.1906417028
 30
0.0
 10
446.9083860339
 20
185.1804535997
 30
0.0
 10
446.9805339883
 20
184.4791237162
 30
0.0
 10
446.9805339883
 20
184.1299449187
 30
0.0
  0
SPLINE
  5
5B0
100
AcDbEntity
  8
KONSTRUKTIONSELEMENTE
100
AcDbSpline
 62
7
  6
CONTINUOUS
 70
0
 71
3
 72
13
 73
9
 74
0
 42
0.0000001
 43
0.0000001
 44
0.0000000001
 40
0.0
 40
0.0
 40
0.0
 40
0.0
 40
0.1194785188
 40
0.2392741704
 40
0.3602835725
 40
0.4830059608
 40
0.7355440041
 40
1.0
 40
1.0
 40
1.0
 40
1.0
 10
446.9805339883
 20
173.5233432009
 30
0.0
 10
446.9805339883
 20
173.1647035897
 30
0.0
 10
446.9044385051
 20
172.4441969607
 30
0.0
 10
446.5688622775
 20
171.408701205
 30
0.0
 10
446.0328778123
 20
170.4503815258
 30
0.0
 10
445.0751822465
 20
169.300001765
 30
0.0
 10
443.4888636038
 20
168.1606592457
 30
0.0
 10
442.0088101614
 20
167.6331332254
 30
0.0
 10
441.2346463088
 20
167.4575770803
 30
0.0
  0
SPLINE
  5
5B1
100
AcDbEntity
  8
KONSTRUKTIONSELEMENTE
100
AcDbSpline
 62
7
  6
CONTINUOUS
 70
0
 71
3
 72
13
 73
9
 74
0
 42
0.0000001
 43
0.0000001
 44
0.0000000001
 40
0.0
 40
0.0
 40
0.0
 40
0.0
 40
0.2644681654
 40
0.5169944072
 40
0.6397129492
 40
0.760706397
 40
0.8805228501
 40
1.0
 40
1.0
 40
1.0
 40
1.0
 10
436.7283632095
 20
167.457145868
 30
0.0
 10
435.953965883
 20
167.6326259722
 30
0.0
 10
434.4734750354
 20
168.1599467009
 30
0.0
 10
432.8866246283
 20
169.2992991643
 30
0.0
 10
431.928652669
 20
170.4497417131
 30
0.0
 10
431.3923359113
 20
171.4081634997
 30
0.0
 10
431.0567215747
 20
172.4439169122
 30
0.0
 10
430.9805339883
 20
173.1646289306
 30
0.0
 10
430.9805339883
 20
173.5233432009
 30
0.0
  0
SPLINE
  5
5B2
100
AcDbEntity
  8
KONSTRUKTIONSELEMENTE
100
AcDbSpline
 62
7
  6
CONTINUOUS
 70
0
 71
3
 72
11
 73
7
 74
0
 42
0.0000001
 43
0.0000001
 44
0.0000000001
 40
0.0
 40
0.0
 40
0.0
 40
0.0
 40
0.3114703232
 40
0.4450990083
 40
0.6063354134
 40
1.0
 40
1.0
 40
1.0
 40
1.0
 10
442.4805339883
 20
173.5233432009
 30
0.0
 10
442.4805339883
 20
173.3261883545
 30
0.0
 10
442.3418234527
 20
173.0510934675
 30
0.0
 10
442.0904556062
 20
172.7647414731
 30
0.0
 10
441.7620869319
 20
172.4749614669
 30
0.0
 10
441.4572848499
 20
172.2935790366
 30
0.0
 10
441.2325258766
 20
172.1859909056
 30
0.0
  0
SPLINE
  5
5B3
100
AcDbEntity
  8
KONSTRUKTIONSELEMENTE
100
AcDbSpline
 62
7
  6
CONTINUOUS
 70
0
 71
3
 72
11
 73
7
 74
0
 42
0.0000001
 43
0.0000001
 44
0.0000000001
 40
0.0
 40
0.0
 40
0.0
 40
0.0
 40
0.3936803283
 40
0.5549226436
 40
0.6885473432
 40
1.0
 40
1.0
 40
1.0
 40
1.0
 10
436.7287847528
 20
172.1858789776
 30
0.0
 10
436.5039768468
 20
172.2934688782
 30
0.0
 10
436.1991099382
 20
172.4748719959
 30
0.0
 10
435.8706821383
 20
172.7646912671
 30
0.0
 10
435.6192387615
 20
173.0510364134
 30
0.0
 10
435.4805339883
 20
173.3261718971
 30
0.0
 10
435.4805339883
 20
173.5233432009
 30
0.0
  0
SPLINE
  5
5B4
100
AcDbEntity
  8
KONSTRUKTIONSELEMENTE
100
AcDbSpline
 62
7
  6
CONTINUOUS
 70
0
 71
3
 72
11
 73
7
 74
0
 42
0.0000001
 43
0.0000001
 44
0.0000000001
 40
0.0
 40
0.0
 40
0.0
 40
0.0
 40
0.3114703232
 40
0.4450990083
 40
0.6063354134
 40
1.0
 40
1.0
 40
1.0
 40
1.0
 10
435.4805339883
 20
153.0172465465
 30
0.0
 10
435.4805339883
 20
153.214401393
 30
0.0
 10
435.6192445239
 20
153.48949628
 30
0.0
 10
435.8706123704
 20
153.7758482743
 30
0.0
 10
436.1989810448
 20
154.0656282806
 30
0.0
 10
436.5037831267
 20
154.2470107109
 30
0.0
 10
436.7285421
 20
154.3545988419
 30
0.0
  0
SPLINE
  5
5B5
100
AcDbEntity
  8
KONSTRUKTIONSELEMENTE
100
AcDbSpline
 62
7
  6
CONTINUOUS
 70
0
 71
3
 72
11
 73
7
 74
0
 42
0.0000001
 43
0.0000001
 44
0.0000000001
 40
0.0
 40
0.0
 40
0.0
 40
0.0
 40
0.3936803283
 40
0.5549226436
 40
0.6885473432
 40
1.0
 40
1.0
 40
1.0
 40
1.0
 10
441.2322832238
 20
154.3547107699
 30
0.0
 10
441.4570911298
 20
154.2471208693
 30
0.0
 10
441.7619580384
 20
154.0657177516
 30
0.0
 10
442.0903858383
 20
153.7758984804
 30
0.0
 10
442.3418292151
 20
153.4895533341
 30
0.0
 10
442.4805339883
 20
153.2144178504
 30
0.0
 10
442.4805339883
 20
153.0172465465
 30
0.0
  0
SPLINE
  5
5B6
100
AcDbEntity
  8
KONSTRUKTIONSELEMENTE
100
AcDbSpline
 62
7
  6
CONTINUOUS
 70
0
 71
3
 72
13
 73
9
 74
0
 42
0.0000001
 43
0.0000001
 44
0.0000000001
 40
0.0
 40
0.0
 40
0.0
 40
0.0
 40
0.1194785188
 40
0.2392741704
 40
0.3602835725
 40
0.4830059608
 40
0.7355440041
 40
1.0
 40
1.0
 40
1.0
 40
1.0
 10
430.9805339883
 20
153.0172465465
 30
0.0
 10
430.9805339883
 20
153.3758861578
 30
0.0
 10
431.0566294715
 20
154.0963927868
 30
0.0
 10
431.3922056991
 20
155.1318885425
 30
0.0
 10
431.9281901644
 20
156.0902082216
 30
0.0
 10
432.8858857301
 20
157.2405879825
 30
0.0
 10
434.4722043728
 20
158.3799305018
 30
0.0
 10
435.9522578152
 20
158.9074565221
 30
0.0
 10
436.7264216678
 20
159.0830126672
 30
0.0
  0
SPLINE
  5
5B7
100
AcDbEntity
  8
KONSTRUKTIONSELEMENTE
100
AcDbSpline
 62
7
  6
CONTINUOUS
 70
0
 71
3
 72
13
 73
9
 74
0
 42
0.0000001
 43
0.0000001
 44
0.0000000001
 40
0.0
 40
0.0
 40
0.0
 40
0.0
 40
0.2644681654
 40
0.5169944072
 40
0.6397129492
 40
0.760706397
 40
0.8805228501
 40
1.0
 40
1.0
 40
1.0
 40
1.0
 10
441.2327047671
 20
159.0834438795
 30
0.0
 10
442.0071020936
 20
158.9079637753
 30
0.0
 10
443.4875929412
 20
158.3806430466
 30
0.0
 10
445.0744433483
 20
157.2412905832
 30
0.0
 10
446.0324153076
 20
156.0908480343
 30
0.0
 10
446.5687320653
 20
155.1324262478
 30
0.0
 10
446.9043464019
 20
154.0966728353
 30
0.0
 10
446.9805339883
 20
153.3759608168
 30
0.0
 10
446.9805339883
 20
153.0172465465
 30
0.0
  0
SPLINE
  5
5B8
100
AcDbEntity
  8
KONSTRUKTIONSELEMENTE
100
AcDbSpline
 62
7
  6
CONTINUOUS
 70
0
 71
3
 72
13
 73
9
 74
0
 42
0.0000001
 43
0.0000001
 44
0.0000000001
 40
0.0
 40
0.0
 40
0.0
 40
0.0
 40
0.1197290731
 40
0.2397365246
 40
0.3609040964
 40
0.4836831257
 40
0.7359942557
 40
1.0
 40
1.0
 40
1.0
 40
1.0
 10
446.9805339883
 20
142.4106448287
 30
0.0
 10
446.9805339883
 20
142.0614311266
 30
0.0
 10
446.9084303665
 20
141.3600900906
 30
0.0
 10
446.5901450318
 20
140.3498718425
 30
0.0
 10
446.0807614901
 20
139.4112936238
 30
0.0
 10
445.1689609615
 20
138.2785191171
 30
0.0
 10
443.6530696959
 20
137.141375701
 30
0.0
 10
442.2301828459
 20
136.5948299771
 30
0.0
 10
441.4839583242
 20
136.4048614865
 30
0.0
  0
SPLINE
  5
5B9
100
AcDbEntity
  8
KONSTRUKTIONSELEMENTE
100
AcDbSpline
 62
7
  6
CONTINUOUS
 70
0
 71
3
 72
13
 73
9
 74
0
 42
0.0000001
 43
0.0000001
 44
0.0000000001
 40
0.0
 40
0.0
 40
0.0
 40
0.0
 40
0.2640112835
 40
0.5163080567
 40
0.6390830379
 40
0.7602378991
 40
0.8802701562
 40
1.0
 40
1.0
 40
1.0
 40
1.0
 10
436.4762061858
 20
136.4051086761
 30
0.0
 10
435.7300663635
 20
136.5951432774
 30
0.0
 10
434.3073899221
 20
137.1417099085
 30
0.0
 10
432.791799855
 20
138.2788552495
 30
0.0
 10
431.8802095776
 20
139.4114707581
 30
0.0
 10
431.3708186617
 20
140.3499480447
 30
0.0
 10
431.0526819427
 20
141.3601361478
 30
0.0
 10
430.9805339883
 20
142.0614660313
 30
0.0
 10
430.9805339883
 20
142.4106448287
 30
0.0
  0
SPLINE
  5
5BA
100
AcDbEntity
  8
KONSTRUKTIONSELEMENTE
100
AcDbSpline
 62
7
  6
CONTINUOUS
 70
0
 71
3
 72
12
 73
8
 74
0
 42
0.0000001
 43
0.0000001
 44
0.0000000001
 40
0.0
 40
0.0
 40
0.0
 40
0.0
 40
0.1282453638
 40
0.2146169864
 40
0.321985829
 40
0.6101725692
 40
1.0
 40
1.0
 40
1.0
 40
1.0
 10
442.4805339883
 20
142.4106448287
 30
0.0
 10
442.4805339883
 20
142.3413818189
 30
0.0
 10
442.4608710026
 20
142.2248379693
 30
0.0
 10
442.3941811089
 20
142.0638144454
 30
0.0
 10
442.2630162182
 20
141.8380032713
 30
0.0
 10
441.9717217578
 20
141.523028828
 30
0.0
 10
441.6694243544
 20
141.3116615859
 30
0.0
 10
441.4868880533
 20
141.2067469895
 30
0.0
  0
SPLINE
  5
5BB
100
AcDbEntity
  8
KONSTRUKTIONSELEMENTE
100
AcDbSpline
 62
7
  6
CONTINUOUS
 70
0
 71
3
 72
12
 73
8
 74
0
 42
0.0000001
 43
0.0000001
 44
0.0000000001
 40
0.0
 40
0.0
 40
0.0
 40
0.0
 40
0.3898396094
 40
0.6780156338
 40
0.7853729626
 40
0.8717632718
 40
1.0
 40
1.0
 40
1.0
 40
1.0
 10
436.4740883872
 20
141.2067994606
 30
0.0
 10
436.2915611438
 20
141.3117148701
 30
0.0
 10
435.9893133801
 20
141.5231042078
 30
0.0
 10
435.6980084039
 20
141.8380221254
 30
0.0
 10
435.5668702456
 20
142.0638305874
 30
0.0
 10
435.5002244385
 20
142.2248563218
 30
0.0
 10
435.4805339883
 20
142.3413910964
 30
0.0
 10
435.4805339883
 20
142.4106448287
 30
0.0
  0
SPLINE
  5
5BC
100
AcDbEntity
  8
KONSTRUKTIONSELEMENTE
100
AcDbSpline
 62
7
  6
CONTINUOUS
 70
0
 71
3
 72
13
 73
9
 74
0
 42
0.0000001
 43
0.0000001
 44
0.0000000001
 40
0.0
 40
0.0
 40
0.0
 40
0.0
 40
0.0998901079
 40
0.2037110076
 40
0.3139384643
 40
0.4328288473
 40
0.6985944655
 40
1.0
 40
1.0
 40
1.0
 40
1.0
 10
456.4805339883
 20
209.5857890415
 30
0.0
 10
456.4805339883
 20
210.0431108734
 30
0.0
 10
456.3908385728
 20
210.977955959
 30
0.0
 10
455.9886277115
 20
212.3657328248
 30
0.0
 10
455.3088664151
 20
213.7384757119
 30
0.0
 10
453.9830871069
 20
215.5864384892
 30
0.0
 10
451.5901818406
 20
217.6851331183
 30
0.0
 10
449.2655592879
 20
218.8929576493
 30
0.0
 10
447.9850284415
 20
219.4071478827
 30
0.0
  0
SPLINE
  5
5BD
100
AcDbEntity
  8
KONSTRUKTIONSELEMENTE
100
AcDbSpline
 62
7
  6
CONTINUOUS
 70
0
 71
3
 72
13
 73
9
 74
0
 42
0.0000001
 43
0.0000001
 44
0.0000000001
 40
0.0
 40
0.0
 40
0.0
 40
0.0
 40
0.3014034156
 40
0.5671672452
 40
0.6860573137
 40
0.7962845856
 40
0.9001110185
 40
1.0
 40
1.0
 40
1.0
 40
1.0
 10
429.9738006653
 20
219.4062425109
 30
0.0
 10
428.6935691403
 20
218.8919820077
 30
0.0
 10
426.3694820379
 20
217.6841633992
 30
0.0
 10
423.9772528156
 20
215.5855821091
 30
0.0
 10
422.6518382285
 20
213.7378651147
 30
0.0
 10
421.9722757393
 20
212.3652972558
 30
0.0
 10
421.5702085725
 20
210.9777247883
 30
0.0
 10
421.4805339883
 20
210.0430255581
 30
0.0
 10
421.4805339883
 20
209.5857890415
 30
0.0
  0
SPLINE
  5
5BE
100
AcDbEntity
  8
KONSTRUKTIONSELEMENTE
100
AcDbSpline
 62
7
  6
CONTINUOUS
 70
0
 71
3
 72
14
 73
10
 74
0
 42
0.0000001
 43
0.0000001
 44
0.0000000001
 40
0.0
 40
0.0
 40
0.0
 40
0.0
 40
0.1149437054
 40
0.23104361
 40
0.3494381543
 40
0.471128163
 40
0.5968807218
 40
0.7271025473
 40
1.0
 40
1.0
 40
1.0
 40
1.0
 10
462.4805339883
 20
209.5857890415
 30
0.0
 10
462.4805339883
 20
210.4758378352
 30
0.0
 10
462.2983314735
 20
212.2699748283
 30
0.0
 10
461.4929627109
 20
214.8701728401
 30
0.0
 10
460.1906921375
 20
217.3189200867
 30
0.0
 10
458.4389531004
 20
219.5615789748
 30
0.0
 10
456.2886489921
 20
221.5606561124
 30
0.0
 10
452.9120937647
 20
223.8959497283
 30
0.0
 10
450.0062222609
 20
225.1452636371
 30
0.0
 10
447.9852233226
 20
225.7624512334
 30
0.0
  0
SPLINE
  5
5BF
100
AcDbEntity
  8
KONSTRUKTIONSELEMENTE
100
AcDbSpline
 62
7
  6
CONTINUOUS
 70
0
 71
3
 72
14
 73
10
 74
0
 42
0.0000001
 43
0.0000001
 44
0.0000000001
 40
0.0
 40
0.0
 40
0.0
 40
0.0
 40
0.2728959573
 40
0.4031163318
 40
0.5288670632
 40
0.6505563576
 40
0.7689508401
 40
0.885052962
 40
1.0
 40
1.0
 40
1.0
 40
1.0
 10
429.9736486554
 20
225.7617738437
 30
0.0
 10
427.9529068297
 20
225.1444969198
 30
0.0
 10
425.047440793
 20
223.8950932287
 30
0.0
 10
421.6714049288
 20
221.5598280169
 30
0.0
 10
419.5214521459
 20
219.5608447933
 30
0.0
 10
417.7700128975
 20
217.3183361855
 30
0.0
 10
416.4679465389
 20
214.8697793574
 30
0.0
 10
415.6627139786
 20
212.2697775224
 30
0.0
 10
415.4805339883
 20
210.4757759334
 30
0.0
 10
415.4805339883
 20
209.5857890415
 30
0.0
  0
SPLINE
  5
5C0
100
AcDbEntity
  8
KONSTRUKTIONSELEMENTE
100
AcDbSpline
 62
7
  6
CONTINUOUS
 70
0
 71
3
 72
14
 73
10
 74
0
 42
0.0000001
 43
0.0000001
 44
0.0000000001
 40
0.0
 40
0.0
 40
0.0
 40
0.0
 40
0.0923039402
 40
0.1906740315
 40
0.2992162423
 40
0.4197171364
 40
0.5519476081
 40
0.6944211199
 40
1.0
 40
1.0
 40
1.0
 40
1.0
 10
421.4805339883
 20
209.5857890415
 30
0.0
 10
421.4805339883
 20
208.9572605863
 30
0.0
 10
421.6534730951
 20
207.6533450937
 30
0.0
 10
422.4268683659
 20
205.7479377528
 30
0.0
 10
423.721267379
 20
203.9114954236
 30
0.0
 10
425.5195342317
 20
202.2122671343
 30
0.0
 10
427.7771021831
 20
200.7245828336
 30
0.0
 10
431.3812413414
 20
199.0782940137
 30
0.0
 10
434.4071384023
 20
198.4124759604
 30
0.0
 10
436.478166988
 20
198.2111717981
 30
0.0
  0
SPLINE
  5
5C1
100
AcDbEntity
  8
KONSTRUKTIONSELEMENTE
100
AcDbSpline
 62
7
  6
CONTINUOUS
 70
0
 71
3
 72
14
 73
10
 74
0
 42
0.0000001
 43
0.0000001
 44
0.0000000001
 40
0.0
 40
0.0
 40
0.0
 40
0.0
 40
0.3055774424
 40
0.4480520662
 40
0.5802837627
 40
0.7007860378
 40
0.8093276023
 40
0.9076986363
 40
1.0
 40
1.0
 40
1.0
 40
1.0
 10
441.4825608152
 20
198.2111320236
 30
0.0
 10
443.5536164262
 20
198.412416765
 30
0.0
 10
446.5795724191
 20
199.0782007924
 30
0.0
 10
450.1837913369
 20
200.7244883301
 30
0.0
 10
452.4414381392
 20
202.2121844195
 30
0.0
 10
454.239743231
 20
203.9114495521
 30
0.0
 10
455.5342062706
 20
205.7479085265
 30
0.0
 10
456.3075869978
 20
207.6533443054
 30
0.0
 10
456.4805339883
 20
208.9572676161
 30
0.0
 10
456.4805339883
 20
209.5857890415
 30
0.0
  0
SPLINE
  5
5C2
100
AcDbEntity
  8
KONSTRUKTIONSELEMENTE
100
AcDbSpline
 62
7
  6
CONTINUOUS
 70
0
 71
3
 72
14
 73
10
 74
0
 42
0.0000001
 43
0.0000001
 44
0.0000000001
 40
0.0
 40
0.0
 40
0.0
 40
0.0
 40
0.1118036627
 40
0.2253829785
 40
0.3423808581
 40
0.464112494
 40
0.5912619309
 40
0.7237355667
 40
1.0
 40
1.0
 40
1.0
 40
1.0
 10
415.4805339883
 20
209.5857890415
 30
0.0
 10
415.4805339883
 20
208.4739928192
 30
0.0
 10
415.767527926
 20
206.2230364914
 30
0.0
 10
417.0218645504
 20
203.0248286837
 30
0.0
 10
419.0185044848
 20
200.1125726255
 30
0.0
 10
421.6547690548
 20
197.5734828552
 30
0.0
 10
424.8284146309
 20
195.4631011643
 30
0.0
 10
429.6940590973
 20
193.2511335909
 30
0.0
 10
433.7397818626
 20
192.4037516232
 30
0.0
 10
436.4785398063
 20
192.1882360023
 30
0.0
  0
SPLINE
  5
5C3
100
AcDbEntity
  8
KONSTRUKTIONSELEMENTE
100
AcDbSpline
 62
7
  6
CONTINUOUS
 70
0
 71
3
 72
14
 73
10
 74
0
 42
0.0000001
 43
0.0000001
 44
0.0000000001
 40
0.0
 40
0.0
 40
0.0
 40
0.0
 40
0.2762672291
 40
0.4087406592
 40
0.5358892349
 40
0.6576192992
 40
0.7746159913
 40
0.8881946208
 40
1.0
 40
1.0
 40
1.0
 40
1.0
 10
441.4818546385
 20
192.1881756697
 30
0.0
 10
444.2207082786
 20
192.4036225952
 30
0.0
 10
448.2665648161
 20
193.2509796851
 30
0.0
 10
453.132366508
 20
195.4629327631
 30
0.0
 10
456.3060872284
 20
197.5733104313
 30
0.0
 10
458.9424185681
 20
200.1123982124
 30
0.0
 10
460.9391167692
 20
203.0246689756
 30
0.0
 10
462.1935251734
 20
206.2229312146
 30
0.0
 10
462.4805339883
 20
208.4739505736
 30
0.0
 10
462.4805339883
 20
209.5857890415
 30
0.0
  0
SPLINE
  5
5C4
100
AcDbEntity
  8
RUNDUNGEN
100
AcDbSpline
 62
7
  6
CONTINUOUS
 70
0
 71
3
 72
11
 73
7
 74
0
 42
0.0000001
 43
0.0000001
 44
0.0000000001
 40
0.0
 40
0.0
 40
0.0
 40
0.0
 40
0.2500117066
 40
0.5000175241
 40
0.7500134384
 40
1.0
 40
1.0
 40
1.0
 40
1.0
 10
460.0514216916
 20
103.9815648991
 30
0.0
 10
460.1535895325
 20
104.0036424609
 30
0.0
 10
460.3519942755
 20
104.0833961144
 30
0.0
 10
460.591323536
 20
104.2950845798
 30
0.0
 10
460.7460986578
 20
104.5746728677
 30
0.0
 10
460.7801692222
 20
104.7859040035
 30
0.0
 10
460.7788829264
 20
104.8904115836
 30
0.0
  0
SPLINE
  5
5C5
100
AcDbEntity
  8
RUNDUNGEN
100
AcDbSpline
 62
7
  6
CONTINUOUS
 70
0
 71
3
 72
11
 73
7
 74
0
 42
0.0000001
 43
0.0000001
 44
0.0000000001
 40
0.0
 40
0.0
 40
0.0
 40
0.0
 40
0.2500139658
 40
0.5000035069
 40
0.7499908109
 40
1.0
 40
1.0
 40
1.0
 40
1.0
 10
414.3497442965
 20
84.9221142232
 30
0.0
 10
414.2758446814
 20
84.9221142365
 30
0.0
 10
414.1274490648
 20
84.9398973611
 30
0.0
 10
413.9179728725
 20
85.0184932073
 30
0.0
 10
413.7330491803
 20
85.1444508588
 30
0.0
 10
413.6331818298
 20
85.2556864381
 30
0.0
 10
413.590795523
 20
85.3162202752
 30
0.0
  0
SPLINE
  5
5C6
100
AcDbEntity
  8
RUNDUNGEN
100
AcDbSpline
 62
7
  6
CONTINUOUS
 70
0
 71
3
 72
13
 73
9
 74
0
 42
0.0000001
 43
0.0000001
 44
0.0000000001
 40
0.0
 40
0.0
 40
0.0
 40
0.0
 40
0.2494185528
 40
0.4988218131
 40
0.6241166251
 40
0.7494130169
 40
0.8747019563
 40
1.0
 40
1.0
 40
1.0
 40
1.0
 10
431.053128073
 20
84.9221152445
 30
0.0
 10
431.1731016539
 20
84.922115103
 30
0.0
 10
431.4155068072
 20
84.96919374
 30
0.0
 10
431.6728402844
 20
85.1388810132
 30
0.0
 10
431.8277058281
 20
85.3246206362
 30
0.0
 10
431.9146994659
 20
85.4845302994
 30
0.0
 10
431.9684099029
 20
85.6583592178
 30
0.0
 10
431.9805339813
 20
85.7792414292
 30
0.0
 10
431.9805339883
 20
85.8395114244
 30
0.0
  0
SPLINE
  5
5C7
100
AcDbEntity
  8
BEZUGSACHSEN
100
AcDbSpline
 62
7
  6
CONTINUOUS
 70
0
 71
3
 72
11
 73
7
 74
0
 42
0.0000001
 43
0.0000001
 44
0.0000000001
 40
0.0
 40
0.0
 40
0.0
 40
0.0
 40
0.2500117066
 40
0.5000175241
 40
0.7500134384
 40
1.0
 40
1.0
 40
1.0
 40
1.0
 10
460.0514216916
 20
103.9815648991
 30
0.0
 10
460.1535895325
 20
104.0036424609
 30
0.0
 10
460.3519942755
 20
104.0833961144
 30
0.0
 10
460.591323536
 20
104.2950845798
 30
0.0
 10
460.7460986578
 20
104.5746728677
 30
0.0
 10
460.7801692222
 20
104.7859040035
 30
0.0
 10
460.7788829264
 20
104.8904115836
 30
0.0
  0
SPLINE
  5
5C8
100
AcDbEntity
  8
BEZUGSACHSEN
100
AcDbSpline
 62
7
  6
CONTINUOUS
 70
0
 71
3
 72
11
 73
7
 74
0
 42
0.0000001
 43
0.0000001
 44
0.0000000001
 40
0.0
 40
0.0
 40
0.0
 40
0.0
 40
0.2500139658
 40
0.5000035069
 40
0.7499908109
 40
1.0
 40
1.0
 40
1.0
 40
1.0
 10
414.3497442965
 20
84.9221142232
 30
0.0
 10
414.2758446814
 20
84.9221142365
 30
0.0
 10
414.1274490648
 20
84.9398973611
 30
0.0
 10
413.9179728725
 20
85.0184932073
 30
0.0
 10
413.7330491803
 20
85.1444508588
 30
0.0
 10
413.6331818298
 20
85.2556864381
 30
0.0
 10
413.590795523
 20
85.3162202752
 30
0.0
  0
SPLINE
  5
5C9
100
AcDbEntity
  8
BEZUGSACHSEN
100
AcDbSpline
 62
7
  6
CONTINUOUS
 70
0
 71
3
 72
13
 73
9
 74
0
 42
0.0000001
 43
0.0000001
 44
0.0000000001
 40
0.0
 40
0.0
 40
0.0
 40
0.0
 40
0.2494185528
 40
0.4988218131
 40
0.6241166251
 40
0.7494130169
 40
0.8747019563
 40
1.0
 40
1.0
 40
1.0
 40
1.0
 10
431.053128073
 20
84.9221152445
 30
0.0
 10
431.1731016539
 20
84.922115103
 30
0.0
 10
431.4155068072
 20
84.96919374
 30
0.0
 10
431.6728402844
 20
85.1388810132
 30
0.0
 10
431.8277058281
 20
85.3246206362
 30
0.0
 10
431.9146994659
 20
85.4845302994
 30
0.0
 10
431.9684099029
 20
85.6583592178
 30
0.0
 10
431.9805339813
 20
85.7792414292
 30
0.0
 10
431.9805339883
 20
85.8395114244
 30
0.0
  0
SPLINE
  5
5CA
100
AcDbEntity
  8
RUNDUNGEN
100
AcDbSpline
 62
7
  6
CONTINUOUS
 70
0
 71
3
 72
8
 73
4
 74
0
 42
0.0000001
 43
0.0000001
 44
0.0000000001
 40
0.0
 40
0.0
 40
0.0
 40
0.0
 40
1.0
 40
1.0
 40
1.0
 40
1.0
 10
427.9331981523
 20
84.9904944437
 30
0.0
 10
427.9652436968
 20
84.8797493947
 30
0.0
 10
427.9805340131
 20
84.7631724819
 30
0.0
 10
427.9805339883
 20
84.6478842223
 30
0.0
  0
SPLINE
  5
5CB
100
AcDbEntity
  8
RUNDUNGEN
100
AcDbSpline
 62
7
  6
CONTINUOUS
 70
0
 71
3
 72
11
 73
7
 74
0
 42
0.0000001
 43
0.0000001
 44
0.0000000001
 40
0.0
 40
0.0
 40
0.0
 40
0.0
 40
0.2500117071
 40
0.5000175246
 40
0.7500134389
 40
1.0
 40
1.0
 40
1.0
 40
1.0
 10
417.909646285
 20
82.2646523332
 30
0.0
 10
417.8074784315
 20
82.2425748286
 30
0.0
 10
417.6090737064
 20
82.162821091
 30
0.0
 10
417.3697444387
 20
81.9511326591
 30
0.0
 10
417.2149693191
 20
81.6715443621
 30
0.0
 10
417.1808987544
 20
81.4603132286
 30
0.0
 10
417.1821850502
 20
81.3558056487
 30
0.0
  0
SPLINE
  5
5CC
100
AcDbEntity
  8
RUNDUNGEN
100
AcDbSpline
 62
7
  6
CONTINUOUS
 70
0
 71
3
 72
11
 73
7
 74
0
 42
0.0000001
 43
0.0000001
 44
0.0000000001
 40
0.0
 40
0.0
 40
0.0
 40
0.0
 40
0.2500139658
 40
0.5000035069
 40
0.7499908109
 40
1.0
 40
1.0
 40
1.0
 40
1.0
 10
463.6113236801
 20
101.3241030091
 30
0.0
 10
463.6852232952
 20
101.3241029958
 30
0.0
 10
463.8336189119
 20
101.3063198712
 30
0.0
 10
464.0430951042
 20
101.227724025
 30
0.0
 10
464.2280187963
 20
101.1017663734
 30
0.0
 10
464.3278861468
 20
100.9905307941
 30
0.0
 10
464.3702724536
 20
100.9299969571
 30
0.0
  0
SPLINE
  5
5CD
100
AcDbEntity
  8
BEZUGSACHSEN
100
AcDbSpline
 62
7
  6
CONTINUOUS
 70
0
 71
3
 72
9
 73
5
 74
0
 42
0.0000001
 43
0.0000001
 44
0.0000000001
 40
0.0
 40
0.0
 40
0.0
 40
0.0
 40
0.4849952922
 40
1.0
 40
1.0
 40
1.0
 40
1.0
 10
419.3010319702
 20
92.0075183723
 30
0.0
 10
419.3010319702
 20
92.1878761654
 30
0.0
 10
419.3067254218
 20
92.5597234983
 30
0.0
 10
419.3098787964
 20
92.9315910612
 30
0.0
 10
419.3098787964
 20
93.1231086161
 30
0.0
  0
SPLINE
  5
5CE
100
AcDbEntity
  8
BEZUGSACHSEN
100
AcDbSpline
 62
7
  6
CONTINUOUS
 70
0
 71
3
 72
35
 73
31
 74
0
 42
0.0000001
 43
0.0000001
 44
0.0000000001
 40
0.0
 40
0.0
 40
0.0
 40
0.0
 40
0.0043021686
 40
0.0085438954
 40
0.018066568
 40
0.0238674441
 40
0.0305256337
 40
0.0466445185
 40
0.066659975
 40
0.0905404136
 40
0.1181269931
 40
0.1491820865
 40
0.1834129976
 40
0.220484497
 40
0.3016457853
 40
0.3894167586
 40
0.4802672069
 40
0.5705471712
 40
0.6566565383
 40
0.735271345
 40
0.7708992691
 40
0.803733518
 40
0.8336557982
 40
0.8607143398
 40
0.885196693
 40
0.9077104097
 40
0.9292233948
 40
0.950971282
 40
0.9742186269
 40
1.0
 40
1.0
 40
1.0
 40
1.0
 10
419.3010319702
 20
89.5282646563
 30
0.0
 10
419.3010319702
 20
89.5418110948
 30
0.0
 10
419.3043335658
 20
89.5688952452
 30
0.0
 10
419.3271370663
 20
89.6218313142
 30
0.0
 10
419.3740665927
 20
89.665274382
 30
0.0
 10
419.4340644939
 20
89.6996145996
 30
0.0
 10
419.5170481728
 20
89.7350432523
 30
0.0
 10
419.6473395888
 20
89.7709731264
 30
0.0
 10
419.8334932635
 20
89.804134184
 30
0.0
 10
420.0571180483
 20
89.8305246043
 30
0.0
 10
420.3161699131
 20
89.8511951353
 30
0.0
 10
420.6082015181
 20
89.8669439245
 30
0.0
 10
420.9303039212
 20
89.8784989665
 30
0.0
 10
421.4102604413
 20
89.8893699691
 30
0.0
 10
422.0589289005
 20
89.8942525456
 30
0.0
 10
422.8769251286
 20
89.8892145882
 30
0.0
 10
423.7234844341
 20
89.8720636927
 30
0.0
 10
424.5644006978
 20
89.8391776967
 30
0.0
 10
425.3655890925
 20
89.7844120432
 30
0.0
 10
425.992782436
 20
89.7118385597
 30
0.0
 10
426.4486817914
 20
89.6294551569
 30
0.0
 10
426.750180721
 20
89.5573607252
 30
0.0
 10
427.0198975332
 20
89.4711808475
 30
0.0
 10
427.2556887188
 20
89.3687544237
 30
0.0
 10
427.4559162056
 20
89.2474659981
 30
0.0
 10
427.6190356896
 20
89.1041998278
 30
0.0
 10
427.7431182948
 20
88.9362069187
 30
0.0
 10
427.8270796546
 20
88.7425211809
 30
0.0
 10
427.8728397987
 20
88.5232015284
 30
0.0
 10
427.8805339883
 20
88.3685234431
 30
0.0
 10
427.8805339883
 20
88.287344433
 30
0.0
  0
SPLINE
  5
5CF
100
AcDbEntity
  8
BEZUGSACHSEN
100
AcDbSpline
 62
7
  6
CONTINUOUS
 70
0
 71
3
 72
9
 73
5
 74
0
 42
0.0000001
 43
0.0000001
 44
0.0000000001
 40
0.0
 40
0.0
 40
0.0
 40
0.0
 40
0.4849952961
 40
1.0
 40
1.0
 40
1.0
 40
1.0
 10
458.6600360065
 20
92.0075183723
 30
0.0
 10
458.6600360065
 20
92.1878761668
 30
0.0
 10
458.6543425547
 20
92.5597234997
 30
0.0
 10
458.6511891802
 20
92.9315910626
 30
0.0
 10
458.6511891802
 20
93.1231086161
 30
0.0
  0
SPLINE
  5
5D0
100
AcDbEntity
  8
BEZUGSACHSEN
100
AcDbSpline
 62
7
  6
CONTINUOUS
 70
0
 71
3
 72
9
 73
5
 74
0
 42
0.0000001
 43
0.0000001
 44
0.0000000001
 40
0.0
 40
0.0
 40
0.0
 40
0.0
 40
0.5150038648
 40
1.0
 40
1.0
 40
1.0
 40
1.0
 10
450.0893808146
 20
93.1231086161
 30
0.0
 10
450.0893808146
 20
92.9315913747
 30
0.0
 10
450.0862274489
 20
92.5597238117
 30
0.0
 10
450.0805339883
 20
92.1878764788
 30
0.0
 10
450.0805339883
 20
92.0075183723
 30
0.0
  0
SPLINE
  5
5D1
100
AcDbEntity
  8
BEZUGSACHSEN
100
AcDbSpline
 62
7
  6
CONTINUOUS
 70
0
 71
3
 72
9
 73
5
 74
0
 42
0.0000001
 43
0.0000001
 44
0.0000000001
 40
0.0
 40
0.0
 40
0.0
 40
0.0
 40
0.5150045707
 40
1.0
 40
1.0
 40
1.0
 40
1.0
 10
419.3098787964
 20
93.1231086161
 30
0.0
 10
419.3098787964
 20
93.3146261201
 30
0.0
 10
419.3067254231
 20
93.686493683
 30
0.0
 10
419.3010319702
 20
94.0583410159
 30
0.0
 10
419.3010319702
 20
94.23869886
 30
0.0
  0
SPLINE
  5
5D2
100
AcDbEntity
  8
BEZUGSACHSEN
100
AcDbSpline
 62
7
  6
CONTINUOUS
 70
0
 71
3
 72
9
 73
5
 74
0
 42
0.0000001
 43
0.0000001
 44
0.0000000001
 40
0.0
 40
0.0
 40
0.0
 40
0.0
 40
0.4849954746
 40
1.0
 40
1.0
 40
1.0
 40
1.0
 10
427.8805339883
 20
94.23869886
 30
0.0
 10
427.8805339883
 20
94.0583409991
 30
0.0
 10
427.8748405348
 20
93.6864936662
 30
0.0
 10
427.871687162
 20
93.3146261032
 30
0.0
 10
427.871687162
 20
93.1231086161
 30
0.0
  0
SPLINE
  5
5D3
100
AcDbEntity
  8
BEZUGSACHSEN
100
AcDbSpline
 62
7
  6
CONTINUOUS
 70
0
 71
3
 72
9
 73
5
 74
0
 42
0.0000001
 43
0.0000001
 44
0.0000000001
 40
0.0
 40
0.0
 40
0.0
 40
0.0
 40
0.5150047075
 40
1.0
 40
1.0
 40
1.0
 40
1.0
 10
427.871687162
 20
93.1231086161
 30
0.0
 10
427.871687162
 20
92.9315910613
 30
0.0
 10
427.8748405366
 20
92.5597234984
 30
0.0
 10
427.8805339883
 20
92.1878761655
 30
0.0
 10
427.8805339883
 20
92.0075183723
 30
0.0
  0
SPLINE
  5
5D4
100
AcDbEntity
  8
BEZUGSACHSEN
100
AcDbSpline
 62
7
  6
CONTINUOUS
 70
0
 71
3
 72
9
 73
5
 74
0
 42
0.0000001
 43
0.0000001
 44
0.0000000001
 40
0.0
 40
0.0
 40
0.0
 40
0.0
 40
0.5150047038
 40
1.0
 40
1.0
 40
1.0
 40
1.0
 10
458.6511891802
 20
93.1231086161
 30
0.0
 10
458.6511891802
 20
93.3146261696
 30
0.0
 10
458.6543425547
 20
93.6864937325
 30
0.0
 10
458.6600360065
 20
94.0583410654
 30
0.0
 10
458.6600360065
 20
94.23869886
 30
0.0
  0
SPLINE
  5
5D5
100
AcDbEntity
  8
BEZUGSACHSEN
100
AcDbSpline
 62
7
  6
CONTINUOUS
 70
0
 71
3
 72
9
 73
5
 74
0
 42
0.0000001
 43
0.0000001
 44
0.0000000001
 40
0.0
 40
0.0
 40
0.0
 40
0.0
 40
0.4849959819
 40
1.0
 40
1.0
 40
1.0
 40
1.0
 10
450.0805339883
 20
94.23869886
 30
0.0
 10
450.0805339883
 20
94.0583408104
 30
0.0
 10
450.0862274473
 20
93.6864934776
 30
0.0
 10
450.0893808146
 20
93.3146259146
 30
0.0
 10
450.0893808146
 20
93.1231086161
 30
0.0
  0
SPLINE
  5
5D6
100
AcDbEntity
  8
BEZUGSACHSEN
100
AcDbSpline
 62
7
  6
CONTINUOUS
 70
0
 71
3
 72
35
 73
31
 74
0
 42
0.0000001
 43
0.0000001
 44
0.0000000001
 40
0.0
 40
0.0
 40
0.0
 40
0.0
 40
0.0042958506
 40
0.0085280438
 40
0.0179942062
 40
0.0237411877
 40
0.0303283477
 40
0.0462569358
 40
0.0660254575
 40
0.0896119794
 40
0.1168679264
 40
0.1475666306
 40
0.1814271367
 40
0.2181266637
 40
0.2985911197
 40
0.3858172441
 40
0.4763806022
 40
0.5667287431
 40
0.653339461
 40
0.7329286188
 40
0.7692123335
 40
0.8027946289
 40
0.8335242611
 40
0.8613940175
 40
0.8866039154
 40
0.9096385419
 40
0.9313263058
 40
0.9528030072
 40
0.9753214046
 40
1.0
 40
1.0
 40
1.0
 40
1.0
 10
458.6600360065
 20
96.7179525759
 30
0.0
 10
458.6600360065
 20
96.7045649333
 30
0.0
 10
458.6568143493
 20
96.6778139077
 30
0.0
 10
458.6346217738
 20
96.6255282579
 30
0.0
 10
458.5888617867
 20
96.5823943752
 30
0.0
 10
458.5302212934
 20
96.5482332171
 30
0.0
 10
458.449236467
 20
96.5129967807
 30
0.0
 10
458.3219996538
 20
96.4771489726
 30
0.0
 10
458.1401361251
 20
96.4439665255
 30
0.0
 10
457.921587028
 20
96.4174606103
 30
0.0
 10
457.6682932998
 20
96.3966086444
 30
0.0
 10
457.3825816822
 20
96.3806299608
 30
0.0
 10
457.0672271298
 20
96.3688094548
 30
0.0
 10
456.5966975232
 20
96.3575252487
 30
0.0
 10
455.9597235392
 20
96.3520608525
 30
0.0
 10
455.1548877153
 20
96.3561851443
 30
0.0
 10
454.319380273
 20
96.371954359
 30
0.0
 10
453.4861584733
 20
96.402653485
 30
0.0
 10
452.6881954125
 20
96.4539870552
 30
0.0
 10
452.0604068415
 20
96.5220285559
 30
0.0
 10
451.6009239992
 20
96.5991578436
 30
0.0
 10
451.294630704
 20
96.6668054098
 30
0.0
 10
451.0186699282
 20
96.7476673741
 30
0.0
 10
450.7752789616
 20
96.8437158182
 30
0.0
 10
450.5661688671
 20
96.957301679
 30
0.0
 10
450.3927877928
 20
97.091286593
 30
0.0
 10
450.2568524719
 20
97.2485834063
 30
0.0
 10
450.1599243475
 20
97.4308030549
 30
0.0
 10
450.1012776726
 20
97.6380059905
 30
0.0
 10
450.0861076251
 20
97.7849178359
 30
0.0
 10
450.0826484481
 20
97.861748687
 30
0.0
  0
SPLINE
  5
5D7
100
AcDbEntity
  8
BEZUGSACHSEN
100
AcDbSpline
 62
7
  6
CONTINUOUS
 70
0
 71
3
 72
9
 73
5
 74
0
 42
0.0000001
 43
0.0000001
 44
0.0000000001
 40
0.0
 40
0.0
 40
0.0
 40
0.0
 40
0.4777750451
 40
1.0
 40
1.0
 40
1.0
 40
1.0
 10
435.2731723896
 20
127.2091414249
 30
0.0
 10
435.4058165864
 20
127.4406839064
 30
0.0
 10
435.7646017702
 20
127.8806682098
 30
0.0
 10
436.2233889455
 20
128.2092287013
 30
0.0
 10
436.4770755865
 20
128.353156567
 30
0.0
  0
SPLINE
  5
5D8
100
AcDbEntity
  8
BEZUGSACHSEN
100
AcDbSpline
 62
7
  6
CONTINUOUS
 70
0
 71
3
 72
9
 73
5
 74
0
 42
0.0000001
 43
0.0000001
 44
0.0000000001
 40
0.0
 40
0.0
 40
0.0
 40
0.0
 40
0.5222249549
 40
1.0
 40
1.0
 40
1.0
 40
1.0
 10
441.4839923902
 20
128.353156567
 30
0.0
 10
441.7376790311
 20
128.2092287013
 30
0.0
 10
442.1964662065
 20
127.8806682098
 30
0.0
 10
442.5552513903
 20
127.4406839064
 30
0.0
 10
442.687895587
 20
127.2091414249
 30
0.0
  0
SPLINE
  5
5D9
100
AcDbEntity
  8
KONSTRUKTIONSELEMENTE
100
AcDbSpline
 62
7
  6
CONTINUOUS
 70
0
 71
3
 72
11
 73
7
 74
0
 42
0.0000001
 43
0.0000001
 44
0.0000000001
 40
0.0
 40
0.0
 40
0.0
 40
0.0
 40
0.2729767978
 40
0.5353848362
 40
0.7789285996
 40
1.0
 40
1.0
 40
1.0
 40
1.0
 10
456.1691537897
 20
97.862917614
 30
0.0
 10
456.356654645
 20
97.862917614
 30
0.0
 10
456.7255079646
 20
97.8993245891
 30
0.0
 10
457.2398909134
 20
98.0607093179
 30
0.0
 10
457.6740806692
 20
98.3169926115
 30
0.0
 10
457.8981726938
 20
98.5526930942
 30
0.0
 10
457.9817693638
 20
98.6794586989
 30
0.0
  0
SPLINE
  5
5DA
100
AcDbEntity
  8
KONSTRUKTIONSELEMENTE
100
AcDbSpline
 62
7
  6
CONTINUOUS
 70
0
 71
3
 72
9
 73
5
 74
0
 42
0.0000001
 43
0.0000001
 44
0.0000000001
 40
0.0
 40
0.0
 40
0.0
 40
0.0
 40
0.2605100871
 40
1.0
 40
1.0
 40
1.0
 40
1.0
 10
458.0875254155
 20
98.8398266878
 30
0.0
 10
458.095068956
 20
98.8512656778
 30
0.0
 10
458.1212424273
 20
98.8969133081
 30
0.0
 10
458.1343676332
 20
98.9503059681
 30
0.0
 10
458.1343699159
 20
98.9892018873
 30
0.0
  0
SPLINE
  5
5DB
100
AcDbEntity
  8
KONSTRUKTIONSELEMENTE
100
AcDbSpline
 62
7
  6
CONTINUOUS
 70
0
 71
3
 72
10
 73
6
 74
0
 42
0.0000001
 43
0.0000001
 44
0.0000000001
 40
0.0
 40
0.0
 40
0.0
 40
0.0
 40
0.2661924468
 40
0.53465928
 40
1.0
 40
1.0
 40
1.0
 40
1.0
 10
471.0858464981
 20
119.0523679559
 30
0.0
 10
471.1223750438
 20
119.0403234239
 30
0.0
 10
471.2001134832
 20
119.0275913411
 30
0.0
 10
471.3437260832
 20
119.0418766979
 30
0.0
 10
471.4475076017
 20
119.0988420292
 30
0.0
 10
471.4845243127
 20
119.1549739989
 30
0.0
  0
SPLINE
  5
5DC
100
AcDbEntity
  8
KONSTRUKTIONSELEMENTE
100
AcDbSpline
 62
7
  6
CONTINUOUS
 70
0
 71
3
 72
9
 73
5
 74
0
 42
0.0000001
 43
0.0000001
 44
0.0000000001
 40
0.0
 40
0.0
 40
0.0
 40
0.0
 40
0.5108269807
 40
1.0
 40
1.0
 40
1.0
 40
1.0
 10
471.7380952697
 20
119.5394878282
 30
0.0
 10
471.8271246131
 20
119.6744915136
 30
0.0
 10
471.9688305716
 20
119.9627634285
 30
0.0
 10
472.0191691677
 20
120.2810978389
 30
0.0
 10
472.0191719268
 20
120.4359591529
 30
0.0
  0
SPLINE
  5
5DD
100
AcDbEntity
  8
KONSTRUKTIONSELEMENTE
100
AcDbSpline
 62
7
  6
CONTINUOUS
 70
0
 71
3
 72
11
 73
7
 74
0
 42
0.0000001
 43
0.0000001
 44
0.0000000001
 40
0.0
 40
0.0
 40
0.0
 40
0.0
 40
0.2200436456
 40
0.4557793627
 40
0.7157728079
 40
1.0
 40
1.0
 40
1.0
 40
1.0
 10
416.4549523847
 20
118.1209097089
 30
0.0
 10
416.454969049
 20
118.1814536572
 30
0.0
 10
416.481557785
 20
118.307995036
 30
0.0
 10
416.59277001
 20
118.4750538858
 30
0.0
 10
416.7623472106
 20
118.6109389335
 30
0.0
 10
416.900324657
 20
118.6730495084
 30
0.0
 10
416.9745951541
 20
118.6975386679
 30
0.0
  0
SPLINE
  5
5DE
100
AcDbEntity
  8
BEZUGSACHSEN
100
AcDbSpline
 62
7
  6
CONTINUOUS
 70
0
 71
3
 72
11
 73
7
 74
0
 42
0.0000001
 43
0.0000001
 44
0.0000000001
 40
0.0
 40
0.0
 40
0.0
 40
0.0
 40
0.2279683515
 40
0.4664541658
 40
0.7228552991
 40
1.0
 40
1.0
 40
1.0
 40
1.0
 10
442.9805339883
 20
128.268509205
 30
0.0
 10
442.9805339883
 20
128.0570402163
 30
0.0
 10
442.9098570312
 20
127.6215944081
 30
0.0
 10
442.6037691794
 20
127.0150573072
 30
0.0
 10
442.1196649612
 20
126.4777348929
 30
0.0
 10
441.710771443
 20
126.1914796729
 30
0.0
 10
441.4872836427
 20
126.0644107933
 30
0.0
  0
SPLINE
  5
5DF
100
AcDbEntity
  8
BEZUGSACHSEN
100
AcDbSpline
 62
7
  6
CONTINUOUS
 70
0
 71
3
 72
11
 73
7
 74
0
 42
0.0000001
 43
0.0000001
 44
0.0000000001
 40
0.0
 40
0.0
 40
0.0
 40
0.0
 40
0.2430270432
 40
0.5
 40
0.7569729568
 40
1.0
 40
1.0
 40
1.0
 40
1.0
 10
441.4872836427
 20
126.0644107933
 30
0.0
 10
441.120469065
 20
125.8558503379
 30
0.0
 10
440.2975237396
 20
125.5418000927
 30
0.0
 10
438.9805339883
 20
125.3878261648
 30
0.0
 10
437.663544237
 20
125.5418000927
 30
0.0
 10
436.8405989116
 20
125.8558503379
 30
0.0
 10
436.473784334
 20
126.0644107933
 30
0.0
  0
SPLINE
  5
5E0
100
AcDbEntity
  8
BEZUGSACHSEN
100
AcDbSpline
 62
7
  6
CONTINUOUS
 70
0
 71
3
 72
11
 73
7
 74
0
 42
0.0000001
 43
0.0000001
 44
0.0000000001
 40
0.0
 40
0.0
 40
0.0
 40
0.0
 40
0.2771447009
 40
0.5335458342
 40
0.7720316485
 40
1.0
 40
1.0
 40
1.0
 40
1.0
 10
436.473784334
 20
126.0644107933
 30
0.0
 10
436.2502965336
 20
126.1914796729
 30
0.0
 10
435.8414030154
 20
126.4777348929
 30
0.0
 10
435.3572987973
 20
127.0150573072
 30
0.0
 10
435.0512109455
 20
127.6215944081
 30
0.0
 10
434.9805339883
 20
128.0570402163
 30
0.0
 10
434.9805339883
 20
128.268509205
 30
0.0
  0
SPLINE
  5
5E1
100
AcDbEntity
  8
KONSTRUKTIONSELEMENTE
100
AcDbSpline
 62
7
  6
CONTINUOUS
 70
0
 71
3
 72
11
 73
7
 74
0
 42
0.0000001
 43
0.0000001
 44
0.0000000001
 40
0.0
 40
0.0
 40
0.0
 40
0.0
 40
0.2842271921
 40
0.5442206373
 40
0.7799563544
 40
1.0
 40
1.0
 40
1.0
 40
1.0
 10
420.2006604293
 20
119.03715176
 30
0.0
 10
420.2749309264
 20
119.0616409195
 30
0.0
 10
420.4129083728
 20
119.1237514944
 30
0.0
 10
420.5824855734
 20
119.2596365421
 30
0.0
 10
420.6936977984
 20
119.4266953918
 30
0.0
 10
420.7202865344
 20
119.5532367707
 30
0.0
 10
420.7203031987
 20
119.6137807189
 30
0.0
  0
SPLINE
  5
5E2
100
AcDbEntity
  8
BEZUGSACHSEN
100
AcDbSpline
 62
7
  6
CONTINUOUS
 70
0
 71
3
 72
9
 73
5
 74
0
 42
0.0000001
 43
0.0000001
 44
0.0000000001
 40
0.0
 40
0.0
 40
0.0
 40
0.0
 40
0.2464061737
 40
1.0
 40
1.0
 40
1.0
 40
1.0
 10
444.0519531292
 20
133.1303586649
 30
0.0
 10
443.845870837
 20
133.1983100364
 30
0.0
 10
443.0034817788
 20
133.4555157138
 30
0.0
 10
442.1390998453
 20
133.6399011379
 30
0.0
 10
441.4828675328
 20
133.7388330296
 30
0.0
  0
SPLINE
  5
5E3
100
AcDbEntity
  8
BEZUGSACHSEN
100
AcDbSpline
 62
7
  6
CONTINUOUS
 70
0
 71
3
 72
9
 73
5
 74
0
 42
0.0000001
 43
0.0000001
 44
0.0000000001
 40
0.0
 40
0.0
 40
0.0
 40
0.0
 40
0.2533289355
 40
1.0
 40
1.0
 40
1.0
 40
1.0
 10
436.4782004438
 20
133.7388330296
 30
0.0
 10
436.2576030133
 20
133.7055763297
 30
0.0
 10
435.3896103254
 20
133.556548772
 30
0.0
 10
434.5335880195
 20
133.3362657713
 30
0.0
 10
433.9091148474
 20
133.1303586649
 30
0.0
  0
SPLINE
  5
5E4
100
AcDbEntity
  8
KONSTRUKTIONSELEMENTE
100
AcDbSpline
 62
7
  6
CONTINUOUS
 70
0
 71
3
 72
12
 73
8
 74
0
 42
0.0000001
 43
0.0000001
 44
0.0000000001
 40
0.0
 40
0.0
 40
0.0
 40
0.0
 40
0.1035616361
 40
0.2109621259
 40
0.4456948874
 40
0.7125484092
 40
1.0
 40
1.0
 40
1.0
 40
1.0
 10
435.0505339883
 20
90.2261643772
 30
0.0
 10
435.0505339883
 20
90.1843928825
 30
0.0
 10
435.0626964747
 20
90.0988724709
 30
0.0
 10
435.1353674467
 20
89.9324069179
 30
0.0
 10
435.3149984697
 20
89.7527121922
 30
0.0
 10
435.6096114639
 20
89.6202643387
 30
0.0
 10
435.8345906425
 20
89.5897682741
 30
0.0
 10
435.9505339883
 20
89.5897682741
 30
0.0
  0
SPLINE
  5
5E5
100
AcDbEntity
  8
KONSTRUKTIONSELEMENTE
100
AcDbSpline
 62
7
  6
CONTINUOUS
 70
0
 71
3
 72
11
 73
7
 74
0
 42
0.0000001
 43
0.0000001
 44
0.0000000001
 40
0.0
 40
0.0
 40
0.0
 40
0.0
 40
0.2200606194
 40
0.4557771489
 40
0.7157721538
 40
1.0
 40
1.0
 40
1.0
 40
1.0
 10
458.1343699159
 20
101.1105222309
 30
0.0
 10
458.1343718906
 20
101.1441692246
 30
0.0
 10
458.1196379223
 20
101.2144971049
 30
0.0
 10
458.0578532221
 20
101.3073485466
 30
0.0
 10
457.9636260497
 20
101.3828647619
 30
0.0
 10
457.8869530167
 20
101.4173846338
 30
0.0
 10
457.8456806529
 20
101.4309933417
 30
0.0
  0
SPLINE
  5
5E6
100
AcDbEntity
  8
KONSTRUKTIONSELEMENTE
100
AcDbSpline
 62
7
  6
CONTINUOUS
 70
0
 71
3
 72
12
 73
8
 74
0
 42
0.0000001
 43
0.0000001
 44
0.0000000001
 40
0.0
 40
0.0
 40
0.0
 40
0.0
 40
0.1093780659
 40
0.2208877298
 40
0.4563569003
 40
0.716089424
 40
1.0
 40
1.0
 40
1.0
 40
1.0
 10
472.0191719268
 20
122.5572794965
 30
0.0
 10
472.0191737163
 20
122.6577212353
 30
0.0
 10
471.9985263268
 20
122.861142833
 30
0.0
 10
471.8744666904
 20
123.2638637932
 30
0.0
 10
471.5600018854
 20
123.738718595
 30
0.0
 10
470.994621976
 20
124.1909482613
 30
0.0
 10
470.5346288007
 20
124.398244363
 30
0.0
 10
470.2870266939
 20
124.4798860341
 30
0.0
  0
SPLINE
  5
5E7
100
AcDbEntity
  8
KONSTRUKTIONSELEMENTE
100
AcDbSpline
 62
7
  6
CONTINUOUS
 70
0
 71
3
 72
12
 73
8
 74
0
 42
0.0000001
 43
0.0000001
 44
0.0000000001
 40
0.0
 40
0.0
 40
0.0
 40
0.0
 40
0.2839215899
 40
0.5436396333
 40
0.7791104503
 40
0.8906217948
 40
1.0
 40
1.0
 40
1.0
 40
1.0
 10
454.4923418408
 20
102.536687425
 30
0.0
 10
454.244727532
 20
102.6183331195
 30
0.0
 10
453.7847351526
 20
102.8256342916
 30
0.0
 10
453.2193479941
 20
103.2778706069
 30
0.0
 10
452.90491237
 20
103.7527324425
 30
0.0
 10
452.7808257221
 20
104.1554565019
 30
0.0
 10
452.7602113247
 20
104.3588844887
 30
0.0
 10
452.7602054599
 20
104.4593274086
 30
0.0
  0
SPLINE
  5
5E8
100
AcDbEntity
  8
KONSTRUKTIONSELEMENTE
100
AcDbSpline
 62
7
  6
CONTINUOUS
 70
0
 71
3
 72
12
 73
8
 74
0
 42
0.0000001
 43
0.0000001
 44
0.0000000001
 40
0.0
 40
0.0
 40
0.0
 40
0.0
 40
0.2639470843
 40
0.5301491947
 40
0.658231942
 40
0.7800450471
 40
1.0
 40
1.0
 40
1.0
 40
1.0
 10
467.5512461286
 20
120.217829287
 30
0.0
 10
467.1859604834
 20
120.3382746697
 30
0.0
 10
466.4120931815
 20
120.4673393053
 30
0.0
 10
465.4455714548
 20
120.3659760284
 30
0.0
 10
464.7295868015
 20
120.1255275305
 30
0.0
 10
464.1219550651
 20
119.8078016764
 30
0.0
 10
463.7409252696
 20
119.4593478732
 30
0.0
 10
463.5644679823
 20
119.191768857
 30
0.0
  0
SPLINE
  5
5E9
100
AcDbEntity
  8
KONSTRUKTIONSELEMENTE
100
AcDbSpline
 62
7
  6
CONTINUOUS
 70
0
 71
3
 72
11
 73
7
 74
0
 42
0.0000001
 43
0.0000001
 44
0.0000000001
 40
0.0
 40
0.0
 40
0.0
 40
0.0
 40
0.2729864502
 40
0.5353847233
 40
0.7789199417
 40
1.0
 40
1.0
 40
1.0
 40
1.0
 10
430.3733054642
 20
97.862917614
 30
0.0
 10
430.0920442991
 20
97.862917614
 30
0.0
 10
429.5387648175
 20
97.9175323806
 30
0.0
 10
428.7671992644
 20
98.1596063758
 30
0.0
 10
428.1159247702
 20
98.5440264779
 30
0.0
 10
427.779781991
 20
98.8975734299
 30
0.0
 10
427.6543821031
 20
99.0877292414
 30
0.0
  0
SPLINE
  5
5EA
100
AcDbEntity
  8
KONSTRUKTIONSELEMENTE
100
AcDbSpline
 62
7
  6
CONTINUOUS
 70
0
 71
3
 72
9
 73
5
 74
0
 42
0.0000001
 43
0.0000001
 44
0.0000000001
 40
0.0
 40
0.0
 40
0.0
 40
0.0
 40
0.2553888241
 40
1.0
 40
1.0
 40
1.0
 40
1.0
 10
445.3105339883
 20
98.0750496483
 30
0.0
 10
445.2098753893
 20
98.0750496483
 30
0.0
 10
444.8160601326
 20
98.0575553595
 30
0.0
 10
444.4243236013
 20
97.9704808347
 30
0.0
 10
444.1509201394
 20
97.8637987343
 30
0.0
  0
SPLINE
  5
5EB
100
AcDbEntity
  8
KONSTRUKTIONSELEMENTE
100
AcDbSpline
 62
7
  6
CONTINUOUS
 70
0
 71
3
 72
11
 73
7
 74
0
 42
0.0000001
 43
0.0000001
 44
0.0000000001
 40
0.0
 40
0.0
 40
0.0
 40
0.0
 40
0.2820767698
 40
0.5407553301
 40
0.7772666753
 40
1.0
 40
1.0
 40
1.0
 40
1.0
 10
444.115527403
 20
97.8497114086
 30
0.0
 10
443.9403585585
 20
97.7786045523
 30
0.0
 10
443.6167979362
 20
97.6075926045
 30
0.0
 10
443.2242622564
 20
97.2558971668
 30
0.0
 10
442.9703506102
 20
96.8375899301
 30
0.0
 10
442.9105339883
 20
96.5272717936
 30
0.0
 10
442.9105339883
 20
96.3779933735
 30
0.0
  0
SPLINE
  5
5EC
100
AcDbEntity
  8
KONSTRUKTIONSELEMENTE
100
AcDbSpline
 62
7
  6
CONTINUOUS
 70
0
 71
3
 72
12
 73
8
 74
0
 42
0.0000001
 43
0.0000001
 44
0.0000000001
 40
0.0
 40
0.0
 40
0.0
 40
0.0
 40
0.2839215899
 40
0.5436396333
 40
0.7791104503
 40
0.8906217948
 40
1.0
 40
1.0
 40
1.0
 40
1.0
 10
414.1994573494
 20
126.631506953
 30
0.0
 10
413.9518430406
 20
126.5498612585
 30
0.0
 10
413.4918506612
 20
126.3425600864
 30
0.0
 10
412.9264635027
 20
125.890323771
 30
0.0
 10
412.6120278786
 20
125.4154619355
 30
0.0
 10
412.4879412306
 20
125.0127378761
 30
0.0
 10
412.4673268333
 20
124.8093098893
 30
0.0
 10
412.4673209684
 20
124.7088669694
 30
0.0
  0
SPLINE
  5
5ED
100
AcDbEntity
  8
KONSTRUKTIONSELEMENTE
100
AcDbSpline
 62
7
  6
CONTINUOUS
 70
0
 71
3
 72
9
 73
5
 74
0
 42
0.0000001
 43
0.0000001
 44
0.0000000001
 40
0.0
 40
0.0
 40
0.0
 40
0.0
 40
0.5108316005
 40
1.0
 40
1.0
 40
1.0
 40
1.0
 10
412.7483887735
 20
121.691108747
 30
0.0
 10
412.6593551976
 20
121.8261188508
 30
0.0
 10
412.5176440409
 20
122.1144005599
 30
0.0
 10
412.4673040951
 20
122.4327517932
 30
0.0
 10
412.4673208483
 20
122.5876176056
 30
0.0
  0
SPLINE
  5
5EE
100
AcDbEntity
  8
KONSTRUKTIONSELEMENTE
100
AcDbSpline
 62
7
  6
CONTINUOUS
 70
0
 71
3
 72
12
 73
8
 74
0
 42
0.0000001
 43
0.0000001
 44
0.0000000001
 40
0.0
 40
0.0
 40
0.0
 40
0.0
 40
0.2874515908
 40
0.5543051126
 40
0.7890378741
 40
0.8964383639
 40
1.0
 40
1.0
 40
1.0
 40
1.0
 10
442.0105339883
 20
89.5897682741
 30
0.0
 10
442.1264773341
 20
89.5897682741
 30
0.0
 10
442.3514565127
 20
89.6202643387
 30
0.0
 10
442.6460695069
 20
89.7527121922
 30
0.0
 10
442.82570053
 20
89.9324069179
 30
0.0
 10
442.8983715019
 20
90.0988724709
 30
0.0
 10
442.9105339883
 20
90.1843928825
 30
0.0
 10
442.9105339883
 20
90.2261643772
 30
0.0
  0
SPLINE
  5
5EF
100
AcDbEntity
  8
KONSTRUKTIONSELEMENTE
100
AcDbSpline
 62
7
  6
CONTINUOUS
 70
0
 71
3
 72
9
 73
5
 74
0
 42
0.0000001
 43
0.0000001
 44
0.0000000001
 40
0.0
 40
0.0
 40
0.0
 40
0.0
 40
0.2553888241
 40
1.0
 40
1.0
 40
1.0
 40
1.0
 10
432.6505339883
 20
98.0750496483
 30
0.0
 10
432.7511925874
 20
98.0750496483
 30
0.0
 10
433.145007844
 20
98.0575553595
 30
0.0
 10
433.5367443753
 20
97.9704808347
 30
0.0
 10
433.8101478372
 20
97.8637987343
 30
0.0
  0
SPLINE
  5
5F0
100
AcDbEntity
  8
KONSTRUKTIONSELEMENTE
100
AcDbSpline
 62
7
  6
CONTINUOUS
 70
0
 71
3
 72
11
 73
7
 74
0
 42
0.0000001
 43
0.0000001
 44
0.0000000001
 40
0.0
 40
0.0
 40
0.0
 40
0.0
 40
0.2820767698
 40
0.5407553301
 40
0.7772666753
 40
1.0
 40
1.0
 40
1.0
 40
1.0
 10
433.8455405737
 20
97.8497114086
 30
0.0
 10
434.0207094182
 20
97.7786045523
 30
0.0
 10
434.3442700404
 20
97.6075926045
 30
0.0
 10
434.7368057202
 20
97.2558971668
 30
0.0
 10
434.9907173664
 20
96.8375899301
 30
0.0
 10
435.0505339883
 20
96.5272717936
 30
0.0
 10
435.0505339883
 20
96.3779933735
 30
0.0
  0
SPLINE
  5
5F1
100
AcDbEntity
  8
KONSTRUKTIONSELEMENTE
100
AcDbSpline
 62
7
  6
CONTINUOUS
 70
0
 71
3
 72
11
 73
7
 74
0
 42
0.0000001
 43
0.0000001
 44
0.0000000001
 40
0.0
 40
0.0
 40
0.0
 40
0.0
 40
0.2842271921
 40
0.5442206373
 40
0.7799563544
 40
1.0
 40
1.0
 40
1.0
 40
1.0
 10
419.6935185152
 20
119.5940473841
 30
0.0
 10
419.7677890123
 20
119.6185365436
 30
0.0
 10
419.9057664587
 20
119.6806471185
 30
0.0
 10
420.0753436593
 20
119.8165321662
 30
0.0
 10
420.1865558843
 20
119.9835910159
 30
0.0
 10
420.2131446203
 20
120.1101323948
 30
0.0
 10
420.2131612846
 20
120.1706763431
 30
0.0
  0
SPLINE
  5
5F2
100
AcDbEntity
  8
KONSTRUKTIONSELEMENTE
100
AcDbSpline
 62
7
  6
CONTINUOUS
 70
0
 71
3
 72
9
 73
5
 74
0
 42
0.0000001
 43
0.0000001
 44
0.0000000001
 40
0.0
 40
0.0
 40
0.0
 40
0.0
 40
0.5107012964
 40
1.0
 40
1.0
 40
1.0
 40
1.0
 10
416.5392745813
 20
116.1547590343
 30
0.0
 10
416.512558486
 20
116.195271198
 30
0.0
 10
416.4700456408
 20
116.2818073884
 30
0.0
 10
416.4549395874
 20
116.3773589776
 30
0.0
 10
416.4549523847
 20
116.4238534341
 30
0.0
  0
SPLINE
  5
5F3
100
AcDbEntity
  8
KONSTRUKTIONSELEMENTE
100
AcDbSpline
 62
7
  6
CONTINUOUS
 70
0
 71
3
 72
13
 73
9
 74
0
 42
0.0000001
 43
0.0000001
 44
0.0000000001
 40
0.0
 40
0.0
 40
0.0
 40
0.0
 40
0.2870489256
 40
0.5535682914
 40
0.6755020148
 40
0.789331082
 40
0.8965440086
 40
1.0
 40
1.0
 40
1.0
 40
1.0
 10
444.1105339883
 20
99.9842379575
 30
0.0
 10
443.8013738127
 20
99.9842379575
 30
0.0
 10
443.2021230646
 20
99.9037367916
 30
0.0
 10
442.5262171977
 20
99.5981336683
 30
0.0
 10
442.1113475667
 20
99.2458065514
 30
0.0
 10
441.8843694713
 20
98.9502629862
 30
0.0
 10
441.7428702449
 20
98.6266607728
 30
0.0
 10
441.7105339883
 20
98.3986068427
 30
0.0
 10
441.7105339883
 20
98.2871816827
 30
0.0
  0
SPLINE
  5
5F4
100
AcDbEntity
  8
KONSTRUKTIONSELEMENTE
100
AcDbSpline
 62
7
  6
CONTINUOUS
 70
0
 71
3
 72
9
 73
5
 74
0
 42
0.0000001
 43
0.0000001
 44
0.0000000001
 40
0.0
 40
0.0
 40
0.0
 40
0.0
 40
0.4892987036
 40
1.0
 40
1.0
 40
1.0
 40
1.0
 10
420.2131612846
 20
120.1706763431
 30
0.0
 10
420.2131740819
 20
120.2171707996
 30
0.0
 10
420.1980680285
 20
120.3127223888
 30
0.0
 10
420.1555551833
 20
120.3992585791
 30
0.0
 10
420.128839088
 20
120.4397707428
 30
0.0
  0
SPLINE
  5
5F5
100
AcDbEntity
  8
KONSTRUKTIONSELEMENTE
100
AcDbSpline
 62
7
  6
CONTINUOUS
 70
0
 71
3
 72
9
 73
5
 74
0
 42
0.0000001
 43
0.0000001
 44
0.0000000001
 40
0.0
 40
0.0
 40
0.0
 40
0.0
 40
0.2463692114
 40
1.0
 40
1.0
 40
1.0
 40
1.0
 10
420.6858622783
 20
119.5760232851
 30
0.0
 10
420.6825766743
 20
119.5841866209
 30
0.0
 10
420.668378679
 20
119.6169698754
 30
0.0
 10
420.6508000545
 20
119.6482715416
 30
0.0
 10
420.6359810021
 20
119.6707430843
 30
0.0
  0
SPLINE
  5
5F6
100
AcDbEntity
  8
KONSTRUKTIONSELEMENTE
100
AcDbSpline
 62
7
  6
CONTINUOUS
 70
0
 71
3
 72
13
 73
9
 74
0
 42
0.0000001
 43
0.0000001
 44
0.0000000001
 40
0.0
 40
0.0
 40
0.0
 40
0.0
 40
0.1034559914
 40
0.210668918
 40
0.3244979852
 40
0.4464317086
 40
0.7129510744
 40
1.0
 40
1.0
 40
1.0
 40
1.0
 10
436.2505339883
 20
98.2871816827
 30
0.0
 10
436.2505339883
 20
98.3986068427
 30
0.0
 10
436.2181977317
 20
98.6266607728
 30
0.0
 10
436.0766985053
 20
98.9502629862
 30
0.0
 10
435.8497204099
 20
99.2458065514
 30
0.0
 10
435.4348507789
 20
99.5981336683
 30
0.0
 10
434.758944912
 20
99.9037367916
 30
0.0
 10
434.1596941639
 20
99.9842379575
 30
0.0
 10
433.8505339883
 20
99.9842379575
 30
0.0
  0
SPLINE
  5
5F7
100
AcDbEntity
  8
KONSTRUKTIONSELEMENTE
100
AcDbSpline
 62
7
  6
CONTINUOUS
 70
0
 71
3
 72
9
 73
5
 74
0
 42
0.0000001
 43
0.0000001
 44
0.0000000001
 40
0.0
 40
0.0
 40
0.0
 40
0.0
 40
0.4891681133
 40
1.0
 40
1.0
 40
1.0
 40
1.0
 10
452.7602054599
 20
104.4593274086
 30
0.0
 10
452.7601964179
 20
104.6141816841
 30
0.0
 10
452.8105429952
 20
104.932506682
 30
0.0
 10
452.9522462201
 20
105.2207650874
 30
0.0
 10
453.041273265
 20
105.3557652874
 30
0.0
  0
SPLINE
  5
5F8
100
AcDbEntity
  8
KONSTRUKTIONSELEMENTE
100
AcDbSpline
 62
7
  6
CONTINUOUS
 70
0
 71
3
 72
12
 73
8
 74
0
 42
0.0000001
 43
0.0000001
 44
0.0000000001
 40
0.0
 40
0.0
 40
0.0
 40
0.0
 40
0.1035616361
 40
0.2109621259
 40
0.4456948874
 40
0.7125484092
 40
1.0
 40
1.0
 40
1.0
 40
1.0
 10
435.0505339883
 20
91.923220652
 30
0.0
 10
435.0505339883
 20
91.8814491574
 30
0.0
 10
435.0626964747
 20
91.7959287457
 30
0.0
 10
435.1353674467
 20
91.6294631928
 30
0.0
 10
435.3149984697
 20
91.449768467
 30
0.0
 10
435.6096114639
 20
91.3173206136
 30
0.0
 10
435.8345906425
 20
91.2868245489
 30
0.0
 10
435.9505339883
 20
91.2868245489
 30
0.0
  0
SPLINE
  5
5F9
100
AcDbEntity
  8
KONSTRUKTIONSELEMENTE
100
AcDbSpline
 62
7
  6
CONTINUOUS
 70
0
 71
3
 72
9
 73
5
 74
0
 42
0.0000001
 43
0.0000001
 44
0.0000000001
 40
0.0
 40
0.0
 40
0.0
 40
0.0
 40
0.4891681133
 40
1.0
 40
1.0
 40
1.0
 40
1.0
 10
412.4673209684
 20
124.7088669694
 30
0.0
 10
412.4673119265
 20
124.5540126939
 30
0.0
 10
412.5176585038
 20
124.235687696
 30
0.0
 10
412.6593617287
 20
123.9474292906
 30
0.0
 10
412.7483887735
 20
123.8124290906
 30
0.0
  0
SPLINE
  5
5FA
100
AcDbEntity
  8
KONSTRUKTIONSELEMENTE
100
AcDbSpline
 62
7
  6
CONTINUOUS
 70
0
 71
3
 72
9
 73
5
 74
0
 42
0.0000001
 43
0.0000001
 44
0.0000000001
 40
0.0
 40
0.0
 40
0.0
 40
0.0
 40
0.4892987036
 40
1.0
 40
1.0
 40
1.0
 40
1.0
 10
420.7203031987
 20
119.6137807189
 30
0.0
 10
420.720315996
 20
119.6602751755
 30
0.0
 10
420.7052099426
 20
119.7558267647
 30
0.0
 10
420.6626970974
 20
119.842362955
 30
0.0
 10
420.6359810021
 20
119.8828751187
 30
0.0
  0
SPLINE
  5
5FB
100
AcDbEntity
  8
KONSTRUKTIONSELEMENTE
100
AcDbSpline
 62
7
  6
CONTINUOUS
 70
0
 71
3
 72
13
 73
9
 74
0
 42
0.0000001
 43
0.0000001
 44
0.0000000001
 40
0.0
 40
0.0
 40
0.0
 40
0.0
 40
0.1037033436
 40
0.212323527
 40
0.3277710209
 40
0.4507608463
 40
0.7166544849
 40
1.0
 40
1.0
 40
1.0
 40
1.0
 10
436.2324720512
 20
98.2826517102
 30
0.0
 10
436.2145172033
 20
98.3856664331
 30
0.0
 10
436.1502595332
 20
98.5925883249
 30
0.0
 10
435.9794122327
 20
98.8785444736
 30
0.0
 10
435.7397226072
 20
99.1367030921
 30
0.0
 10
435.3291924101
 20
99.4408466789
 30
0.0
 10
434.6924771039
 20
99.7028288315
 30
0.0
 10
434.136241234
 20
99.7721059232
 30
0.0
 10
433.8505339883
 20
99.7721059232
 30
0.0
  0
SPLINE
  5
5FC
100
AcDbEntity
  8
KONSTRUKTIONSELEMENTE
100
AcDbSpline
 62
7
  6
CONTINUOUS
 70
0
 71
3
 72
9
 73
5
 74
0
 42
0.0000001
 43
0.0000001
 44
0.0000000001
 40
0.0
 40
0.0
 40
0.0
 40
0.0
 40
0.5108269807
 40
1.0
 40
1.0
 40
1.0
 40
1.0
 10
471.7380952697
 20
121.6608081717
 30
0.0
 10
471.8271246131
 20
121.7958118571
 30
0.0
 10
471.9688305716
 20
122.084083772
 30
0.0
 10
472.0191691677
 20
122.4024181825
 30
0.0
 10
472.0191719268
 20
122.5572794965
 30
0.0
  0
SPLINE
  5
5FD
100
AcDbEntity
  8
KONSTRUKTIONSELEMENTE
100
AcDbSpline
 62
7
  6
CONTINUOUS
 70
0
 71
3
 72
12
 73
8
 74
0
 42
0.0000001
 43
0.0000001
 44
0.0000000001
 40
0.0
 40
0.0
 40
0.0
 40
0.0
 40
0.2199571982
 40
0.3417709653
 40
0.4698495946
 40
0.7360503245
 40
1.0
 40
1.0
 40
1.0
 40
1.0
 10
463.5644679823
 20
121.3130892006
 30
0.0
 10
463.740927065
 20
121.5806709394
 30
0.0
 10
464.1219610287
 20
121.9291271677
 30
0.0
 10
464.7295924663
 20
122.2468496901
 30
0.0
 10
465.4455703378
 20
122.4872953508
 30
0.0
 10
466.4120874498
 20
122.588660193
 30
0.0
 10
467.1859569095
 20
122.4595961917
 30
0.0
 10
467.5512461286
 20
122.3391496306
 30
0.0
  0
SPLINE
  5
5FE
100
AcDbEntity
  8
KONSTRUKTIONSELEMENTE
100
AcDbSpline
 62
7
  6
CONTINUOUS
 70
0
 71
3
 72
11
 73
7
 74
0
 42
0.0000001
 43
0.0000001
 44
0.0000000001
 40
0.0
 40
0.0
 40
0.0
 40
0.0
 40
0.2210800583
 40
0.4646152767
 40
0.7270135498
 40
1.0
 40
1.0
 40
1.0
 40
1.0
 10
427.6543821031
 20
101.2090495849
 30
0.0
 10
427.779781991
 20
101.0188937735
 30
0.0
 10
428.1159247702
 20
100.6653468215
 30
0.0
 10
428.7671992644
 20
100.2809267193
 30
0.0
 10
429.5387648175
 20
100.0388527241
 30
0.0
 10
430.0920442991
 20
99.9842379575
 30
0.0
 10
430.3733054642
 20
99.9842379575
 30
0.0
  0
SPLINE
  5
5FF
100
AcDbEntity
  8
KONSTRUKTIONSELEMENTE
100
AcDbSpline
 62
7
  6
CONTINUOUS
 70
0
 71
3
 72
10
 73
6
 74
0
 42
0.0000001
 43
0.0000001
 44
0.0000000001
 40
0.0
 40
0.0
 40
0.0
 40
0.0
 40
0.2661924468
 40
0.53465928
 40
1.0
 40
1.0
 40
1.0
 40
1.0
 10
471.0858464981
 20
121.1736882995
 30
0.0
 10
471.1223750438
 20
121.1616437674
 30
0.0
 10
471.2001134832
 20
121.1489116847
 30
0.0
 10
471.3437260832
 20
121.1631970414
 30
0.0
 10
471.4475076017
 20
121.2201623728
 30
0.0
 10
471.4845243127
 20
121.2762943425
 30
0.0
  0
SPLINE
  5
600
100
AcDbEntity
  8
BEZUGSACHSEN
100
AcDbSpline
 62
7
  6
CONTINUOUS
 70
0
 71
3
 72
11
 73
7
 74
0
 42
0.0000001
 43
0.0000001
 44
0.0000000001
 40
0.0
 40
0.0
 40
0.0
 40
0.0
 40
0.2279319373
 40
0.4664024631
 40
0.722818209
 40
1.0
 40
1.0
 40
1.0
 40
1.0
 10
434.9805339883
 20
128.268509205
 30
0.0
 10
434.9805339883
 20
128.4802300738
 30
0.0
 10
435.0513877272
 20
128.9162213819
 30
0.0
 10
435.3582058991
 20
129.5233979259
 30
0.0
 10
435.8433957875
 20
130.0611161477
 30
0.0
 10
436.2531379472
 20
130.3474269944
 30
0.0
 10
436.4770755865
 20
130.4744769106
 30
0.0
  0
SPLINE
  5
601
100
AcDbEntity
  8
BEZUGSACHSEN
100
AcDbSpline
 62
7
  6
CONTINUOUS
 70
0
 71
3
 72
11
 73
7
 74
0
 42
0.0000001
 43
0.0000001
 44
0.0000000001
 40
0.0
 40
0.0
 40
0.0
 40
0.0
 40
0.277181791
 40
0.5335975369
 40
0.7720680627
 40
1.0
 40
1.0
 40
1.0
 40
1.0
 10
441.4839923902
 20
130.4744769106
 30
0.0
 10
441.7079300294
 20
130.3474269945
 30
0.0
 10
442.1176721891
 20
130.0611161477
 30
0.0
 10
442.6028620775
 20
129.5233979259
 30
0.0
 10
442.9096802494
 20
128.9162213819
 30
0.0
 10
442.9805339883
 20
128.4802300738
 30
0.0
 10
442.9805339883
 20
128.268509205
 30
0.0
  0
SPLINE
  5
602
100
AcDbEntity
  8
KONSTRUKTIONSELEMENTE
100
AcDbSpline
 62
7
  6
CONTINUOUS
 70
0
 71
3
 72
9
 73
5
 74
0
 42
0.0000001
 43
0.0000001
 44
0.0000000001
 40
0.0
 40
0.0
 40
0.0
 40
0.0
 40
0.2605100871
 40
1.0
 40
1.0
 40
1.0
 40
1.0
 10
458.0875254155
 20
100.9611470313
 30
0.0
 10
458.095068956
 20
100.9725860214
 30
0.0
 10
458.1212424273
 20
101.0182336517
 30
0.0
 10
458.1343676332
 20
101.0716263117
 30
0.0
 10
458.1343699159
 20
101.1105222309
 30
0.0
  0
SPLINE
  5
603
100
AcDbEntity
  8
KONSTRUKTIONSELEMENTE
100
AcDbSpline
 62
7
  6
CONTINUOUS
 70
0
 71
3
 72
11
 73
7
 74
0
 42
0.0000001
 43
0.0000001
 44
0.0000000001
 40
0.0
 40
0.0
 40
0.0
 40
0.0
 40
0.2445537072
 40
0.4957655095
 40
0.7496099133
 40
1.0
 40
1.0
 40
1.0
 40
1.0
 10
418.4933064151
 20
121.5956208726
 30
0.0
 10
418.4494537672
 20
121.6925106575
 30
0.0
 10
418.3283219805
 20
121.8757107312
 30
0.0
 10
418.0717982919
 20
122.0846187533
 30
0.0
 10
417.7611519813
 20
122.2071732822
 30
0.0
 10
417.5363670285
 20
122.2154042302
 30
0.0
 10
417.4287809342
 20
122.1986045781
 30
0.0
  0
SPLINE
  5
604
100
AcDbEntity
  8
KONSTRUKTIONSELEMENTE
100
AcDbSpline
 62
7
  6
CONTINUOUS
 70
0
 71
3
 72
11
 73
7
 74
0
 42
0.0000001
 43
0.0000001
 44
0.0000000001
 40
0.0
 40
0.0
 40
0.0
 40
0.0
 40
0.1794231642
 40
0.4196341704
 40
0.7047772544
 40
1.0
 40
1.0
 40
1.0
 40
1.0
 10
418.4933064151
 20
122.5470927352
 30
0.0
 10
418.4364528497
 20
122.5939031744
 30
0.0
 10
418.2721933577
 20
122.6621441623
 30
0.0
 10
417.9844773996
 20
122.6997413009
 30
0.0
 10
417.6462203878
 20
122.6815416437
 30
0.0
 10
417.4123534641
 20
122.6292523785
 30
0.0
 10
417.2972729712
 20
122.5913069673
 30
0.0
  0
SPLINE
  5
605
100
AcDbEntity
  8
KONSTRUKTIONSELEMENTE
100
AcDbSpline
 62
7
  6
CONTINUOUS
 70
0
 71
3
 72
9
 73
5
 74
0
 42
0.0000001
 43
0.0000001
 44
0.0000000001
 40
0.0
 40
0.0
 40
0.0
 40
0.0
 40
0.5107012964
 40
1.0
 40
1.0
 40
1.0
 40
1.0
 10
416.5392745813
 20
117.8518153092
 30
0.0
 10
416.512558486
 20
117.8923274729
 30
0.0
 10
416.4700456408
 20
117.9788636632
 30
0.0
 10
416.4549395874
 20
118.0744152524
 30
0.0
 10
416.4549523847
 20
118.1209097089
 30
0.0
  0
SPLINE
  5
606
100
AcDbEntity
  8
KONSTRUKTIONSELEMENTE
100
AcDbSpline
 62
7
  6
CONTINUOUS
 70
0
 71
3
 72
11
 73
7
 74
0
 42
0.0000001
 43
0.0000001
 44
0.0000000001
 40
0.0
 40
0.0
 40
0.0
 40
0.0
 40
0.2729767978
 40
0.5353848362
 40
0.7789285996
 40
1.0
 40
1.0
 40
1.0
 40
1.0
 10
456.1691537897
 20
99.9842379575
 30
0.0
 10
456.356654645
 20
99.9842379575
 30
0.0
 10
456.7255079646
 20
100.0206449326
 30
0.0
 10
457.2398909134
 20
100.1820296614
 30
0.0
 10
457.6740806692
 20
100.438312955
 30
0.0
 10
457.8981726938
 20
100.6740134378
 30
0.0
 10
457.9817693638
 20
100.8007790425
 30
0.0
  0
SPLINE
  5
607
100
AcDbEntity
  8
KONSTRUKTIONSELEMENTE
100
AcDbSpline
 62
7
  6
CONTINUOUS
 70
0
 71
3
 72
13
 73
9
 74
0
 42
0.0000001
 43
0.0000001
 44
0.0000000001
 40
0.0
 40
0.0
 40
0.0
 40
0.0
 40
0.2870489256
 40
0.5535682914
 40
0.6755020148
 40
0.789331082
 40
0.8965440086
 40
1.0
 40
1.0
 40
1.0
 40
1.0
 10
432.6505339883
 20
99.7721059232
 30
0.0
 10
432.9596941639
 20
99.7721059232
 30
0.0
 10
433.558944912
 20
99.6916047572
 30
0.0
 10
434.2348507789
 20
99.386001634
 30
0.0
 10
434.6497204099
 20
99.033674517
 30
0.0
 10
434.8766985053
 20
98.7381309518
 30
0.0
 10
435.0181977317
 20
98.4145287384
 30
0.0
 10
435.0505339883
 20
98.1864748084
 30
0.0
 10
435.0505339883
 20
98.0750496483
 30
0.0
  0
SPLINE
  5
608
100
AcDbEntity
  8
KONSTRUKTIONSELEMENTE
100
AcDbSpline
 62
7
  6
CONTINUOUS
 70
0
 71
3
 72
12
 73
8
 74
0
 42
0.0000001
 43
0.0000001
 44
0.0000000001
 40
0.0
 40
0.0
 40
0.0
 40
0.0
 40
0.2874515908
 40
0.5543051126
 40
0.7890378741
 40
0.8964383639
 40
1.0
 40
1.0
 40
1.0
 40
1.0
 10
442.0105339883
 20
91.2868245489
 30
0.0
 10
442.1264773341
 20
91.2868245489
 30
0.0
 10
442.3514565127
 20
91.3173206136
 30
0.0
 10
442.6460695069
 20
91.449768467
 30
0.0
 10
442.82570053
 20
91.6294631928
 30
0.0
 10
442.8983715019
 20
91.7959287457
 30
0.0
 10
442.9105339883
 20
91.8814491574
 30
0.0
 10
442.9105339883
 20
91.923220652
 30
0.0
  0
SPLINE
  5
609
100
AcDbEntity
  8
KONSTRUKTIONSELEMENTE
100
AcDbSpline
 62
7
  6
CONTINUOUS
 70
0
 71
3
 72
13
 73
9
 74
0
 42
0.0000001
 43
0.0000001
 44
0.0000000001
 40
0.0
 40
0.0
 40
0.0
 40
0.0
 40
0.2870489256
 40
0.5535682914
 40
0.6755020148
 40
0.789331082
 40
0.8965440086
 40
1.0
 40
1.0
 40
1.0
 40
1.0
 10
445.3105339883
 20
99.7721059232
 30
0.0
 10
445.0013738127
 20
99.7721059232
 30
0.0
 10
444.4021230646
 20
99.6916047572
 30
0.0
 10
443.7262171977
 20
99.386001634
 30
0.0
 10
443.3113475667
 20
99.033674517
 30
0.0
 10
443.0843694713
 20
98.7381309518
 30
0.0
 10
442.9428702449
 20
98.4145287384
 30
0.0
 10
442.9105339883
 20
98.1864748084
 30
0.0
 10
442.9105339883
 20
98.0750496483
 30
0.0
  0
SPLINE
  5
60A
100
AcDbEntity
  8
KONSTRUKTIONSELEMENTE
100
AcDbSpline
 62
7
  6
CONTINUOUS
 70
0
 71
3
 72
13
 73
9
 74
0
 42
0.0000001
 43
0.0000001
 44
0.0000000001
 40
0.0
 40
0.0
 40
0.0
 40
0.0
 40
0.2833455151
 40
0.5492391537
 40
0.6722289791
 40
0.787676473
 40
0.8962966564
 40
1.0
 40
1.0
 40
1.0
 40
1.0
 10
444.1105339883
 20
99.7721059232
 30
0.0
 10
443.8248267426
 20
99.7721059232
 30
0.0
 10
443.2685908728
 20
99.7028288315
 30
0.0
 10
442.6318755665
 20
99.4408466789
 30
0.0
 10
442.2213453694
 20
99.1367030921
 30
0.0
 10
441.9816557439
 20
98.8785444736
 30
0.0
 10
441.8108084435
 20
98.5925883249
 30
0.0
 10
441.7465507734
 20
98.3856664331
 30
0.0
 10
441.7285959254
 20
98.2826517102
 30
0.0
  0
SPLINE
  5
60B
100
AcDbEntity
  8
KONSTRUKTIONSELEMENTE
100
AcDbSpline
 62
7
  6
CONTINUOUS
 70
0
 71
3
 72
11
 73
7
 74
0
 42
0.0000001
 43
0.0000001
 44
0.0000000001
 40
0.0
 40
0.0
 40
0.0
 40
0.0
 40
0.2500006522
 40
0.500001216
 40
0.7500036313
 40
1.0
 40
1.0
 40
1.0
 40
1.0
 10
461.4805339883
 20
167.7015702425
 30
0.0
 10
462.1516751125
 20
167.5333013654
 30
0.0
 10
463.4836889611
 20
167.1572991448
 30
0.0
 10
465.4806904907
 20
166.590400433
 30
0.0
 10
467.5139605078
 20
166.1585498956
 30
0.0
 10
468.8992512762
 20
166.0446776601
 30
0.0
 10
469.5911533056
 20
166.0446760326
 30
0.0
  0
ELLIPSE
  5
60C
100
AcDbEntity
  8
KONSTRUKTIONSELEMENTE
100
AcDbEllipse
 62
7
  6
CONTINUOUS
 10
221.0032194824
 20
190.4938371179
 30
0.0
 11
6.5
 21
0.0
 31
0.0
 40
0.4138661092
 41
-3.1411715933
 42
-2.8791805872
  0
ELLIPSE
  5
60D
100
AcDbEntity
  8
KONSTRUKTIONSELEMENTE
100
AcDbEllipse
 62
7
  6
CONTINUOUS
 10
221.0032194824
 20
187.782962633
 30
0.0
 11
-0.0
 21
7.7599922591
 31
0.0
 40
0.8376297016
 41
1.3083842604
 42
1.342131222
  0
ELLIPSE
  5
60E
100
AcDbEntity
  8
KONSTRUKTIONSELEMENTE
100
AcDbEllipse
 62
7
  6
CONTINUOUS
 10
221.0032194824
 20
192.1836781356
 30
0.0
 11
6.5
 21
-0.0
 31
0.0
 40
0.2709435377
 41
2.7047542041
 42
3.1414627224
  0
ELLIPSE
  5
60F
100
AcDbEntity
  8
KONSTRUKTIONSELEMENTE
100
AcDbEllipse
 62
7
  6
CONTINUOUS
 10
221.0032194824
 20
185.7005077686
 30
0.0
 11
6.5
 21
-0.0
 31
0.0
 40
0.1591793597
 41
2.9464113921
 42
3.0292451777
  0
ELLIPSE
  5
610
100
AcDbEntity
  8
KONSTRUKTIONSELEMENTE
100
AcDbEllipse
 62
7
  6
CONTINUOUS
 10
221.0032194824
 20
185.5667292739
 30
0.0
 11
6.5
 21
0.0
 31
0.0
 40
0.2652990072
 41
2.896089741
 42
2.9464113921
  0
ELLIPSE
  5
611
100
AcDbEntity
  8
KONSTRUKTIONSELEMENTE
100
AcDbEllipse
 62
7
  6
CONTINUOUS
 10
221.0032194824
 20
185.3571718425
 30
0.0
 11
6.5
 21
0.0
 31
0.0
 40
0.3979481564
 41
2.8279657542
 42
2.896089741
  0
ELLIPSE
  5
612
100
AcDbEntity
  8
KONSTRUKTIONSELEMENTE
100
AcDbEllipse
 62
7
  6
CONTINUOUS
 10
221.0032194824
 20
188.9806170169
 30
0.0
 11
6.5
 21
0.0
 31
0.0
 40
0.1591786766
 41
-3.0292451777
 42
-2.9464113921
  0
ELLIPSE
  5
613
100
AcDbEntity
  8
KONSTRUKTIONSELEMENTE
100
AcDbEllipse
 62
7
  6
CONTINUOUS
 10
221.0032194824
 20
189.1143968513
 30
0.0
 11
6.5
 21
0.0
 31
0.0
 40
0.2652993867
 41
-2.9464113921
 42
-2.896089741
  0
ELLIPSE
  5
614
100
AcDbEntity
  8
KONSTRUKTIONSELEMENTE
100
AcDbEllipse
 62
7
  6
CONTINUOUS
 10
221.0032194824
 20
189.3239532334
 30
0.0
 11
6.5
 21
-0.0
 31
0.0
 40
0.3979478718
 41
-2.896089741
 42
-2.8279657542
  0
ELLIPSE
  5
615
100
AcDbEntity
  8
KONSTRUKTIONSELEMENTE
100
AcDbEllipse
 62
7
  6
CONTINUOUS
 10
221.0032194824
 20
190.1219673419
 30
0.0
 11
6.5
 21
-0.0
 31
0.0
 40
0.7958965491
 41
-2.8279657542
 42
-2.7758847477
  0
ELLIPSE
  5
616
100
AcDbEntity
  8
KONSTRUKTIONSELEMENTE
100
AcDbEllipse
 62
7
  6
CONTINUOUS
 10
221.0032194824
 20
191.3553254454
 30
0.0
 11
0.0
 21
8.6222145109
 31
0.0
 40
0.7538666536
 41
-4.3466810745
 42
-4.2935387832
  0
ELLIPSE
  5
617
100
AcDbEntity
  8
KONSTRUKTIONSELEMENTE
100
AcDbEllipse
 62
7
  6
CONTINUOUS
 10
221.0032194824
 20
200.472856266
 30
0.0
 11
-0.0
 21
31.0399663189
 31
0.0
 40
0.2094074437
 41
-4.2935387832
 42
-4.2755505308
  0
ELLIPSE
  5
618
100
AcDbEntity
  8
KONSTRUKTIONSELEMENTE
100
AcDbEllipse
 62
7
  6
CONTINUOUS
 10
221.0032194824
 20
174.2082693807
 30
0.0
 11
0.0
 21
31.0399663189
 31
0.0
 40
0.2094074437
 41
1.1339578773
 42
1.1519461296
  0
ELLIPSE
  5
619
100
AcDbEntity
  8
KONSTRUKTIONSELEMENTE
100
AcDbEllipse
 62
7
  6
CONTINUOUS
 10
221.0032194824
 20
183.3258002013
 30
0.0
 11
0.0
 21
8.6222145109
 31
0.0
 40
0.7538666536
 41
1.1519461296
 42
1.2050884209
  0
ELLIPSE
  5
61A
100
AcDbEntity
  8
KONSTRUKTIONSELEMENTE
100
AcDbEllipse
 62
7
  6
CONTINUOUS
 10
221.0032194824
 20
184.5591583048
 30
0.0
 11
6.5
 21
0.0
 31
0.0
 40
0.7958965491
 41
2.7758847477
 42
2.8279657542
  0
ELLIPSE
  5
61B
100
AcDbEntity
  8
KONSTRUKTIONSELEMENTE
100
AcDbEllipse
 62
7
  6
CONTINUOUS
 10
221.0032194824
 20
199.7136494288
 30
0.0
 11
0.0
 21
6.8977643187
 31
0.0
 40
0.9423343129
 41
1.5847083988
 42
1.6338495524
  0
ELLIPSE
  5
61C
100
AcDbEntity
  8
KONSTRUKTIONSELEMENTE
100
AcDbEllipse
 62
7
  6
CONTINUOUS
 10
221.0032194824
 20
200.9089071585
 30
0.0
 11
-0.0
 21
25.8666605982
 31
0.0
 40
0.2512887187
 41
-4.6493357548
 42
-4.6329273207
  0
ELLIPSE
  5
61D
100
AcDbEntity
  8
KONSTRUKTIONSELEMENTE
100
AcDbEllipse
 62
7
  6
CONTINUOUS
 10
221.0032194824
 20
194.3512259768
 30
0.0
 11
6.5
 21
0.0
 31
0.0
 40
0.2709436346
 41
3.1417225848
 42
3.5784311031
  0
ELLIPSE
  5
61E
100
AcDbEntity
  8
0
100
AcDbEllipse
 62
7
  6
CONTINUOUS
 10
410.9805339883
 20
93.1231086161
 30
0.0
 11
0.0
 21
2.7479640288
 31
0.0
 40
0.1051042353
 41
-3.1415926536
 42
-0.0
  0
ELLIPSE
  5
61F
100
AcDbEntity
  8
0
100
AcDbEllipse
 62
7
  6
CONTINUOUS
 10
431.9805339883
 20
93.1231086161
 30
0.0
 11
-0.0
 21
2.397525
 31
0.0
 40
0.1583844403
 41
-0.0
 42
3.1415926536
  0
ELLIPSE
  5
620
100
AcDbEntity
  8
BEZUGSACHSEN
100
AcDbEllipse
 62
7
  6
CONTINUOUS
 10
410.9805339883
 20
93.1231086161
 30
0.0
 11
0.0
 21
2.7479640288
 31
0.0
 40
0.1051042353
 41
-3.1415926536
 42
-0.0
  0
ELLIPSE
  5
621
100
AcDbEntity
  8
0
100
AcDbEllipse
 62
7
  6
CONTINUOUS
 10
466.9805339883
 20
93.1231086161
 30
0.0
 11
0.0
 21
2.7479640288
 31
0.0
 40
0.1051042353
 41
0.0
 42
3.1415926536
  0
ELLIPSE
  5
622
100
AcDbEntity
  8
BEZUGSACHSEN
100
AcDbEllipse
 62
7
  6
CONTINUOUS
 10
431.9805339883
 20
93.1231086161
 30
0.0
 11
-0.0
 21
2.397525
 31
0.0
 40
0.1583844403
 41
0.0
 42
3.1415926536
  0
ELLIPSE
  5
623
100
AcDbEntity
  8
0
100
AcDbEllipse
 62
7
  6
CONTINUOUS
 10
445.9805339883
 20
93.1231086161
 30
0.0
 11
0.0
 21
2.397525
 31
0.0
 40
0.1583844403
 41
-3.1415926536
 42
0.0
  0
ELLIPSE
  5
624
100
AcDbEntity
  8
KONSTRUKTIONSELEMENTE
100
AcDbEllipse
 62
7
  6
CONTINUOUS
 10
414.1979931745
 20
121.2109088232
 30
0.0
 11
0.8998502841
 21
0.2699954029
 31
0.0
 40
0.0607989098
 41
-2.7235007144
 42
-1.1527043876
  0
ELLIPSE
  5
625
100
AcDbEntity
  8
KONSTRUKTIONSELEMENTE
100
AcDbEllipse
 62
7
  6
CONTINUOUS
 10
417.3280362868
 20
121.2718654113
 30
0.0
 11
0.8872850265
 21
-0.5510331508
 31
0.0
 40
0.7424978488
 41
7.2982401868
 42
8.447108148
  0
ELLIPSE
  5
626
100
AcDbEntity
  8
KONSTRUKTIONSELEMENTE
100
AcDbEllipse
 62
7
  6
CONTINUOUS
 10
414.1979931745
 20
122.907965098
 30
0.0
 11
-0.3654157343
 21
1.2178705596
 31
0.0
 40
0.6753417036
 41
-4.6941486066
 42
-3.1233522798
  0
ELLIPSE
  5
627
100
AcDbEntity
  8
KONSTRUKTIONSELEMENTE
100
AcDbEllipse
 62
7
  6
CONTINUOUS
 10
417.3280362868
 20
123.3931857548
 30
0.0
 11
0.8872850265
 21
-0.5510331508
 31
0.0
 40
0.7424978488
 41
1.0150548796
 42
2.5858512064
  0
ENDSEC
  0
SECTION
  2
OBJECTS
  0
DICTIONARY
  5
C
100
AcDbDictionary
280
0
281
1
  3
ACAD_GROUP
350
D
  3
ACAD_MLINESTYLE
350
17
  3
ACAD_LAYOUT
350
1A
  3
ACAD_PLOTSETTINGS
350
19
  3
ACAD_PLOTSTYLENAME
350
E
  0
DICTIONARY
  5
D
102
{ACAD_REACTORS
330
C
102
}
100
AcDbDictionary
280
0
281
1
  0
ACDBDICTIONARYWDFLT
  5
E
102
{ACAD_REACTORS
330
C
102
}
100
AcDbDictionary
281
1
  3
Normal
350
F
100
AcDbDictionaryWithDefault
340
F
  0
DICTIONARY
  5
17
102
{ACAD_REACTORS
330
C
102
}
100
AcDbDictionary
280
0
281
1
  3
Standard
350
18
  0
DICTIONARY
  5
19
102
{ACAD_REACTORS
330
C
102
}
100
AcDbDictionary
281
1
  0
DICTIONARY
  5
1A
102
{ACAD_REACTORS
330
C
102
}
100
AcDbDictionary
281
1
  3
Model
350
628
  3
Layout1
350
629
  0
ACDBPLACEHOLDER
  5
F
102
{ACAD_REACTORS
330
E
102
}
  0
MLINESTYLE
  5
18
102
{ACAD_REACTORS
330
17
102
}
100
AcDbMlineStyle
  2
STANDARD
 70
0
  3

 62
256
 51
90.0
 52
90.0
 71
2
 49
0.5
 62
256
  6
BYLAYER
 49
-0.5
 62
256
  6
BYLAYER
  0
LAYOUT
  5
628
102
{ACAD_REACTORS
330
1A
102
}
100
AcDbPlotSettings
  1

  2
none_device
  4
ISO_A2_(594.00_x_420.00_MM)
  6

 40
0.0
 41
0.0
 42
0.0
 43
0.0
 44
594.0
 45
420.0
 46
0.0
 47
0.0
 48
0.0
 49
0.0
140
0.0
141
0.0
142
1.0
143
1.0
 70
1024
 72
1
 73
0
 74
0
  7

 75
0
147
1.0
148
0.0
149
0.0
100
AcDbLayout
  1
Model
 70
0
 71
0
 10
0.0
 20
0.0
 11
594.0
 21
420.0
 12
0.0
 22
0.0
 32
0.0
 14
0.0
 24
0.0
 34
0.0
 15
0.0
 25
0.0
 35
0.0
146
0.0
 13
0.0
 23
0.0
 33
0.0
 16
1.0
 26
0.0
 36
0.0
 17
0.0
 27
1.0
 37
0.0
 76
0
330
20C
345
0
346
0
  0
LAYOUT
  5
629
102
{ACAD_REACTORS
330
1A
102
}
100
AcDbPlotSettings
  1

  2
none_device
  4
ISO_A2_(594.00_x_420.00_MM)
  6

 40
0.0
 41
0.0
 42
0.0
 43
0.0
 44
594.0
 45
420.0
 46
0.0
 47
0.0
 48
0.0
 49
0.0
140
0.0
141
0.0
142
1.0
143
1.0
 70
0
 72
1
 73
0
 74
0
  7

 75
0
147
1.0
148
0.0
149
0.0
100
AcDbLayout
  1
Layout1
 70
0
 71
1
 10
0.0
 20
0.0
 11
594.0
 21
420.0
 12
0.0
 22
0.0
 32
0.0
 14
0.0
 24
0.0
 34
0.0
 15
0.0
 25
0.0
 35
0.0
146
0.0
 13
0.0
 23
0.0
 33
0.0
 16
1.0
 26
0.0
 36
0.0
 17
0.0
 27
1.0
 37
0.0
 76
0
330
20D
345
0
346
0
  0
ENDSEC
  0
EOF
