999
DXF file: 001-m34927-p-7.dxf
999
Pro/ENGINEER 2011490 by Parametric Technology Corporation
  0
SECTION
  2
HEADER
  9
$ACADVER
  1
AC1015
  9
$DWGCODEPAGE
  3
ANSI_1252
  9
$EXTMAX
 10
1189.0
 20
841.0
 30
0.0
  9
$EXTMIN
 10
0.0
 20
0.0
 30
0.0
  9
$LIMMIN
 10
0.0
 20
0.0
  9
$LIMMAX
 10
1189.0
 20
841.0
  9
$VIEWCTR
 10
594.5
 20
420.5
  9
$VIEWSIZE
 40
841.0
  9
$CLAYER
  8
0
  9
$LTSCALE
 40
65.395
  9
$CELTYPE
  6
BYLAYER
  9
$DIMSCALE
 40
1.0
  9
$DIMASZ
 40
3.5
  9
$DIMEXO
 40
7.43125
  9
$DIMDLI
 40
45.182
  9
$DIMEXE
 40
21.402
  9
$DIMCEN
 40
10.701
  9
$DIMLFAC
 40
1.0
  9
$DIMBLK
  1
_FILLED
  9
$DIMTXT
 40
3.5
  9
$DIMTOL
 70
1
  9
$DIMLIM
 70
0
  9
$DIMTFAC
 40
1.0
  9
$DIMTP
 40
0.005
  9
$DIMTM
 40
0.005
  9
$PDMODE
 70
3
  9
$PDSIZE
 40
0.3125
  9
$HANDSEED
  5
6FB
  9
$TILEMODE
 70
1
  9
$MEASUREMENT
 70
1
  9
$INSUNITS
 70
4
  0
ENDSEC
  0
SECTION
  2
CLASSES
  0
CLASS
  1
ACDBDICTIONARYWDFLT
  2
AcDbDictionaryWithDefault
  3
AutoCAD 2000
 90
0
280
0
281
0
  0
CLASS
  1
ACDBPLACEHOLDER
  2
AcDbPlaceHolder
  3
AutoCAD 2000
 90
0
280
0
281
0
  0
CLASS
  1
LAYOUT
  2
AcDbLayout
  3
AutoCAD 2000
 90
0
280
0
281
0
  0
ENDSEC
  0
SECTION
  2
TABLES
  0
TABLE
  2
VPORT
  5
8
100
AcDbSymbolTable
 70
2
  0
VPORT
  5
1F4
100
AcDbSymbolTableRecord
100
AcDbViewportTableRecord
  2
*ACTIVE
 70
0
 10
0.0
 20
0.0
 11
1.0
 21
1.0
 12
594.5
 22
420.5
 13
0.0
 23
0.0
 14
1.0
 24
1.0
 15
0.0
 25
0.0
 16
0.0
 26
0.0
 36
1.0
 17
0.0
 27
0.0
 37
0.0
 40
841.0
 41
1.4137931034
 42
50.0
 43
0.0
 44
0.0
 50
0.0
 51
0.0
 71
0
 72
100
 73
1
 74
1
 75
0
 76
0
 77
0
 78
0
  0
ENDTAB
  0
TABLE
  2
LTYPE
  5
5
100
AcDbSymbolTable
 70
6
  0
LTYPE
  5
14
100
AcDbSymbolTableRecord
100
AcDbLinetypeTableRecord
  2
BYBLOCK
 70
0
  3

 72
65
 73
0
 40
0.0
  0
LTYPE
  5
15
100
AcDbSymbolTableRecord
100
AcDbLinetypeTableRecord
  2
BYLAYER
 70
0
  3

 72
65
 73
0
 40
0.0
  0
LTYPE
  5
16
100
AcDbSymbolTableRecord
100
AcDbLinetypeTableRecord
  2
CONTINUOUS
 70
64
  3
Solid line
 72
65
 73
0
 40
0.0
  0
LTYPE
  5
1F5
100
AcDbSymbolTableRecord
100
AcDbLinetypeTableRecord
  2
CENTER
 70
64
  3
____ _ ____ _ ____ _ ____ _ ____ _ ____ _ ____
 72
65
 73
4
 40
0.6
 49
0.375
 74
0
 49
-0.075
 74
0
 49
0.075
 74
0
 49
-0.075
 74
0
  0
LTYPE
  5
1F6
100
AcDbSymbolTableRecord
100
AcDbLinetypeTableRecord
  2
HIDDEN
 70
64
  3
- - - - - - - - - - - - - - - - - - - -
 72
65
 73
2
 40
0.2
 49
0.1
 74
0
 49
-0.1
 74
0
  0
LTYPE
  5
1F7
100
AcDbSymbolTableRecord
100
AcDbLinetypeTableRecord
  2
PHANTOM
 70
64
  3
_____ _ _ _____ _ _ _____ _ _ _____
 72
65
 73
6
 40
0.8
 49
0.45
 74
0
 49
-0.05
 74
0
 49
0.1
 74
0
 49
-0.05
 74
0
 49
0.1
 74
0
 49
-0.05
 74
0
  0
LTYPE
  5
1F8
100
AcDbSymbolTableRecord
100
AcDbLinetypeTableRecord
  2
DOT
 70
64
  3
. . . . . . . . . . . . . . . . . . . .
 72
65
 73
2
 40
0.2
 49
0.1
 74
0
 49
-0.1
 74
0
  0
LTYPE
  5
1F9
100
AcDbSymbolTableRecord
100
AcDbLinetypeTableRecord
  2
DASHED
 70
64
  3
- - - - - - - - - - - - - - - - - - - -
 72
65
 73
2
 40
0.2
 49
0.1
 74
0
 49
-0.1
 74
0
  0
ENDTAB
  0
TABLE
  2
LAYER
  5
2
100
AcDbSymbolTable
 70
36
  0
LAYER
  5
10
100
AcDbSymbolTableRecord
100
AcDbLayerTableRecord
  2
0
 70
0
 62
7
  6
CONTINUOUS
370
-3
390
F
  0
LAYER
  5
1FA
100
AcDbSymbolTableRecord
100
AcDbLayerTableRecord
  2
DEFAULT_1
 70
0
 62
7
  6
CENTER
370
-3
390
F
  0
LAYER
  5
1FB
100
AcDbSymbolTableRecord
100
AcDbLayerTableRecord
  2
DEFAULT_2
 70
0
 62
8
  6
HIDDEN
370
-3
390
F
  0
LAYER
  5
1FC
100
AcDbSymbolTableRecord
100
AcDbLayerTableRecord
  2
DEFAULT_3
 70
0
 62
7
  6
PHANTOM
370
-3
390
F
  0
LAYER
  5
1FD
100
AcDbSymbolTableRecord
100
AcDbLayerTableRecord
  2
AUSFORMSCHRAEGEN
 70
0
 62
7
  6
CONTINUOUS
370
-3
390
F
  0
LAYER
  5
1FE
100
AcDbSymbolTableRecord
100
AcDbLayerTableRecord
  2
BEZUGSACHSEN
 70
0
 62
7
  6
CONTINUOUS
370
-3
390
F
  0
LAYER
  5
1FF
100
AcDbSymbolTableRecord
100
AcDbLayerTableRecord
  2
BEZUGSEBENEN
 70
0
 62
7
  6
CONTINUOUS
370
-3
390
F
  0
LAYER
  5
200
100
AcDbSymbolTableRecord
100
AcDbLayerTableRecord
  2
BG_STARTBEZUEGE
 70
0
 62
7
  6
CONTINUOUS
370
-3
390
F
  0
LAYER
  5
201
100
AcDbSymbolTableRecord
100
AcDbLayerTableRecord
  2
FASEN
 70
0
 62
7
  6
CONTINUOUS
370
-3
390
F
  0
LAYER
  5
202
100
AcDbSymbolTableRecord
100
AcDbLayerTableRecord
  2
FLAECHEN
 70
0
 62
7
  6
CONTINUOUS
370
-3
390
F
  0
LAYER
  5
203
100
AcDbSymbolTableRecord
100
AcDbLayerTableRecord
  2
HILFEN
 70
0
 62
7
  6
CONTINUOUS
370
-3
390
F
  0
LAYER
  5
204
100
AcDbSymbolTableRecord
100
AcDbLayerTableRecord
  2
KONSTRUKTIONSELEMENTE
 70
0
 62
7
  6
CONTINUOUS
370
-3
390
F
  0
LAYER
  5
205
100
AcDbSymbolTableRecord
100
AcDbLayerTableRecord
  2
KURVEN
 70
0
 62
7
  6
CONTINUOUS
370
-3
390
F
  0
LAYER
  5
206
100
AcDbSymbolTableRecord
100
AcDbLayerTableRecord
  2
NORM
 70
0
 62
7
  6
CONTINUOUS
370
-3
390
F
  0
LAYER
  5
207
100
AcDbSymbolTableRecord
100
AcDbLayerTableRecord
  2
PLATZIERUNG
 70
0
 62
7
  6
CONTINUOUS
370
-3
390
F
  0
LAYER
  5
208
100
AcDbSymbolTableRecord
100
AcDbLayerTableRecord
  2
RUNDUNGEN
 70
0
 62
7
  6
CONTINUOUS
370
-3
390
F
  0
LAYER
  5
209
100
AcDbSymbolTableRecord
100
AcDbLayerTableRecord
  2
TEIL_STARTBEZUEGE
 70
0
 62
7
  6
CONTINUOUS
370
-3
390
F
  0
LAYER
  5
20A
100
AcDbSymbolTableRecord
100
AcDbLayerTableRecord
  2
T_STARTBEZUEGE
 70
0
 62
7
  6
CONTINUOUS
370
-3
390
F
  0
LAYER
  5
20B
100
AcDbSymbolTableRecord
100
AcDbLayerTableRecord
  2
ZEICHNUNGSBEMASSUNGEN
 70
0
 62
7
  6
CONTINUOUS
370
-3
390
F
  0
ENDTAB
  0
TABLE
  2
STYLE
  5
3
100
AcDbSymbolTable
 70
1
  0
STYLE
  5
11
100
AcDbSymbolTableRecord
100
AcDbTextStyleTableRecord
  2
STANDARD
 70
0
 40
0.0
 41
0.7
 50
0.0
 71
0
 42
0.2
  3
txt
  4

  0
STYLE
  5
20C
100
AcDbSymbolTableRecord
100
AcDbTextStyleTableRecord
  2
TEXTSTYLE_1
 70
0
 40
0.0
 41
0.8
 50
0.0
 71
0
 42
0.2
  3
gdt
  4

  0
ENDTAB
  0
TABLE
  2
VIEW
  5
6
100
AcDbSymbolTable
 70
0
  0
ENDTAB
  0
TABLE
  2
UCS
  5
7
100
AcDbSymbolTable
 70
0
  0
ENDTAB
  0
TABLE
  2
APPID
  5
9
100
AcDbSymbolTable
 70
1
  0
APPID
  5
20D
100
AcDbSymbolTableRecord
100
AcDbRegAppTableRecord
  2
ACAD
 70
0
  0
ENDTAB
  0
TABLE
  2
BLOCK_RECORD
  5
1
100
AcDbSymbolTable
 70
0
  0
BLOCK_RECORD
  5
20E
100
AcDbSymbolTableRecord
100
AcDbBlockTableRecord
  2
*Model_Space
  0
BLOCK_RECORD
  5
20F
100
AcDbSymbolTableRecord
100
AcDbBlockTableRecord
  2
*Paper_Space
  0
ENDTAB
  0
TABLE
  2
DIMSTYLE
  5
A
100
AcDbSymbolTable
 70
1
100
AcDbDimStyleTable
 71
0
  0
DIMSTYLE
105
210
100
AcDbSymbolTableRecord
100
AcDbDimStyleTableRecord
  2
STANDARD
 70
0
  3

  4

 40
1.0
 41
3.5
 42
0.0625
 43
0.38
 44
0.18
 45
0.0
 46
0.0
 47
0.005
 48
0.005
140
3.5
141
0.09
142
0.0
143
25.4
144
1.0
145
0.0
146
1.0
147
0.09
 71
1.0
 72
0.0
 73
0
 74
0
 75
0
 76
0
 77
1
 78
8
170
0
171
2
172
0
173
0
174
0
175
0
176
0
177
0
178
5
270
2
271
3
272
3
273
2
274
2
275
0
280
0
281
0
282
0
283
1
284
8
285
0
286
0
287
3
288
0
340
11
  0
ENDTAB
  0
ENDSEC
  0
SECTION
  2
BLOCKS
  0
BLOCK
  5
20
100
AcDbEntity
  8
0
100
AcDbBlockBegin
  2
*Model_Space
 70
0
 10
0.0
 20
0.0
 30
0.0
  3
*Model_Space
  1

  0
ENDBLK
  5
21
100
AcDbEntity
  8
0
100
AcDbBlockEnd
  0
BLOCK
  5
1C
100
AcDbEntity
  8
0
100
AcDbBlockBegin
  2
*Paper_Space
 70
0
 10
0.0
 20
0.0
 30
0.0
  3
*Paper_Space
  1

  0
ENDBLK
  5
1D
100
AcDbEntity
  8
0
100
AcDbBlockEnd
  0
ENDSEC
  0
SECTION
  2
ENTITIES
  0
MTEXT
  5
211
100
AcDbEntity
  8
0
100
AcDbMText
 62
5
  6
CONTINUOUS
  7
STANDARD
 71
1
 72
1
 10
395.8718493151
 20
410.5506421233
 30
0.0
 11
1.0
 21
0.0
 31
0.0
 44
0.9
  1
VWK-2S-22
 40
14.0
 41
108.3333333333
  0
MTEXT
  5
212
100
AcDbEntity
  8
0
100
AcDbMText
 62
5
  6
CONTINUOUS
  7
STANDARD
 71
1
 72
1
 10
915.7910397469
 20
544.3747139508
 30
0.0
 11
0.0
 21
1.0
 31
0.0
 44
0.9
  1
VWK-2S-22
 40
14.0
 41
108.3333333333
  0
LINE
  5
213
100
AcDbEntity
  8
0
100
AcDbLine
 62
7
  6
CONTINUOUS
 10
0.0
 20
0.0
 11
0.0
 21
841.0
  0
LINE
  5
214
100
AcDbEntity
  8
0
100
AcDbLine
 62
7
  6
CONTINUOUS
 10
0.0
 20
0.0
 11
1189.0
 21
0.0
  0
LINE
  5
215
100
AcDbEntity
  8
0
100
AcDbLine
 62
7
  6
CONTINUOUS
 10
0.0
 20
841.0
 11
1189.0
 21
841.0
  0
LINE
  5
216
100
AcDbEntity
  8
0
100
AcDbLine
 62
7
  6
CONTINUOUS
 10
1189.0
 20
0.0
 11
1189.0
 21
841.0
  0
LINE
  5
217
100
AcDbEntity
  8
BEZUGSACHSEN
100
AcDbLine
 62
7
  6
CONTINUOUS
 10
625.3158848434
 20
-61.3181871136
 11
634.6652108294
 21
-60.3355333556
  0
LINE
  5
218
100
AcDbEntity
  8
AUSFORMSCHRAEGEN
100
AcDbLine
 62
7
  6
CONTINUOUS
 10
625.3158848434
 20
-61.3181871136
 11
634.6652108294
 21
-60.3355333556
  0
LINE
  5
219
100
AcDbEntity
  8
BEZUGSACHSEN
100
AcDbLine
 62
7
  6
CONTINUOUS
 10
275.3158848434
 20
-61.3181871136
 11
265.9665588574
 21
-60.3355333556
  0
LINE
  5
21A
100
AcDbEntity
  8
AUSFORMSCHRAEGEN
100
AcDbLine
 62
7
  6
CONTINUOUS
 10
275.3158848434
 20
-61.3181871136
 11
265.9665588574
 21
-60.3355333556
  0
LINE
  5
21B
100
AcDbEntity
  8
BEZUGSACHSEN
100
AcDbLine
 62
7
  6
CONTINUOUS
 10
284.6652108294
 20
-60.3355333556
 11
275.3158848434
 21
-61.3181871136
  0
LINE
  5
21C
100
AcDbEntity
  8
BEZUGSACHSEN
100
AcDbLine
 62
7
  6
CONTINUOUS
 10
625.3158848434
 20
-61.3181871136
 11
615.9665588574
 21
-60.3355333556
  0
LINE
  5
21D
100
AcDbEntity
  8
RUNDUNGEN
100
AcDbLine
 62
7
  6
CONTINUOUS
 10
256.3357432129
 20
14.0505050276
 11
255.2670083967
 21
15.1192398438
  0
LINE
  5
21E
100
AcDbEntity
  8
KONSTRUKTIONSELEMENTE
100
AcDbLine
 62
7
  6
CONTINUOUS
 10
123.2789985447
 20
186.1093926817
 11
119.7434646387
 21
189.6449265876
  0
LINE
  5
21F
100
AcDbEntity
  8
RUNDUNGEN
100
AcDbLine
 62
7
  6
CONTINUOUS
 10
254.4823889168
 20
16.0946414181
 11
254.4754782741
 21
16.1054783382
  0
LINE
  5
220
100
AcDbEntity
  8
RUNDUNGEN
100
AcDbLine
 62
7
  6
CONTINUOUS
 10
254.4578829098
 20
16.1332555504
 11
254.4655626383
 21
16.1210931917
  0
LINE
  5
221
100
AcDbEntity
  8
BEZUGSACHSEN
100
AcDbLine
 62
7
  6
CONTINUOUS
 10
295.3647096432
 20
74.244437576
 11
294.2960387567
 21
75.3131084625
  0
LINE
  5
222
100
AcDbEntity
  8
KONSTRUKTIONSELEMENTE
100
AcDbLine
 62
7
  6
CONTINUOUS
 10
154.3916969169
 20
217.2220910539
 11
150.8561630109
 21
220.7576249598
  0
LINE
  5
223
100
AcDbEntity
  8
0
100
AcDbLine
 62
7
  6
CONTINUOUS
 10
467.0608836513
 20
121.7458553968
 11
465.8108848434
 21
121.4267064987
  0
LINE
  5
224
100
AcDbEntity
  8
0
100
AcDbLine
 62
7
  6
CONTINUOUS
 10
452.0608854395
 20
121.7458553968
 11
450.8108848434
 21
121.4267064987
  0
LINE
  5
225
100
AcDbEntity
  8
0
100
AcDbLine
 62
7
  6
CONTINUOUS
 10
465.8108848434
 20
119.5118128864
 11
467.3733860355
 21
119.8309618125
  0
LINE
  5
226
100
AcDbEntity
  8
0
100
AcDbLine
 62
7
  6
CONTINUOUS
 10
450.8108848434
 20
119.5118128864
 11
452.3733842474
 21
119.8309618125
  0
LINE
  5
227
100
AcDbEntity
  8
BEZUGSACHSEN
100
AcDbLine
 62
7
  6
CONTINUOUS
 10
291.3705029652
 20
87.7259180201
 11
450.3158848434
 21
115.7522773042
  0
LINE
  5
228
100
AcDbEntity
  8
0
100
AcDbLine
 62
7
  6
CONTINUOUS
 10
321.0985774513
 20
103.1220457553
 11
322.7399236085
 21
103.4114593675
  0
LINE
  5
229
100
AcDbEntity
  8
0
100
AcDbLine
 62
7
  6
CONTINUOUS
 10
329.3053082372
 20
104.5691138163
 11
330.9466552749
 21
104.8585275838
  0
LINE
  5
22A
100
AcDbEntity
  8
0
100
AcDbLine
 62
7
  6
CONTINUOUS
 10
334.2293470023
 20
105.4373547046
 11
335.87069404
 21
105.7267684721
  0
LINE
  5
22B
100
AcDbEntity
  8
0
100
AcDbLine
 62
7
  6
CONTINUOUS
 10
343.66708836
 20
107.1014831429
 11
351.0531465076
 21
108.4038444755
  0
LINE
  5
22C
100
AcDbEntity
  8
0
100
AcDbLine
 62
7
  6
CONTINUOUS
 10
352.6944935453
 20
108.6932582429
 11
360.0805493449
 21
109.9956191614
  0
LINE
  5
22D
100
AcDbEntity
  8
0
100
AcDbLine
 62
7
  6
CONTINUOUS
 10
374.8526656401
 20
112.6003418264
 11
376.4940150257
 21
112.8897560079
  0
LINE
  5
22E
100
AcDbEntity
  8
0
100
AcDbLine
 62
7
  6
CONTINUOUS
 10
381.4180537908
 20
113.7579968962
 11
382.649063482
 21
113.9750571183
  0
LINE
  5
22F
100
AcDbEntity
  8
0
100
AcDbLine
 62
7
  6
CONTINUOUS
 10
384.2904081718
 20
114.2644704717
 11
385.521417863
 21
114.4815306938
  0
LINE
  5
230
100
AcDbEntity
  8
0
100
AcDbLine
 62
7
  6
CONTINUOUS
 10
359.8958172371
 20
111.0432870056
 11
354.1511061272
 21
110.0303394405
  0
LINE
  5
231
100
AcDbEntity
  8
0
100
AcDbLine
 62
7
  6
CONTINUOUS
 10
350.8684143998
 20
109.4515123197
 11
345.1237032899
 21
108.4385647546
  0
LINE
  5
232
100
AcDbEntity
  8
0
100
AcDbLine
 62
7
  6
CONTINUOUS
 10
338.5252978112
 20
109.8676662648
 11
341.3976521922
 21
110.3741398404
  0
LINE
  5
233
100
AcDbEntity
  8
0
100
AcDbLine
 62
7
  6
CONTINUOUS
 10
384.7455430156
 20
118.8817356101
 11
388.4385720894
 21
119.5329162764
  0
LINE
  5
234
100
AcDbEntity
  8
0
100
AcDbLine
 62
7
  6
CONTINUOUS
 10
341.2129200586
 20
111.4218078313
 11
338.3405656776
 21
110.9153342558
  0
LINE
  5
235
100
AcDbEntity
  8
0
100
AcDbLine
 62
7
  6
CONTINUOUS
 10
388.4220634384
 20
120.826294493
 11
384.5238645174
 21
120.1389368471
  0
LINE
  5
236
100
AcDbEntity
  8
0
100
AcDbLine
 62
7
  6
CONTINUOUS
 10
342.5421846627
 20
114.6808683043
 11
343.5680268547
 21
114.8617519607
  0
LINE
  5
237
100
AcDbEntity
  8
0
100
AcDbLine
 62
7
  6
CONTINUOUS
 10
351.569589848
 20
116.2726434043
 11
352.59543204
 21
116.4535270607
  0
LINE
  5
238
100
AcDbEntity
  8
0
100
AcDbLine
 62
7
  6
CONTINUOUS
 10
345.3980303926
 20
116.4807200965
 11
346.2187050854
 21
116.6254271872
  0
LINE
  5
239
100
AcDbEntity
  8
0
100
AcDbLine
 62
7
  6
CONTINUOUS
 10
354.4254355779
 20
118.0724951964
 11
355.2461079227
 21
118.2172018732
  0
LINE
  5
23A
100
AcDbEntity
  8
0
100
AcDbLine
 62
7
  6
CONTINUOUS
 10
383.9696681682
 20
123.2819405265
 11
387.8678670892
 21
123.9692981724
  0
LINE
  5
23B
100
AcDbEntity
  8
0
100
AcDbLine
 62
7
  6
CONTINUOUS
 10
387.4779651601
 20
124.9807888902
 11
382.5539263951
 21
124.1125480018
  0
LINE
  5
23C
100
AcDbEntity
  8
0
100
AcDbLine
 62
7
  6
CONTINUOUS
 10
380.9125817054
 20
123.8231346484
 11
379.6815720141
 21
123.6060744263
  0
LINE
  5
23D
100
AcDbEntity
  8
0
100
AcDbLine
 62
7
  6
CONTINUOUS
 10
378.0402226285
 20
123.3166602449
 11
376.8092129372
 21
123.0996000228
  0
LINE
  5
23E
100
AcDbEntity
  8
0
100
AcDbLine
 62
7
  6
CONTINUOUS
 10
371.0645041753
 20
122.0866528717
 11
369.833494484
 21
121.8695926496
  0
LINE
  5
23F
100
AcDbEntity
  8
0
100
AcDbLine
 62
7
  6
CONTINUOUS
 10
355.266545688
 20
119.3010465503
 11
354.4458709952
 21
119.1563394596
  0
LINE
  5
240
100
AcDbEntity
  8
0
100
AcDbLine
 62
7
  6
CONTINUOUS
 10
346.2391405028
 20
117.7092714504
 11
345.4184681579
 21
117.5645647736
  0
LINE
  5
241
100
AcDbEntity
  8
0
100
AcDbLine
 62
7
  6
CONTINUOUS
 10
335.775558127
 20
115.8642595627
 11
334.5445484357
 21
115.6471993406
  0
LINE
  5
242
100
AcDbEntity
  8
0
100
AcDbLine
 62
7
  6
CONTINUOUS
 10
331.6721928808
 20
115.140725558
 11
330.0308458431
 21
114.8513117906
  0
LINE
  5
243
100
AcDbEntity
  8
0
100
AcDbLine
 62
7
  6
CONTINUOUS
 10
327.1584902882
 20
114.3448380081
 11
325.9274805969
 21
114.127777786
  0
LINE
  5
244
100
AcDbEntity
  8
0
100
AcDbLine
 62
7
  6
CONTINUOUS
 10
324.2861341462
 20
113.838364122
 11
323.0551244549
 21
113.6213039
  0
LINE
  5
245
100
AcDbEntity
  8
0
100
AcDbLine
 62
7
  6
CONTINUOUS
 10
317.310412758
 20
112.6083562314
 11
316.0794030668
 21
112.3912960093
  0
LINE
  5
246
100
AcDbEntity
  8
BEZUGSACHSEN
100
AcDbLine
 62
7
  6
CONTINUOUS
 10
625.3158848434
 20
150.6818128864
 11
615.9665588574
 21
149.6991591284
  0
LINE
  5
247
100
AcDbEntity
  8
0
100
AcDbLine
 62
7
  6
CONTINUOUS
 10
347.5070966104
 20
117.716798133
 11
346.2391405028
 21
117.7092714504
  0
LINE
  5
248
100
AcDbEntity
  8
0
100
AcDbLine
 62
7
  6
CONTINUOUS
 10
356.5344994477
 20
119.3085728189
 11
355.266545688
 21
119.3010465503
  0
LINE
  5
249
100
AcDbEntity
  8
0
100
AcDbLine
 62
7
  6
CONTINUOUS
 10
430.1858848434
 20
119.5118128864
 11
432.0608848434
 21
119.5118128864
  0
LINE
  5
24A
100
AcDbEntity
  8
0
100
AcDbLine
 62
7
  6
CONTINUOUS
 10
439.8733845454
 20
119.5118128864
 11
442.0608851415
 21
119.5118128864
  0
LINE
  5
24B
100
AcDbEntity
  8
0
100
AcDbLine
 62
7
  6
CONTINUOUS
 10
449.5608842474
 20
119.5118128864
 11
450.8108848434
 21
119.5118128864
  0
LINE
  5
24C
100
AcDbEntity
  8
0
100
AcDbLine
 62
7
  6
CONTINUOUS
 10
458.3108848434
 20
119.5118128864
 11
465.8108848434
 21
119.5118128864
  0
LINE
  5
24D
100
AcDbEntity
  8
0
100
AcDbLine
 62
7
  6
CONTINUOUS
 10
465.8108848434
 20
121.4267064987
 11
460.1858848434
 21
121.4267064987
  0
LINE
  5
24E
100
AcDbEntity
  8
0
100
AcDbLine
 62
7
  6
CONTINUOUS
 10
450.8108848434
 20
121.4267064987
 11
449.5608842474
 21
121.4267064987
  0
LINE
  5
24F
100
AcDbEntity
  8
0
100
AcDbLine
 62
7
  6
CONTINUOUS
 10
432.0608848434
 20
126.2139406411
 11
437.3733846944
 21
126.2139406411
  0
LINE
  5
250
100
AcDbEntity
  8
0
100
AcDbLine
 62
7
  6
CONTINUOUS
 10
437.9983845454
 20
128.1288340298
 11
432.0608848434
 21
128.1288340298
  0
LINE
  5
251
100
AcDbEntity
  8
0
100
AcDbLine
 62
7
  6
CONTINUOUS
 10
460.1858848434
 20
132.5969194977
 11
465.8108848434
 21
132.5969194977
  0
LINE
  5
252
100
AcDbEntity
  8
0
100
AcDbLine
 62
7
  6
CONTINUOUS
 10
432.0608848434
 20
132.9160683958
 11
437.9983845454
 21
132.9160683958
  0
LINE
  5
253
100
AcDbEntity
  8
0
100
AcDbLine
 62
7
  6
CONTINUOUS
 10
465.8108848434
 20
134.5118128864
 11
458.3108848434
 21
134.5118128864
  0
LINE
  5
254
100
AcDbEntity
  8
0
100
AcDbLine
 62
7
  6
CONTINUOUS
 10
455.8108854395
 20
134.5118128864
 11
453.9358854395
 21
134.5118128864
  0
LINE
  5
255
100
AcDbEntity
  8
0
100
AcDbLine
 62
7
  6
CONTINUOUS
 10
446.4358854395
 20
134.5118128864
 11
444.5608845454
 21
134.5118128864
  0
LINE
  5
256
100
AcDbEntity
  8
0
100
AcDbLine
 62
7
  6
CONTINUOUS
 10
437.6858848434
 20
134.5118128864
 11
430.1858848434
 21
134.5118128864
  0
LINE
  5
257
100
AcDbEntity
  8
0
100
AcDbLine
 62
7
  6
CONTINUOUS
 10
346.2187050854
 20
116.6254271872
 11
347.2814913459
 21
116.5967768901
  0
LINE
  5
258
100
AcDbEntity
  8
0
100
AcDbLine
 62
7
  6
CONTINUOUS
 10
355.2461079227
 20
118.2172018732
 11
356.3088965311
 21
118.1885519901
  0
LINE
  5
259
100
AcDbEntity
  8
0
100
AcDbLine
 62
7
  6
CONTINUOUS
 10
388.5407514206
 20
124.9521385931
 11
387.4779651601
 21
124.9807888902
  0
LINE
  5
25A
100
AcDbEntity
  8
BEZUGSACHSEN
100
AcDbLine
 62
7
  6
CONTINUOUS
 10
284.6652108294
 20
149.6991591284
 11
275.3158848434
 21
150.6818128864
  0
LINE
  5
25B
100
AcDbEntity
  8
0
100
AcDbLine
 62
7
  6
CONTINUOUS
 10
387.8678670892
 20
123.9692981724
 11
388.5203183512
 21
123.8682947439
  0
LINE
  5
25C
100
AcDbEntity
  8
BEZUGSACHSEN
100
AcDbLine
 62
7
  6
CONTINUOUS
 10
612.0658848434
 20
87.2313881746
 11
450.3158848434
 21
115.7522773042
  0
LINE
  5
25D
100
AcDbEntity
  8
0
100
AcDbLine
 62
7
  6
CONTINUOUS
 10
447.9983848434
 20
119.8309618125
 11
449.5608842474
 21
119.5118128864
  0
LINE
  5
25E
100
AcDbEntity
  8
0
100
AcDbLine
 62
7
  6
CONTINUOUS
 10
348.401661788
 20
117.4424377307
 11
347.5070966104
 21
117.716798133
  0
LINE
  5
25F
100
AcDbEntity
  8
0
100
AcDbLine
 62
7
  6
CONTINUOUS
 10
357.4290669733
 20
119.0342128306
 11
356.5344994477
 21
119.3085728189
  0
LINE
  5
260
100
AcDbEntity
  8
0
100
AcDbLine
 62
7
  6
CONTINUOUS
 10
347.2814913459
 20
116.5967768901
 11
347.9708890243
 21
116.2862399222
  0
LINE
  5
261
100
AcDbEntity
  8
0
100
AcDbLine
 62
7
  6
CONTINUOUS
 10
356.3088965311
 20
118.1885519901
 11
356.9982942095
 21
117.8780150221
  0
LINE
  5
262
100
AcDbEntity
  8
0
100
AcDbLine
 62
7
  6
CONTINUOUS
 10
349.3701221463
 20
116.7490106634
 11
348.401661788
 21
117.4424377307
  0
LINE
  5
263
100
AcDbEntity
  8
BEZUGSACHSEN
100
AcDbLine
 62
7
  6
CONTINUOUS
 10
296.1776570092
 20
73.2243690662
 11
296.1764471042
 21
73.2262872276
  0
LINE
  5
264
100
AcDbEntity
  8
RUNDUNGEN
100
AcDbLine
 62
7
  6
CONTINUOUS
 10
288.3498428678
 20
14.9138675877
 11
288.2546644213
 21
15.1226733977
  0
LINE
  5
265
100
AcDbEntity
  8
AUSFORMSCHRAEGEN
100
AcDbLine
 62
7
  6
CONTINUOUS
 10
275.3158848434
 20
150.6818128864
 11
265.9665588574
 21
149.6991591284
  0
LINE
  5
266
100
AcDbEntity
  8
BEZUGSACHSEN
100
AcDbLine
 62
7
  6
CONTINUOUS
 10
275.3158848434
 20
150.6818128864
 11
265.9665588574
 21
149.6991591284
  0
LINE
  5
267
100
AcDbEntity
  8
AUSFORMSCHRAEGEN
100
AcDbLine
 62
7
  6
CONTINUOUS
 10
625.3158848434
 20
150.6818128864
 11
634.6652108294
 21
149.6991591284
  0
LINE
  5
268
100
AcDbEntity
  8
BEZUGSACHSEN
100
AcDbLine
 62
7
  6
CONTINUOUS
 10
625.3158848434
 20
150.6818128864
 11
634.6652108294
 21
149.6991591284
  0
LINE
  5
269
100
AcDbEntity
  8
0
100
AcDbLine
 62
7
  6
CONTINUOUS
 10
439.2483851415
 20
134.1926639883
 11
437.6858848434
 21
134.5118128864
  0
LINE
  5
26A
100
AcDbEntity
  8
0
100
AcDbLine
 62
7
  6
CONTINUOUS
 10
467.3733860355
 20
134.1926639883
 11
465.8108848434
 21
134.5118128864
  0
LINE
  5
26B
100
AcDbEntity
  8
0
100
AcDbLine
 62
7
  6
CONTINUOUS
 10
449.5608842474
 20
121.4267064987
 11
448.3108854395
 21
121.7458553968
  0
LINE
  5
26C
100
AcDbEntity
  8
0
100
AcDbLine
 62
7
  6
CONTINUOUS
 10
465.8108848434
 20
132.5969194977
 11
467.0608836513
 21
132.2777705995
  0
LINE
  5
26D
100
AcDbEntity
  8
0
100
AcDbLine
 62
7
  6
CONTINUOUS
 10
437.9983845454
 20
132.9160683958
 11
438.9358845454
 21
132.5969194977
  0
LINE
  5
26E
100
AcDbEntity
  8
0
100
AcDbLine
 62
7
  6
CONTINUOUS
 10
446.7483842474
 20
120.4692596925
 11
447.9983848434
 21
119.8309618125
  0
LINE
  5
26F
100
AcDbEntity
  8
0
100
AcDbLine
 62
7
  6
CONTINUOUS
 10
389.4722653626
 20
124.4682450653
 11
388.5407514206
 21
124.9521385931
  0
LINE
  5
270
100
AcDbEntity
  8
0
100
AcDbLine
 62
7
  6
CONTINUOUS
 10
358.3975273316
 20
118.3407857634
 11
357.4290669733
 21
119.0342128306
  0
LINE
  5
271
100
AcDbEntity
  8
0
100
AcDbLine
 62
7
  6
CONTINUOUS
 10
388.5203183512
 20
123.8682947439
 11
389.0045461824
 21
123.5215807963
  0
LINE
  5
272
100
AcDbEntity
  8
0
100
AcDbLine
 62
7
  6
CONTINUOUS
 10
347.9708890243
 20
116.2862399222
 11
348.4920656198
 21
115.7299928491
  0
LINE
  5
273
100
AcDbEntity
  8
0
100
AcDbLine
 62
7
  6
CONTINUOUS
 10
356.9982942095
 20
117.8780150221
 11
357.5194684571
 21
117.321767535
  0
LINE
  5
274
100
AcDbEntity
  8
0
100
AcDbLine
 62
7
  6
CONTINUOUS
 10
415.6230092027
 20
201.6818128864
 11
402.6957181727
 21
201.6818128864
  0
LINE
  5
275
100
AcDbEntity
  8
BEZUGSACHSEN
100
AcDbLine
 62
7
  6
CONTINUOUS
 10
485.0087604841
 20
201.6818128864
 11
497.9360515142
 21
201.6818128864
  0
LINE
  5
276
100
AcDbEntity
  8
0
100
AcDbLine
 62
7
  6
CONTINUOUS
 10
468.6233848434
 20
133.554366192
 11
467.3733860355
 21
134.1926639883
  0
LINE
  5
277
100
AcDbEntity
  8
0
100
AcDbLine
 62
7
  6
CONTINUOUS
 10
448.3108854395
 20
121.7458553968
 11
447.3733854395
 21
122.3841534166
  0
LINE
  5
278
100
AcDbEntity
  8
0
100
AcDbLine
 62
7
  6
CONTINUOUS
 10
440.4983848434
 20
133.2352172939
 11
439.2483851415
 21
134.1926639883
  0
LINE
  5
279
100
AcDbEntity
  8
0
100
AcDbLine
 62
7
  6
CONTINUOUS
 10
390.2355558737
 20
123.7386410184
 11
389.4722653626
 21
124.4682450653
  0
LINE
  5
27A
100
AcDbEntity
  8
RUNDUNGEN
100
AcDbLine
 62
7
  6
CONTINUOUS
 10
313.7994870723
 20
172.7567374531
 11
327.4000022497
 21
149.1999541567
  0
LINE
  5
27B
100
AcDbEntity
  8
0
100
AcDbLine
 62
7
  6
CONTINUOUS
 10
321.697571859
 20
104.5239539193
 11
317.310412758
 21
112.6083562314
  0
LINE
  5
27C
100
AcDbEntity
  8
0
100
AcDbLine
 62
7
  6
CONTINUOUS
 10
316.0794030668
 20
112.3912960093
 11
321.0985774513
 21
103.1220457553
  0
LINE
  5
27D
100
AcDbEntity
  8
RUNDUNGEN
100
AcDbLine
 62
7
  6
CONTINUOUS
 10
261.9245771046
 20
-17.3127303068
 11
257.9803442808
 21
10.7519445052
  0
LINE
  5
27E
100
AcDbEntity
  8
RUNDUNGEN
100
AcDbLine
 62
7
  6
CONTINUOUS
 10
253.5658848434
 20
19.226115963
 11
253.5658848434
 21
70.1375100054
  0
LINE
  5
27F
100
AcDbEntity
  8
BEZUGSACHSEN
100
AcDbLine
 62
7
  6
CONTINUOUS
 10
253.5658848434
 20
31.3306518882
 11
253.5658848434
 21
70.1375100054
  0
LINE
  5
280
100
AcDbEntity
  8
RUNDUNGEN
100
AcDbLine
 62
7
  6
CONTINUOUS
 10
262.0658848434
 20
-56.0033959794
 11
262.0658848434
 21
13.8147318522
  0
LINE
  5
281
100
AcDbEntity
  8
RUNDUNGEN
100
AcDbLine
 62
7
  6
CONTINUOUS
 10
262.0658848434
 20
108.6971541206
 11
262.0658848434
 21
145.3670217522
  0
LINE
  5
282
100
AcDbEntity
  8
BEZUGSACHSEN
100
AcDbLine
 62
7
  6
CONTINUOUS
 10
262.0658848434
 20
108.6971541206
 11
262.0658848434
 21
145.3670217522
  0
LINE
  5
283
100
AcDbEntity
  8
0
100
AcDbLine
 62
7
  6
CONTINUOUS
 10
467.0608836513
 20
132.2777705995
 11
467.9983836513
 21
131.6394728033
  0
LINE
  5
284
100
AcDbEntity
  8
KONSTRUKTIONSELEMENTE
100
AcDbLine
 62
7
  6
CONTINUOUS
 10
240.9737420008
 20
303.8041361378
 11
237.4382080949
 21
307.3396700438
  0
LINE
  5
285
100
AcDbEntity
  8
0
100
AcDbLine
 62
7
  6
CONTINUOUS
 10
445.4983854395
 20
121.7458553968
 11
446.7483842474
 21
120.4692596925
  0
LINE
  5
286
100
AcDbEntity
  8
0
100
AcDbLine
 62
7
  6
CONTINUOUS
 10
438.9358845454
 20
132.5969194977
 11
439.5608848434
 21
131.9586217014
  0
LINE
  5
287
100
AcDbEntity
  8
0
100
AcDbLine
 62
7
  6
CONTINUOUS
 10
375.4516618088
 20
114.0022503008
 11
371.0645041753
 21
122.0866528717
  0
LINE
  5
288
100
AcDbEntity
  8
0
100
AcDbLine
 62
7
  6
CONTINUOUS
 10
369.833494484
 20
121.8695926496
 11
374.8526656401
 21
112.6003418264
  0
LINE
  5
289
100
AcDbEntity
  8
0
100
AcDbLine
 62
7
  6
CONTINUOUS
 10
349.7230753111
 20
115.9470530712
 11
349.3701221463
 21
116.7490106634
  0
LINE
  5
28A
100
AcDbEntity
  8
0
100
AcDbLine
 62
7
  6
CONTINUOUS
 10
358.7504781484
 20
117.5388277571
 11
358.3975273316
 21
118.3407857634
  0
LINE
  5
28B
100
AcDbEntity
  8
0
100
AcDbLine
 62
7
  6
CONTINUOUS
 10
334.6436098893
 20
107.8869308163
 11
331.6721928808
 21
115.140725558
  0
LINE
  5
28C
100
AcDbEntity
  8
0
100
AcDbLine
 62
7
  6
CONTINUOUS
 10
331.1840371093
 20
113.1102168189
 11
334.2293470023
 21
105.4373547046
  0
LINE
  5
28D
100
AcDbEntity
  8
0
100
AcDbLine
 62
7
  6
CONTINUOUS
 10
325.9274805969
 20
114.127777786
 11
329.3053082372
 21
104.5691138163
  0
LINE
  5
28E
100
AcDbEntity
  8
0
100
AcDbLine
 62
7
  6
CONTINUOUS
 10
329.7195711242
 20
107.0186899279
 11
327.1584902882
 21
114.3448380081
  0
LINE
  5
28F
100
AcDbEntity
  8
BEZUGSACHSEN
100
AcDbLine
 62
7
  6
CONTINUOUS
 10
292.6514253144
 20
78.6116819198
 11
288.7071931533
 21
106.6763520169
  0
LWPOLYLINE
  5
290
100
AcDbEntity
  8
RUNDUNGEN
100
AcDbPolyline
 62
7
  6
CONTINUOUS
 90
6
 70
0
 10
288.5658848434
 20
13.8147346591
 10
288.5571382378
 20
14.0399536511
 10
288.5309511026
 20
14.2638160026
 10
288.4874811751
 20
14.4849732045
 10
288.4269903031
 20
14.7020930334
 10
288.3498428678
 20
14.9138675877
  0
LINE
  5
291
100
AcDbEntity
  8
RUNDUNGEN
100
AcDbLine
 62
7
  6
CONTINUOUS
 10
288.5658848434
 20
-56.0033959794
 11
288.5658848434
 21
13.8144761616
  0
LINE
  5
292
100
AcDbEntity
  8
BEZUGSACHSEN
100
AcDbLine
 62
7
  6
CONTINUOUS
 10
288.5658848434
 20
-56.0033959794
 11
288.5658848434
 21
8.6818128864
  0
LINE
  5
293
100
AcDbEntity
  8
BEZUGSACHSEN
100
AcDbLine
 62
7
  6
CONTINUOUS
 10
288.5658848434
 20
108.6971541206
 11
288.5658848434
 21
145.3670217522
  0
LINE
  5
294
100
AcDbEntity
  8
RUNDUNGEN
100
AcDbLine
 62
7
  6
CONTINUOUS
 10
297.0658848434
 20
26.3845364775
 11
297.0658848434
 21
32.9613141179
  0
LINE
  5
295
100
AcDbEntity
  8
BEZUGSACHSEN
100
AcDbLine
 62
7
  6
CONTINUOUS
 10
297.0658848434
 20
19.226115963
 11
297.0658848434
 21
70.1375100054
  0
LINE
  5
296
100
AcDbEntity
  8
BEZUGSACHSEN
100
AcDbLine
 62
7
  6
CONTINUOUS
 10
272.478529375
 20
335.308923512
 11
268.9429954691
 21
338.844457418
  0
LINE
  5
297
100
AcDbEntity
  8
KONSTRUKTIONSELEMENTE
100
AcDbLine
 62
7
  6
CONTINUOUS
 10
276.2261953153
 20
336.1574516495
 11
281.1759427836
 21
331.2077041812
  0
LINE
  5
298
100
AcDbEntity
  8
KONSTRUKTIONSELEMENTE
100
AcDbLine
 62
7
  6
CONTINUOUS
 10
276.5797487059
 20
336.5110050401
 11
281.5294961742
 21
331.5612575718
  0
LINE
  5
299
100
AcDbEntity
  8
BEZUGSACHSEN
100
AcDbLine
 62
7
  6
CONTINUOUS
 10
605.2670600437
 20
15.1191881968
 11
606.3357309302
 21
14.0505173103
  0
LINE
  5
29A
100
AcDbEntity
  8
0
100
AcDbLine
 62
7
  6
CONTINUOUS
 10
469.8733836513
 20
132.2777705995
 11
468.6233848434
 21
133.554366192
  0
LINE
  5
29B
100
AcDbEntity
  8
0
100
AcDbLine
 62
7
  6
CONTINUOUS
 10
441.4358848434
 20
131.9586217014
 11
440.4983848434
 21
133.2352172939
  0
LINE
  5
29C
100
AcDbEntity
  8
0
100
AcDbLine
 62
7
  6
CONTINUOUS
 10
447.3733854395
 20
122.3841534166
 11
446.7483842474
 21
123.3416001109
  0
LINE
  5
29D
100
AcDbEntity
  8
0
100
AcDbLine
 62
7
  6
CONTINUOUS
 10
389.0045461824
 20
123.5215807963
 11
389.3205552787
 21
122.9291571575
  0
LINE
  5
29E
100
AcDbEntity
  8
0
100
AcDbLine
 62
7
  6
CONTINUOUS
 10
390.55156497
 20
123.1462173796
 11
390.2355558737
 21
123.7386410184
  0
LINE
  5
29F
100
AcDbEntity
  8
0
100
AcDbLine
 62
7
  6
CONTINUOUS
 10
338.3405656776
 20
110.9153342558
 11
338.5252978112
 21
109.8676662648
  0
LINE
  5
2A0
100
AcDbEntity
  8
0
100
AcDbLine
 62
7
  6
CONTINUOUS
 10
341.3976521922
 20
110.3741398404
 11
341.2129200586
 21
111.4218078313
  0
LINE
  5
2A1
100
AcDbEntity
  8
0
100
AcDbLine
 62
7
  6
CONTINUOUS
 10
343.4823562522
 20
108.1491509872
 11
343.66708836
 21
107.1014831429
  0
LINE
  5
2A2
100
AcDbEntity
  8
0
100
AcDbLine
 62
7
  6
CONTINUOUS
 10
334.5445484357
 20
115.6471993406
 11
334.6436098893
 21
107.8869308163
  0
LINE
  5
2A3
100
AcDbEntity
  8
0
100
AcDbLine
 62
7
  6
CONTINUOUS
 10
304.3158848434
 20
516.6818128864
 11
304.3158848434
 21
676.6818128864
  0
LINE
  5
2A4
100
AcDbEntity
  8
RUNDUNGEN
100
AcDbLine
 62
7
  6
CONTINUOUS
 10
257.9803443725
 20
78.6116819198
 11
261.9245765336
 21
106.6763520169
  0
LINE
  5
2A5
100
AcDbEntity
  8
BEZUGSACHSEN
100
AcDbLine
 62
7
  6
CONTINUOUS
 10
257.9803443725
 20
78.6116819198
 11
261.9245765336
 21
106.6763520169
  0
LINE
  5
2A6
100
AcDbEntity
  8
KONSTRUKTIONSELEMENTE
100
AcDbLine
 62
7
  6
CONTINUOUS
 10
322.2588467705
 20
404.9589414589
 11
313.8442760744
 21
396.5443707628
  0
LINE
  5
2A7
100
AcDbEntity
  8
KONSTRUKTIONSELEMENTE
100
AcDbLine
 62
7
  6
CONTINUOUS
 10
269.2258381816
 20
351.9259328699
 11
260.8112674854
 21
343.5113621738
  0
LINE
  5
2A8
100
AcDbEntity
  8
KONSTRUKTIONSELEMENTE
100
AcDbLine
 62
7
  6
CONTINUOUS
 10
288.6712746642
 20
369.4621810434
 11
296.0251851885
 21
376.8160915677
  0
LINE
  5
2A9
100
AcDbEntity
  8
BEZUGSACHSEN
100
AcDbLine
 62
7
  6
CONTINUOUS
 10
547.9476367279
 20
205.5991030686
 11
583.5380539805
 21
185.0509660872
  0
LINE
  5
2AA
100
AcDbEntity
  8
0
100
AcDbLine
 62
7
  6
CONTINUOUS
 10
467.9983836513
 20
131.6394728033
 11
468.6233848434
 21
130.6820252148
  0
LINE
  5
2AB
100
AcDbEntity
  8
0
100
AcDbLine
 62
7
  6
CONTINUOUS
 10
444.8733851415
 20
123.0224512128
 11
445.4983854395
 21
121.7458553968
  0
LINE
  5
2AC
100
AcDbEntity
  8
0
100
AcDbLine
 62
7
  6
CONTINUOUS
 10
348.4920656198
 20
115.7299928491
 11
348.565958556
 21
115.3109251831
  0
LINE
  5
2AD
100
AcDbEntity
  8
0
100
AcDbLine
 62
7
  6
CONTINUOUS
 10
351.0531465076
 20
108.4038444755
 11
350.8684143998
 21
109.4515123197
  0
LINE
  5
2AE
100
AcDbEntity
  8
0
100
AcDbLine
 62
7
  6
CONTINUOUS
 10
349.7969682473
 20
115.5279854052
 11
349.7230753111
 21
115.9470530712
  0
LINE
  5
2AF
100
AcDbEntity
  8
0
100
AcDbLine
 62
7
  6
CONTINUOUS
 10
352.5097614375
 20
109.7409260871
 11
352.6944935453
 21
108.6932582429
  0
LINE
  5
2B0
100
AcDbEntity
  8
0
100
AcDbLine
 62
7
  6
CONTINUOUS
 10
357.5194684571
 20
117.321767535
 11
357.5933613934
 21
116.902699869
  0
LINE
  5
2B1
100
AcDbEntity
  8
0
100
AcDbLine
 62
7
  6
CONTINUOUS
 10
360.0805493449
 20
109.9956191614
 11
359.8958172371
 21
111.0432870056
  0
LINE
  5
2B2
100
AcDbEntity
  8
0
100
AcDbLine
 62
7
  6
CONTINUOUS
 10
358.8243710846
 20
117.1197600911
 11
358.7504781484
 21
117.5388277571
  0
LINE
  5
2B3
100
AcDbEntity
  8
0
100
AcDbLine
 62
7
  6
CONTINUOUS
 10
335.87069404
 20
105.7267684721
 11
335.775558127
 21
115.8642595627
  0
LINE
  5
2B4
100
AcDbEntity
  8
0
100
AcDbLine
 62
7
  6
CONTINUOUS
 10
355.3158848434
 20
516.6818128864
 11
355.3158848434
 21
676.6818128864
  0
LINE
  5
2B5
100
AcDbEntity
  8
0
100
AcDbLine
 62
7
  6
CONTINUOUS
 10
330.9466552749
 20
104.8585275838
 11
331.1840371093
 21
113.1102168189
  0
LINE
  5
2B6
100
AcDbEntity
  8
0
100
AcDbLine
 62
7
  6
CONTINUOUS
 10
330.0308458431
 20
114.8513117906
 11
329.7195711242
 21
107.0186899279
  0
LINE
  5
2B7
100
AcDbEntity
  8
0
100
AcDbLine
 62
7
  6
CONTINUOUS
 10
342.5995688444
 20
115.555179442
 11
342.5421846627
 21
114.6808683043
  0
LINE
  5
2B8
100
AcDbEntity
  8
0
100
AcDbLine
 62
7
  6
CONTINUOUS
 10
349.7395864136
 20
114.6536746815
 11
349.7969682473
 21
115.5279854052
  0
LINE
  5
2B9
100
AcDbEntity
  8
BEZUGSACHSEN
100
AcDbLine
 62
7
  6
CONTINUOUS
 10
288.7071925823
 20
-17.3127303068
 11
292.651425406
 21
10.7519445052
  0
LINE
  5
2BA
100
AcDbEntity
  8
0
100
AcDbLine
 62
7
  6
CONTINUOUS
 10
322.7399236085
 20
103.4114593675
 11
324.2861341462
 21
113.838364122
  0
LINE
  5
2BB
100
AcDbEntity
  8
0
100
AcDbLine
 62
7
  6
CONTINUOUS
 10
323.0551244549
 20
113.6213039
 11
321.697571859
 21
104.5239539193
  0
LINE
  5
2BC
100
AcDbEntity
  8
KONSTRUKTIONSELEMENTE
100
AcDbLine
 62
7
  6
CONTINUOUS
 10
327.2085942389
 20
400.0091939906
 11
318.7940235427
 21
391.5946232945
  0
LINE
  5
2BD
100
AcDbEntity
  8
KONSTRUKTIONSELEMENTE
100
AcDbLine
 62
7
  6
CONTINUOUS
 10
274.1755856499
 20
346.9761854016
 11
265.7610149537
 21
338.5616147055
  0
LINE
  5
2BE
100
AcDbEntity
  8
KONSTRUKTIONSELEMENTE
100
AcDbLine
 62
7
  6
CONTINUOUS
 10
383.1407406307
 20
455.1635229232
 11
327.9864116982
 21
400.0091939906
  0
LINE
  5
2BF
100
AcDbEntity
  8
KONSTRUKTIONSELEMENTE
100
AcDbLine
 62
7
  6
CONTINUOUS
 10
293.1967580638
 20
364.9366976438
 11
300.5506685881
 21
372.2906081681
  0
LINE
  5
2C0
100
AcDbEntity
  8
KONSTRUKTIONSELEMENTE
100
AcDbLine
 62
7
  6
CONTINUOUS
 10
318.6526021865
 20
389.5440136291
 11
301.4352859575
 21
372.3266974001
  0
LINE
  5
2C1
100
AcDbEntity
  8
KONSTRUKTIONSELEMENTE
100
AcDbLine
 62
7
  6
CONTINUOUS
 10
293.1967580638
 20
364.0881695063
 11
275.9794418348
 21
346.8708532774
  0
LINE
  5
2C2
100
AcDbEntity
  8
KONSTRUKTIONSELEMENTE
100
AcDbLine
 62
7
  6
CONTINUOUS
 10
119.7434646387
 20
189.6449265876
 11
268.0777887385
 21
337.9792506874
  0
LINE
  5
2C3
100
AcDbEntity
  8
BEZUGSACHSEN
100
AcDbLine
 62
7
  6
CONTINUOUS
 10
268.0777887385
 20
337.9792506874
 11
268.9422011717
 21
338.8436631206
  0
LINE
  5
2C4
100
AcDbEntity
  8
KONSTRUKTIONSELEMENTE
100
AcDbLine
 62
7
  6
CONTINUOUS
 10
120.521282098
 20
188.8671091283
 11
151.6339804702
 21
219.9798075005
  0
LINE
  5
2C5
100
AcDbEntity
  8
KONSTRUKTIONSELEMENTE
100
AcDbLine
 62
7
  6
CONTINUOUS
 10
122.5011810853
 20
186.887210141
 11
153.6138794576
 21
217.9999085132
  0
LINE
  5
2C6
100
AcDbEntity
  8
KONSTRUKTIONSELEMENTE
100
AcDbLine
 62
7
  6
CONTINUOUS
 10
123.2789985447
 20
186.1093926817
 11
271.6133226445
 21
334.4437167815
  0
LINE
  5
2C7
100
AcDbEntity
  8
BEZUGSACHSEN
100
AcDbLine
 62
7
  6
CONTINUOUS
 10
271.6133226445
 20
334.4437167815
 11
272.4777350776
 21
335.3081292146
  0
LINE
  5
2C8
100
AcDbEntity
  8
KONSTRUKTIONSELEMENTE
100
AcDbLine
 62
7
  6
CONTINUOUS
 10
323.1780855861
 20
385.0185302295
 11
305.9607693571
 21
367.8012140005
  0
LINE
  5
2C9
100
AcDbEntity
  8
KONSTRUKTIONSELEMENTE
100
AcDbLine
 62
7
  6
CONTINUOUS
 10
297.7222414634
 20
359.5626861067
 11
280.5049252344
 21
342.3453698778
  0
LINE
  5
2CA
100
AcDbEntity
  8
KONSTRUKTIONSELEMENTE
100
AcDbLine
 62
7
  6
CONTINUOUS
 10
305.9246801251
 20
366.9165966311
 11
298.5707696008
 21
359.5626861067
  0
LINE
  5
2CB
100
AcDbEntity
  8
KONSTRUKTIONSELEMENTE
100
AcDbLine
 62
7
  6
CONTINUOUS
 10
388.7975948802
 20
449.5066686737
 11
333.6432659477
 21
394.3523397411
  0
LINE
  5
2CC
100
AcDbEntity
  8
KONSTRUKTIONSELEMENTE
100
AcDbLine
 62
7
  6
CONTINUOUS
 10
272.1956866625
 20
332.1269429967
 11
276.2261953153
 21
336.1574516495
  0
LINE
  5
2CD
100
AcDbEntity
  8
KONSTRUKTIONSELEMENTE
100
AcDbLine
 62
7
  6
CONTINUOUS
 10
276.5797487059
 20
336.5110050401
 11
280.6102573587
 21
340.5415136928
  0
LINE
  5
2CE
100
AcDbEntity
  8
KONSTRUKTIONSELEMENTE
100
AcDbLine
 62
7
  6
CONTINUOUS
 10
325.2286952515
 20
385.1599515857
 11
329.2592039043
 21
389.1904602385
  0
LINE
  5
2CF
100
AcDbEntity
  8
KONSTRUKTIONSELEMENTE
100
AcDbLine
 62
7
  6
CONTINUOUS
 10
329.6127572949
 20
389.5440136291
 11
333.6432659477
 21
393.5745222818
  0
LINE
  5
2D0
100
AcDbEntity
  8
KONSTRUKTIONSELEMENTE
100
AcDbLine
 62
7
  6
CONTINUOUS
 10
310.4501635247
 20
362.3911132315
 11
303.0962530004
 21
355.0372027072
  0
LINE
  5
2D1
100
AcDbEntity
  8
KONSTRUKTIONSELEMENTE
100
AcDbLine
 62
7
  6
CONTINUOUS
 10
277.1454341308
 20
327.1771955284
 11
281.1759427836
 21
331.2077041812
  0
LINE
  5
2D2
100
AcDbEntity
  8
KONSTRUKTIONSELEMENTE
100
AcDbLine
 62
7
  6
CONTINUOUS
 10
281.5294961742
 20
331.5612575718
 11
285.560004827
 21
335.5917662245
  0
LINE
  5
2D3
100
AcDbEntity
  8
KONSTRUKTIONSELEMENTE
100
AcDbLine
 62
7
  6
CONTINUOUS
 10
330.1784427198
 20
380.2102041174
 11
334.2089513726
 21
384.2407127702
  0
LINE
  5
2D4
100
AcDbEntity
  8
KONSTRUKTIONSELEMENTE
100
AcDbLine
 62
7
  6
CONTINUOUS
 10
334.5625047632
 20
384.5942661608
 11
338.593013416
 21
388.6247748135
  0
LINE
  5
2D5
100
AcDbEntity
  8
BEZUGSACHSEN
100
AcDbLine
 62
7
  6
CONTINUOUS
 10
510.1576856809
 20
262.0581576296
 11
650.8158848434
 21
180.8491084794
  0
LINE
  5
2D6
100
AcDbEntity
  8
KONSTRUKTIONSELEMENTE
100
AcDbLine
 62
7
  6
CONTINUOUS
 10
329.2592039043
 20
389.1904602385
 11
334.2089513726
 21
384.2407127702
  0
LINE
  5
2D7
100
AcDbEntity
  8
KONSTRUKTIONSELEMENTE
100
AcDbLine
 62
7
  6
CONTINUOUS
 10
329.6127572949
 20
389.5440136291
 11
334.5625047632
 21
384.5942661608
  0
LINE
  5
2D8
100
AcDbEntity
  8
RUNDUNGEN
100
AcDbLine
 62
7
  6
CONTINUOUS
 10
644.296026474
 20
75.3131207452
 11
645.3647612901
 21
74.244385929
  0
LINE
  5
2D9
100
AcDbEntity
  8
BEZUGSACHSEN
100
AcDbLine
 62
7
  6
CONTINUOUS
 10
644.296026474
 20
75.3131207452
 11
645.3647612901
 21
74.244385929
  0
LINE
  5
2DA
100
AcDbEntity
  8
0
100
AcDbLine
 62
7
  6
CONTINUOUS
 10
470.4983848434
 20
131.001175007
 11
469.8733836513
 21
132.2777705995
  0
LINE
  5
2DB
100
AcDbEntity
  8
0
100
AcDbLine
 62
7
  6
CONTINUOUS
 10
442.0608851415
 20
119.5118128864
 11
439.2483851415
 21
126.8522384373
  0
LINE
  5
2DC
100
AcDbEntity
  8
0
100
AcDbLine
 62
7
  6
CONTINUOUS
 10
437.3733846944
 20
126.2139406411
 11
439.8733845454
 21
119.5118128864
  0
LINE
  5
2DD
100
AcDbEntity
  8
0
100
AcDbLine
 62
7
  6
CONTINUOUS
 10
439.5608848434
 20
131.9586217014
 11
439.8733845454
 21
131.001175007
  0
LINE
  5
2DE
100
AcDbEntity
  8
0
100
AcDbLine
 62
7
  6
CONTINUOUS
 10
441.7483845454
 20
131.001175007
 11
441.4358848434
 21
131.9586217014
  0
LINE
  5
2DF
100
AcDbEntity
  8
0
100
AcDbLine
 62
7
  6
CONTINUOUS
 10
379.6815720141
 20
123.6060744263
 11
381.4180537908
 21
113.7579968962
  0
LINE
  5
2E0
100
AcDbEntity
  8
0
100
AcDbLine
 62
7
  6
CONTINUOUS
 10
382.649063482
 20
113.9750571183
 11
380.9125817054
 21
123.8231346484
  0
LINE
  5
2E1
100
AcDbEntity
  8
0
100
AcDbLine
 62
7
  6
CONTINUOUS
 10
382.5539263951
 20
124.1125480018
 11
384.2904081718
 21
114.2644704717
  0
LINE
  5
2E2
100
AcDbEntity
  8
0
100
AcDbLine
 62
7
  6
CONTINUOUS
 10
385.521417863
 20
114.4815306938
 11
384.7455430156
 21
118.8817356101
  0
LINE
  5
2E3
100
AcDbEntity
  8
0
100
AcDbLine
 62
7
  6
CONTINUOUS
 10
384.5238645174
 20
120.1389368471
 11
383.9696681682
 21
123.2819405265
  0
LINE
  5
2E4
100
AcDbEntity
  8
0
100
AcDbLine
 62
7
  6
CONTINUOUS
 10
389.3205552787
 20
122.9291571575
 11
389.4313946314
 21
122.3005559521
  0
LINE
  5
2E5
100
AcDbEntity
  8
0
100
AcDbLine
 62
7
  6
CONTINUOUS
 10
390.699350739
 20
122.3080826346
 11
390.55156497
 21
123.1462173796
  0
LINE
  5
2E6
100
AcDbEntity
  8
BEZUGSACHSEN
100
AcDbLine
 62
7
  6
CONTINUOUS
 10
400.3158848434
 20
237.6818128864
 11
400.3158848434
 21
262.1795789618
  0
LINE
  5
2E7
100
AcDbEntity
  8
0
100
AcDbLine
 62
7
  6
CONTINUOUS
 10
351.6269716817
 20
117.1469541279
 11
351.569589848
 21
116.2726434043
  0
LINE
  5
2E8
100
AcDbEntity
  8
0
100
AcDbLine
 62
7
  6
CONTINUOUS
 10
358.7669915989
 20
116.2454497815
 11
358.8243710846
 21
117.1197600911
  0
LINE
  5
2E9
100
AcDbEntity
  8
0
100
AcDbLine
 62
7
  6
CONTINUOUS
 10
446.7483842474
 20
123.3416001109
 11
446.4358854395
 21
124.6181957034
  0
LINE
  5
2EA
100
AcDbEntity
  8
0
100
AcDbLine
 62
7
  6
CONTINUOUS
 10
444.5608845454
 20
124.6181957034
 11
444.8733851415
 21
123.0224512128
  0
LINE
  5
2EB
100
AcDbEntity
  8
BEZUGSACHSEN
100
AcDbLine
 62
7
  6
CONTINUOUS
 10
425.829964996
 20
442.2582960703
 11
425.8470962219
 21
442.077774012
  0
LINE
  5
2EC
100
AcDbEntity
  8
BEZUGSACHSEN
100
AcDbLine
 62
7
  6
CONTINUOUS
 10
425.8470962219
 20
442.077774012
 11
425.8695822077
 21
441.8193327192
  0
LINE
  5
2ED
100
AcDbEntity
  8
BEZUGSACHSEN
100
AcDbLine
 62
7
  6
CONTINUOUS
 10
425.8695822077
 20
441.8193327192
 11
425.8963059233
 21
441.4859540392
  0
LINE
  5
2EE
100
AcDbEntity
  8
BEZUGSACHSEN
100
AcDbLine
 62
7
  6
CONTINUOUS
 10
425.8963059233
 20
441.4859540392
 11
425.9264751468
 21
441.0793353975
  0
LINE
  5
2EF
100
AcDbEntity
  8
FLAECHEN
100
AcDbLine
 62
7
  6
CONTINUOUS
 10
425.9116253089
 20
441.2831493897
 11
425.9426688668
 21
440.8487909874
  0
LINE
  5
2F0
100
AcDbEntity
  8
BEZUGSACHSEN
100
AcDbLine
 62
7
  6
CONTINUOUS
 10
425.9264751468
 20
441.0793353975
 11
425.9595228369
 21
440.6001516572
  0
LINE
  5
2F1
100
AcDbEntity
  8
FLAECHEN
100
AcDbLine
 62
7
  6
CONTINUOUS
 10
425.9426688668
 20
440.8487909874
 11
425.9769919078
 21
440.3333548879
  0
LINE
  5
2F2
100
AcDbEntity
  8
BEZUGSACHSEN
100
AcDbLine
 62
7
  6
CONTINUOUS
 10
425.9595228369
 20
440.6001516572
 11
426.0136075077
 21
439.7451667902
  0
LINE
  5
2F3
100
AcDbEntity
  8
FLAECHEN
100
AcDbLine
 62
7
  6
CONTINUOUS
 10
425.9769919078
 20
440.3333548879
 11
426.0326833043
 21
439.4236553456
  0
LINE
  5
2F4
100
AcDbEntity
  8
BEZUGSACHSEN
100
AcDbLine
 62
7
  6
CONTINUOUS
 10
426.0136075077
 20
439.7451667902
 11
426.0722272865
 21
438.7253292119
  0
LINE
  5
2F5
100
AcDbEntity
  8
FLAECHEN
100
AcDbLine
 62
7
  6
CONTINUOUS
 10
426.0326833043
 20
439.4236553456
 11
426.0926471568
 21
438.3483015941
  0
LINE
  5
2F6
100
AcDbEntity
  8
BEZUGSACHSEN
100
AcDbLine
 62
7
  6
CONTINUOUS
 10
426.0722272865
 20
438.7253292119
 11
426.1346810837
 21
437.5379258231
  0
LINE
  5
2F7
100
AcDbEntity
  8
FLAECHEN
100
AcDbLine
 62
7
  6
CONTINUOUS
 10
426.0926471568
 20
438.3483015941
 11
426.1562615294
 21
437.1043111747
  0
LINE
  5
2F8
100
AcDbEntity
  8
BEZUGSACHSEN
100
AcDbLine
 62
7
  6
CONTINUOUS
 10
426.1346810837
 20
437.5379258231
 11
426.2004777597
 21
436.1795435993
  0
LINE
  5
2F9
100
AcDbEntity
  8
FLAECHEN
100
AcDbLine
 62
7
  6
CONTINUOUS
 10
426.1562615294
 20
437.1043111747
 11
426.2230908584
 21
435.6880749989
  0
LINE
  5
2FA
100
AcDbEntity
  8
BEZUGSACHSEN
100
AcDbLine
 62
7
  6
CONTINUOUS
 10
426.2004777597
 20
436.1795435993
 11
426.2692838612
 21
434.6460571722
  0
LINE
  5
2FB
100
AcDbEntity
  8
FLAECHEN
100
AcDbLine
 62
7
  6
CONTINUOUS
 10
426.2230908584
 20
435.6880749989
 11
426.2928655771
 21
434.0947561948
  0
LINE
  5
2FC
100
AcDbEntity
  8
BEZUGSACHSEN
100
AcDbLine
 62
7
  6
CONTINUOUS
 10
426.2692838612
 20
434.6460571722
 11
426.3410127842
 21
432.9294887872
  0
LINE
  5
2FD
100
AcDbEntity
  8
FLAECHEN
100
AcDbLine
 62
7
  6
CONTINUOUS
 10
426.2928655771
 20
434.0947561948
 11
426.3655855444
 21
432.314640525
  0
LINE
  5
2FE
100
AcDbEntity
  8
BEZUGSACHSEN
100
AcDbLine
 62
7
  6
CONTINUOUS
 10
426.3410127842
 20
432.9294887872
 11
426.4157516676
 21
431.0181979541
  0
LINE
  5
2FF
100
AcDbEntity
  8
FLAECHEN
100
AcDbLine
 62
7
  6
CONTINUOUS
 10
426.3655855444
 20
432.314640525
 11
426.4413555252
 21
430.3356323242
  0
LINE
  5
300
100
AcDbEntity
  8
BEZUGSACHSEN
100
AcDbLine
 62
7
  6
CONTINUOUS
 10
426.4157516676
 20
431.0181979541
 11
426.4936340381
 21
428.8992975455
  0
LINE
  5
301
100
AcDbEntity
  8
FLAECHEN
100
AcDbLine
 62
7
  6
CONTINUOUS
 10
426.4413555252
 20
430.3356323242
 11
426.5203214754
 21
428.1444913843
  0
LINE
  5
302
100
AcDbEntity
  8
BEZUGSACHSEN
100
AcDbLine
 62
7
  6
CONTINUOUS
 10
426.4936340381
 20
428.8992975455
 11
426.5748271021
 21
426.5589459099
  0
LINE
  5
303
100
AcDbEntity
  8
FLAECHEN
100
AcDbLine
 62
7
  6
CONTINUOUS
 10
426.5203214754
 20
428.1444913843
 11
426.6026609891
 21
425.7270929012
  0
LINE
  5
304
100
AcDbEntity
  8
BEZUGSACHSEN
100
AcDbLine
 62
7
  6
CONTINUOUS
 10
426.5748271021
 20
426.5589459099
 11
426.6595313543
 21
423.9824278307
  0
LINE
  5
305
100
AcDbEntity
  8
FLAECHEN
100
AcDbLine
 62
7
  6
CONTINUOUS
 10
426.6026609891
 20
425.7270929012
 11
426.6364067692
 21
424.6978552175
  0
LINE
  5
306
100
AcDbEntity
  8
BEZUGSACHSEN
100
AcDbLine
 62
7
  6
CONTINUOUS
 10
426.6595313543
 20
423.9824278307
 11
426.747968263
 21
421.1547056031
  0
LINE
  5
307
100
AcDbEntity
  8
BEZUGSACHSEN
100
AcDbLine
 62
7
  6
CONTINUOUS
 10
426.747968263
 20
421.1547056031
 11
426.8403729715
 21
418.061013711
  0
LINE
  5
308
100
AcDbEntity
  8
BEZUGSACHSEN
100
AcDbLine
 62
7
  6
CONTINUOUS
 10
426.8403729715
 20
418.061013711
 11
426.9370726773
 21
414.6845916211
  0
LINE
  5
309
100
AcDbEntity
  8
BEZUGSACHSEN
100
AcDbLine
 62
7
  6
CONTINUOUS
 10
426.9370726773
 20
414.6845916211
 11
427.0733808214
 21
409.7121865317
  0
LINE
  5
30A
100
AcDbEntity
  8
BEZUGSACHSEN
100
AcDbLine
 62
7
  6
CONTINUOUS
 10
427.0733808214
 20
409.7121865317
 11
427.2191171225
 21
404.1649337611
  0
LINE
  5
30B
100
AcDbEntity
  8
BEZUGSACHSEN
100
AcDbLine
 62
7
  6
CONTINUOUS
 10
427.2191171225
 20
404.1649337611
 11
427.3758293024
 21
397.9962703119
  0
LINE
  5
30C
100
AcDbEntity
  8
BEZUGSACHSEN
100
AcDbLine
 62
7
  6
CONTINUOUS
 10
427.3758293024
 20
397.9962703119
 11
429.5842542307
 21
308.1729682615
  0
LINE
  5
30D
100
AcDbEntity
  8
FLAECHEN
100
AcDbLine
 62
7
  6
CONTINUOUS
 10
428.0060623109
 20
372.4179469649
 11
429.5842542307
 21
308.1729682615
  0
LINE
  5
30E
100
AcDbEntity
  8
0
100
AcDbLine
 62
7
  6
CONTINUOUS
 10
430.1858848434
 20
134.5118128864
 11
430.1858848434
 21
119.5118128864
  0
LINE
  5
30F
100
AcDbEntity
  8
0
100
AcDbLine
 62
7
  6
CONTINUOUS
 10
432.0608848434
 20
119.5118128864
 11
432.0608848434
 21
126.2139406411
  0
LINE
  5
310
100
AcDbEntity
  8
0
100
AcDbLine
 62
7
  6
CONTINUOUS
 10
432.0608848434
 20
128.1288340298
 11
432.0608848434
 21
132.9160683958
  0
LINE
  5
311
100
AcDbEntity
  8
0
100
AcDbLine
 62
7
  6
CONTINUOUS
 10
389.4313946314
 20
122.3005559521
 11
389.3370640333
 21
121.6357783539
  0
LINE
  5
312
100
AcDbEntity
  8
0
100
AcDbLine
 62
7
  6
CONTINUOUS
 10
390.6050201409
 20
121.6433050365
 11
390.699350739
 21
122.3080826346
  0
LINE
  5
313
100
AcDbEntity
  8
0
100
AcDbLine
 62
7
  6
CONTINUOUS
 10
376.4940150257
 20
112.8897560079
 11
378.0402226285
 21
123.3166602449
  0
LINE
  5
314
100
AcDbEntity
  8
0
100
AcDbLine
 62
7
  6
CONTINUOUS
 10
376.8092129372
 20
123.0996000228
 11
375.4516618088
 21
114.0022503008
  0
LINE
  5
315
100
AcDbEntity
  8
0
100
AcDbLine
 62
7
  6
CONTINUOUS
 10
348.565958556
 20
115.3109251831
 11
348.3034068751
 21
114.4004374798
  0
LINE
  5
316
100
AcDbEntity
  8
0
100
AcDbLine
 62
7
  6
CONTINUOUS
 10
357.5933613934
 20
116.902699869
 11
357.3308120604
 21
115.9922125797
  0
LWPOLYLINE
  5
317
100
AcDbEntity
  8
RUNDUNGEN
100
AcDbPolyline
 62
7
  6
CONTINUOUS
 90
7
 70
0
 10
262.3771040121
 20
15.1226581397
 10
262.2819257113
 20
14.9138532038
 10
262.2047786039
 20
14.7020800423
 10
262.1442880308
 20
14.4849617576
 10
262.1008183506
 20
14.2638062546
 10
262.074631386
 20
14.0399457621
 10
262.0658848434
 20
13.814728767
  0
LINE
  5
318
100
AcDbEntity
  8
BEZUGSACHSEN
100
AcDbLine
 62
7
  6
CONTINUOUS
 10
517.4417296147
 20
162.5594750675
 11
497.9360515142
 21
201.6818128864
  0
LINE
  5
319
100
AcDbEntity
  8
0
100
AcDbLine
 62
7
  6
CONTINUOUS
 10
468.6233848434
 20
130.6820252148
 11
468.9358836513
 21
129.4054296223
  0
LINE
  5
31A
100
AcDbEntity
  8
0
100
AcDbLine
 62
7
  6
CONTINUOUS
 10
470.8108836513
 20
129.4054296223
 11
470.4983848434
 21
131.001175007
  0
LINE
  5
31B
100
AcDbEntity
  8
BEZUGSACHSEN
100
AcDbLine
 62
7
  6
CONTINUOUS
 10
467.6807026101
 20
138.2010375852
 11
465.0759799451
 21
152.9731538804
  0
LWPOLYLINE
  5
31C
100
AcDbEntity
  8
BEZUGSACHSEN
100
AcDbPolyline
 62
7
  6
CONTINUOUS
 90
5
 70
0
 10
425.8188177939
 20
442.365263768
 10
425.8181391589
 20
442.370929031
 10
425.8198473092
 20
442.3556833606
 10
425.8239031679
 20
442.3177584556
 10
425.829964996
 20
442.2582960703
  0
LINE
  5
31D
100
AcDbEntity
  8
0
100
AcDbLine
 62
7
  6
CONTINUOUS
 10
439.8733845454
 20
131.001175007
 11
439.8733845454
 21
130.0437274186
  0
LINE
  5
31E
100
AcDbEntity
  8
0
100
AcDbLine
 62
7
  6
CONTINUOUS
 10
441.7483845454
 20
129.7245785205
 11
441.7483845454
 21
131.001175007
  0
LINE
  5
31F
100
AcDbEntity
  8
0
100
AcDbLine
 62
7
  6
CONTINUOUS
 10
444.5608845454
 20
134.5118128864
 11
444.5608845454
 21
124.6181957034
  0
LINE
  5
320
100
AcDbEntity
  8
0
100
AcDbLine
 62
7
  6
CONTINUOUS
 10
446.4358854395
 20
124.6181957034
 11
446.4358854395
 21
134.5118128864
  0
LINE
  5
321
100
AcDbEntity
  8
0
100
AcDbLine
 62
7
  6
CONTINUOUS
 10
453.9358854395
 20
134.5118128864
 11
453.9358854395
 21
124.6181957034
  0
LINE
  5
322
100
AcDbEntity
  8
0
100
AcDbLine
 62
7
  6
CONTINUOUS
 10
455.8108854395
 20
124.6181957034
 11
455.8108854395
 21
134.5118128864
  0
LINE
  5
323
100
AcDbEntity
  8
0
100
AcDbLine
 62
7
  6
CONTINUOUS
 10
458.3108848434
 20
134.5118128864
 11
458.3108848434
 21
119.5118128864
  0
LINE
  5
324
100
AcDbEntity
  8
0
100
AcDbLine
 62
7
  6
CONTINUOUS
 10
460.1858848434
 20
121.4267064987
 11
460.1858848434
 21
132.5969194977
  0
LINE
  5
325
100
AcDbEntity
  8
0
100
AcDbLine
 62
7
  6
CONTINUOUS
 10
468.9358836513
 20
129.4054296223
 11
468.9358836513
 21
124.6181957034
  0
LINE
  5
326
100
AcDbEntity
  8
0
100
AcDbLine
 62
7
  6
CONTINUOUS
 10
470.8108836513
 20
124.6181957034
 11
470.8108836513
 21
129.4054296223
  0
LINE
  5
327
100
AcDbEntity
  8
BEZUGSACHSEN
100
AcDbLine
 62
7
  6
CONTINUOUS
 10
474.1478778632
 20
429.1712391808
 11
474.2311458214
 21
431.4149004565
  0
LINE
  5
328
100
AcDbEntity
  8
FLAECHEN
100
AcDbLine
 62
7
  6
CONTINUOUS
 10
474.1478778632
 20
429.1712391808
 11
474.2311458214
 21
431.4149004565
  0
LINE
  5
329
100
AcDbEntity
  8
BEZUGSACHSEN
100
AcDbLine
 62
7
  6
CONTINUOUS
 10
474.2311458214
 20
431.4149004565
 11
474.3108099142
 21
433.421219854
  0
LINE
  5
32A
100
AcDbEntity
  8
FLAECHEN
100
AcDbLine
 62
7
  6
CONTINUOUS
 10
474.2311458214
 20
431.4149004565
 11
474.3108099142
 21
433.421219854
  0
LINE
  5
32B
100
AcDbEntity
  8
BEZUGSACHSEN
100
AcDbLine
 62
7
  6
CONTINUOUS
 10
474.3108099142
 20
433.421219854
 11
474.3870349307
 21
435.2061413027
  0
LINE
  5
32C
100
AcDbEntity
  8
FLAECHEN
100
AcDbLine
 62
7
  6
CONTINUOUS
 10
474.3108099142
 20
433.421219854
 11
474.3870349307
 21
435.2061413027
  0
LINE
  5
32D
100
AcDbEntity
  8
BEZUGSACHSEN
100
AcDbLine
 62
7
  6
CONTINUOUS
 10
474.3870349307
 20
435.2061413027
 11
474.4598941508
 21
436.7832822806
  0
LINE
  5
32E
100
AcDbEntity
  8
FLAECHEN
100
AcDbLine
 62
7
  6
CONTINUOUS
 10
474.3870349307
 20
435.2061413027
 11
474.4598941508
 21
436.7832822806
  0
LINE
  5
32F
100
AcDbEntity
  8
BEZUGSACHSEN
100
AcDbLine
 62
7
  6
CONTINUOUS
 10
474.4598941508
 20
436.7832822806
 11
474.5291279666
 21
438.1597642462
  0
LINE
  5
330
100
AcDbEntity
  8
FLAECHEN
100
AcDbLine
 62
7
  6
CONTINUOUS
 10
474.4598941508
 20
436.7832822806
 11
474.5291279666
 21
438.1597642462
  0
LINE
  5
331
100
AcDbEntity
  8
BEZUGSACHSEN
100
AcDbLine
 62
7
  6
CONTINUOUS
 10
474.5291279666
 20
438.1597642462
 11
474.5941979797
 21
439.3396375588
  0
LINE
  5
332
100
AcDbEntity
  8
FLAECHEN
100
AcDbLine
 62
7
  6
CONTINUOUS
 10
474.5291279666
 20
438.1597642462
 11
474.5941979797
 21
439.3396375588
  0
LINE
  5
333
100
AcDbEntity
  8
BEZUGSACHSEN
100
AcDbLine
 62
7
  6
CONTINUOUS
 10
474.5941979797
 20
439.3396375588
 11
474.6543334046
 21
440.3264497734
  0
LINE
  5
334
100
AcDbEntity
  8
FLAECHEN
100
AcDbLine
 62
7
  6
CONTINUOUS
 10
474.5941979797
 20
439.3396375588
 11
474.6543334046
 21
440.3264497734
  0
LINE
  5
335
100
AcDbEntity
  8
BEZUGSACHSEN
100
AcDbLine
 62
7
  6
CONTINUOUS
 10
474.6543334046
 20
440.3264497734
 11
474.6911446873
 21
440.8783458538
  0
LINE
  5
336
100
AcDbEntity
  8
FLAECHEN
100
AcDbLine
 62
7
  6
CONTINUOUS
 10
474.6543334046
 20
440.3264497734
 11
474.6911446873
 21
440.8783458538
  0
LINE
  5
337
100
AcDbEntity
  8
BEZUGSACHSEN
100
AcDbLine
 62
7
  6
CONTINUOUS
 10
474.6911446873
 20
440.8783458538
 11
474.7247857114
 21
441.345548885
  0
LINE
  5
338
100
AcDbEntity
  8
FLAECHEN
100
AcDbLine
 62
7
  6
CONTINUOUS
 10
474.6911446873
 20
440.8783458538
 11
474.7247857114
 21
441.345548885
  0
LINE
  5
339
100
AcDbEntity
  8
BEZUGSACHSEN
100
AcDbLine
 62
7
  6
CONTINUOUS
 10
474.7247857114
 20
441.345548885
 11
474.7545948339
 21
441.7273429942
  0
LINE
  5
33A
100
AcDbEntity
  8
FLAECHEN
100
AcDbLine
 62
7
  6
CONTINUOUS
 10
474.7247857114
 20
441.345548885
 11
474.7545948339
 21
441.7273429942
  0
LINE
  5
33B
100
AcDbEntity
  8
BEZUGSACHSEN
100
AcDbLine
 62
7
  6
CONTINUOUS
 10
474.7545948339
 20
441.7273429942
 11
474.7797060829
 21
442.0226005961
  0
LINE
  5
33C
100
AcDbEntity
  8
FLAECHEN
100
AcDbLine
 62
7
  6
CONTINUOUS
 10
474.7545948339
 20
441.7273429942
 11
474.7797060829
 21
442.0226005961
  0
LWPOLYLINE
  5
33D
100
AcDbEntity
  8
BEZUGSACHSEN
100
AcDbPolyline
 62
7
  6
CONTINUOUS
 90
5
 70
0
 10
474.7797060829
 20
442.0226005961
 10
474.7989870565
 20
442.2297663812
 10
474.8059888688
 20
442.2996483793
 10
474.8108919263
 20
442.3462312255
 10
474.8133063736
 20
442.3680965815
  0
LWPOLYLINE
  5
33E
100
AcDbEntity
  8
FLAECHEN
100
AcDbPolyline
 62
7
  6
CONTINUOUS
 90
5
 70
0
 10
474.7797060829
 20
442.0226005961
 10
474.7989870565
 20
442.2297663812
 10
474.8059888688
 20
442.2996483793
 10
474.8108919263
 20
442.3462312255
 10
474.8133063736
 20
442.3680965815
  0
LINE
  5
33F
100
AcDbEntity
  8
0
100
AcDbLine
 62
7
  6
CONTINUOUS
 10
343.5680268547
 20
114.8617519607
 11
343.867524952
 21
115.5627061246
  0
LINE
  5
340
100
AcDbEntity
  8
0
100
AcDbLine
 62
7
  6
CONTINUOUS
 10
349.4400883163
 20
113.9527205177
 11
349.7395864136
 21
114.6536746815
  0
LINE
  5
341
100
AcDbEntity
  8
0
100
AcDbLine
 62
7
  6
CONTINUOUS
 10
352.59543204
 20
116.4535270607
 11
352.8949277893
 21
117.1544808105
  0
LINE
  5
342
100
AcDbEntity
  8
0
100
AcDbLine
 62
7
  6
CONTINUOUS
 10
358.4674911536
 20
115.5444952036
 11
358.7669915989
 21
116.2454497815
  0
LINE
  5
343
100
AcDbEntity
  8
RUNDUNGEN
100
AcDbLine
 62
7
  6
CONTINUOUS
 10
343.2486401382
 20
149.6841738387
 11
365.2385422134
 21
193.7890941165
  0
LINE
  5
344
100
AcDbEntity
  8
RUNDUNGEN
100
AcDbLine
 62
7
  6
CONTINUOUS
 10
254.4553226686
 20
73.2262873659
 11
254.4541129551
 21
73.2243695085
  0
LINE
  5
345
100
AcDbEntity
  8
RUNDUNGEN
100
AcDbLine
 62
7
  6
CONTINUOUS
 10
646.14938077
 20
73.2689843547
 11
646.1562914127
 21
73.2581474346
  0
LINE
  5
346
100
AcDbEntity
  8
BEZUGSACHSEN
100
AcDbLine
 62
7
  6
CONTINUOUS
 10
646.14938077
 20
73.2689843547
 11
646.1562914127
 21
73.2581474346
  0
LINE
  5
347
100
AcDbEntity
  8
RUNDUNGEN
100
AcDbLine
 62
7
  6
CONTINUOUS
 10
646.1562907659
 20
73.2581470238
 11
646.149298004
 21
73.2691132406
  0
LINE
  5
348
100
AcDbEntity
  8
BEZUGSACHSEN
100
AcDbLine
 62
7
  6
CONTINUOUS
 10
646.1562907659
 20
73.2581470238
 11
646.149298004
 21
73.2691132406
  0
LINE
  5
349
100
AcDbEntity
  8
BEZUGSACHSEN
100
AcDbLine
 62
7
  6
CONTINUOUS
 10
646.1728520688
 20
73.2320088862
 11
646.1674274729
 21
73.2405997995
  0
LINE
  5
34A
100
AcDbEntity
  8
RUNDUNGEN
100
AcDbLine
 62
7
  6
CONTINUOUS
 10
646.1776567318
 20
73.2243695085
 11
646.1681593969
 21
73.2394264071
  0
LINE
  5
34B
100
AcDbEntity
  8
BEZUGSACHSEN
100
AcDbLine
 62
7
  6
CONTINUOUS
 10
557.3831295487
 20
149.6841738387
 11
535.3932274735
 21
193.7890941165
  0
LINE
  5
34C
100
AcDbEntity
  8
RUNDUNGEN
100
AcDbLine
 62
7
  6
CONTINUOUS
 10
612.3318167566
 20
74.3348864493
 11
612.3771052655
 21
74.2409523754
  0
LINE
  5
34D
100
AcDbEntity
  8
BEZUGSACHSEN
100
AcDbLine
 62
7
  6
CONTINUOUS
 10
612.2819268191
 20
74.4497581851
 11
612.3771052656
 21
74.2409523751
  0
LINE
  5
34E
100
AcDbEntity
  8
BEZUGSACHSEN
100
AcDbLine
 62
7
  6
CONTINUOUS
 10
500.3158848434
 20
262.1795387455
 11
500.3158848434
 21
237.6818128864
  0
LINE
  5
34F
100
AcDbEntity
  8
FLAECHEN
100
AcDbLine
 62
7
  6
CONTINUOUS
 10
471.0475154662
 20
308.172968672
 11
472.625707376
 21
372.4179469649
  0
LINE
  5
350
100
AcDbEntity
  8
BEZUGSACHSEN
100
AcDbLine
 62
7
  6
CONTINUOUS
 10
471.0475154662
 20
308.172968672
 11
473.0933458451
 21
391.4490177036
  0
LINE
  5
351
100
AcDbEntity
  8
BEZUGSACHSEN
100
AcDbLine
 62
7
  6
CONTINUOUS
 10
473.0933458451
 20
391.4490177036
 11
473.3595719871
 21
402.0957728499
  0
LINE
  5
352
100
AcDbEntity
  8
BEZUGSACHSEN
100
AcDbLine
 62
7
  6
CONTINUOUS
 10
473.3595719871
 20
402.0957728499
 11
473.5199158358
 21
408.2688211906
  0
LINE
  5
353
100
AcDbEntity
  8
BEZUGSACHSEN
100
AcDbLine
 62
7
  6
CONTINUOUS
 10
473.5199158358
 20
408.2688211906
 11
473.6326175564
 21
412.4488302618
  0
LINE
  5
354
100
AcDbEntity
  8
BEZUGSACHSEN
100
AcDbLine
 62
7
  6
CONTINUOUS
 10
473.6326175564
 20
412.4488302618
 11
473.7395857207
 21
416.2687205236
  0
LINE
  5
355
100
AcDbEntity
  8
BEZUGSACHSEN
100
AcDbLine
 62
7
  6
CONTINUOUS
 10
473.7395857207
 20
416.2687205236
 11
473.8413299434
 21
419.7497074585
  0
LINE
  5
356
100
AcDbEntity
  8
BEZUGSACHSEN
100
AcDbLine
 62
7
  6
CONTINUOUS
 10
473.8413299434
 20
419.7497074585
 11
473.9383171182
 21
422.9139000195
  0
LINE
  5
357
100
AcDbEntity
  8
BEZUGSACHSEN
100
AcDbLine
 62
7
  6
CONTINUOUS
 10
473.9383171182
 20
422.9139000195
 11
474.030877145
 21
425.7803825825
  0
LINE
  5
358
100
AcDbEntity
  8
FLAECHEN
100
AcDbLine
 62
7
  6
CONTINUOUS
 10
473.9953642404
 20
424.6978555538
 11
474.0902608633
 21
427.5350928356
  0
LWPOLYLINE
  5
359
100
AcDbEntity
  8
BEZUGSACHSEN
100
AcDbPolyline
 62
7
  6
CONTINUOUS
 90
3
 70
0
 10
474.030877145
 20
425.7803825825
 10
474.1192853961
 20
428.3676406197
 10
474.1478778632
 20
429.1712391808
  0
LINE
  5
35A
100
AcDbEntity
  8
FLAECHEN
100
AcDbLine
 62
7
  6
CONTINUOUS
 10
474.0902608633
 20
427.5350928356
 11
474.1478778632
 21
429.1712391808
  0
LINE
  5
35B
100
AcDbEntity
  8
0
100
AcDbLine
 62
7
  6
CONTINUOUS
 10
432.9510670767
 20
138.2010375852
 11
435.5557897417
 21
152.9731538804
  0
LINE
  5
35C
100
AcDbEntity
  8
0
100
AcDbLine
 62
7
  6
CONTINUOUS
 10
455.4983848434
 20
123.0224512128
 11
455.8108854395
 21
124.6181957034
  0
LINE
  5
35D
100
AcDbEntity
  8
0
100
AcDbLine
 62
7
  6
CONTINUOUS
 10
390.1373009608
 20
120.6966407675
 11
390.6050201409
 21
121.6433050365
  0
LINE
  5
35E
100
AcDbEntity
  8
0
100
AcDbLine
 62
7
  6
CONTINUOUS
 10
383.1900400722
 20
162.5594750675
 11
402.6957181727
 21
201.6818128864
  0
LINE
  5
35F
100
AcDbEntity
  8
BEZUGSACHSEN
100
AcDbLine
 62
7
  6
CONTINUOUS
 10
296.1662057018
 20
16.121091049
 11
296.1738859489
 21
16.1332542345
  0
LINE
  5
360
100
AcDbEntity
  8
0
100
AcDbLine
 62
7
  6
CONTINUOUS
 10
343.2724555237
 20
116.5380202767
 11
342.5995688444
 21
115.555179442
  0
LINE
  5
361
100
AcDbEntity
  8
BEZUGSACHSEN
100
AcDbLine
 62
7
  6
CONTINUOUS
 10
390.4740840059
 20
262.0581576296
 11
249.8158848434
 21
180.8491084794
  0
LINE
  5
362
100
AcDbEntity
  8
RUNDUNGEN
100
AcDbLine
 62
7
  6
CONTINUOUS
 10
612.2370361001
 20
74.5666741421
 11
612.3318167566
 21
74.3348864493
  0
LINE
  5
363
100
AcDbEntity
  8
BEZUGSACHSEN
100
AcDbLine
 62
7
  6
CONTINUOUS
 10
612.2047793837
 20
74.6615327394
 11
612.2819268191
 21
74.4497581851
  0
LINE
  5
364
100
AcDbEntity
  8
0
100
AcDbLine
 62
7
  6
CONTINUOUS
 10
470.4983848434
 20
123.0224512128
 11
470.8108836513
 21
124.6181957034
  0
LINE
  5
365
100
AcDbEntity
  8
0
100
AcDbLine
 62
7
  6
CONTINUOUS
 10
453.9358854395
 20
124.6181957034
 11
453.6233848434
 21
123.3416001109
  0
LINE
  5
366
100
AcDbEntity
  8
0
100
AcDbLine
 62
7
  6
CONTINUOUS
 10
468.9358836513
 20
124.6181957034
 11
468.6233848434
 21
123.3416001109
  0
LINE
  5
367
100
AcDbEntity
  8
0
100
AcDbLine
 62
7
  6
CONTINUOUS
 10
439.8733845454
 20
130.0437274186
 11
439.5608848434
 21
129.0862807242
  0
LINE
  5
368
100
AcDbEntity
  8
0
100
AcDbLine
 62
7
  6
CONTINUOUS
 10
441.4358848434
 20
128.7671318261
 11
441.7483845454
 21
129.7245785205
  0
LINE
  5
369
100
AcDbEntity
  8
0
100
AcDbLine
 62
7
  6
CONTINUOUS
 10
352.299860709
 20
118.1297953766
 11
351.6269716817
 21
117.1469541279
  0
LINE
  5
36A
100
AcDbEntity
  8
0
100
AcDbLine
 62
7
  6
CONTINUOUS
 10
389.3370640333
 20
121.6357783539
 11
389.0006218676
 21
121.1443581436
  0
LINE
  5
36B
100
AcDbEntity
  8
0
100
AcDbLine
 62
7
  6
CONTINUOUS
 10
348.3034068751
 20
114.4004374798
 11
343.4823562522
 21
108.1491509872
  0
LINE
  5
36C
100
AcDbEntity
  8
0
100
AcDbLine
 62
7
  6
CONTINUOUS
 10
357.3308120604
 20
115.9922125797
 11
352.5097614375
 21
109.7409260871
  0
LINE
  5
36D
100
AcDbEntity
  8
0
100
AcDbLine
 62
7
  6
CONTINUOUS
 10
345.1237032899
 20
108.4385647546
 11
349.4400883163
 21
113.9527205177
  0
LINE
  5
36E
100
AcDbEntity
  8
0
100
AcDbLine
 62
7
  6
CONTINUOUS
 10
354.1511061272
 20
110.0303394405
 11
358.4674911536
 21
115.5444952036
  0
LINE
  5
36F
100
AcDbEntity
  8
RUNDUNGEN
100
AcDbLine
 62
7
  6
CONTINUOUS
 10
255.2670600437
 20
74.244437576
 11
256.3357309302
 21
75.3131084625
  0
LINE
  5
370
100
AcDbEntity
  8
BEZUGSACHSEN
100
AcDbLine
 62
7
  6
CONTINUOUS
 10
255.2670600437
 20
74.244437576
 11
256.3357309302
 21
75.3131084625
  0
LINE
  5
371
100
AcDbEntity
  8
RUNDUNGEN
100
AcDbLine
 62
7
  6
CONTINUOUS
 10
352.6841329589
 20
205.5991030686
 11
317.0937157063
 21
185.0509660872
  0
LINE
  5
372
100
AcDbEntity
  8
RUNDUNGEN
100
AcDbLine
 62
7
  6
CONTINUOUS
 10
612.1625768226
 20
74.8057655306
 11
612.2370361001
 21
74.5666741421
  0
LINE
  5
373
100
AcDbEntity
  8
BEZUGSACHSEN
100
AcDbLine
 62
7
  6
CONTINUOUS
 10
612.1442885118
 20
74.8786525683
 11
612.2047793837
 21
74.6615327394
  0
LINE
  5
374
100
AcDbEntity
  8
RUNDUNGEN
100
AcDbLine
 62
7
  6
CONTINUOUS
 10
612.1089925925
 20
75.0503827306
 11
612.1625768226
 21
74.8057655306
  0
LINE
  5
375
100
AcDbEntity
  8
0
100
AcDbLine
 62
7
  6
CONTINUOUS
 10
545.3158848434
 20
676.6818128864
 11
545.3158848434
 21
516.6818128864
  0
LINE
  5
376
100
AcDbEntity
  8
0
100
AcDbLine
 62
7
  6
CONTINUOUS
 10
454.8733854395
 20
121.7458553968
 11
455.4983848434
 21
123.0224512128
  0
LINE
  5
377
100
AcDbEntity
  8
0
100
AcDbLine
 62
7
  6
CONTINUOUS
 10
469.8733836513
 20
121.7458553968
 11
470.4983848434
 21
123.0224512128
  0
LINE
  5
378
100
AcDbEntity
  8
0
100
AcDbLine
 62
7
  6
CONTINUOUS
 10
389.4274655171
 20
119.9233330583
 11
390.1373009608
 21
120.6966407675
  0
LINE
  5
379
100
AcDbEntity
  8
0
100
AcDbLine
 62
7
  6
CONTINUOUS
 10
343.867524952
 20
115.5627061246
 11
344.4091369649
 21
116.0903033146
  0
LINE
  5
37A
100
AcDbEntity
  8
0
100
AcDbLine
 62
7
  6
CONTINUOUS
 10
352.8949277893
 20
117.1544808105
 11
353.4365398022
 21
117.6820780005
  0
LINE
  5
37B
100
AcDbEntity
  8
0
100
AcDbLine
 62
7
  6
CONTINUOUS
 10
344.0192350358
 20
117.1017940324
 11
343.2724555237
 21
116.5380202767
  0
LINE
  5
37C
100
AcDbEntity
  8
BEZUGSACHSEN
100
AcDbLine
 62
7
  6
CONTINUOUS
 10
612.1008185842
 20
75.0998097702
 11
612.1442885118
 21
74.8786525683
  0
LINE
  5
37D
100
AcDbEntity
  8
BEZUGSACHSEN
100
AcDbLine
 62
7
  6
CONTINUOUS
 10
607.9803443725
 20
10.751943853
 11
611.9245765336
 21
-17.3127262441
  0
LINE
  5
37E
100
AcDbEntity
  8
RUNDUNGEN
100
AcDbLine
 62
7
  6
CONTINUOUS
 10
612.0766818501
 20
75.298706767
 11
612.1089925925
 21
75.0503827306
  0
LINE
  5
37F
100
AcDbEntity
  8
BEZUGSACHSEN
100
AcDbLine
 62
7
  6
CONTINUOUS
 10
612.0746314491
 20
75.3236721217
 11
612.1008185842
 21
75.0998097702
  0
LINE
  5
380
100
AcDbEntity
  8
RUNDUNGEN
100
AcDbLine
 62
7
  6
CONTINUOUS
 10
612.0658848434
 20
75.5488911137
 11
612.0766818501
 21
75.298706767
  0
LINE
  5
381
100
AcDbEntity
  8
BEZUGSACHSEN
100
AcDbLine
 62
7
  6
CONTINUOUS
 10
612.0658848434
 20
75.5488911137
 11
612.0746314491
 21
75.3236721217
  0
LINE
  5
382
100
AcDbEntity
  8
0
100
AcDbLine
 62
7
  6
CONTINUOUS
 10
596.3158848434
 20
676.6818128864
 11
596.3158848434
 21
516.6818128864
  0
LINE
  5
383
100
AcDbEntity
  8
BEZUGSACHSEN
100
AcDbLine
 62
7
  6
CONTINUOUS
 10
603.5658848434
 20
70.1375098098
 11
603.5658848434
 21
58.0329738846
  0
LINE
  5
384
100
AcDbEntity
  8
RUNDUNGEN
100
AcDbLine
 62
7
  6
CONTINUOUS
 10
603.5658848434
 20
62.9790892953
 11
603.5658848434
 21
56.4023116549
  0
LINE
  5
385
100
AcDbEntity
  8
BEZUGSACHSEN
100
AcDbLine
 62
7
  6
CONTINUOUS
 10
603.5658848434
 20
56.4023116549
 11
603.5658848434
 21
19.2261157674
  0
LINE
  5
386
100
AcDbEntity
  8
0
100
AcDbLine
 62
7
  6
CONTINUOUS
 10
453.6233848434
 20
123.3416001109
 11
452.9983854395
 21
122.3841534166
  0
LINE
  5
387
100
AcDbEntity
  8
0
100
AcDbLine
 62
7
  6
CONTINUOUS
 10
468.6233848434
 20
123.3416001109
 11
467.9983836513
 21
122.3841534166
  0
LINE
  5
388
100
AcDbEntity
  8
0
100
AcDbLine
 62
7
  6
CONTINUOUS
 10
440.4983848434
 20
127.4905362336
 11
441.4358848434
 21
128.7671318261
  0
LINE
  5
389
100
AcDbEntity
  8
0
100
AcDbLine
 62
7
  6
CONTINUOUS
 10
439.5608848434
 20
129.0862807242
 11
438.9358845454
 21
128.447982928
  0
LINE
  5
38A
100
AcDbEntity
  8
BEZUGSACHSEN
100
AcDbLine
 62
7
  6
CONTINUOUS
 10
294.296026474
 20
14.0505050276
 11
295.3647612901
 21
15.1192398438
  0
LINE
  5
38B
100
AcDbEntity
  8
0
100
AcDbLine
 62
7
  6
CONTINUOUS
 10
353.0466402211
 20
118.6935691323
 11
352.299860709
 21
118.1297953766
  0
LINE
  5
38C
100
AcDbEntity
  8
RUNDUNGEN
100
AcDbLine
 62
7
  6
CONTINUOUS
 10
641.2952517354
 20
88.2613583418
 11
642.651425406
 21
78.6116812676
  0
LINE
  5
38D
100
AcDbEntity
  8
BEZUGSACHSEN
100
AcDbLine
 62
7
  6
CONTINUOUS
 10
641.2952517354
 20
88.2613583418
 11
642.651425406
 21
78.6116812676
  0
LINE
  5
38E
100
AcDbEntity
  8
BEZUGSACHSEN
100
AcDbLine
 62
7
  6
CONTINUOUS
 10
612.0658848434
 20
-19.3335283478
 11
612.0658848434
 21
-56.0033959794
  0
LINE
  5
38F
100
AcDbEntity
  8
RUNDUNGEN
100
AcDbLine
 62
7
  6
CONTINUOUS
 10
612.0658848434
 20
75.5491496112
 11
612.0658848434
 21
145.3670217522
  0
LINE
  5
390
100
AcDbEntity
  8
BEZUGSACHSEN
100
AcDbLine
 62
7
  6
CONTINUOUS
 10
612.0658848434
 20
75.5491496112
 11
612.0658848434
 21
145.3670217522
  0
LINE
  5
391
100
AcDbEntity
  8
RUNDUNGEN
100
AcDbLine
 62
7
  6
CONTINUOUS
 10
638.5658848434
 20
145.3670217522
 11
638.5658848434
 21
75.5488939206
  0
LINE
  5
392
100
AcDbEntity
  8
BEZUGSACHSEN
100
AcDbLine
 62
7
  6
CONTINUOUS
 10
638.5658848434
 20
145.3670217522
 11
638.5658848434
 21
75.5488939206
  0
LINE
  5
393
100
AcDbEntity
  8
RUNDUNGEN
100
AcDbLine
 62
7
  6
CONTINUOUS
 10
638.5658848434
 20
-19.3335283478
 11
638.5658848434
 21
-56.0033959794
  0
LINE
  5
394
100
AcDbEntity
  8
0
100
AcDbLine
 62
7
  6
CONTINUOUS
 10
453.6233848434
 20
120.4692596925
 11
454.8733854395
 21
121.7458553968
  0
LINE
  5
395
100
AcDbEntity
  8
0
100
AcDbLine
 62
7
  6
CONTINUOUS
 10
468.6233848434
 20
120.4692596925
 11
469.8733836513
 21
121.7458553968
  0
LINE
  5
396
100
AcDbEntity
  8
0
100
AcDbLine
 62
7
  6
CONTINUOUS
 10
452.9983854395
 20
122.3841534166
 11
452.0608854395
 21
121.7458553968
  0
LINE
  5
397
100
AcDbEntity
  8
0
100
AcDbLine
 62
7
  6
CONTINUOUS
 10
389.0006218676
 20
121.1443581436
 11
388.4220634384
 21
120.826294493
  0
LINE
  5
398
100
AcDbEntity
  8
0
100
AcDbLine
 62
7
  6
CONTINUOUS
 10
439.2483851415
 20
126.8522384373
 11
440.4983848434
 21
127.4905362336
  0
LINE
  5
399
100
AcDbEntity
  8
0
100
AcDbLine
 62
7
  6
CONTINUOUS
 10
344.4091369649
 20
116.0903033146
 11
345.3980303926
 21
116.4807200965
  0
LINE
  5
39A
100
AcDbEntity
  8
0
100
AcDbLine
 62
7
  6
CONTINUOUS
 10
353.4365398022
 20
117.6820780005
 11
354.4254355779
 21
118.0724951964
  0
LINE
  5
39B
100
AcDbEntity
  8
0
100
AcDbLine
 62
7
  6
CONTINUOUS
 10
388.4385720894
 20
119.5329162764
 11
389.4274655171
 21
119.9233330583
  0
LINE
  5
39C
100
AcDbEntity
  8
0
100
AcDbLine
 62
7
  6
CONTINUOUS
 10
345.4184681579
 20
117.5645647736
 11
344.0192350358
 21
117.1017940324
  0
LINE
  5
39D
100
AcDbEntity
  8
0
100
AcDbLine
 62
7
  6
CONTINUOUS
 10
354.4458709952
 20
119.1563394596
 11
353.0466402211
 21
118.6935691323
  0
LINE
  5
39E
100
AcDbEntity
  8
BEZUGSACHSEN
100
AcDbLine
 62
7
  6
CONTINUOUS
 10
647.0658848434
 20
70.1375098098
 11
647.0658848434
 21
58.0329738846
  0
LINE
  5
39F
100
AcDbEntity
  8
RUNDUNGEN
100
AcDbLine
 62
7
  6
CONTINUOUS
 10
647.0658848434
 20
70.1375098098
 11
647.0658848434
 21
19.2261157674
  0
LINE
  5
3A0
100
AcDbEntity
  8
RUNDUNGEN
100
AcDbLine
 62
7
  6
CONTINUOUS
 10
638.5550879138
 20
75.2987148672
 11
638.5658848434
 21
75.5488970058
  0
LWPOLYLINE
  5
3A1
100
AcDbEntity
  8
BEZUGSACHSEN
100
AcDbPolyline
 62
7
  6
CONTINUOUS
 90
3
 70
0
 10
638.5309513363
 20
75.0998195182
 10
638.5571383009
 20
75.3236800107
 10
638.5658848434
 20
75.5488970058
  0
LINE
  5
3A2
100
AcDbEntity
  8
RUNDUNGEN
100
AcDbLine
 62
7
  6
CONTINUOUS
 10
638.5227773772
 20
75.0503928695
 11
638.5550879138
 21
75.2987148672
  0
LINE
  5
3A3
100
AcDbEntity
  8
BEZUGSACHSEN
100
AcDbLine
 62
7
  6
CONTINUOUS
 10
609.2612667217
 20
87.7259180201
 11
607.9803442808
 21
78.6116812676
  0
LINE
  5
3A4
100
AcDbEntity
  8
BEZUGSACHSEN
100
AcDbLine
 62
7
  6
CONTINUOUS
 10
586.8322826146
 20
172.7567374531
 11
573.2317674372
 21
149.1999541567
  0
LINE
  5
3A5
100
AcDbEntity
  8
0
100
AcDbLine
 62
7
  6
CONTINUOUS
 10
467.9983836513
 20
122.3841534166
 11
467.0608836513
 21
121.7458553968
  0
LINE
  5
3A6
100
AcDbEntity
  8
0
100
AcDbLine
 62
7
  6
CONTINUOUS
 10
452.3733842474
 20
119.8309618125
 11
453.6233848434
 21
120.4692596925
  0
LINE
  5
3A7
100
AcDbEntity
  8
0
100
AcDbLine
 62
7
  6
CONTINUOUS
 10
467.3733860355
 20
119.8309618125
 11
468.6233848434
 21
120.4692596925
  0
LINE
  5
3A8
100
AcDbEntity
  8
0
100
AcDbLine
 62
7
  6
CONTINUOUS
 10
438.9358845454
 20
128.447982928
 11
437.9983845454
 21
128.1288340298
  0
LINE
  5
3A9
100
AcDbEntity
  8
RUNDUNGEN
100
AcDbLine
 62
7
  6
CONTINUOUS
 10
642.6514253144
 20
10.751943853
 11
638.7071931533
 21
-17.3127262441
  0
LINE
  5
3AA
100
AcDbEntity
  8
BEZUGSACHSEN
100
AcDbLine
 62
7
  6
CONTINUOUS
 10
638.4874816561
 20
74.8786640152
 11
638.5309513363
 21
75.0998195182
  0
LINE
  5
3AB
100
AcDbEntity
  8
RUNDUNGEN
100
AcDbLine
 62
7
  6
CONTINUOUS
 10
638.4691934404
 20
74.8057775093
 11
638.5227773772
 21
75.0503928695
  0
LINE
  5
3AC
100
AcDbEntity
  8
BEZUGSACHSEN
100
AcDbLine
 62
7
  6
CONTINUOUS
 10
638.426991083
 20
74.6615457305
 11
638.4874816561
 21
74.8786640152
  0
LINE
  5
3AD
100
AcDbEntity
  8
RUNDUNGEN
100
AcDbLine
 62
7
  6
CONTINUOUS
 10
638.3947345099
 20
74.5666877706
 11
638.4691934404
 21
74.8057775093
  0
LINE
  5
3AE
100
AcDbEntity
  8
BEZUGSACHSEN
100
AcDbLine
 62
7
  6
CONTINUOUS
 10
638.3498439755
 20
74.449772569
 11
638.426991083
 21
74.6615457305
  0
LINE
  5
3AF
100
AcDbEntity
  8
RUNDUNGEN
100
AcDbLine
 62
7
  6
CONTINUOUS
 10
638.2999542261
 20
74.3349015442
 11
638.3947345099
 21
74.5666877706
  0
LINE
  5
3B0
100
AcDbEntity
  8
BEZUGSACHSEN
100
AcDbLine
 62
7
  6
CONTINUOUS
 10
638.2546656748
 20
74.2409676331
 11
638.3498439755
 21
74.449772569
  0
LINE
  5
3B1
100
AcDbEntity
  8
RUNDUNGEN
100
AcDbLine
 62
7
  6
CONTINUOUS
 10
638.2546656749
 20
74.2409676334
 11
638.2999542261
 21
74.3349015442
  0
LINE
  5
3B2
100
AcDbEntity
  8
BEZUGSACHSEN
100
AcDbLine
 62
7
  6
CONTINUOUS
 10
604.4655639851
 20
73.2425347238
 11
604.4553220453
 21
73.2262863624
  0
LINE
  5
3B3
100
AcDbEntity
  8
BEZUGSACHSEN
100
AcDbLine
 62
7
  6
CONTINUOUS
 10
606.3357432129
 20
75.3131207452
 11
605.2670083967
 21
74.244385929
  0
LINE
  5
3B4
100
AcDbEntity
  8
RUNDUNGEN
100
AcDbLine
 62
7
  6
CONTINUOUS
 10
645.3647096432
 20
15.1191881968
 11
644.2960387567
 21
14.0505173103
  0
LINE
  5
3B5
100
AcDbEntity
  8
0
100
AcDbLine
 62
7
  6
CONTINUOUS
 10
927.0545777363
 20
-48.4664670371
 11
928.6161495918
 21
-48.2984950674
  0
LINE
  5
3B6
100
AcDbEntity
  8
0
100
AcDbLine
 62
7
  6
CONTINUOUS
 10
960.2433585518
 20
-21.8806542434
 11
960.929159919
 21
-21.6873682377
  0
LINE
  5
3B7
100
AcDbEntity
  8
0
100
AcDbLine
 62
7
  6
CONTINUOUS
 10
966.2405894452
 20
-12.8766146568
 11
965.1549013541
 21
-13.1615097636
  0
LINE
  5
3B8
100
AcDbEntity
  8
0
100
AcDbLine
 62
7
  6
CONTINUOUS
 10
947.5574479818
 20
-41.2120453171
 11
946.7709577166
 21
-41.4077897142
  0
LINE
  5
3B9
100
AcDbEntity
  8
0
100
AcDbLine
 62
7
  6
CONTINUOUS
 10
945.6909200023
 20
-38.5735865716
 11
946.4774082894
 21
-38.3778432396
  0
LINE
  5
3BA
100
AcDbEntity
  8
0
100
AcDbLine
 62
7
  6
CONTINUOUS
 10
947.5145659689
 20
-37.8194215245
 11
948.3010562342
 21
-37.6236771274
  0
LINE
  5
3BB
100
AcDbEntity
  8
0
100
AcDbLine
 62
7
  6
CONTINUOUS
 10
945.9071053292
 20
-37.3186185016
 11
945.293475996
 21
-37.4212919028
  0
LINE
  5
3BC
100
AcDbEntity
  8
0
100
AcDbLine
 62
7
  6
CONTINUOUS
 10
945.6135558354
 20
-34.2886719033
 11
946.2271851685
 21
-34.1859985021
  0
LINE
  5
3BD
100
AcDbEntity
  8
0
100
AcDbLine
 62
7
  6
CONTINUOUS
 10
930.7314614243
 20
-38.5931194368
 11
929.560282463
 21
-38.7190984216
  0
LINE
  5
3BE
100
AcDbEntity
  8
0
100
AcDbLine
 62
7
  6
CONTINUOUS
 10
924.0947808293
 20
-39.3070003306
 11
922.9236018679
 21
-39.4329793154
  0
LINE
  5
3BF
100
AcDbEntity
  8
0
100
AcDbLine
 62
7
  6
CONTINUOUS
 10
961.6591495822
 20
-20.5058900939
 11
960.5399940145
 21
-20.5917248836
  0
LINE
  5
3C0
100
AcDbEntity
  8
0
100
AcDbLine
 62
7
  6
CONTINUOUS
 10
965.7340077844
 20
-14.1697360293
 11
966.4510222098
 21
-14.1266099166
  0
LINE
  5
3C1
100
AcDbEntity
  8
0
100
AcDbLine
 62
7
  6
CONTINUOUS
 10
944.8093812219
 20
-38.5927924473
 11
945.6909200023
 21
-38.5735865716
  0
LINE
  5
3C2
100
AcDbEntity
  8
0
100
AcDbLine
 62
7
  6
CONTINUOUS
 10
948.7851510082
 20
-36.4521765829
 11
947.9036122279
 21
-36.4713824585
  0
LINE
  5
3C3
100
AcDbEntity
  8
0
100
AcDbLine
 62
7
  6
CONTINUOUS
 10
946.0189515504
 20
-42.4958238601
 11
947.1684017812
 21
-42.5600844912
  0
LINE
  5
3C4
100
AcDbEntity
  8
0
100
AcDbLine
 62
7
  6
CONTINUOUS
 10
945.293475996
 20
-37.4212919028
 11
944.5847961695
 21
-37.3474278477
  0
LINE
  5
3C5
100
AcDbEntity
  8
0
100
AcDbLine
 62
7
  6
CONTINUOUS
 10
948.3010562342
 20
-37.6236771274
 11
949.0097360607
 21
-37.6975411825
  0
LINE
  5
3C6
100
AcDbEntity
  8
0
100
AcDbLine
 62
7
  6
CONTINUOUS
 10
960.929159919
 20
-21.6873682377
 11
961.6423044559
 21
-21.7733590355
  0
LINE
  5
3C7
100
AcDbEntity
  8
0
100
AcDbLine
 62
7
  6
CONTINUOUS
 10
946.8063324142
 20
-33.1910343488
 11
945.8297431404
 21
-33.0337027681
  0
LINE
  5
3C8
100
AcDbEntity
  8
BEZUGSACHSEN
100
AcDbLine
 62
7
  6
CONTINUOUS
 10
940.1373869093
 20
18.6818128864
 11
951.3931881841
 21
18.6818128864
  0
LINE
  5
3C9
100
AcDbEntity
  8
BEZUGSACHSEN
100
AcDbLine
 62
7
  6
CONTINUOUS
 10
985.2011881841
 20
18.6818128864
 11
997.0156217961
 21
18.6818128864
  0
LINE
  5
3CA
100
AcDbEntity
  8
0
100
AcDbLine
 62
7
  6
CONTINUOUS
 10
946.7709577166
 20
-41.4077897142
 11
945.9672273301
 21
-41.1573880791
  0
LINE
  5
3CB
100
AcDbEntity
  8
0
100
AcDbLine
 62
7
  6
CONTINUOUS
 10
943.7377394766
 20
-38.2589244754
 11
944.8093812219
 21
-38.5927924473
  0
LINE
  5
3CC
100
AcDbEntity
  8
0
100
AcDbLine
 62
7
  6
CONTINUOUS
 10
949.8567927536
 20
-36.7860445547
 11
948.7851510082
 21
-36.4521765829
  0
LINE
  5
3CD
100
AcDbEntity
  8
0
100
AcDbLine
 62
7
  6
CONTINUOUS
 10
946.2271851685
 20
-34.1859985021
 11
946.7630060412
 21
-34.352932488
  0
LINE
  5
3CE
100
AcDbEntity
  8
RUNDUNGEN
100
AcDbLine
 62
7
  6
CONTINUOUS
 10
886.1932290215
 20
21.6818128864
 11
864.0011427031
 21
21.6818128864
  0
LINE
  5
3CF
100
AcDbEntity
  8
BEZUGSACHSEN
100
AcDbLine
 62
7
  6
CONTINUOUS
 10
978.3697222552
 20
21.6818128864
 11
979.393233665
 21
21.6818128864
  0
LINE
  5
3D0
100
AcDbEntity
  8
0
100
AcDbLine
 62
7
  6
CONTINUOUS
 10
978.8931881841
 20
23.6818128864
 11
978.7007449481
 21
23.6818128864
  0
LINE
  5
3D1
100
AcDbEntity
  8
BEZUGSACHSEN
100
AcDbLine
 62
7
  6
CONTINUOUS
 10
978.8931881841
 20
23.6818128864
 11
978.7007449481
 21
23.6818128864
  0
LINE
  5
3D2
100
AcDbEntity
  8
0
100
AcDbLine
 62
7
  6
CONTINUOUS
 10
864.5011881841
 20
23.6818128864
 11
885.8931881841
 21
23.6818128864
  0
LINE
  5
3D3
100
AcDbEntity
  8
BEZUGSACHSEN
100
AcDbLine
 62
7
  6
CONTINUOUS
 10
864.5011881841
 20
23.6818128864
 11
885.8931881841
 21
23.6818128864
  0
LINE
  5
3D4
100
AcDbEntity
  8
0
100
AcDbLine
 62
7
  6
CONTINUOUS
 10
982.2971881841
 20
36.1513128864
 11
981.7971881841
 21
36.1513128864
  0
LINE
  5
3D5
100
AcDbEntity
  8
0
100
AcDbLine
 62
7
  6
CONTINUOUS
 10
954.5971881841
 20
36.1513128864
 11
954.2971881841
 21
36.1513128864
  0
LINE
  5
3D6
100
AcDbEntity
  8
0
100
AcDbLine
 62
7
  6
CONTINUOUS
 10
861.0971881841
 20
36.1513128864
 11
861.5971881841
 21
36.1513128864
  0
LINE
  5
3D7
100
AcDbEntity
  8
0
100
AcDbLine
 62
7
  6
CONTINUOUS
 10
888.7971881841
 20
36.1513128864
 11
889.0971881841
 21
36.1513128864
  0
LINE
  5
3D8
100
AcDbEntity
  8
0
100
AcDbLine
 62
7
  6
CONTINUOUS
 10
906.1971881841
 20
36.1513128864
 11
937.1971881841
 21
36.1513128864
  0
LINE
  5
3D9
100
AcDbEntity
  8
0
100
AcDbLine
 62
7
  6
CONTINUOUS
 10
967.0345242768
 20
-13.1033522745
 11
966.2405894452
 21
-12.8766146568
  0
LINE
  5
3DA
100
AcDbEntity
  8
0
100
AcDbLine
 62
7
  6
CONTINUOUS
 10
947.7051132274
 20
-33.6179733166
 11
946.8063324142
 21
-33.1910343488
  0
LINE
  5
3DB
100
AcDbEntity
  8
0
100
AcDbLine
 62
7
  6
CONTINUOUS
 10
962.3996401778
 20
-20.8711542536
 11
961.6591495822
 21
-20.5058900939
  0
LINE
  5
3DC
100
AcDbEntity
  8
0
100
AcDbLine
 62
7
  6
CONTINUOUS
 10
949.0097360607
 20
-37.6975411825
 11
949.6406055817
 21
-38.0410139371
  0
LINE
  5
3DD
100
AcDbEntity
  8
0
100
AcDbLine
 62
7
  6
CONTINUOUS
 10
945.0251201439
 20
-41.8923472506
 11
946.0189515504
 21
-42.4958238601
  0
LINE
  5
3DE
100
AcDbEntity
  8
0
100
AcDbLine
 62
7
  6
CONTINUOUS
 10
982.2971881841
 20
53.2123128864
 11
981.7971881841
 21
53.2123128864
  0
LINE
  5
3DF
100
AcDbEntity
  8
0
100
AcDbLine
 62
7
  6
CONTINUOUS
 10
954.5971881841
 20
53.2123128864
 11
954.2971881841
 21
53.2123128864
  0
LINE
  5
3E0
100
AcDbEntity
  8
0
100
AcDbLine
 62
7
  6
CONTINUOUS
 10
861.0971881841
 20
53.2123128864
 11
861.5971881841
 21
53.2123128864
  0
LINE
  5
3E1
100
AcDbEntity
  8
0
100
AcDbLine
 62
7
  6
CONTINUOUS
 10
888.7971881841
 20
53.2123128864
 11
889.0971881841
 21
53.2123128864
  0
LINE
  5
3E2
100
AcDbEntity
  8
0
100
AcDbLine
 62
7
  6
CONTINUOUS
 10
906.1971881841
 20
53.2123128864
 11
937.1971881841
 21
53.2123128864
  0
LINE
  5
3E3
100
AcDbEntity
  8
0
100
AcDbLine
 62
7
  6
CONTINUOUS
 10
978.8931881841
 20
65.6818128864
 11
957.5011881841
 21
65.6818128864
  0
LINE
  5
3E4
100
AcDbEntity
  8
0
100
AcDbLine
 62
7
  6
CONTINUOUS
 10
864.5011881841
 20
65.6818128864
 11
864.69363142
 21
65.6818128864
  0
LINE
  5
3E5
100
AcDbEntity
  8
BEZUGSACHSEN
100
AcDbLine
 62
7
  6
CONTINUOUS
 10
865.0246541129
 20
67.6818128864
 11
864.0011427031
 21
67.6818128864
  0
LINE
  5
3E6
100
AcDbEntity
  8
RUNDUNGEN
100
AcDbLine
 62
7
  6
CONTINUOUS
 10
957.2011473466
 20
67.6818128864
 11
979.393233665
 21
67.6818128864
  0
LINE
  5
3E7
100
AcDbEntity
  8
BEZUGSACHSEN
100
AcDbLine
 62
7
  6
CONTINUOUS
 10
957.2011473466
 20
67.6818128864
 11
979.393233665
 21
67.6818128864
  0
LINE
  5
3E8
100
AcDbEntity
  8
BEZUGSACHSEN
100
AcDbLine
 62
7
  6
CONTINUOUS
 10
903.2569894588
 20
70.6818128864
 11
892.0011881841
 21
70.6818128864
  0
LINE
  5
3E9
100
AcDbEntity
  8
BEZUGSACHSEN
100
AcDbLine
 62
7
  6
CONTINUOUS
 10
858.1931881841
 20
70.6818128864
 11
846.378754572
 21
70.6818128864
  0
LINE
  5
3EA
100
AcDbEntity
  8
0
100
AcDbLine
 62
7
  6
CONTINUOUS
 10
968.9328290041
 20
-22.3218027707
 11
969.80368659
 21
-22.8184002849
  0
LINE
  5
3EB
100
AcDbEntity
  8
0
100
AcDbLine
 62
7
  6
CONTINUOUS
 10
966.4510222098
 20
-14.1266099166
 11
966.7993656832
 21
-14.3252491727
  0
LINE
  5
3EC
100
AcDbEntity
  8
0
100
AcDbLine
 62
7
  6
CONTINUOUS
 10
973.3046989925
 20
-16.6788544329
 11
972.4338414066
 21
-16.1822569186
  0
LINE
  5
3ED
100
AcDbEntity
  8
0
100
AcDbLine
 62
7
  6
CONTINUOUS
 10
967.3828677503
 20
-13.3019915307
 11
967.0345242768
 21
-13.1033522745
  0
LINE
  5
3EE
100
AcDbEntity
  8
0
100
AcDbLine
 62
7
  6
CONTINUOUS
 10
950.5827127679
 20
-37.3060547657
 11
949.8567927536
 21
-36.7860445547
  0
LINE
  5
3EF
100
AcDbEntity
  8
0
100
AcDbLine
 62
7
  6
CONTINUOUS
 10
946.7630060412
 20
-34.352932488
 11
947.1259659818
 21
-34.6129374698
  0
LINE
  5
3F0
100
AcDbEntity
  8
0
100
AcDbLine
 62
7
  6
CONTINUOUS
 10
877.6603685837
 20
103.5333618021
 11
876.9433541584
 21
103.4902356893
  0
LINE
  5
3F1
100
AcDbEntity
  8
BEZUGSACHSEN
100
AcDbLine
 62
7
  6
CONTINUOUS
 10
877.6603685837
 20
103.5333618021
 11
876.9433541584
 21
103.4902356893
  0
LINE
  5
3F2
100
AcDbEntity
  8
BEZUGSACHSEN
100
AcDbLine
 62
7
  6
CONTINUOUS
 10
899.1971881841
 20
85.6818128864
 11
944.1971881841
 21
85.6818128864
  0
LINE
  5
3F3
100
AcDbEntity
  8
0
100
AcDbLine
 62
7
  6
CONTINUOUS
 10
882.4652164491
 20
111.0509940105
 11
881.7520719123
 21
111.1369848083
  0
LINE
  5
3F4
100
AcDbEntity
  8
BEZUGSACHSEN
100
AcDbLine
 62
7
  6
CONTINUOUS
 10
882.4652164491
 20
111.0509940105
 11
881.7520719123
 21
111.1369848083
  0
LINE
  5
3F5
100
AcDbEntity
  8
0
100
AcDbLine
 62
7
  6
CONTINUOUS
 10
876.3598520913
 20
102.4669780473
 11
877.153786923
 21
102.2402404296
  0
LINE
  5
3F6
100
AcDbEntity
  8
BEZUGSACHSEN
100
AcDbLine
 62
7
  6
CONTINUOUS
 10
876.3598520913
 20
102.4669780473
 11
877.153786923
 21
102.2402404296
  0
LINE
  5
3F7
100
AcDbEntity
  8
0
100
AcDbLine
 62
7
  6
CONTINUOUS
 10
962.6161959445
 20
-30.2805375483
 11
963.3840298174
 21
-30.9250786017
  0
LINE
  5
3F8
100
AcDbEntity
  8
0
100
AcDbLine
 62
7
  6
CONTINUOUS
 10
961.6423044559
 20
-21.7733590355
 11
961.9494383922
 21
-22.0311757818
  0
LINE
  5
3F9
100
AcDbEntity
  8
0
100
AcDbLine
 62
7
  6
CONTINUOUS
 10
945.9672273301
 20
-41.1573880791
 11
945.5092168962
 21
-40.720845641
  0
LINE
  5
3FA
100
AcDbEntity
  8
0
100
AcDbLine
 62
7
  6
CONTINUOUS
 10
944.5847961695
 20
-37.3474278477
 11
944.1267857355
 21
-36.9108854095
  0
LINE
  5
3FB
100
AcDbEntity
  8
0
100
AcDbLine
 62
7
  6
CONTINUOUS
 10
883.1510178163
 20
111.2442800162
 11
882.4652164491
 21
111.0509940105
  0
LINE
  5
3FC
100
AcDbEntity
  8
BEZUGSACHSEN
100
AcDbLine
 62
7
  6
CONTINUOUS
 10
883.1510178163
 20
111.2442800162
 11
882.4652164491
 21
111.0509940105
  0
LINE
  5
3FD
100
AcDbEntity
  8
0
100
AcDbLine
 62
7
  6
CONTINUOUS
 10
877.153786923
 20
102.2402404296
 11
878.2394750141
 21
102.5251355364
  0
LINE
  5
3FE
100
AcDbEntity
  8
BEZUGSACHSEN
100
AcDbLine
 62
7
  6
CONTINUOUS
 10
877.153786923
 20
102.2402404296
 11
878.2394750141
 21
102.5251355364
  0
LINE
  5
3FF
100
AcDbEntity
  8
0
100
AcDbLine
 62
7
  6
CONTINUOUS
 10
895.8798103992
 20
127.1830472973
 11
895.0933201339
 21
126.9873029002
  0
LINE
  5
400
100
AcDbEntity
  8
BEZUGSACHSEN
100
AcDbLine
 62
7
  6
CONTINUOUS
 10
895.8798103992
 20
127.1830472973
 11
895.0933201339
 21
126.9873029002
  0
LINE
  5
401
100
AcDbEntity
  8
0
100
AcDbLine
 62
7
  6
CONTINUOUS
 10
897.7034563658
 20
127.9372123444
 11
896.9169680788
 21
127.7414690124
  0
LINE
  5
402
100
AcDbEntity
  8
BEZUGSACHSEN
100
AcDbLine
 62
7
  6
CONTINUOUS
 10
897.7034563658
 20
127.9372123444
 11
896.9169680788
 21
127.7414690124
  0
LINE
  5
403
100
AcDbEntity
  8
0
100
AcDbLine
 62
7
  6
CONTINUOUS
 10
895.8369283863
 20
130.5756710899
 11
896.6234186515
 21
130.771415487
  0
LINE
  5
404
100
AcDbEntity
  8
BEZUGSACHSEN
100
AcDbLine
 62
7
  6
CONTINUOUS
 10
895.8369283863
 20
130.5756710899
 11
896.6234186515
 21
130.771415487
  0
LINE
  5
405
100
AcDbEntity
  8
0
100
AcDbLine
 62
7
  6
CONTINUOUS
 10
897.7808205328
 20
123.6522976761
 11
897.1671911996
 21
123.5496242749
  0
LINE
  5
406
100
AcDbEntity
  8
BEZUGSACHSEN
100
AcDbLine
 62
7
  6
CONTINUOUS
 10
897.7808205328
 20
123.6522976761
 11
897.1671911996
 21
123.5496242749
  0
LINE
  5
407
100
AcDbEntity
  8
0
100
AcDbLine
 62
7
  6
CONTINUOUS
 10
897.487271039
 20
126.6822442744
 11
898.1009003721
 21
126.7849176756
  0
LINE
  5
408
100
AcDbEntity
  8
BEZUGSACHSEN
100
AcDbLine
 62
7
  6
CONTINUOUS
 10
897.487271039
 20
126.6822442744
 11
898.1009003721
 21
126.7849176756
  0
LINE
  5
409
100
AcDbEntity
  8
0
100
AcDbLine
 62
7
  6
CONTINUOUS
 10
881.735226786
 20
109.8695158667
 11
882.8543823536
 21
109.9553506564
  0
LINE
  5
40A
100
AcDbEntity
  8
BEZUGSACHSEN
100
AcDbLine
 62
7
  6
CONTINUOUS
 10
881.735226786
 20
109.8695158667
 11
882.8543823536
 21
109.9553506564
  0
LINE
  5
40B
100
AcDbEntity
  8
0
100
AcDbLine
 62
7
  6
CONTINUOUS
 10
894.6092253599
 20
125.8158023556
 11
895.4907641403
 21
125.8350082313
  0
LINE
  5
40C
100
AcDbEntity
  8
BEZUGSACHSEN
100
AcDbLine
 62
7
  6
CONTINUOUS
 10
894.6092253599
 20
125.8158023556
 11
895.4907641403
 21
125.8350082313
  0
LINE
  5
40D
100
AcDbEntity
  8
0
100
AcDbLine
 62
7
  6
CONTINUOUS
 10
898.5849951462
 20
127.9564182201
 11
897.7034563658
 21
127.9372123444
  0
LINE
  5
40E
100
AcDbEntity
  8
BEZUGSACHSEN
100
AcDbLine
 62
7
  6
CONTINUOUS
 10
898.5849951462
 20
127.9564182201
 11
897.7034563658
 21
127.9372123444
  0
LINE
  5
40F
100
AcDbEntity
  8
0
100
AcDbLine
 62
7
  6
CONTINUOUS
 10
897.3754248178
 20
131.8594496329
 11
896.225974587
 21
131.923710264
  0
LINE
  5
410
100
AcDbEntity
  8
BEZUGSACHSEN
100
AcDbLine
 62
7
  6
CONTINUOUS
 10
897.3754248178
 20
131.8594496329
 11
896.225974587
 21
131.923710264
  0
LINE
  5
411
100
AcDbEntity
  8
0
100
AcDbLine
 62
7
  6
CONTINUOUS
 10
895.0933201339
 20
126.9873029002
 11
894.3846403074
 21
127.0611669553
  0
LINE
  5
412
100
AcDbEntity
  8
BEZUGSACHSEN
100
AcDbLine
 62
7
  6
CONTINUOUS
 10
895.0933201339
 20
126.9873029002
 11
894.3846403074
 21
127.0611669553
  0
LINE
  5
413
100
AcDbEntity
  8
0
100
AcDbLine
 62
7
  6
CONTINUOUS
 10
898.1009003721
 20
126.7849176756
 11
898.8095801986
 21
126.7110536205
  0
LINE
  5
414
100
AcDbEntity
  8
BEZUGSACHSEN
100
AcDbLine
 62
7
  6
CONTINUOUS
 10
898.1009003721
 20
126.7849176756
 11
898.8095801986
 21
126.7110536205
  0
LINE
  5
415
100
AcDbEntity
  8
0
100
AcDbLine
 62
7
  6
CONTINUOUS
 10
896.588043954
 20
122.5546601216
 11
897.5646332277
 21
122.3973285409
  0
LINE
  5
416
100
AcDbEntity
  8
BEZUGSACHSEN
100
AcDbLine
 62
7
  6
CONTINUOUS
 10
896.588043954
 20
122.5546601216
 11
897.5646332277
 21
122.3973285409
  0
LINE
  5
417
100
AcDbEntity
  8
0
100
AcDbLine
 62
7
  6
CONTINUOUS
 10
897.1671911996
 20
123.5496242749
 11
896.6313703269
 21
123.7165582608
  0
LINE
  5
418
100
AcDbEntity
  8
BEZUGSACHSEN
100
AcDbLine
 62
7
  6
CONTINUOUS
 10
897.1671911996
 20
123.5496242749
 11
896.6313703269
 21
123.7165582608
  0
LINE
  5
419
100
AcDbEntity
  8
0
100
AcDbLine
 62
7
  6
CONTINUOUS
 10
893.5375836145
 20
126.1496703275
 11
894.6092253599
 21
125.8158023556
  0
LINE
  5
41A
100
AcDbEntity
  8
BEZUGSACHSEN
100
AcDbLine
 62
7
  6
CONTINUOUS
 10
893.5375836145
 20
126.1496703275
 11
894.6092253599
 21
125.8158023556
  0
LINE
  5
41B
100
AcDbEntity
  8
0
100
AcDbLine
 62
7
  6
CONTINUOUS
 10
899.1971881841
 20
127.7656906296
 11
898.5849951462
 21
127.9564182201
  0
LINE
  5
41C
100
AcDbEntity
  8
BEZUGSACHSEN
100
AcDbLine
 62
7
  6
CONTINUOUS
 10
899.1971881841
 20
127.7656906296
 11
898.5849951462
 21
127.9564182201
  0
LINE
  5
41D
100
AcDbEntity
  8
0
100
AcDbLine
 62
7
  6
CONTINUOUS
 10
896.6234186515
 20
130.771415487
 11
897.427149038
 21
130.5210138519
  0
LINE
  5
41E
100
AcDbEntity
  8
BEZUGSACHSEN
100
AcDbLine
 62
7
  6
CONTINUOUS
 10
896.6234186515
 20
130.771415487
 11
897.427149038
 21
130.5210138519
  0
LINE
  5
41F
100
AcDbEntity
  8
0
100
AcDbLine
 62
7
  6
CONTINUOUS
 10
880.9947361903
 20
110.2347800264
 11
881.735226786
 21
109.8695158667
  0
LINE
  5
420
100
AcDbEntity
  8
BEZUGSACHSEN
100
AcDbLine
 62
7
  6
CONTINUOUS
 10
880.9947361903
 20
110.2347800264
 11
881.735226786
 21
109.8695158667
  0
LINE
  5
421
100
AcDbEntity
  8
0
100
AcDbLine
 62
7
  6
CONTINUOUS
 10
870.0896773757
 20
106.0424802056
 11
870.9605349615
 21
105.5458826914
  0
LINE
  5
422
100
AcDbEntity
  8
BEZUGSACHSEN
100
AcDbLine
 62
7
  6
CONTINUOUS
 10
870.0896773757
 20
106.0424802056
 11
870.9605349615
 21
105.5458826914
  0
LINE
  5
423
100
AcDbEntity
  8
0
100
AcDbLine
 62
7
  6
CONTINUOUS
 10
876.0115086178
 20
102.6656173035
 11
876.3598520913
 21
102.4669780473
  0
LINE
  5
424
100
AcDbEntity
  8
BEZUGSACHSEN
100
AcDbLine
 62
7
  6
CONTINUOUS
 10
876.0115086178
 20
102.6656173035
 11
876.3598520913
 21
102.4669780473
  0
LINE
  5
425
100
AcDbEntity
  8
0
100
AcDbLine
 62
7
  6
CONTINUOUS
 10
876.9433541584
 20
103.4902356893
 11
876.5950106849
 21
103.6888749455
  0
LINE
  5
426
100
AcDbEntity
  8
BEZUGSACHSEN
100
AcDbLine
 62
7
  6
CONTINUOUS
 10
876.9433541584
 20
103.4902356893
 11
876.5950106849
 21
103.6888749455
  0
LINE
  5
427
100
AcDbEntity
  8
0
100
AcDbLine
 62
7
  6
CONTINUOUS
 10
874.461547364
 20
111.6854285435
 11
873.5906897782
 21
112.1820260577
  0
LINE
  5
428
100
AcDbEntity
  8
BEZUGSACHSEN
100
AcDbLine
 62
7
  6
CONTINUOUS
 10
874.461547364
 20
111.6854285435
 11
873.5906897782
 21
112.1820260577
  0
LINE
  5
429
100
AcDbEntity
  8
0
100
AcDbLine
 62
7
  6
CONTINUOUS
 10
967.9280441491
 20
-25.5118499103
 11
967.1602102762
 21
-24.8673088569
  0
LINE
  5
42A
100
AcDbEntity
  8
0
100
AcDbLine
 62
7
  6
CONTINUOUS
 10
962.7067741142
 20
-21.1289709999
 11
962.3996401778
 21
-20.8711542536
  0
LINE
  5
42B
100
AcDbEntity
  8
0
100
AcDbLine
 62
7
  6
CONTINUOUS
 10
963.0313280762
 20
-18.5045316879
 11
963.6307629608
 21
-19.0723538851
  0
LINE
  5
42C
100
AcDbEntity
  8
0
100
AcDbLine
 62
7
  6
CONTINUOUS
 10
967.9823048608
 20
-13.8698098245
 11
967.3828677503
 21
-13.3019915307
  0
LINE
  5
42D
100
AcDbEntity
  8
0
100
AcDbLine
 62
7
  6
CONTINUOUS
 10
948.1631236614
 20
-34.0545157548
 11
947.7051132274
 21
-33.6179733166
  0
LINE
  5
42E
100
AcDbEntity
  8
0
100
AcDbLine
 62
7
  6
CONTINUOUS
 10
944.4720592166
 20
-41.2792673561
 11
945.0251201439
 21
-41.8923472506
  0
LINE
  5
42F
100
AcDbEntity
  8
0
100
AcDbLine
 62
7
  6
CONTINUOUS
 10
943.1846785493
 20
-37.6458445809
 11
943.7377394766
 21
-38.2589244754
  0
LINE
  5
430
100
AcDbEntity
  8
BEZUGSACHSEN
100
AcDbLine
 62
7
  6
CONTINUOUS
 10
869.0323723317
 20
-32.0354176082
 11
837.8834280844
 21
18.1049331482
  0
LINE
  5
431
100
AcDbEntity
  8
0
100
AcDbLine
 62
7
  6
CONTINUOUS
 10
895.6892631407
 20
122.9815990894
 11
896.588043954
 21
122.5546601216
  0
LINE
  5
432
100
AcDbEntity
  8
BEZUGSACHSEN
100
AcDbLine
 62
7
  6
CONTINUOUS
 10
895.6892631407
 20
122.9815990894
 11
896.588043954
 21
122.5546601216
  0
LINE
  5
433
100
AcDbEntity
  8
0
100
AcDbLine
 62
7
  6
CONTINUOUS
 10
894.3846403074
 20
127.0611669553
 11
893.7537707865
 21
127.4046397099
  0
LINE
  5
434
100
AcDbEntity
  8
BEZUGSACHSEN
100
AcDbLine
 62
7
  6
CONTINUOUS
 10
894.3846403074
 20
127.0611669553
 11
893.7537707865
 21
127.4046397099
  0
LINE
  5
435
100
AcDbEntity
  8
0
100
AcDbLine
 62
7
  6
CONTINUOUS
 10
898.3692562242
 20
131.2559730234
 11
897.3754248178
 21
131.8594496329
  0
LINE
  5
436
100
AcDbEntity
  8
BEZUGSACHSEN
100
AcDbLine
 62
7
  6
CONTINUOUS
 10
898.3692562242
 20
131.2559730234
 11
897.3754248178
 21
131.8594496329
  0
LINE
  5
437
100
AcDbEntity
  8
0
100
AcDbLine
 62
7
  6
CONTINUOUS
 10
896.6313703269
 20
123.7165582608
 11
896.2684103863
 21
123.9765632426
  0
LINE
  5
438
100
AcDbEntity
  8
BEZUGSACHSEN
100
AcDbLine
 62
7
  6
CONTINUOUS
 10
896.6313703269
 20
123.7165582608
 11
896.2684103863
 21
123.9765632426
  0
LINE
  5
439
100
AcDbEntity
  8
0
100
AcDbLine
 62
7
  6
CONTINUOUS
 10
892.8116636002
 20
126.6696805385
 11
893.5375836145
 21
126.1496703275
  0
LINE
  5
43A
100
AcDbEntity
  8
BEZUGSACHSEN
100
AcDbLine
 62
7
  6
CONTINUOUS
 10
892.8116636002
 20
126.6696805385
 11
893.5375836145
 21
126.1496703275
  0
LINE
  5
43B
100
AcDbEntity
  8
0
100
AcDbLine
 62
7
  6
CONTINUOUS
 10
875.466332219
 20
114.8754756831
 11
876.2341660919
 21
114.2309346297
  0
LINE
  5
43C
100
AcDbEntity
  8
BEZUGSACHSEN
100
AcDbLine
 62
7
  6
CONTINUOUS
 10
875.466332219
 20
114.8754756831
 11
876.2341660919
 21
114.2309346297
  0
LINE
  5
43D
100
AcDbEntity
  8
0
100
AcDbLine
 62
7
  6
CONTINUOUS
 10
880.6876022539
 20
110.4925967727
 11
880.9947361903
 21
110.2347800264
  0
LINE
  5
43E
100
AcDbEntity
  8
BEZUGSACHSEN
100
AcDbLine
 62
7
  6
CONTINUOUS
 10
880.6876022539
 20
110.4925967727
 11
880.9947361903
 21
110.2347800264
  0
LINE
  5
43F
100
AcDbEntity
  8
0
100
AcDbLine
 62
7
  6
CONTINUOUS
 10
881.7520719123
 20
111.1369848083
 11
881.4449379759
 21
111.3948015546
  0
LINE
  5
440
100
AcDbEntity
  8
BEZUGSACHSEN
100
AcDbLine
 62
7
  6
CONTINUOUS
 10
881.7520719123
 20
111.1369848083
 11
881.4449379759
 21
111.3948015546
  0
LINE
  5
441
100
AcDbEntity
  8
0
100
AcDbLine
 62
7
  6
CONTINUOUS
 10
880.7781804236
 20
119.6441633211
 11
880.0103465507
 21
120.2887043745
  0
LINE
  5
442
100
AcDbEntity
  8
BEZUGSACHSEN
100
AcDbLine
 62
7
  6
CONTINUOUS
 10
880.7781804236
 20
119.6441633211
 11
880.0103465507
 21
120.2887043745
  0
LINE
  5
443
100
AcDbEntity
  8
0
100
AcDbLine
 62
7
  6
CONTINUOUS
 10
875.4120715073
 20
103.2334355973
 11
876.0115086178
 21
102.6656173035
  0
LINE
  5
444
100
AcDbEntity
  8
BEZUGSACHSEN
100
AcDbLine
 62
7
  6
CONTINUOUS
 10
875.4120715073
 20
103.2334355973
 11
876.0115086178
 21
102.6656173035
  0
LINE
  5
445
100
AcDbEntity
  8
0
100
AcDbLine
 62
7
  6
CONTINUOUS
 10
880.3630482919
 20
107.8681574607
 11
879.7636134073
 21
108.4359796579
  0
LINE
  5
446
100
AcDbEntity
  8
BEZUGSACHSEN
100
AcDbLine
 62
7
  6
CONTINUOUS
 10
880.3630482919
 20
107.8681574607
 11
879.7636134073
 21
108.4359796579
  0
LINE
  5
447
100
AcDbEntity
  8
0
100
AcDbLine
 62
7
  6
CONTINUOUS
 10
938.4957120911
 20
-44.9388849239
 11
933.4153271736
 21
-37.9160396889
  0
LINE
  5
448
100
AcDbEntity
  8
0
100
AcDbLine
 62
7
  6
CONTINUOUS
 10
932.2912630881
 20
-38.2681913551
 11
938.1059810027
 21
-46.3216328172
  0
LINE
  5
449
100
AcDbEntity
  8
KONSTRUKTIONSELEMENTE
100
AcDbLine
 62
7
  6
CONTINUOUS
 10
911.6871881841
 20
186.1093926817
 11
931.7071881841
 21
186.1093926817
  0
LINE
  5
44A
100
AcDbEntity
  8
KONSTRUKTIONSELEMENTE
100
AcDbLine
 62
7
  6
CONTINUOUS
 10
910.5871881841
 20
186.887210141
 11
911.6871881841
 21
186.887210141
  0
LINE
  5
44B
100
AcDbEntity
  8
KONSTRUKTIONSELEMENTE
100
AcDbLine
 62
7
  6
CONTINUOUS
 10
931.7071881841
 20
186.887210141
 11
932.8071881841
 21
186.887210141
  0
LINE
  5
44C
100
AcDbEntity
  8
RUNDUNGEN
100
AcDbLine
 62
7
  6
CONTINUOUS
 10
860.1971881841
 20
187.6818128864
 11
870.1971881841
 21
187.6818128864
  0
LINE
  5
44D
100
AcDbEntity
  8
BEZUGSACHSEN
100
AcDbLine
 62
7
  6
CONTINUOUS
 10
973.1971881841
 20
187.6818128864
 11
983.1971881841
 21
187.6818128864
  0
LINE
  5
44E
100
AcDbEntity
  8
KONSTRUKTIONSELEMENTE
100
AcDbLine
 62
7
  6
CONTINUOUS
 10
910.5871881841
 20
188.8671091283
 11
911.6871881841
 21
188.8671091283
  0
LINE
  5
44F
100
AcDbEntity
  8
KONSTRUKTIONSELEMENTE
100
AcDbLine
 62
7
  6
CONTINUOUS
 10
931.7071881841
 20
188.8671091283
 11
932.8071881841
 21
188.8671091283
  0
LINE
  5
450
100
AcDbEntity
  8
KONSTRUKTIONSELEMENTE
100
AcDbLine
 62
7
  6
CONTINUOUS
 10
911.6871881841
 20
189.6449265876
 11
931.7071881841
 21
189.6449265876
  0
LINE
  5
451
100
AcDbEntity
  8
0
100
AcDbLine
 62
7
  6
CONTINUOUS
 10
845.1971881841
 20
194.3805426972
 11
821.1971881841
 21
194.3805426972
  0
LINE
  5
452
100
AcDbEntity
  8
0
100
AcDbLine
 62
7
  6
CONTINUOUS
 10
895.2312527067
 20
123.4181415276
 11
895.6892631407
 21
122.9815990894
  0
LINE
  5
453
100
AcDbEntity
  8
BEZUGSACHSEN
100
AcDbLine
 62
7
  6
CONTINUOUS
 10
895.2312527067
 20
123.4181415276
 11
895.6892631407
 21
122.9815990894
  0
LINE
  5
454
100
AcDbEntity
  8
0
100
AcDbLine
 62
7
  6
CONTINUOUS
 10
898.8095801986
 20
126.7110536205
 11
899.1971881841
 21
126.3416137072
  0
LINE
  5
455
100
AcDbEntity
  8
BEZUGSACHSEN
100
AcDbLine
 62
7
  6
CONTINUOUS
 10
898.8095801986
 20
126.7110536205
 11
899.1971881841
 21
126.3416137072
  0
LINE
  5
456
100
AcDbEntity
  8
0
100
AcDbLine
 62
7
  6
CONTINUOUS
 10
897.427149038
 20
130.5210138519
 11
897.885159472
 21
130.0844714138
  0
LINE
  5
457
100
AcDbEntity
  8
BEZUGSACHSEN
100
AcDbLine
 62
7
  6
CONTINUOUS
 10
897.427149038
 20
130.5210138519
 11
897.885159472
 21
130.0844714138
  0
LINE
  5
458
100
AcDbEntity
  8
0
100
AcDbLine
 62
7
  6
CONTINUOUS
 10
957.493804556
 20
-25.4680146736
 11
957.9818479849
 21
-26.1340160549
  0
LINE
  5
459
100
AcDbEntity
  8
0
100
AcDbLine
 62
7
  6
CONTINUOUS
 10
963.1948175432
 20
-21.7949723813
 11
962.7067741142
 21
-21.1289709999
  0
LINE
  5
45A
100
AcDbEntity
  8
0
100
AcDbLine
 62
7
  6
CONTINUOUS
 10
998.1971881841
 20
202.6818128864
 11
1018.1971881841
 21
202.6818128864
  0
LINE
  5
45B
100
AcDbEntity
  8
0
100
AcDbLine
 62
7
  6
CONTINUOUS
 10
788.1971881841
 20
211.6818128864
 11
821.1971881841
 21
211.6818128864
  0
LINE
  5
45C
100
AcDbEntity
  8
0
100
AcDbLine
 62
7
  6
CONTINUOUS
 10
885.1971881841
 20
211.6818128864
 11
899.1971881841
 21
211.6818128864
  0
LINE
  5
45D
100
AcDbEntity
  8
0
100
AcDbLine
 62
7
  6
CONTINUOUS
 10
944.1971881841
 20
211.6818128864
 11
958.1971881841
 21
211.6818128864
  0
LINE
  5
45E
100
AcDbEntity
  8
0
100
AcDbLine
 62
7
  6
CONTINUOUS
 10
845.1971881841
 20
216.0311777918
 11
821.1971881841
 21
216.0311777918
  0
LINE
  5
45F
100
AcDbEntity
  8
KONSTRUKTIONSELEMENTE
100
AcDbLine
 62
7
  6
CONTINUOUS
 10
969.7021672433
 20
217.2220910539
 11
940.6760386852
 21
217.2220910539
  0
LINE
  5
460
100
AcDbEntity
  8
KONSTRUKTIONSELEMENTE
100
AcDbLine
 62
7
  6
CONTINUOUS
 10
902.8871881841
 20
217.2220910539
 11
900.4559300896
 21
217.2220910539
  0
LINE
  5
461
100
AcDbEntity
  8
KONSTRUKTIONSELEMENTE
100
AcDbLine
 62
7
  6
CONTINUOUS
 10
944.9071881841
 20
219.9798075005
 11
940.5071881841
 21
219.9798075005
  0
LINE
  5
462
100
AcDbEntity
  8
KONSTRUKTIONSELEMENTE
100
AcDbLine
 62
7
  6
CONTINUOUS
 10
902.8871881841
 20
219.9798075005
 11
900.4559300896
 21
219.9798075005
  0
LINE
  5
463
100
AcDbEntity
  8
KONSTRUKTIONSELEMENTE
100
AcDbLine
 62
7
  6
CONTINUOUS
 10
902.8871881841
 20
220.7576249598
 11
900.4559300896
 21
220.7576249598
  0
LINE
  5
464
100
AcDbEntity
  8
KONSTRUKTIONSELEMENTE
100
AcDbLine
 62
7
  6
CONTINUOUS
 10
940.5071881841
 20
220.7576249598
 11
969.7021672433
 21
220.7576249598
  0
LINE
  5
465
100
AcDbEntity
  8
0
100
AcDbLine
 62
7
  6
CONTINUOUS
 10
898.9223171516
 20
130.6428931289
 11
898.3692562242
 21
131.2559730234
  0
LINE
  5
466
100
AcDbEntity
  8
BEZUGSACHSEN
100
AcDbLine
 62
7
  6
CONTINUOUS
 10
898.9223171516
 20
130.6428931289
 11
898.3692562242
 21
131.2559730234
  0
LINE
  5
467
100
AcDbEntity
  8
0
100
AcDbLine
 62
7
  6
CONTINUOUS
 10
880.1995588249
 20
111.1585981541
 11
880.6876022539
 21
110.4925967727
  0
LINE
  5
468
100
AcDbEntity
  8
BEZUGSACHSEN
100
AcDbLine
 62
7
  6
CONTINUOUS
 10
880.1995588249
 20
111.1585981541
 11
880.6876022539
 21
110.4925967727
  0
LINE
  5
469
100
AcDbEntity
  8
0
100
AcDbLine
 62
7
  6
CONTINUOUS
 10
885.9005718122
 20
114.8316404464
 11
885.4125283832
 21
115.4976418277
  0
LINE
  5
46A
100
AcDbEntity
  8
BEZUGSACHSEN
100
AcDbLine
 62
7
  6
CONTINUOUS
 10
885.9005718122
 20
114.8316404464
 11
885.4125283832
 21
115.4976418277
  0
LINE
  5
46B
100
AcDbEntity
  8
0
100
AcDbLine
 62
7
  6
CONTINUOUS
 10
876.5950106849
 20
103.6888749455
 11
876.0928246609
 21
104.4272374808
  0
LINE
  5
46C
100
AcDbEntity
  8
BEZUGSACHSEN
100
AcDbLine
 62
7
  6
CONTINUOUS
 10
876.5950106849
 20
103.6888749455
 11
876.0928246609
 21
104.4272374808
  0
LINE
  5
46D
100
AcDbEntity
  8
0
100
AcDbLine
 62
7
  6
CONTINUOUS
 10
966.7993656832
 20
-14.3252491727
 11
967.3015517072
 21
-15.063611708
  0
LINE
  5
46E
100
AcDbEntity
  8
0
100
AcDbLine
 62
7
  6
CONTINUOUS
 10
942.8044763096
 20
-36.939694261
 11
943.1846785493
 21
-37.6458445809
  0
LINE
  5
46F
100
AcDbEntity
  8
0
100
AcDbLine
 62
7
  6
CONTINUOUS
 10
944.1267857355
 20
-36.9108854095
 11
943.9366847488
 21
-36.5578104968
  0
LINE
  5
470
100
AcDbEntity
  8
0
100
AcDbLine
 62
7
  6
CONTINUOUS
 10
949.6406055817
 20
-38.0410139371
 11
949.9257570618
 21
-38.5706263061
  0
LINE
  5
471
100
AcDbEntity
  8
0
100
AcDbLine
 62
7
  6
CONTINUOUS
 10
951.0579652347
 20
-38.1887420474
 11
950.5827127679
 21
-37.3060547657
  0
LINE
  5
472
100
AcDbEntity
  8
0
100
AcDbLine
 62
7
  6
CONTINUOUS
 10
875.084059202
 20
103.872482547
 11
875.4120715073
 21
103.2334355973
  0
LINE
  5
473
100
AcDbEntity
  8
BEZUGSACHSEN
100
AcDbLine
 62
7
  6
CONTINUOUS
 10
875.084059202
 20
103.872482547
 11
875.4120715073
 21
103.2334355973
  0
LINE
  5
474
100
AcDbEntity
  8
0
100
AcDbLine
 62
7
  6
CONTINUOUS
 10
927.706704136
 20
-47.1863834075
 11
924.0947808293
 21
-39.3070003306
  0
LINE
  5
475
100
AcDbEntity
  8
0
100
AcDbLine
 62
7
  6
CONTINUOUS
 10
922.9236018679
 20
-39.4329793154
 11
927.0545777363
 21
-48.4664670371
  0
LINE
  5
476
100
AcDbEntity
  8
0
100
AcDbLine
 62
7
  6
CONTINUOUS
 10
845.1971881841
 20
259.332447981
 11
821.1971881841
 21
259.332447981
  0
LINE
  5
477
100
AcDbEntity
  8
KONSTRUKTIONSELEMENTE
100
AcDbLine
 62
7
  6
CONTINUOUS
 10
981.3283495641
 20
231.1836577344
 11
967.7282413811
 21
234.3083223092
  0
LINE
  5
478
100
AcDbEntity
  8
0
100
AcDbLine
 62
7
  6
CONTINUOUS
 10
892.3364111334
 20
127.5523678202
 11
892.8116636002
 21
126.6696805385
  0
LINE
  5
479
100
AcDbEntity
  8
BEZUGSACHSEN
100
AcDbLine
 62
7
  6
CONTINUOUS
 10
892.3364111334
 20
127.5523678202
 11
892.8116636002
 21
126.6696805385
  0
LINE
  5
47A
100
AcDbEntity
  8
0
100
AcDbLine
 62
7
  6
CONTINUOUS
 10
893.7537707865
 20
127.4046397099
 11
893.4686193064
 21
127.9342520789
  0
LINE
  5
47B
100
AcDbEntity
  8
BEZUGSACHSEN
100
AcDbLine
 62
7
  6
CONTINUOUS
 10
893.7537707865
 20
127.4046397099
 11
893.4686193064
 21
127.9342520789
  0
LINE
  5
47C
100
AcDbEntity
  8
0
100
AcDbLine
 62
7
  6
CONTINUOUS
 10
879.2773624267
 20
107.5832662574
 11
879.6053747321
 21
106.9442193076
  0
LINE
  5
47D
100
AcDbEntity
  8
BEZUGSACHSEN
100
AcDbLine
 62
7
  6
CONTINUOUS
 10
879.2773624267
 20
107.5832662574
 11
879.6053747321
 21
106.9442193076
  0
LINE
  5
47E
100
AcDbEntity
  8
0
100
AcDbLine
 62
7
  6
CONTINUOUS
 10
964.1170139414
 20
-18.2196404846
 11
963.7890016361
 21
-17.5805935348
  0
LINE
  5
47F
100
AcDbEntity
  8
0
100
AcDbLine
 62
7
  6
CONTINUOUS
 10
968.3103171662
 20
-14.5088567742
 11
967.9823048608
 21
-13.8698098245
  0
LINE
  5
480
100
AcDbEntity
  8
0
100
AcDbLine
 62
7
  6
CONTINUOUS
 10
881.4449379759
 20
111.3948015546
 11
881.0831152412
 21
112.2111681052
  0
LINE
  5
481
100
AcDbEntity
  8
BEZUGSACHSEN
100
AcDbLine
 62
7
  6
CONTINUOUS
 10
881.4449379759
 20
111.3948015546
 11
881.0831152412
 21
112.2111681052
  0
LINE
  5
482
100
AcDbEntity
  8
0
100
AcDbLine
 62
7
  6
CONTINUOUS
 10
788.1971881841
 20
263.6818128864
 11
788.1971881841
 21
211.6818128864
  0
LINE
  5
483
100
AcDbEntity
  8
0
100
AcDbLine
 62
7
  6
CONTINUOUS
 10
788.1971881841
 20
263.6818128864
 11
821.1971881841
 21
263.6818128864
  0
LINE
  5
484
100
AcDbEntity
  8
0
100
AcDbLine
 62
7
  6
CONTINUOUS
 10
998.1971881841
 20
272.6818128864
 11
1018.1971881841
 21
272.6818128864
  0
LINE
  5
485
100
AcDbEntity
  8
0
100
AcDbLine
 62
7
  6
CONTINUOUS
 10
845.1971881841
 20
280.9830830756
 11
821.1971881841
 21
280.9830830756
  0
LINE
  5
486
100
AcDbEntity
  8
0
100
AcDbLine
 62
7
  6
CONTINUOUS
 10
961.9494383922
 20
-22.0311757818
 11
962.3112611269
 21
-22.8475423324
  0
LINE
  5
487
100
AcDbEntity
  8
0
100
AcDbLine
 62
7
  6
CONTINUOUS
 10
879.9913028434
 20
111.8460565121
 11
880.1995588249
 21
111.1585981541
  0
LINE
  5
488
100
AcDbEntity
  8
BEZUGSACHSEN
100
AcDbLine
 62
7
  6
CONTINUOUS
 10
879.9913028434
 20
111.8460565121
 11
880.1995588249
 21
111.1585981541
  0
LINE
  5
489
100
AcDbEntity
  8
0
100
AcDbLine
 62
7
  6
CONTINUOUS
 10
884.7814148
 20
114.7458039359
 11
884.9896707816
 21
114.0583455779
  0
LINE
  5
48A
100
AcDbEntity
  8
BEZUGSACHSEN
100
AcDbLine
 62
7
  6
CONTINUOUS
 10
884.7814148
 20
114.7458039359
 11
884.9896707816
 21
114.0583455779
  0
LINE
  5
48B
100
AcDbEntity
  8
0
100
AcDbLine
 62
7
  6
CONTINUOUS
 10
880.6707343689
 20
106.7887103459
 11
880.3630482919
 21
107.8681574607
  0
LINE
  5
48C
100
AcDbEntity
  8
BEZUGSACHSEN
100
AcDbLine
 62
7
  6
CONTINUOUS
 10
880.6707343689
 20
106.7887103459
 11
880.3630482919
 21
107.8681574607
  0
LINE
  5
48D
100
AcDbEntity
  8
0
100
AcDbLine
 62
7
  6
CONTINUOUS
 10
876.0928246609
 20
104.4272374808
 11
874.461547364
 21
111.6854285435
  0
LINE
  5
48E
100
AcDbEntity
  8
BEZUGSACHSEN
100
AcDbLine
 62
7
  6
CONTINUOUS
 10
876.0928246609
 20
104.4272374808
 11
874.461547364
 21
111.6854285435
  0
LINE
  5
48F
100
AcDbEntity
  8
RUNDUNGEN
100
AcDbLine
 62
7
  6
CONTINUOUS
 10
845.194642046
 20
289.1678600214
 11
841.3629488625
 21
387.6818128864
  0
LINE
  5
490
100
AcDbEntity
  8
0
100
AcDbLine
 62
7
  6
CONTINUOUS
 10
821.1971881841
 20
194.3805426972
 11
821.1971881841
 21
280.9830830756
  0
LINE
  5
491
100
AcDbEntity
  8
BEZUGSACHSEN
100
AcDbLine
 62
7
  6
CONTINUOUS
 10
835.6971881841
 20
63.5965283216
 11
835.6971881841
 21
55.3372834398
  0
LINE
  5
492
100
AcDbEntity
  8
0
100
AcDbLine
 62
7
  6
CONTINUOUS
 10
835.6971881841
 20
25.7670974512
 11
835.6971881841
 21
35.9698128864
  0
LINE
  5
493
100
AcDbEntity
  8
0
100
AcDbLine
 62
7
  6
CONTINUOUS
 10
835.6971881841
 20
53.3938128864
 11
835.6971881841
 21
63.5965283216
  0
LINE
  5
494
100
AcDbEntity
  8
0
100
AcDbLine
 62
7
  6
CONTINUOUS
 10
845.1971881841
 20
194.3805426972
 11
845.1971881841
 21
261.9052684933
  0
LINE
  5
495
100
AcDbEntity
  8
RUNDUNGEN
100
AcDbLine
 62
7
  6
CONTINUOUS
 10
845.1971881841
 20
260.775823654
 11
845.1971881841
 21
287.6818015719
  0
LINE
  5
496
100
AcDbEntity
  8
KONSTRUKTIONSELEMENTE
100
AcDbLine
 62
7
  6
CONTINUOUS
 10
860.599862761
 20
292.267012517
 11
874.199970944
 21
295.3916770918
  0
LINE
  5
497
100
AcDbEntity
  8
KONSTRUKTIONSELEMENTE
100
AcDbLine
 62
7
  6
CONTINUOUS
 10
862.3786744895
 20
295.1692649507
 11
872.8402961688
 21
297.5728530852
  0
LINE
  5
498
100
AcDbEntity
  8
KONSTRUKTIONSELEMENTE
100
AcDbLine
 62
7
  6
CONTINUOUS
 10
867.6522063269
 20
310.4946546805
 11
855.9542111765
 21
307.8070061302
  0
LINE
  5
499
100
AcDbEntity
  8
KONSTRUKTIONSELEMENTE
100
AcDbLine
 62
7
  6
CONTINUOUS
 10
855.9542111765
 20
308.5141129114
 11
867.6522063269
 21
311.2017614617
  0
LINE
  5
49A
100
AcDbEntity
  8
KONSTRUKTIONSELEMENTE
100
AcDbLine
 62
7
  6
CONTINUOUS
 10
867.8694382419
 20
310.5308886615
 11
867.6522063269
 21
310.4946546805
  0
LINE
  5
49B
100
AcDbEntity
  8
BEZUGSACHSEN
100
AcDbLine
 62
7
  6
CONTINUOUS
 10
974.3620040364
 20
121.399043381
 11
1005.5109482837
 21
71.2586926246
  0
LINE
  5
49C
100
AcDbEntity
  8
KONSTRUKTIONSELEMENTE
100
AcDbLine
 62
7
  6
CONTINUOUS
 10
850.0963751222
 20
311.5897030327
 11
851.7959685912
 21
307.8909612169
  0
LINE
  5
49D
100
AcDbEntity
  8
KONSTRUKTIONSELEMENTE
100
AcDbLine
 62
7
  6
CONTINUOUS
 10
860.599862761
 20
288.7314786111
 11
890.9891901654
 21
222.5966775125
  0
LINE
  5
49E
100
AcDbEntity
  8
KONSTRUKTIONSELEMENTE
100
AcDbLine
 62
7
  6
CONTINUOUS
 10
860.599862761
 20
289.5092960704
 11
860.2599440672
 21
290.2490444335
  0
LINE
  5
49F
100
AcDbEntity
  8
KONSTRUKTIONSELEMENTE
100
AcDbLine
 62
7
  6
CONTINUOUS
 10
860.599862761
 20
291.4891950577
 11
860.2599440672
 21
292.2289434209
  0
LINE
  5
4A0
100
AcDbEntity
  8
KONSTRUKTIONSELEMENTE
100
AcDbLine
 62
7
  6
CONTINUOUS
 10
850.0963751222
 20
315.1252369387
 11
851.7959685912
 21
311.4264951229
  0
LINE
  5
4A1
100
AcDbEntity
  8
KONSTRUKTIONSELEMENTE
100
AcDbLine
 62
7
  6
CONTINUOUS
 10
860.599862761
 20
292.267012517
 11
890.9891901654
 21
226.1322114184
  0
LINE
  5
4A2
100
AcDbEntity
  8
KONSTRUKTIONSELEMENTE
100
AcDbLine
 62
7
  6
CONTINUOUS
 10
874.5984787309
 20
298.5401007734
 11
869.8103174196
 21
308.9603411339
  0
LINE
  5
4A3
100
AcDbEntity
  8
KONSTRUKTIONSELEMENTE
100
AcDbLine
 62
7
  6
CONTINUOUS
 10
876.3187013663
 20
297.5541811623
 11
874.9590265911
 21
300.513174615
  0
LINE
  5
4A4
100
AcDbEntity
  8
KONSTRUKTIONSELEMENTE
100
AcDbLine
 62
7
  6
CONTINUOUS
 10
869.8103174196
 20
312.4958750399
 11
876.3187013663
 21
298.3319986216
  0
LINE
  5
4A5
100
AcDbEntity
  8
0
100
AcDbLine
 62
7
  6
CONTINUOUS
 10
958.6129615681
 20
-25.3821781631
 11
958.4047055865
 21
-24.6947198051
  0
LINE
  5
4A6
100
AcDbEntity
  8
0
100
AcDbLine
 62
7
  6
CONTINUOUS
 10
963.4030735248
 20
-22.4824307393
 11
963.1948175432
 21
-21.7949723813
  0
LINE
  5
4A7
100
AcDbEntity
  8
0
100
AcDbLine
 62
7
  6
CONTINUOUS
 10
942.59713329
 20
-36.1404745049
 11
942.8044763096
 21
-36.939694261
  0
LINE
  5
4A8
100
AcDbEntity
  8
0
100
AcDbLine
 62
7
  6
CONTINUOUS
 10
873.683543124
 20
110.3210824185
 11
875.084059202
 21
103.872482547
  0
LINE
  5
4A9
100
AcDbEntity
  8
BEZUGSACHSEN
100
AcDbLine
 62
7
  6
CONTINUOUS
 10
873.683543124
 20
110.3210824185
 11
875.084059202
 21
103.872482547
  0
LINE
  5
4AA
100
AcDbEntity
  8
0
100
AcDbLine
 62
7
  6
CONTINUOUS
 10
886.0099488247
 20
113.7145383949
 11
885.9005718122
 21
114.8316404464
  0
LINE
  5
4AB
100
AcDbEntity
  8
BEZUGSACHSEN
100
AcDbLine
 62
7
  6
CONTINUOUS
 10
886.0099488247
 20
113.7145383949
 11
885.9005718122
 21
114.8316404464
  0
LINE
  5
4AC
100
AcDbEntity
  8
0
100
AcDbLine
 62
7
  6
CONTINUOUS
 10
879.6053747321
 20
106.9442193076
 11
879.6619666841
 21
106.2339515087
  0
LINE
  5
4AD
100
AcDbEntity
  8
BEZUGSACHSEN
100
AcDbLine
 62
7
  6
CONTINUOUS
 10
879.6053747321
 20
106.9442193076
 11
879.6619666841
 21
106.2339515087
  0
LINE
  5
4AE
100
AcDbEntity
  8
0
100
AcDbLine
 62
7
  6
CONTINUOUS
 10
881.0831152412
 20
112.2111681052
 11
880.7781804236
 21
119.6441633211
  0
LINE
  5
4AF
100
AcDbEntity
  8
BEZUGSACHSEN
100
AcDbLine
 62
7
  6
CONTINUOUS
 10
881.0831152412
 20
112.2111681052
 11
880.7781804236
 21
119.6441633211
  0
LINE
  5
4B0
100
AcDbEntity
  8
0
100
AcDbLine
 62
7
  6
CONTINUOUS
 10
879.768400424
 20
118.4412247591
 11
879.9913028434
 21
111.8460565121
  0
LINE
  5
4B1
100
AcDbEntity
  8
BEZUGSACHSEN
100
AcDbLine
 62
7
  6
CONTINUOUS
 10
879.768400424
 20
118.4412247591
 11
879.9913028434
 21
111.8460565121
  0
LINE
  5
4B2
100
AcDbEntity
  8
KONSTRUKTIONSELEMENTE
100
AcDbLine
 62
7
  6
CONTINUOUS
 10
849.5579968014
 20
317.5288250731
 11
849.5579968014
 21
313.9932911672
  0
LINE
  5
4B3
100
AcDbEntity
  8
KONSTRUKTIONSELEMENTE
100
AcDbLine
 62
7
  6
CONTINUOUS
 10
860.098430571
 20
292.9500198612
 11
860.098430571
 21
290.9701208739
  0
LINE
  5
4B4
100
AcDbEntity
  8
KONSTRUKTIONSELEMENTE
100
AcDbLine
 62
7
  6
CONTINUOUS
 10
860.599862761
 20
292.267012517
 11
860.599862761
 21
291.4891950577
  0
LINE
  5
4B5
100
AcDbEntity
  8
KONSTRUKTIONSELEMENTE
100
AcDbLine
 62
7
  6
CONTINUOUS
 10
860.599862761
 20
288.7314786111
 11
860.599862761
 21
289.5092960704
  0
LINE
  5
4B6
100
AcDbEntity
  8
RUNDUNGEN
100
AcDbLine
 62
7
  6
CONTINUOUS
 10
861.0971881841
 20
24.5858128864
 11
861.0971881841
 21
67.7777442879
  0
LINE
  5
4B7
100
AcDbEntity
  8
RUNDUNGEN
100
AcDbLine
 62
7
  6
CONTINUOUS
 10
861.5971881841
 20
56.7096839002
 11
861.5971881841
 21
26.5864604559
  0
LINE
  5
4B8
100
AcDbEntity
  8
0
100
AcDbLine
 62
7
  6
CONTINUOUS
 10
861.5971881841
 20
60.0996257355
 11
861.5971881841
 21
61.4805995092
  0
LINE
  5
4B9
100
AcDbEntity
  8
BEZUGSACHSEN
100
AcDbLine
 62
7
  6
CONTINUOUS
 10
861.5971881841
 20
26.5864604559
 11
861.5971881841
 21
61.4806672698
  0
LINE
  5
4BA
100
AcDbEntity
  8
RUNDUNGEN
100
AcDbLine
 62
7
  6
CONTINUOUS
 10
861.5971881841
 20
61.4805995092
 11
861.5971881841
 21
62.7777473708
  0
LINE
  5
4BB
100
AcDbEntity
  8
RUNDUNGEN
100
AcDbLine
 62
7
  6
CONTINUOUS
 10
845.1971928646
 20
287.6819872763
 11
845.1971862721
 21
287.6818023841
  0
LINE
  5
4BC
100
AcDbEntity
  8
RUNDUNGEN
100
AcDbLine
 62
7
  6
CONTINUOUS
 10
845.1971862448
 20
287.6817733638
 11
845.1971175805
 21
287.6803121752
  0
LINE
  5
4BD
100
AcDbEntity
  8
RUNDUNGEN
100
AcDbLine
 62
7
  6
CONTINUOUS
 10
845.1971679567
 20
287.6815457143
 11
845.1971881841
 21
287.6817978387
  0
LINE
  5
4BE
100
AcDbEntity
  8
KONSTRUKTIONSELEMENTE
100
AcDbLine
 62
7
  6
CONTINUOUS
 10
867.0341723381
 20
313.960972048
 11
852.4514799464
 21
310.6105558816
  0
LINE
  5
4BF
100
AcDbEntity
  8
KONSTRUKTIONSELEMENTE
100
AcDbLine
 62
7
  6
CONTINUOUS
 10
913.9717633247
 20
337.9792506874
 11
857.1588098633
 21
324.9263087047
  0
LINE
  5
4C0
100
AcDbEntity
  8
KONSTRUKTIONSELEMENTE
100
AcDbLine
 62
7
  6
CONTINUOUS
 10
1002.7398668437
 20
306.9668698088
 11
1016.3399750268
 21
303.842205234
  0
LINE
  5
4C1
100
AcDbEntity
  8
KONSTRUKTIONSELEMENTE
100
AcDbLine
 62
7
  6
CONTINUOUS
 10
1002.7398668437
 20
310.5024037147
 11
1016.3399750268
 21
307.3777391399
  0
LINE
  5
4C2
100
AcDbEntity
  8
KONSTRUKTIONSELEMENTE
100
AcDbLine
 62
7
  6
CONTINUOUS
 10
929.4226130434
 20
337.9792506874
 11
1011.343458535
 21
319.157697182
  0
LINE
  5
4C3
100
AcDbEntity
  8
0
100
AcDbLine
 62
7
  6
CONTINUOUS
 10
962.7236419993
 20
-17.4250845731
 11
963.0313280762
 21
-18.5045316879
  0
LINE
  5
4C4
100
AcDbEntity
  8
0
100
AcDbLine
 62
7
  6
CONTINUOUS
 10
943.9366847488
 20
-36.5578104968
 11
943.8243919563
 21
-35.9351277025
  0
LINE
  5
4C5
100
AcDbEntity
  8
0
100
AcDbLine
 62
7
  6
CONTINUOUS
 10
892.3019270011
 20
128.4446576308
 11
892.3364111334
 21
127.5523678202
  0
LINE
  5
4C6
100
AcDbEntity
  8
BEZUGSACHSEN
100
AcDbLine
 62
7
  6
CONTINUOUS
 10
892.3019270011
 20
128.4446576308
 11
892.3364111334
 21
127.5523678202
  0
LINE
  5
4C7
100
AcDbEntity
  8
RUNDUNGEN
100
AcDbLine
 62
7
  6
CONTINUOUS
 10
885.1971881841
 20
235.2015270343
 11
885.1971881841
 21
202.6818128864
  0
LINE
  5
4C8
100
AcDbEntity
  8
RUNDUNGEN
100
AcDbLine
 62
7
  6
CONTINUOUS
 10
888.6971881841
 20
72.3305631858
 11
888.6971881841
 21
80.6818128864
  0
LINE
  5
4C9
100
AcDbEntity
  8
BEZUGSACHSEN
100
AcDbLine
 62
7
  6
CONTINUOUS
 10
888.6971881841
 20
72.3305631858
 11
888.6971881841
 21
80.6818128864
  0
LINE
  5
4CA
100
AcDbEntity
  8
0
100
AcDbLine
 62
7
  6
CONTINUOUS
 10
888.7971881841
 20
57.4112489753
 11
888.7971881841
 21
33.9143953687
  0
LINE
  5
4CB
100
AcDbEntity
  8
RUNDUNGEN
100
AcDbLine
 62
7
  6
CONTINUOUS
 10
888.7971881841
 20
57.4112489753
 11
888.7971881841
 21
26.5864604429
  0
LINE
  5
4CC
100
AcDbEntity
  8
BEZUGSACHSEN
100
AcDbLine
 62
7
  6
CONTINUOUS
 10
888.7971881841
 20
65.2179874146
 11
888.7971881841
 21
24.1456383582
  0
LINE
  5
4CD
100
AcDbEntity
  8
RUNDUNGEN
100
AcDbLine
 62
7
  6
CONTINUOUS
 10
889.0971881841
 20
24.5858128864
 11
889.0971881841
 21
67.7777442879
  0
LINE
  5
4CE
100
AcDbEntity
  8
0
100
AcDbLine
 62
7
  6
CONTINUOUS
 10
896.1971881841
 20
396.1818128864
 11
896.1971881841
 21
399.3003926762
  0
LINE
  5
4CF
100
AcDbEntity
  8
0
100
AcDbLine
 62
7
  6
CONTINUOUS
 10
896.1971881841
 20
408.6952080829
 11
896.1971881841
 21
797.1818128864
  0
LINE
  5
4D0
100
AcDbEntity
  8
BEZUGSACHSEN
100
AcDbLine
 62
7
  6
CONTINUOUS
 10
899.1971881841
 20
217.392379487
 11
899.1971881841
 21
85.681851014
  0
LINE
  5
4D1
100
AcDbEntity
  8
KONSTRUKTIONSELEMENTE
100
AcDbLine
 62
7
  6
CONTINUOUS
 10
900.4559300896
 20
220.7576249598
 11
900.4559300896
 21
219.9798075005
  0
LINE
  5
4D2
100
AcDbEntity
  8
KONSTRUKTIONSELEMENTE
100
AcDbLine
 62
7
  6
CONTINUOUS
 10
900.4559300896
 20
217.9999085132
 11
900.4559300896
 21
217.2220910539
  0
LINE
  5
4D3
100
AcDbEntity
  8
0
100
AcDbLine
 62
7
  6
CONTINUOUS
 10
906.1971881841
 20
67.7733446787
 11
906.1971881841
 21
53.2123128864
  0
LINE
  5
4D4
100
AcDbEntity
  8
0
100
AcDbLine
 62
7
  6
CONTINUOUS
 10
906.1971881841
 20
21.5902810941
 11
906.1971881841
 21
36.1513128864
  0
LINE
  5
4D5
100
AcDbEntity
  8
BEZUGSACHSEN
100
AcDbLine
 62
7
  6
CONTINUOUS
 10
906.1971881841
 20
21.5902810941
 11
906.1971881841
 21
26.3845364775
  0
LINE
  5
4D6
100
AcDbEntity
  8
KONSTRUKTIONSELEMENTE
100
AcDbLine
 62
7
  6
CONTINUOUS
 10
907.2871881841
 20
189.2206625189
 11
907.2871881841
 21
213.9149886529
  0
LINE
  5
4D7
100
AcDbEntity
  8
0
100
AcDbLine
 62
7
  6
CONTINUOUS
 10
886.1583763581
 20
331.5890438015
 11
886.7325143213
 21
387.6818128864
  0
LINE
  5
4D8
100
AcDbEntity
  8
0
100
AcDbLine
 62
7
  6
CONTINUOUS
 10
880.6300752344
 20
105.9078983055
 11
880.6707343689
 21
106.7887103459
  0
LINE
  5
4D9
100
AcDbEntity
  8
BEZUGSACHSEN
100
AcDbLine
 62
7
  6
CONTINUOUS
 10
880.6300752344
 20
105.9078983055
 11
880.6707343689
 21
106.7887103459
  0
LINE
  5
4DA
100
AcDbEntity
  8
0
100
AcDbLine
 62
7
  6
CONTINUOUS
 10
967.3015517072
 20
-15.063611708
 11
968.9328290041
 21
-22.3218027707
  0
LINE
  5
4DB
100
AcDbEntity
  8
0
100
AcDbLine
 62
7
  6
CONTINUOUS
 10
969.7108332442
 20
-20.9574566457
 11
968.3103171662
 21
-14.5088567742
  0
LINE
  5
4DC
100
AcDbEntity
  8
0
100
AcDbLine
 62
7
  6
CONTINUOUS
 10
957.3844275434
 20
-24.3509126221
 11
957.493804556
 21
-25.4680146736
  0
LINE
  5
4DD
100
AcDbEntity
  8
0
100
AcDbLine
 62
7
  6
CONTINUOUS
 10
963.7890016361
 20
-17.5805935348
 11
963.7324096841
 21
-16.8703257359
  0
LINE
  5
4DE
100
AcDbEntity
  8
0
100
AcDbLine
 62
7
  6
CONTINUOUS
 10
951.092449367
 20
-39.081031858
 11
951.0579652347
 21
-38.1887420474
  0
LINE
  5
4DF
100
AcDbEntity
  8
KONSTRUKTIONSELEMENTE
100
AcDbLine
 62
7
  6
CONTINUOUS
 10
911.4971881841
 20
349.5217698139
 11
911.4971881841
 21
356.8756803382
  0
LINE
  5
4E0
100
AcDbEntity
  8
KONSTRUKTIONSELEMENTE
100
AcDbLine
 62
7
  6
CONTINUOUS
 10
911.4971881841
 20
374.9776139366
 11
911.4971881841
 21
382.331524461
  0
LINE
  5
4E1
100
AcDbEntity
  8
KONSTRUKTIONSELEMENTE
100
AcDbLine
 62
7
  6
CONTINUOUS
 10
911.6871881841
 20
186.1093926817
 11
911.6871881841
 21
186.887210141
  0
LINE
  5
4E2
100
AcDbEntity
  8
KONSTRUKTIONSELEMENTE
100
AcDbLine
 62
7
  6
CONTINUOUS
 10
911.6871881841
 20
188.8671091283
 11
911.6871881841
 21
214.5350852854
  0
LINE
  5
4E3
100
AcDbEntity
  8
KONSTRUKTIONSELEMENTE
100
AcDbLine
 62
7
  6
CONTINUOUS
 10
917.8971881841
 20
349.5217698139
 11
917.8971881841
 21
356.8756803382
  0
LINE
  5
4E4
100
AcDbEntity
  8
KONSTRUKTIONSELEMENTE
100
AcDbLine
 62
7
  6
CONTINUOUS
 10
917.8971881841
 20
374.9776139366
 11
917.8971881841
 21
382.331524461
  0
LINE
  5
4E5
100
AcDbEntity
  8
KONSTRUKTIONSELEMENTE
100
AcDbLine
 62
7
  6
CONTINUOUS
 10
918.1971881841
 20
404.8271713477
 11
918.1971881841
 21
380.3419742286
  0
LINE
  5
4E6
100
AcDbEntity
  8
KONSTRUKTIONSELEMENTE
100
AcDbLine
 62
7
  6
CONTINUOUS
 10
918.1971881841
 20
351.7941627587
 11
918.1971881841
 21
328.78048375
  0
LINE
  5
4E7
100
AcDbEntity
  8
KONSTRUKTIONSELEMENTE
100
AcDbLine
 62
7
  6
CONTINUOUS
 10
918.4971881841
 20
355.2624629957
 11
918.4971881841
 21
376.5908312792
  0
LINE
  5
4E8
100
AcDbEntity
  8
0
100
AcDbLine
 62
7
  6
CONTINUOUS
 10
921.6971881841
 20
36.1513128864
 11
921.6971881841
 21
53.2123128864
  0
LINE
  5
4E9
100
AcDbEntity
  8
KONSTRUKTIONSELEMENTE
100
AcDbLine
 62
7
  6
CONTINUOUS
 10
924.8971881841
 20
355.2624629957
 11
924.8971881841
 21
376.5908312792
  0
LINE
  5
4EA
100
AcDbEntity
  8
KONSTRUKTIONSELEMENTE
100
AcDbLine
 62
7
  6
CONTINUOUS
 10
925.1971881841
 20
404.8271713477
 11
925.1971881841
 21
380.3419742286
  0
LINE
  5
4EB
100
AcDbEntity
  8
KONSTRUKTIONSELEMENTE
100
AcDbLine
 62
7
  6
CONTINUOUS
 10
925.1971881841
 20
351.7941627587
 11
925.1971881841
 21
328.78048375
  0
LINE
  5
4EC
100
AcDbEntity
  8
KONSTRUKTIONSELEMENTE
100
AcDbLine
 62
7
  6
CONTINUOUS
 10
925.4971881841
 20
382.331524461
 11
925.4971881841
 21
374.9776139366
  0
LINE
  5
4ED
100
AcDbEntity
  8
KONSTRUKTIONSELEMENTE
100
AcDbLine
 62
7
  6
CONTINUOUS
 10
925.4971881841
 20
356.8756803382
 11
925.4971881841
 21
349.5217698139
  0
LINE
  5
4EE
100
AcDbEntity
  8
KONSTRUKTIONSELEMENTE
100
AcDbLine
 62
7
  6
CONTINUOUS
 10
931.7071881841
 20
186.1093926817
 11
931.7071881841
 21
186.887210141
  0
LINE
  5
4EF
100
AcDbEntity
  8
KONSTRUKTIONSELEMENTE
100
AcDbLine
 62
7
  6
CONTINUOUS
 10
931.7071881841
 20
188.8671091283
 11
931.7071881841
 21
214.5350852854
  0
LINE
  5
4F0
100
AcDbEntity
  8
KONSTRUKTIONSELEMENTE
100
AcDbLine
 62
7
  6
CONTINUOUS
 10
931.8971881841
 20
382.331524461
 11
931.8971881841
 21
374.9776139366
  0
LINE
  5
4F1
100
AcDbEntity
  8
KONSTRUKTIONSELEMENTE
100
AcDbLine
 62
7
  6
CONTINUOUS
 10
931.8971881841
 20
356.8756803382
 11
931.8971881841
 21
349.5217698139
  0
LINE
  5
4F2
100
AcDbEntity
  8
KONSTRUKTIONSELEMENTE
100
AcDbLine
 62
7
  6
CONTINUOUS
 10
936.1071881841
 20
189.2206625189
 11
936.1071881841
 21
213.7572678261
  0
LINE
  5
4F3
100
AcDbEntity
  8
0
100
AcDbLine
 62
7
  6
CONTINUOUS
 10
937.1971881841
 20
21.5902810941
 11
937.1971881841
 21
36.1513128864
  0
LINE
  5
4F4
100
AcDbEntity
  8
BEZUGSACHSEN
100
AcDbLine
 62
7
  6
CONTINUOUS
 10
937.1971881841
 20
21.5902810941
 11
937.1971881841
 21
36.1513128864
  0
LINE
  5
4F5
100
AcDbEntity
  8
0
100
AcDbLine
 62
7
  6
CONTINUOUS
 10
937.1971881841
 20
53.2123128864
 11
937.1971881841
 21
67.7733446787
  0
LINE
  5
4F6
100
AcDbEntity
  8
BEZUGSACHSEN
100
AcDbLine
 62
7
  6
CONTINUOUS
 10
937.1971881841
 20
53.2123128864
 11
937.1971881841
 21
62.9790892953
  0
LINE
  5
4F7
100
AcDbEntity
  8
0
100
AcDbLine
 62
7
  6
CONTINUOUS
 10
893.4686193064
 20
127.9342520789
 11
893.529185734
 21
128.6500043095
  0
LINE
  5
4F8
100
AcDbEntity
  8
BEZUGSACHSEN
100
AcDbLine
 62
7
  6
CONTINUOUS
 10
893.4686193064
 20
127.9342520789
 11
893.529185734
 21
128.6500043095
  0
LINE
  5
4F9
100
AcDbEntity
  8
0
100
AcDbLine
 62
7
  6
CONTINUOUS
 10
884.9896707816
 20
114.0583455779
 11
884.9181364268
 21
113.3494268017
  0
LINE
  5
4FA
100
AcDbEntity
  8
BEZUGSACHSEN
100
AcDbLine
 62
7
  6
CONTINUOUS
 10
884.9896707816
 20
114.0583455779
 11
884.9181364268
 21
113.3494268017
  0
LINE
  5
4FB
100
AcDbEntity
  8
0
100
AcDbLine
 62
7
  6
CONTINUOUS
 10
962.3112611269
 20
-22.8475423324
 11
962.6161959445
 21
-30.2805375483
  0
LINE
  5
4FC
100
AcDbEntity
  8
0
100
AcDbLine
 62
7
  6
CONTINUOUS
 10
963.6259759441
 20
-29.0775989863
 11
963.4030735248
 21
-22.4824307393
  0
LINE
  5
4FD
100
AcDbEntity
  8
0
100
AcDbLine
 62
7
  6
CONTINUOUS
 10
957.23600001
 20
331.5890438015
 11
956.6618620468
 21
387.6818128864
  0
LINE
  5
4FE
100
AcDbEntity
  8
BEZUGSACHSEN
100
AcDbLine
 62
7
  6
CONTINUOUS
 10
944.1971881841
 20
217.2220910539
 11
944.1971881841
 21
85.681851014
  0
LINE
  5
4FF
100
AcDbEntity
  8
0
100
AcDbLine
 62
7
  6
CONTINUOUS
 10
947.1971881841
 20
396.1818128864
 11
947.1971881841
 21
399.3014031778
  0
LINE
  5
500
100
AcDbEntity
  8
0
100
AcDbLine
 62
7
  6
CONTINUOUS
 10
947.1971881841
 20
408.690635194
 11
947.1971881841
 21
797.1818128864
  0
LINE
  5
501
100
AcDbEntity
  8
RUNDUNGEN
100
AcDbLine
 62
7
  6
CONTINUOUS
 10
954.2971881841
 20
21.5858814849
 11
954.2971881841
 21
64.7778128864
  0
LINE
  5
502
100
AcDbEntity
  8
BEZUGSACHSEN
100
AcDbLine
 62
7
  6
CONTINUOUS
 10
954.2971881841
 20
21.5858814849
 11
954.2971881841
 21
64.7778128864
  0
LINE
  5
503
100
AcDbEntity
  8
BEZUGSACHSEN
100
AcDbLine
 62
7
  6
CONTINUOUS
 10
954.5971881841
 20
24.1456383582
 11
954.5971881841
 21
31.9523767975
  0
LINE
  5
504
100
AcDbEntity
  8
0
100
AcDbLine
 62
7
  6
CONTINUOUS
 10
954.5971881841
 20
31.9523767975
 11
954.5971881841
 21
55.4492304041
  0
LINE
  5
505
100
AcDbEntity
  8
RUNDUNGEN
100
AcDbLine
 62
7
  6
CONTINUOUS
 10
954.5971881841
 20
31.9523767975
 11
954.5971881841
 21
62.7777473963
  0
LINE
  5
506
100
AcDbEntity
  8
BEZUGSACHSEN
100
AcDbLine
 62
7
  6
CONTINUOUS
 10
954.5971881841
 20
62.7778128864
 11
954.5971881841
 21
65.2179874146
  0
LINE
  5
507
100
AcDbEntity
  8
RUNDUNGEN
100
AcDbLine
 62
7
  6
CONTINUOUS
 10
954.6971881841
 20
17.033062587
 11
954.6971881841
 21
8.6818128864
  0
LINE
  5
508
100
AcDbEntity
  8
BEZUGSACHSEN
100
AcDbLine
 62
7
  6
CONTINUOUS
 10
958.1971881841
 20
217.2220910539
 11
958.1971881841
 21
202.6818128864
  0
LINE
  5
509
100
AcDbEntity
  8
0
100
AcDbLine
 62
7
  6
CONTINUOUS
 10
939.6047327593
 20
-45.8520973742
 11
939.7850240153
 21
-35.9205134688
  0
LINE
  5
50A
100
AcDbEntity
  8
0
100
AcDbLine
 62
7
  6
CONTINUOUS
 10
938.6609599298
 20
-36.2726651349
 11
938.4957120911
 21
-44.9388849239
  0
LINE
  5
50B
100
AcDbEntity
  8
0
100
AcDbLine
 62
7
  6
CONTINUOUS
 10
885.8121908866
 20
112.8552510078
 11
886.0099488247
 21
113.7145383949
  0
LINE
  5
50C
100
AcDbEntity
  8
BEZUGSACHSEN
100
AcDbLine
 62
7
  6
CONTINUOUS
 10
885.8121908866
 20
112.8552510078
 11
886.0099488247
 21
113.7145383949
  0
LINE
  5
50D
100
AcDbEntity
  8
0
100
AcDbLine
 62
7
  6
CONTINUOUS
 10
892.6131647662
 20
129.5230893714
 11
892.3019270011
 21
128.4446576308
  0
LINE
  5
50E
100
AcDbEntity
  8
BEZUGSACHSEN
100
AcDbLine
 62
7
  6
CONTINUOUS
 10
892.6131647662
 20
129.5230893714
 11
892.3019270011
 21
128.4446576308
  0
LINE
  5
50F
100
AcDbEntity
  8
0
100
AcDbLine
 62
7
  6
CONTINUOUS
 10
879.6619666841
 20
106.2339515087
 11
879.3498871962
 21
105.2819186193
  0
LINE
  5
510
100
AcDbEntity
  8
BEZUGSACHSEN
100
AcDbLine
 62
7
  6
CONTINUOUS
 10
879.6619666841
 20
106.2339515087
 11
879.3498871962
 21
105.2819186193
  0
LINE
  5
511
100
AcDbEntity
  8
BEZUGSACHSEN
100
AcDbLine
 62
7
  6
CONTINUOUS
 10
998.1972088558
 20
287.6815397769
 11
998.1971894888
 21
287.6817978512
  0
LINE
  5
512
100
AcDbEntity
  8
BEZUGSACHSEN
100
AcDbLine
 62
7
  6
CONTINUOUS
 10
998.1971889507
 20
287.6818024824
 11
998.1972265832
 21
287.6810021624
  0
LINE
  5
513
100
AcDbEntity
  8
BEZUGSACHSEN
100
AcDbLine
 62
7
  6
CONTINUOUS
 10
998.197187509
 20
287.6818148903
 11
998.1972312985
 21
287.6806430685
  0
LINE
  5
514
100
AcDbEntity
  8
0
100
AcDbLine
 62
7
  6
CONTINUOUS
 10
981.7971881841
 20
29.2640000373
 11
981.7971881841
 21
27.8830262635
  0
LINE
  5
515
100
AcDbEntity
  8
RUNDUNGEN
100
AcDbLine
 62
7
  6
CONTINUOUS
 10
981.7971881841
 20
29.2640000373
 11
981.7971881841
 21
26.585878402
  0
LINE
  5
516
100
AcDbEntity
  8
BEZUGSACHSEN
100
AcDbLine
 62
7
  6
CONTINUOUS
 10
981.7971881841
 20
32.6539418726
 11
981.7971881841
 21
26.585878402
  0
LINE
  5
517
100
AcDbEntity
  8
RUNDUNGEN
100
AcDbLine
 62
7
  6
CONTINUOUS
 10
981.7971881841
 20
32.6539418726
 11
981.7971881841
 21
62.7777473708
  0
LINE
  5
518
100
AcDbEntity
  8
KONSTRUKTIONSELEMENTE
100
AcDbLine
 62
7
  6
CONTINUOUS
 10
982.0884308703
 20
226.9083754653
 11
982.0884308703
 21
230.2035505578
  0
LINE
  5
519
100
AcDbEntity
  8
RUNDUNGEN
100
AcDbLine
 62
7
  6
CONTINUOUS
 10
982.2971881841
 20
64.7778128864
 11
982.2971881841
 21
21.5858128864
  0
LINE
  5
51A
100
AcDbEntity
  8
BEZUGSACHSEN
100
AcDbLine
 62
7
  6
CONTINUOUS
 10
982.2971881841
 20
64.7778128864
 11
982.2971881841
 21
21.5858128864
  0
LINE
  5
51B
100
AcDbEntity
  8
0
100
AcDbLine
 62
7
  6
CONTINUOUS
 10
998.1971881841
 20
202.6818128864
 11
998.1971881841
 21
261.9052684933
  0
LINE
  5
51C
100
AcDbEntity
  8
BEZUGSACHSEN
100
AcDbLine
 62
7
  6
CONTINUOUS
 10
998.1971881841
 20
202.6818128864
 11
998.1971881841
 21
287.6818078425
  0
LINE
  5
51D
100
AcDbEntity
  8
0
100
AcDbLine
 62
7
  6
CONTINUOUS
 10
962.7643011337
 20
-16.5442725327
 11
962.7236419993
 21
-17.4250845731
  0
LINE
  5
51E
100
AcDbEntity
  8
0
100
AcDbLine
 62
7
  6
CONTINUOUS
 10
949.9257570618
 20
-38.5706263061
 11
949.8651906341
 21
-39.2863785367
  0
LINE
  5
51F
100
AcDbEntity
  8
0
100
AcDbLine
 62
7
  6
CONTINUOUS
 10
958.4047055865
 20
-24.6947198051
 11
958.4762399413
 21
-23.9858010289
  0
LINE
  5
520
100
AcDbEntity
  8
0
100
AcDbLine
 62
7
  6
CONTINUOUS
 10
880.1234935736
 20
104.6147769331
 11
880.6300752344
 21
105.9078983055
  0
LINE
  5
521
100
AcDbEntity
  8
BEZUGSACHSEN
100
AcDbLine
 62
7
  6
CONTINUOUS
 10
880.1234935736
 20
104.6147769331
 11
880.6300752344
 21
105.9078983055
  0
LINE
  5
522
100
AcDbEntity
  8
0
100
AcDbLine
 62
7
  6
CONTINUOUS
 10
1007.6971881841
 20
63.5965283216
 11
1007.6971881841
 21
53.3938128864
  0
LINE
  5
523
100
AcDbEntity
  8
BEZUGSACHSEN
100
AcDbLine
 62
7
  6
CONTINUOUS
 10
1007.6971881841
 20
63.5965283216
 11
1007.6971881841
 21
53.3938128864
  0
LINE
  5
524
100
AcDbEntity
  8
BEZUGSACHSEN
100
AcDbLine
 62
7
  6
CONTINUOUS
 10
1007.6971881841
 20
35.9698128864
 11
1007.6971881841
 21
34.026342333
  0
LINE
  5
525
100
AcDbEntity
  8
0
100
AcDbLine
 62
7
  6
CONTINUOUS
 10
1007.6971881841
 20
25.7670974512
 11
1007.6971881841
 21
35.9698128864
  0
LINE
  5
526
100
AcDbEntity
  8
0
100
AcDbLine
 62
7
  6
CONTINUOUS
 10
1018.1971881841
 20
272.6818128864
 11
1018.1971881841
 21
202.6818128864
  0
LINE
  5
527
100
AcDbEntity
  8
KONSTRUKTIONSELEMENTE
100
AcDbLine
 62
7
  6
CONTINUOUS
 10
1018.9442715969
 20
308.2246796445
 11
1018.9442715969
 21
311.7602135504
  0
LINE
  5
528
100
AcDbEntity
  8
BEZUGSACHSEN
100
AcDbLine
 62
7
  6
CONTINUOUS
 10
998.1997343221
 20
289.1678600214
 11
998.906227319
 21
307.3320016848
  0
LINE
  5
529
100
AcDbEntity
  8
BEZUGSACHSEN
100
AcDbLine
 62
7
  6
CONTINUOUS
 10
999.4722704929
 20
321.885137305
 11
1002.0314275057
 21
387.6818128864
  0
LINE
  5
52A
100
AcDbEntity
  8
0
100
AcDbLine
 62
7
  6
CONTINUOUS
 10
928.6161495918
 20
-48.2984950674
 11
930.7314614243
 21
-38.5931194368
  0
LINE
  5
52B
100
AcDbEntity
  8
0
100
AcDbLine
 62
7
  6
CONTINUOUS
 10
929.560282463
 20
-38.7190984216
 11
927.706704136
 21
-47.1863834075
  0
LINE
  5
52C
100
AcDbEntity
  8
KONSTRUKTIONSELEMENTE
100
AcDbLine
 62
7
  6
CONTINUOUS
 10
960.6658066399
 20
244.1093940753
 11
988.8790582264
 21
305.5085082176
  0
LINE
  5
52D
100
AcDbEntity
  8
KONSTRUKTIONSELEMENTE
100
AcDbLine
 62
7
  6
CONTINUOUS
 10
960.6658066399
 20
240.5738601693
 11
988.8790582264
 21
301.9729743117
  0
LINE
  5
52E
100
AcDbEntity
  8
0
100
AcDbLine
 62
7
  6
CONTINUOUS
 10
893.529185734
 20
128.6500043095
 11
893.8576635205
 21
129.2822902034
  0
LINE
  5
52F
100
AcDbEntity
  8
BEZUGSACHSEN
100
AcDbLine
 62
7
  6
CONTINUOUS
 10
893.529185734
 20
128.6500043095
 11
893.8576635205
 21
129.2822902034
  0
LINE
  5
530
100
AcDbEntity
  8
0
100
AcDbLine
 62
7
  6
CONTINUOUS
 10
884.9181364268
 20
113.3494268017
 11
884.4405881523
 21
112.4686789964
  0
LINE
  5
531
100
AcDbEntity
  8
BEZUGSACHSEN
100
AcDbLine
 62
7
  6
CONTINUOUS
 10
884.9181364268
 20
113.3494268017
 11
884.4405881523
 21
112.4686789964
  0
LINE
  5
532
100
AcDbEntity
  8
0
100
AcDbLine
 62
7
  6
CONTINUOUS
 10
873.5906897782
 20
112.1820260577
 11
870.0896773757
 21
106.0424802056
  0
LINE
  5
533
100
AcDbEntity
  8
BEZUGSACHSEN
100
AcDbLine
 62
7
  6
CONTINUOUS
 10
873.5906897782
 20
112.1820260577
 11
870.0896773757
 21
106.0424802056
  0
LINE
  5
534
100
AcDbEntity
  8
0
100
AcDbLine
 62
7
  6
CONTINUOUS
 10
870.9605349615
 20
105.5458826914
 11
873.683543124
 21
110.3210824185
  0
LINE
  5
535
100
AcDbEntity
  8
BEZUGSACHSEN
100
AcDbLine
 62
7
  6
CONTINUOUS
 10
870.9605349615
 20
105.5458826914
 11
873.683543124
 21
110.3210824185
  0
LINE
  5
536
100
AcDbEntity
  8
0
100
AcDbLine
 62
7
  6
CONTINUOUS
 10
879.7636134073
 20
108.4359796579
 11
879.2773624267
 21
107.5832662574
  0
LINE
  5
537
100
AcDbEntity
  8
BEZUGSACHSEN
100
AcDbLine
 62
7
  6
CONTINUOUS
 10
879.7636134073
 20
108.4359796579
 11
879.2773624267
 21
107.5832662574
  0
LINE
  5
538
100
AcDbEntity
  8
0
100
AcDbLine
 62
7
  6
CONTINUOUS
 10
879.3498871962
 20
105.2819186193
 11
878.9608850762
 21
104.5997455568
  0
LINE
  5
539
100
AcDbEntity
  8
BEZUGSACHSEN
100
AcDbLine
 62
7
  6
CONTINUOUS
 10
879.3498871962
 20
105.2819186193
 11
878.9608850762
 21
104.5997455568
  0
LINE
  5
53A
100
AcDbEntity
  8
0
100
AcDbLine
 62
7
  6
CONTINUOUS
 10
879.7344936795
 20
103.932607774
 11
880.1234935736
 21
104.6147769331
  0
LINE
  5
53B
100
AcDbEntity
  8
BEZUGSACHSEN
100
AcDbLine
 62
7
  6
CONTINUOUS
 10
879.7344936795
 20
103.932607774
 11
880.1234935736
 21
104.6147769331
  0
LINE
  5
53C
100
AcDbEntity
  8
0
100
AcDbLine
 62
7
  6
CONTINUOUS
 10
885.0822012234
 20
111.6737728641
 11
885.8121908866
 21
112.8552510078
  0
LINE
  5
53D
100
AcDbEntity
  8
BEZUGSACHSEN
100
AcDbLine
 62
7
  6
CONTINUOUS
 10
885.0822012234
 20
111.6737728641
 11
885.8121908866
 21
112.8552510078
  0
LINE
  5
53E
100
AcDbEntity
  8
BEZUGSACHSEN
100
AcDbLine
 62
7
  6
CONTINUOUS
 10
853.4974441151
 20
96.3925216969
 11
837.8834280844
 21
71.2586926246
  0
LINE
  5
53F
100
AcDbEntity
  8
0
100
AcDbLine
 62
7
  6
CONTINUOUS
 10
957.5821854816
 20
-23.491625235
 11
957.3844275434
 21
-24.3509126221
  0
LINE
  5
540
100
AcDbEntity
  8
0
100
AcDbLine
 62
7
  6
CONTINUOUS
 10
942.9083710884
 20
-35.0620428261
 11
942.59713329
 21
-36.1404745049
  0
LINE
  5
541
100
AcDbEntity
  8
KONSTRUKTIONSELEMENTE
100
AcDbLine
 62
7
  6
CONTINUOUS
 10
980.1637889226
 20
226.1322114184
 11
982.0345930382
 21
230.2035505578
  0
LINE
  5
542
100
AcDbEntity
  8
KONSTRUKTIONSELEMENTE
100
AcDbLine
 62
7
  6
CONTINUOUS
 10
1017.7260558885
 20
307.8771286896
 11
1018.4058932761
 21
309.3566254159
  0
LINE
  5
543
100
AcDbEntity
  8
KONSTRUKTIONSELEMENTE
100
AcDbLine
 62
7
  6
CONTINUOUS
 10
980.1637889226
 20
222.5966775125
 11
982.0345930382
 21
226.6680166519
  0
LINE
  5
544
100
AcDbEntity
  8
KONSTRUKTIONSELEMENTE
100
AcDbLine
 62
7
  6
CONTINUOUS
 10
1017.7260558885
 20
304.3415947837
 11
1018.4058932761
 21
305.82109151
  0
LINE
  5
545
100
AcDbEntity
  8
0
100
AcDbLine
 62
7
  6
CONTINUOUS
 10
893.1145015482
 20
130.2484451188
 11
892.6131647662
 21
129.5230893714
  0
LINE
  5
546
100
AcDbEntity
  8
BEZUGSACHSEN
100
AcDbLine
 62
7
  6
CONTINUOUS
 10
893.1145015482
 20
130.2484451188
 11
892.6131647662
 21
129.5230893714
  0
LINE
  5
547
100
AcDbEntity
  8
RUNDUNGEN
100
AcDbLine
 62
7
  6
CONTINUOUS
 10
843.9726234709
 20
69.4323592963
 11
837.0029518313
 21
59.4786366365
  0
LINE
  5
548
100
AcDbEntity
  8
0
100
AcDbLine
 62
7
  6
CONTINUOUS
 10
880.0103465507
 20
120.2887043745
 11
875.466332219
 21
114.8754756831
  0
LINE
  5
549
100
AcDbEntity
  8
BEZUGSACHSEN
100
AcDbLine
 62
7
  6
CONTINUOUS
 10
880.0103465507
 20
120.2887043745
 11
875.466332219
 21
114.8754756831
  0
LINE
  5
54A
100
AcDbEntity
  8
0
100
AcDbLine
 62
7
  6
CONTINUOUS
 10
876.2341660919
 20
114.2309346297
 11
879.768400424
 21
118.4412247591
  0
LINE
  5
54B
100
AcDbEntity
  8
BEZUGSACHSEN
100
AcDbLine
 62
7
  6
CONTINUOUS
 10
876.2341660919
 20
114.2309346297
 11
879.768400424
 21
118.4412247591
  0
LINE
  5
54C
100
AcDbEntity
  8
0
100
AcDbLine
 62
7
  6
CONTINUOUS
 10
950.7812116019
 20
-40.1594635986
 11
951.092449367
 21
-39.081031858
  0
LINE
  5
54D
100
AcDbEntity
  8
0
100
AcDbLine
 62
7
  6
CONTINUOUS
 10
963.7324096841
 20
-16.8703257359
 11
964.0444891719
 21
-15.9182928465
  0
LINE
  5
54E
100
AcDbEntity
  8
0
100
AcDbLine
 62
7
  6
CONTINUOUS
 10
878.9768201196
 20
103.008669621
 11
879.7344936795
 21
103.932607774
  0
LINE
  5
54F
100
AcDbEntity
  8
BEZUGSACHSEN
100
AcDbLine
 62
7
  6
CONTINUOUS
 10
878.9768201196
 20
103.008669621
 11
879.7344936795
 21
103.932607774
  0
LINE
  5
550
100
AcDbEntity
  8
0
100
AcDbLine
 62
7
  6
CONTINUOUS
 10
885.4125283832
 20
115.4976418277
 11
884.7814148
 21
114.7458039359
  0
LINE
  5
551
100
AcDbEntity
  8
BEZUGSACHSEN
100
AcDbLine
 62
7
  6
CONTINUOUS
 10
885.4125283832
 20
115.4976418277
 11
884.7814148
 21
114.7458039359
  0
LINE
  5
552
100
AcDbEntity
  8
0
100
AcDbLine
 62
7
  6
CONTINUOUS
 10
884.4405881523
 20
112.4686789964
 11
883.935699597
 21
111.8672114362
  0
LINE
  5
553
100
AcDbEntity
  8
BEZUGSACHSEN
100
AcDbLine
 62
7
  6
CONTINUOUS
 10
884.4405881523
 20
112.4686789964
 11
883.935699597
 21
111.8672114362
  0
LINE
  5
554
100
AcDbEntity
  8
0
100
AcDbLine
 62
7
  6
CONTINUOUS
 10
884.5773097791
 20
111.0723018622
 11
885.0822012234
 21
111.6737728641
  0
LINE
  5
555
100
AcDbEntity
  8
BEZUGSACHSEN
100
AcDbLine
 62
7
  6
CONTINUOUS
 10
884.5773097791
 20
111.0723018622
 11
885.0822012234
 21
111.6737728641
  0
LINE
  5
556
100
AcDbEntity
  8
0
100
AcDbLine
 62
7
  6
CONTINUOUS
 10
878.9608850762
 20
104.5997455568
 11
878.3004626028
 21
103.8463516452
  0
LINE
  5
557
100
AcDbEntity
  8
BEZUGSACHSEN
100
AcDbLine
 62
7
  6
CONTINUOUS
 10
878.9608850762
 20
104.5997455568
 11
878.3004626028
 21
103.8463516452
  0
LINE
  5
558
100
AcDbEntity
  8
0
100
AcDbLine
 62
7
  6
CONTINUOUS
 10
899.1971881841
 20
124.6187778049
 11
898.8179782123
 21
124.2107193912
  0
LINE
  5
559
100
AcDbEntity
  8
BEZUGSACHSEN
100
AcDbLine
 62
7
  6
CONTINUOUS
 10
899.1971881841
 20
124.6187778049
 11
898.8179782123
 21
124.2107193912
  0
LINE
  5
55A
100
AcDbEntity
  8
0
100
AcDbLine
 62
7
  6
CONTINUOUS
 10
893.8576635205
 20
129.2822902034
 11
894.454052799
 21
129.8311095132
  0
LINE
  5
55B
100
AcDbEntity
  8
BEZUGSACHSEN
100
AcDbLine
 62
7
  6
CONTINUOUS
 10
893.8576635205
 20
129.2822902034
 11
894.454052799
 21
129.8311095132
  0
LINE
  5
55C
100
AcDbEntity
  8
0
100
AcDbLine
 62
7
  6
CONTINUOUS
 10
893.8837497722
 20
130.8903343748
 11
893.1145015482
 21
130.2484451188
  0
LINE
  5
55D
100
AcDbEntity
  8
BEZUGSACHSEN
100
AcDbLine
 62
7
  6
CONTINUOUS
 10
893.8837497722
 20
130.8903343748
 11
893.1145015482
 21
130.2484451188
  0
LINE
  5
55E
100
AcDbEntity
  8
0
100
AcDbLine
 62
7
  6
CONTINUOUS
 10
963.2708827945
 20
-15.2511511603
 11
962.7643011337
 21
-16.5442725327
  0
LINE
  5
55F
100
AcDbEntity
  8
0
100
AcDbLine
 62
7
  6
CONTINUOUS
 10
883.666407304
 20
110.299005273
 11
884.5773097791
 21
111.0723018622
  0
LINE
  5
560
100
AcDbEntity
  8
BEZUGSACHSEN
100
AcDbLine
 62
7
  6
CONTINUOUS
 10
883.666407304
 20
110.299005273
 11
884.5773097791
 21
111.0723018622
  0
LINE
  5
561
100
AcDbEntity
  8
0
100
AcDbLine
 62
7
  6
CONTINUOUS
 10
883.935699597
 20
111.8672114362
 11
883.1510178163
 21
111.2442800162
  0
LINE
  5
562
100
AcDbEntity
  8
BEZUGSACHSEN
100
AcDbLine
 62
7
  6
CONTINUOUS
 10
883.935699597
 20
111.8672114362
 11
883.1510178163
 21
111.2442800162
  0
LINE
  5
563
100
AcDbEntity
  8
0
100
AcDbLine
 62
7
  6
CONTINUOUS
 10
895.2666253595
 20
131.6348959515
 11
893.8837497722
 21
130.8903343748
  0
LINE
  5
564
100
AcDbEntity
  8
BEZUGSACHSEN
100
AcDbLine
 62
7
  6
CONTINUOUS
 10
895.2666253595
 20
131.6348959515
 11
893.8837497722
 21
130.8903343748
  0
LINE
  5
565
100
AcDbEntity
  8
0
100
AcDbLine
 62
7
  6
CONTINUOUS
 10
894.454052799
 20
129.8311095132
 11
895.8369283863
 21
130.5756710899
  0
LINE
  5
566
100
AcDbEntity
  8
BEZUGSACHSEN
100
AcDbLine
 62
7
  6
CONTINUOUS
 10
894.454052799
 20
129.8311095132
 11
895.8369283863
 21
130.5756710899
  0
LINE
  5
567
100
AcDbEntity
  8
0
100
AcDbLine
 62
7
  6
CONTINUOUS
 10
943.8243919563
 20
-35.9351277025
 11
944.1528698093
 21
-35.3028419322
  0
LINE
  5
568
100
AcDbEntity
  8
0
100
AcDbLine
 62
7
  6
CONTINUOUS
 10
949.8651906341
 20
-39.2863785367
 11
949.5367128476
 21
-39.9186644306
  0
LINE
  5
569
100
AcDbEntity
  8
0
100
AcDbLine
 62
7
  6
CONTINUOUS
 10
958.4762399413
 20
-23.9858010289
 11
958.9537882158
 21
-23.1050532236
  0
LINE
  5
56A
100
AcDbEntity
  8
0
100
AcDbLine
 62
7
  6
CONTINUOUS
 10
878.2394750141
 20
102.5251355364
 11
878.9768201196
 21
103.008669621
  0
LINE
  5
56B
100
AcDbEntity
  8
BEZUGSACHSEN
100
AcDbLine
 62
7
  6
CONTINUOUS
 10
878.2394750141
 20
102.5251355364
 11
878.9768201196
 21
103.008669621
  0
LINE
  5
56C
100
AcDbEntity
  8
0
100
AcDbLine
 62
7
  6
CONTINUOUS
 10
897.885159472
 20
130.0844714138
 11
898.9223171516
 21
130.6428931289
  0
LINE
  5
56D
100
AcDbEntity
  8
BEZUGSACHSEN
100
AcDbLine
 62
7
  6
CONTINUOUS
 10
897.885159472
 20
130.0844714138
 11
898.9223171516
 21
130.6428931289
  0
LINE
  5
56E
100
AcDbEntity
  8
0
100
AcDbLine
 62
7
  6
CONTINUOUS
 10
896.9169680788
 20
127.7414690124
 11
895.8798103992
 21
127.1830472973
  0
LINE
  5
56F
100
AcDbEntity
  8
BEZUGSACHSEN
100
AcDbLine
 62
7
  6
CONTINUOUS
 10
896.9169680788
 20
127.7414690124
 11
895.8798103992
 21
127.1830472973
  0
LINE
  5
570
100
AcDbEntity
  8
0
100
AcDbLine
 62
7
  6
CONTINUOUS
 10
896.4501133594
 20
126.1238225593
 11
897.487271039
 21
126.6822442744
  0
LINE
  5
571
100
AcDbEntity
  8
BEZUGSACHSEN
100
AcDbLine
 62
7
  6
CONTINUOUS
 10
896.4501133594
 20
126.1238225593
 11
897.487271039
 21
126.6822442744
  0
LINE
  5
572
100
AcDbEntity
  8
0
100
AcDbLine
 62
7
  6
CONTINUOUS
 10
896.2684103863
 20
123.9765632426
 11
895.2312527067
 21
123.4181415276
  0
LINE
  5
573
100
AcDbEntity
  8
BEZUGSACHSEN
100
AcDbLine
 62
7
  6
CONTINUOUS
 10
896.2684103863
 20
123.9765632426
 11
895.2312527067
 21
123.4181415276
  0
LINE
  5
574
100
AcDbEntity
  8
0
100
AcDbLine
 62
7
  6
CONTINUOUS
 10
898.8179782123
 20
124.2107193912
 11
897.7808205328
 21
123.6522976761
  0
LINE
  5
575
100
AcDbEntity
  8
BEZUGSACHSEN
100
AcDbLine
 62
7
  6
CONTINUOUS
 10
898.8179782123
 20
124.2107193912
 11
897.7808205328
 21
123.6522976761
  0
LINE
  5
576
100
AcDbEntity
  8
0
100
AcDbLine
 62
7
  6
CONTINUOUS
 10
898.5239824468
 20
122.6861428689
 11
899.1971881841
 21
123.0486072365
  0
LINE
  5
577
100
AcDbEntity
  8
BEZUGSACHSEN
100
AcDbLine
 62
7
  6
CONTINUOUS
 10
898.5239824468
 20
122.6861428689
 11
899.1971881841
 21
123.0486072365
  0
LINE
  5
578
100
AcDbEntity
  8
0
100
AcDbLine
 62
7
  6
CONTINUOUS
 10
878.3004626028
 20
103.8463516452
 11
877.6603685837
 21
103.5333618021
  0
LINE
  5
579
100
AcDbEntity
  8
BEZUGSACHSEN
100
AcDbLine
 62
7
  6
CONTINUOUS
 10
878.3004626028
 20
103.8463516452
 11
877.6603685837
 21
103.5333618021
  0
LINE
  5
57A
100
AcDbEntity
  8
0
100
AcDbLine
 62
7
  6
CONTINUOUS
 10
882.8543823536
 20
109.9553506564
 11
883.666407304
 21
110.299005273
  0
LINE
  5
57B
100
AcDbEntity
  8
BEZUGSACHSEN
100
AcDbLine
 62
7
  6
CONTINUOUS
 10
882.8543823536
 20
109.9553506564
 11
883.666407304
 21
110.299005273
  0
LINE
  5
57C
100
AcDbEntity
  8
0
100
AcDbLine
 62
7
  6
CONTINUOUS
 10
896.225974587
 20
131.923710264
 11
895.2666253595
 21
131.6348959515
  0
LINE
  5
57D
100
AcDbEntity
  8
BEZUGSACHSEN
100
AcDbLine
 62
7
  6
CONTINUOUS
 10
896.225974587
 20
131.923710264
 11
895.2666253595
 21
131.6348959515
  0
LINE
  5
57E
100
AcDbEntity
  8
0
100
AcDbLine
 62
7
  6
CONTINUOUS
 10
895.4907641403
 20
125.8350082313
 11
896.4501133594
 21
126.1238225593
  0
LINE
  5
57F
100
AcDbEntity
  8
BEZUGSACHSEN
100
AcDbLine
 62
7
  6
CONTINUOUS
 10
895.4907641403
 20
125.8350082313
 11
896.4501133594
 21
126.1238225593
  0
LINE
  5
580
100
AcDbEntity
  8
0
100
AcDbLine
 62
7
  6
CONTINUOUS
 10
897.5646332277
 20
122.3973285409
 11
898.5239824468
 21
122.6861428689
  0
LINE
  5
581
100
AcDbEntity
  8
BEZUGSACHSEN
100
AcDbLine
 62
7
  6
CONTINUOUS
 10
897.5646332277
 20
122.3973285409
 11
898.5239824468
 21
122.6861428689
  0
LINE
  5
582
100
AcDbEntity
  8
0
100
AcDbLine
 62
7
  6
CONTINUOUS
 10
963.6598826887
 20
-14.5689820012
 11
963.2708827945
 21
-15.2511511603
  0
LINE
  5
583
100
AcDbEntity
  8
0
100
AcDbLine
 62
7
  6
CONTINUOUS
 10
964.0444891719
 20
-15.9182928465
 11
964.4334912919
 21
-15.236119784
  0
LINE
  5
584
100
AcDbEntity
  8
0
100
AcDbLine
 62
7
  6
CONTINUOUS
 10
963.6307629608
 20
-19.0723538851
 11
964.1170139414
 21
-18.2196404846
  0
LINE
  5
585
100
AcDbEntity
  8
0
100
AcDbLine
 62
7
  6
CONTINUOUS
 10
972.4338414066
 20
-16.1822569186
 11
969.7108332442
 21
-20.9574566457
  0
LINE
  5
586
100
AcDbEntity
  8
0
100
AcDbLine
 62
7
  6
CONTINUOUS
 10
969.80368659
 20
-22.8184002849
 11
973.3046989925
 21
-16.6788544329
  0
LINE
  5
587
100
AcDbEntity
  8
0
100
AcDbLine
 62
7
  6
CONTINUOUS
 10
958.3121751448
 20
-22.3101470913
 11
957.5821854816
 21
-23.491625235
  0
LINE
  5
588
100
AcDbEntity
  8
BEZUGSACHSEN
100
AcDbLine
 62
7
  6
CONTINUOUS
 10
989.896932253
 20
-7.0288959241
 11
1005.5109482837
 21
18.1049331482
  0
LINE
  5
589
100
AcDbEntity
  8
0
100
AcDbLine
 62
7
  6
CONTINUOUS
 10
943.4097078953
 20
-34.3366871251
 11
942.9083710884
 21
-35.0620428261
  0
LINE
  5
58A
100
AcDbEntity
  8
0
100
AcDbLine
 62
7
  6
CONTINUOUS
 10
950.2798748199
 20
-40.884819346
 11
950.7812116019
 21
-40.1594635986
  0
LINE
  5
58B
100
AcDbEntity
  8
RUNDUNGEN
100
AcDbLine
 62
7
  6
CONTINUOUS
 10
999.4217528972
 20
19.9312664765
 11
1006.3914245368
 21
29.8849891363
  0
LINE
  5
58C
100
AcDbEntity
  8
BEZUGSACHSEN
100
AcDbLine
 62
7
  6
CONTINUOUS
 10
999.4217528972
 20
19.9312664765
 11
1006.3914245368
 21
29.8849891363
  0
LINE
  5
58D
100
AcDbEntity
  8
0
100
AcDbLine
 62
7
  6
CONTINUOUS
 10
964.4175562485
 20
-13.6450438482
 11
963.6598826887
 21
-14.5689820012
  0
LINE
  5
58E
100
AcDbEntity
  8
0
100
AcDbLine
 62
7
  6
CONTINUOUS
 10
958.8170665891
 20
-21.7086760895
 11
958.3121751448
 21
-22.3101470913
  0
LINE
  5
58F
100
AcDbEntity
  8
0
100
AcDbLine
 62
7
  6
CONTINUOUS
 10
958.9537882158
 20
-23.1050532236
 11
959.4586767711
 21
-22.5035856634
  0
LINE
  5
590
100
AcDbEntity
  8
0
100
AcDbLine
 62
7
  6
CONTINUOUS
 10
957.9818479849
 20
-26.1340160549
 11
958.6129615681
 21
-25.3821781631
  0
LINE
  5
591
100
AcDbEntity
  8
0
100
AcDbLine
 62
7
  6
CONTINUOUS
 10
964.4334912919
 20
-15.236119784
 11
965.0939137653
 21
-14.4827258724
  0
LINE
  5
592
100
AcDbEntity
  8
0
100
AcDbLine
 62
7
  6
CONTINUOUS
 10
967.1602102762
 20
-24.8673088569
 11
963.6259759441
 21
-29.0775989863
  0
LINE
  5
593
100
AcDbEntity
  8
0
100
AcDbLine
 62
7
  6
CONTINUOUS
 10
963.3840298174
 20
-30.9250786017
 11
967.9280441491
 21
-25.5118499103
  0
LINE
  5
594
100
AcDbEntity
  8
0
100
AcDbLine
 62
7
  6
CONTINUOUS
 10
944.1528698093
 20
-35.3028419322
 11
944.5763981558
 21
-34.8470936184
  0
LINE
  5
595
100
AcDbEntity
  8
0
100
AcDbLine
 62
7
  6
CONTINUOUS
 10
944.0060951956
 20
-33.7878688804
 11
943.4097078953
 21
-34.3366871251
  0
LINE
  5
596
100
AcDbEntity
  8
0
100
AcDbLine
 62
7
  6
CONTINUOUS
 10
949.5367128476
 20
-39.9186644306
 11
948.9403235691
 21
-40.4674837404
  0
LINE
  5
597
100
AcDbEntity
  8
0
100
AcDbLine
 62
7
  6
CONTINUOUS
 10
959.7279690641
 20
-20.9353795002
 11
958.8170665891
 21
-21.7086760895
  0
LINE
  5
598
100
AcDbEntity
  8
0
100
AcDbLine
 62
7
  6
CONTINUOUS
 10
949.5106265959
 20
-41.526708602
 11
950.2798748199
 21
-40.884819346
  0
LINE
  5
599
100
AcDbEntity
  8
0
100
AcDbLine
 62
7
  6
CONTINUOUS
 10
959.4586767711
 20
-22.5035856634
 11
960.2433585518
 21
-21.8806542434
  0
LINE
  5
59A
100
AcDbEntity
  8
0
100
AcDbLine
 62
7
  6
CONTINUOUS
 10
965.1549013541
 20
-13.1615097636
 11
964.4175562485
 21
-13.6450438482
  0
LINE
  5
59B
100
AcDbEntity
  8
0
100
AcDbLine
 62
7
  6
CONTINUOUS
 10
944.8703939213
 20
-33.3225170961
 11
944.0060951956
 21
-33.7878688804
  0
LINE
  5
59C
100
AcDbEntity
  8
0
100
AcDbLine
 62
7
  6
CONTINUOUS
 10
944.5763981558
 20
-34.8470936184
 11
945.6135558354
 21
-34.2886719033
  0
LINE
  5
59D
100
AcDbEntity
  8
0
100
AcDbLine
 62
7
  6
CONTINUOUS
 10
947.1259659818
 20
-34.6129374698
 11
948.1631236614
 21
-34.0545157548
  0
LINE
  5
59E
100
AcDbEntity
  8
0
100
AcDbLine
 62
7
  6
CONTINUOUS
 10
946.9442630088
 20
-36.7601967865
 11
945.9071053292
 21
-37.3186185016
  0
LINE
  5
59F
100
AcDbEntity
  8
0
100
AcDbLine
 62
7
  6
CONTINUOUS
 10
946.4774082894
 20
-38.3778432396
 11
947.5145659689
 21
-37.8194215245
  0
LINE
  5
5A0
100
AcDbEntity
  8
0
100
AcDbLine
 62
7
  6
CONTINUOUS
 10
945.5092168962
 20
-40.720845641
 11
944.4720592166
 21
-41.2792673561
  0
LINE
  5
5A1
100
AcDbEntity
  8
0
100
AcDbLine
 62
7
  6
CONTINUOUS
 10
948.9403235691
 20
-40.4674837404
 11
947.5574479818
 21
-41.2120453171
  0
LINE
  5
5A2
100
AcDbEntity
  8
0
100
AcDbLine
 62
7
  6
CONTINUOUS
 10
948.1277510086
 20
-42.2712701787
 11
949.5106265959
 21
-41.526708602
  0
LINE
  5
5A3
100
AcDbEntity
  8
0
100
AcDbLine
 62
7
  6
CONTINUOUS
 10
965.0939137653
 20
-14.4827258724
 11
965.7340077844
 21
-14.1697360293
  0
LINE
  5
5A4
100
AcDbEntity
  8
0
100
AcDbLine
 62
7
  6
CONTINUOUS
 10
960.5399940145
 20
-20.5917248836
 11
959.7279690641
 21
-20.9353795002
  0
LINE
  5
5A5
100
AcDbEntity
  8
0
100
AcDbLine
 62
7
  6
CONTINUOUS
 10
939.7850240153
 20
-35.9205134688
 11
938.6609599298
 21
-36.2726651349
  0
LINE
  5
5A6
100
AcDbEntity
  8
0
100
AcDbLine
 62
7
  6
CONTINUOUS
 10
933.4153271736
 20
-37.9160396889
 11
932.2912630881
 21
-38.2681913551
  0
LINE
  5
5A7
100
AcDbEntity
  8
0
100
AcDbLine
 62
7
  6
CONTINUOUS
 10
938.1059810027
 20
-46.3216328172
 11
939.6047327593
 21
-45.8520973742
  0
LINE
  5
5A8
100
AcDbEntity
  8
0
100
AcDbLine
 62
7
  6
CONTINUOUS
 10
945.8297431404
 20
-33.0337027681
 11
944.8703939213
 21
-33.3225170961
  0
LINE
  5
5A9
100
AcDbEntity
  8
0
100
AcDbLine
 62
7
  6
CONTINUOUS
 10
947.9036122279
 20
-36.4713824585
 11
946.9442630088
 21
-36.7601967865
  0
LINE
  5
5AA
100
AcDbEntity
  8
0
100
AcDbLine
 62
7
  6
CONTINUOUS
 10
947.1684017812
 20
-42.5600844912
 11
948.1277510086
 21
-42.2712701787
  0
ARC
  5
5AB
100
AcDbEntity
  8
RUNDUNGEN
100
AcDbCircle
 62
7
  6
CONTINUOUS
 10
247.5458848434
 20
-19.333524423
 40
14.52
100
AcDbArc
 50
1.3859119016
 51
8.0000027504
  0
ARC
  5
5AC
100
AcDbEntity
  8
BEZUGSACHSEN
100
AcDbCircle
 62
7
  6
CONTINUOUS
 10
251.3570391791
 20
20.6818128864
 40
12.3428456643
100
AcDbArc
 50
333.2266549468
 51
3.5347697651
  0
ARC
  5
5AD
100
AcDbEntity
  8
RUNDUNGEN
100
AcDbCircle
 62
7
  6
CONTINUOUS
 10
252.228867109
 20
9.9436287613
 40
5.808
100
AcDbArc
 50
7.9999837971
 51
45.0000011329
  0
ARC
  5
5AE
100
AcDbEntity
  8
RUNDUNGEN
100
AcDbCircle
 62
7
  6
CONTINUOUS
 10
259.3738848434
 20
19.2261157674
 40
5.808
100
AcDbArc
 50
179.9999980704
 51
224.999996351
  0
ARC
  5
5AF
100
AcDbEntity
  8
RUNDUNGEN
100
AcDbCircle
 62
7
  6
CONTINUOUS
 10
266.4218848434
 20
-56.0033959794
 40
4.356
100
AcDbArc
 50
180.0
 51
264.0
  0
ARC
  5
5B0
100
AcDbEntity
  8
RUNDUNGEN
100
AcDbCircle
 62
7
  6
CONTINUOUS
 10
247.5458848434
 20
108.6971501958
 40
14.52
100
AcDbArc
 50
351.9999810605
 51
0.000015487
  0
ARC
  5
5B1
100
AcDbEntity
  8
BEZUGSACHSEN
100
AcDbCircle
 62
7
  6
CONTINUOUS
 10
247.5458848434
 20
108.6971501958
 40
14.52
100
AcDbArc
 50
351.9999810605
 51
0.000015487
  0
ARC
  5
5B2
100
AcDbEntity
  8
RUNDUNGEN
100
AcDbCircle
 62
7
  6
CONTINUOUS
 10
252.228867109
 20
79.4199970115
 40
5.808
100
AcDbArc
 50
314.9998275086
 51
352.0000227003
  0
ARC
  5
5B3
100
AcDbEntity
  8
BEZUGSACHSEN
100
AcDbCircle
 62
7
  6
CONTINUOUS
 10
252.228867109
 20
79.4199970115
 40
5.808
100
AcDbArc
 50
314.9998275086
 51
352.0000227003
  0
ARC
  5
5B4
100
AcDbEntity
  8
RUNDUNGEN
100
AcDbCircle
 62
7
  6
CONTINUOUS
 10
256.4698873422
 20
31.330647871
 40
2.9040000356
100
AcDbArc
 50
179.9999207417
 51
215.3149888271
  0
ARC
  5
5B5
100
AcDbEntity
  8
BEZUGSACHSEN
100
AcDbCircle
 62
7
  6
CONTINUOUS
 10
256.4698873422
 20
31.330647871
 40
2.9040000356
100
AcDbArc
 50
179.9999207417
 51
215.3149888271
  0
ARC
  5
5B6
100
AcDbEntity
  8
RUNDUNGEN
100
AcDbCircle
 62
7
  6
CONTINUOUS
 10
259.3738848434
 20
70.1375100054
 40
5.808
100
AcDbArc
 50
135.000003649
 51
180.0
  0
ARC
  5
5B7
100
AcDbEntity
  8
BEZUGSACHSEN
100
AcDbCircle
 62
7
  6
CONTINUOUS
 10
259.3738848434
 20
70.1375100054
 40
5.808
100
AcDbArc
 50
134.9992831127
 51
180.0
  0
ARC
  5
5B8
100
AcDbEntity
  8
BEZUGSACHSEN
100
AcDbCircle
 62
7
  6
CONTINUOUS
 10
303.0858848434
 20
-19.333524423
 40
14.52
100
AcDbArc
 50
171.9999972496
 51
180.0000773452
  0
ARC
  5
5B9
100
AcDbEntity
  8
BEZUGSACHSEN
100
AcDbCircle
 62
7
  6
CONTINUOUS
 10
299.2747305078
 20
20.6818128864
 40
12.3428456643
100
AcDbArc
 50
176.4718596783
 51
206.8197002527
  0
ARC
  5
5BA
100
AcDbEntity
  8
BEZUGSACHSEN
100
AcDbCircle
 62
7
  6
CONTINUOUS
 10
298.4029025779
 20
9.9436287613
 40
5.808
100
AcDbArc
 50
134.9999988671
 51
172.0000162029
  0
ARC
  5
5BB
100
AcDbEntity
  8
BEZUGSACHSEN
100
AcDbCircle
 62
7
  6
CONTINUOUS
 10
291.2578848434
 20
19.2261157674
 40
5.808
100
AcDbArc
 50
315.000003649
 51
0.0000740015
  0
ARC
  5
5BC
100
AcDbEntity
  8
BEZUGSACHSEN
100
AcDbCircle
 62
7
  6
CONTINUOUS
 10
284.2098848434
 20
-56.0033959794
 40
4.356
100
AcDbArc
 50
276.0
 51
360.0
  0
ARC
  5
5BD
100
AcDbEntity
  8
RUNDUNGEN
100
AcDbCircle
 62
7
  6
CONTINUOUS
 10
275.3158848434
 20
44.6818128864
 40
26.0
100
AcDbArc
 50
215.3150819996
 51
324.6849180004
  0
ARC
  5
5BE
100
AcDbEntity
  8
BEZUGSACHSEN
100
AcDbCircle
 62
7
  6
CONTINUOUS
 10
275.3158848434
 20
44.6818128864
 40
26.0
100
AcDbArc
 50
215.3150819996
 51
324.6849180004
  0
CIRCLE
  5
5BF
100
AcDbEntity
  8
0
100
AcDbCircle
 62
7
  6
CONTINUOUS
 10
275.3158848434
 20
44.6818128864
 40
8.712
  0
CIRCLE
  5
5C0
100
AcDbEntity
  8
BEZUGSACHSEN
100
AcDbCircle
 62
7
  6
CONTINUOUS
 10
275.3158848434
 20
44.6818128864
 40
8.712
  0
ARC
  5
5C1
100
AcDbEntity
  8
RUNDUNGEN
100
AcDbCircle
 62
7
  6
CONTINUOUS
 10
294.1618848434
 20
31.3306518882
 40
2.904
100
AcDbArc
 50
324.6849180004
 51
360.0
  0
ARC
  5
5C2
100
AcDbEntity
  8
BEZUGSACHSEN
100
AcDbCircle
 62
7
  6
CONTINUOUS
 10
294.1618848434
 20
31.3306518882
 40
2.904
100
AcDbArc
 50
324.6849180004
 51
360.0
  0
ARC
  5
5C3
100
AcDbEntity
  8
BEZUGSACHSEN
100
AcDbCircle
 62
7
  6
CONTINUOUS
 10
291.2578848434
 20
70.1375100054
 40
5.808
100
AcDbArc
 50
0.0
 51
45.0007168873
  0
ARC
  5
5C4
100
AcDbEntity
  8
BEZUGSACHSEN
100
AcDbCircle
 62
7
  6
CONTINUOUS
 10
298.4029025779
 20
79.4199970115
 40
5.808
100
AcDbArc
 50
187.9999772997
 51
225.0001724914
  0
ARC
  5
5C5
100
AcDbEntity
  8
BEZUGSACHSEN
100
AcDbCircle
 62
7
  6
CONTINUOUS
 10
303.0858848434
 20
108.6971501958
 40
14.52
100
AcDbArc
 50
179.999984513
 51
188.0000189395
  0
ARC
  5
5C6
100
AcDbEntity
  8
BEZUGSACHSEN
100
AcDbCircle
 62
7
  6
CONTINUOUS
 10
275.3158848434
 20
136.6818128864
 40
51.0
100
AcDbArc
 50
120.0
 51
251.7370432082
  0
ARC
  5
5C7
100
AcDbEntity
  8
RUNDUNGEN
100
AcDbCircle
 62
7
  6
CONTINUOUS
 10
275.3158848434
 20
136.6818128864
 40
23.0
100
AcDbArc
 50
305.1790351459
 51
234.8209648506
  0
ARC
  5
5C8
100
AcDbEntity
  8
RUNDUNGEN
100
AcDbCircle
 62
7
  6
CONTINUOUS
 10
335.1942308838
 20
153.6999541567
 40
9.0
100
AcDbArc
 50
210.0
 51
333.5
  0
ARC
  5
5C9
100
AcDbEntity
  8
RUNDUNGEN
100
AcDbCircle
 62
7
  6
CONTINUOUS
 10
321.5937157063
 20
177.2567374531
 40
9.0
100
AcDbArc
 50
120.0
 51
210.0
  0
ARC
  5
5CA
100
AcDbEntity
  8
RUNDUNGEN
100
AcDbCircle
 62
7
  6
CONTINUOUS
 10
266.4218848434
 20
145.3670217522
 40
4.356
100
AcDbArc
 50
96.0
 51
180.0
  0
ARC
  5
5CB
100
AcDbEntity
  8
BEZUGSACHSEN
100
AcDbCircle
 62
7
  6
CONTINUOUS
 10
284.2098848434
 20
145.3670217522
 40
4.356
100
AcDbArc
 50
0.0
 51
84.0
  0
ARC
  5
5CC
100
AcDbEntity
  8
BEZUGSACHSEN
100
AcDbCircle
 62
7
  6
CONTINUOUS
 10
266.4218848434
 20
145.3670217522
 40
4.356
100
AcDbArc
 50
96.0
 51
180.0
  0
ARC
  5
5CD
100
AcDbEntity
  8
BEZUGSACHSEN
100
AcDbCircle
 62
7
  6
CONTINUOUS
 10
430.3158848434
 20
262.1796240623
 40
30.0
100
AcDbArc
 50
114.4885917338
 51
179.9999999988
  0
ARC
  5
5CE
100
AcDbEntity
  8
BEZUGSACHSEN
100
AcDbCircle
 62
7
  6
CONTINUOUS
 10
409.5902864843
 20
307.6818128864
 40
19.9999993985
100
AcDbArc
 50
294.4885836293
 51
1.4072026207
  0
ARC
  5
5CF
100
AcDbEntity
  8
RUNDUNGEN
100
AcDbCircle
 62
7
  6
CONTINUOUS
 10
409.5902864843
 20
307.6818128864
 40
19.9999993985
100
AcDbArc
 50
328.3490971285
 51
358.7423526806
  0
ARC
  5
5D0
100
AcDbEntity
  8
RUNDUNGEN
100
AcDbCircle
 62
7
  6
CONTINUOUS
 10
357.1841329589
 20
197.8048744345
 40
9.0
100
AcDbArc
 50
333.5
 51
120.0
  0
ARC
  5
5D1
100
AcDbEntity
  8
KONSTRUKTIONSELEMENTE
100
AcDbCircle
 62
7
  6
CONTINUOUS
 10
277.3929215043
 20
343.7588495472
 40
11.55
100
AcDbArc
 50
315.0
 51
28.8894195135
  0
ARC
  5
5D2
100
AcDbEntity
  8
KONSTRUKTIONSELEMENTE
100
AcDbCircle
 62
7
  6
CONTINUOUS
 10
277.3929215043
 20
343.7588495472
 40
11.55
100
AcDbArc
 50
61.1105804865
 51
135.0
  0
ARC
  5
5D3
100
AcDbEntity
  8
KONSTRUKTIONSELEMENTE
100
AcDbCircle
 62
7
  6
CONTINUOUS
 10
268.9783508081
 20
335.3442788511
 40
11.55
100
AcDbArc
 50
135.0
 51
212.4958536287
  0
ARC
  5
5D4
100
AcDbEntity
  8
KONSTRUKTIONSELEMENTE
100
AcDbCircle
 62
7
  6
CONTINUOUS
 10
268.9783508081
 20
335.3442788511
 40
11.55
100
AcDbArc
 50
237.5041463713
 51
315.0
  0
ARC
  5
5D5
100
AcDbEntity
  8
KONSTRUKTIONSELEMENTE
100
AcDbCircle
 62
7
  6
CONTINUOUS
 10
277.3929215043
 20
343.7588495472
 40
4.55
100
AcDbArc
 50
315.0
 51
0.2905636468
  0
ARC
  5
5D6
100
AcDbEntity
  8
KONSTRUKTIONSELEMENTE
100
AcDbCircle
 62
7
  6
CONTINUOUS
 10
277.3929215043
 20
343.7588495472
 40
4.55
100
AcDbArc
 50
89.7094363532
 51
135.0
  0
ARC
  5
5D7
100
AcDbEntity
  8
KONSTRUKTIONSELEMENTE
100
AcDbCircle
 62
7
  6
CONTINUOUS
 10
268.9783508081
 20
335.3442788511
 40
4.55
100
AcDbArc
 50
135.0
 51
191.5899756535
  0
ARC
  5
5D8
100
AcDbEntity
  8
KONSTRUKTIONSELEMENTE
100
AcDbCircle
 62
7
  6
CONTINUOUS
 10
268.9783508081
 20
335.3442788511
 40
4.55
100
AcDbArc
 50
258.4100243465
 51
315.0
  0
ARC
  5
5D9
100
AcDbEntity
  8
KONSTRUKTIONSELEMENTE
100
AcDbCircle
 62
7
  6
CONTINUOUS
 10
295.4594997636
 20
361.8254278065
 40
3.2
100
AcDbArc
 50
315.0
 51
135.0
  0
ARC
  5
5DA
100
AcDbEntity
  8
KONSTRUKTIONSELEMENTE
100
AcDbCircle
 62
7
  6
CONTINUOUS
 10
278.2060943026
 20
344.5720223456
 40
3.2
100
AcDbArc
 50
135.0
 51
315.0
  0
ARC
  5
5DB
100
AcDbEntity
  8
KONSTRUKTIONSELEMENTE
100
AcDbCircle
 62
7
  6
CONTINUOUS
 10
322.0113593971
 20
388.3772874401
 40
11.55
100
AcDbArc
 50
135.0
 51
208.8894195135
  0
ARC
  5
5DC
100
AcDbEntity
  8
KONSTRUKTIONSELEMENTE
100
AcDbCircle
 62
7
  6
CONTINUOUS
 10
322.0113593971
 20
388.3772874401
 40
11.55
100
AcDbArc
 50
241.1105804865
 51
315.0
  0
ARC
  5
5DD
100
AcDbEntity
  8
KONSTRUKTIONSELEMENTE
100
AcDbCircle
 62
7
  6
CONTINUOUS
 10
295.8837638323
 20
362.2496918753
 40
10.2
100
AcDbArc
 50
243.2981709753
 51
315.0
  0
ARC
  5
5DE
100
AcDbEntity
  8
KONSTRUKTIONSELEMENTE
100
AcDbCircle
 62
7
  6
CONTINUOUS
 10
295.8837638323
 20
362.2496918753
 40
10.2
100
AcDbArc
 50
135.0
 51
206.7018290247
  0
ARC
  5
5DF
100
AcDbEntity
  8
KONSTRUKTIONSELEMENTE
100
AcDbCircle
 62
7
  6
CONTINUOUS
 10
303.2376743566
 20
369.6036023996
 40
10.2
100
AcDbArc
 50
63.2981709753
 51
135.0
  0
ARC
  5
5E0
100
AcDbEntity
  8
KONSTRUKTIONSELEMENTE
100
AcDbCircle
 62
7
  6
CONTINUOUS
 10
303.2376743566
 20
369.6036023996
 40
10.2
100
AcDbArc
 50
315.0
 51
26.7018290247
  0
ARC
  5
5E1
100
AcDbEntity
  8
KONSTRUKTIONSELEMENTE
100
AcDbCircle
 62
7
  6
CONTINUOUS
 10
322.0113593971
 20
388.3772874401
 40
4.55
100
AcDbArc
 50
135.0
 51
180.2905636468
  0
ARC
  5
5E2
100
AcDbEntity
  8
KONSTRUKTIONSELEMENTE
100
AcDbCircle
 62
7
  6
CONTINUOUS
 10
322.0113593971
 20
388.3772874401
 40
4.55
100
AcDbArc
 50
269.7094363532
 51
315.0
  0
ARC
  5
5E3
100
AcDbEntity
  8
KONSTRUKTIONSELEMENTE
100
AcDbCircle
 62
7
  6
CONTINUOUS
 10
295.8837638323
 20
362.2496918753
 40
3.8
100
AcDbArc
 50
282.3746409809
 51
315.0
  0
ARC
  5
5E4
100
AcDbEntity
  8
KONSTRUKTIONSELEMENTE
100
AcDbCircle
 62
7
  6
CONTINUOUS
 10
295.8837638323
 20
362.2496918753
 40
3.8
100
AcDbArc
 50
135.0
 51
167.6253590191
  0
ARC
  5
5E5
100
AcDbEntity
  8
KONSTRUKTIONSELEMENTE
100
AcDbCircle
 62
7
  6
CONTINUOUS
 10
303.2376743566
 20
369.6036023996
 40
3.8
100
AcDbArc
 50
102.3746409809
 51
135.0
  0
ARC
  5
5E6
100
AcDbEntity
  8
KONSTRUKTIONSELEMENTE
100
AcDbCircle
 62
7
  6
CONTINUOUS
 10
303.2376743566
 20
369.6036023996
 40
3.8
100
AcDbArc
 50
315.0
 51
347.6253590191
  0
ARC
  5
5E7
100
AcDbEntity
  8
KONSTRUKTIONSELEMENTE
100
AcDbCircle
 62
7
  6
CONTINUOUS
 10
320.9153438863
 20
387.2812719293
 40
3.2
100
AcDbArc
 50
315.0
 51
135.0
  0
ARC
  5
5E8
100
AcDbEntity
  8
KONSTRUKTIONSELEMENTE
100
AcDbCircle
 62
7
  6
CONTINUOUS
 10
303.6619384253
 20
370.0278664683
 40
3.2
100
AcDbArc
 50
135.0
 51
315.0
  0
ARC
  5
5E9
100
AcDbEntity
  8
KONSTRUKTIONSELEMENTE
100
AcDbCircle
 62
7
  6
CONTINUOUS
 10
330.4259300933
 20
396.7918581362
 40
11.55
100
AcDbArc
 50
315.0
 51
24.7189393151
  0
ARC
  5
5EA
100
AcDbEntity
  8
KONSTRUKTIONSELEMENTE
100
AcDbCircle
 62
7
  6
CONTINUOUS
 10
330.4259300933
 20
396.7918581362
 40
11.55
100
AcDbArc
 50
65.2810606849
 51
135.0
  0
ARC
  5
5EB
100
AcDbEntity
  8
KONSTRUKTIONSELEMENTE
100
AcDbCircle
 62
7
  6
CONTINUOUS
 10
330.4259300933
 20
396.7918581362
 40
4.55
100
AcDbArc
 50
315.0
 51
343.3023499414
  0
ARC
  5
5EC
100
AcDbEntity
  8
KONSTRUKTIONSELEMENTE
100
AcDbCircle
 62
7
  6
CONTINUOUS
 10
330.4259300933
 20
396.7918581362
 40
4.55
100
AcDbArc
 50
106.6976500586
 51
135.0
  0
ARC
  5
5ED
100
AcDbEntity
  8
KONSTRUKTIONSELEMENTE
100
AcDbCircle
 62
7
  6
CONTINUOUS
 10
330.8148388229
 20
397.1807668659
 40
4.0
100
AcDbArc
 50
135.0
 51
315.0
  0
ARC
  5
5EE
100
AcDbEntity
  8
BEZUGSACHSEN
100
AcDbCircle
 62
7
  6
CONTINUOUS
 10
450.251738641
 20
446.6909858745
 40
25.064152476
100
AcDbArc
 50
347.5377566013
 51
350.0113325557
  0
ARC
  5
5EF
100
AcDbEntity
  8
BEZUGSACHSEN
100
AcDbCircle
 62
7
  6
CONTINUOUS
 10
450.3157714044
 20
446.6818942249
 40
24.9996414222
100
AcDbArc
 50
350.0063984665
 51
89.999740016
  0
ARC
  5
5F0
100
AcDbEntity
  8
KONSTRUKTIONSELEMENTE
100
AcDbCircle
 62
7
  6
CONTINUOUS
 10
385.9691677555
 20
452.3350957984
 40
4.0
100
AcDbArc
 50
315.0
 51
135.0
  0
ARC
  5
5F1
100
AcDbEntity
  8
BEZUGSACHSEN
100
AcDbCircle
 62
7
  6
CONTINUOUS
 10
450.3158848434
 20
236.6818128864
 40
100.0
100
AcDbArc
 50
280.0
 51
312.1642668514
  0
ARC
  5
5F2
100
AcDbEntity
  8
0
100
AcDbCircle
 62
7
  6
CONTINUOUS
 10
450.3158848434
 20
236.6818128864
 40
100.0
100
AcDbArc
 50
227.8357331486
 51
260.0
  0
ARC
  5
5F3
100
AcDbEntity
  8
BEZUGSACHSEN
100
AcDbCircle
 62
7
  6
CONTINUOUS
 10
450.3158848434
 20
236.6818128864
 40
85.0
100
AcDbArc
 50
260.0
 51
280.0
  0
ARC
  5
5F4
100
AcDbEntity
  8
BEZUGSACHSEN
100
AcDbCircle
 62
7
  6
CONTINUOUS
 10
450.3158848434
 20
236.6818128864
 40
65.0
100
AcDbArc
 50
22.9797209314
 51
68.6062042431
  0
ARC
  5
5F5
100
AcDbEntity
  8
BEZUGSACHSEN
100
AcDbCircle
 62
7
  6
CONTINUOUS
 10
450.3158848434
 20
236.6818128864
 40
65.0
100
AcDbArc
 50
111.3937964498
 51
157.0202790686
  0
ARC
  5
5F6
100
AcDbEntity
  8
BEZUGSACHSEN
100
AcDbCircle
 62
7
  6
CONTINUOUS
 10
450.3158848434
 20
237.6818128864
 40
50.0
100
AcDbArc
 50
180.0
 51
360.0
  0
CIRCLE
  5
5F7
100
AcDbEntity
  8
0
100
AcDbCircle
 62
7
  6
CONTINUOUS
 10
450.3158848434
 20
237.6818128864
 40
35.0
  0
ARC
  5
5F8
100
AcDbEntity
  8
BEZUGSACHSEN
100
AcDbCircle
 62
7
  6
CONTINUOUS
 10
470.3158848434
 20
262.1796202253
 40
30.0
100
AcDbArc
 50
0.0
 51
65.5114129961
  0
ARC
  5
5F9
100
AcDbEntity
  8
BEZUGSACHSEN
100
AcDbCircle
 62
7
  6
CONTINUOUS
 10
491.0414836024
 20
307.6818128864
 40
19.999999876
100
AcDbArc
 50
178.5927985283
 51
245.5114127473
  0
ARC
  5
5FA
100
AcDbEntity
  8
RUNDUNGEN
100
AcDbCircle
 62
7
  6
CONTINUOUS
 10
491.0414836024
 20
307.6818128864
 40
19.999999876
100
AcDbArc
 50
181.2575343126
 51
211.6509005118
  0
ARC
  5
5FB
100
AcDbEntity
  8
BEZUGSACHSEN
100
AcDbCircle
 62
7
  6
CONTINUOUS
 10
543.4476367279
 20
197.8048744345
 40
9.0
100
AcDbArc
 50
60.0
 51
206.5
  0
ARC
  5
5FC
100
AcDbEntity
  8
BEZUGSACHSEN
100
AcDbCircle
 62
7
  6
CONTINUOUS
 10
597.5458848434
 20
-19.333524423
 40
14.52
100
AcDbArc
 50
359.999984513
 51
8.0000189395
  0
ARC
  5
5FD
100
AcDbEntity
  8
BEZUGSACHSEN
100
AcDbCircle
 62
7
  6
CONTINUOUS
 10
602.228867109
 20
9.9436287613
 40
5.808
100
AcDbArc
 50
7.9999772997
 51
45.0001724914
  0
ARC
  5
5FE
100
AcDbEntity
  8
BEZUGSACHSEN
100
AcDbCircle
 62
7
  6
CONTINUOUS
 10
616.4218848434
 20
-56.0033959794
 40
4.356
100
AcDbArc
 50
180.0
 51
264.0
  0
ARC
  5
5FF
100
AcDbEntity
  8
BEZUGSACHSEN
100
AcDbCircle
 62
7
  6
CONTINUOUS
 10
601.3570391791
 20
68.6818128864
 40
12.3428456643
100
AcDbArc
 50
356.4882795266
 51
26.8197002527
  0
ARC
  5
600
100
AcDbEntity
  8
BEZUGSACHSEN
100
AcDbCircle
 62
7
  6
CONTINUOUS
 10
602.228867109
 20
79.4199970115
 40
5.808
100
AcDbArc
 50
314.9999988671
 51
352.0000162029
  0
ARC
  5
601
100
AcDbEntity
  8
BEZUGSACHSEN
100
AcDbCircle
 62
7
  6
CONTINUOUS
 10
609.3738848434
 20
19.2261157674
 40
5.808
100
AcDbArc
 50
180.0
 51
224.999996351
  0
ARC
  5
602
100
AcDbEntity
  8
RUNDUNGEN
100
AcDbCircle
 62
7
  6
CONTINUOUS
 10
606.4698848434
 20
58.0329738846
 40
2.904
100
AcDbArc
 50
144.6849180004
 51
180.0
  0
ARC
  5
603
100
AcDbEntity
  8
BEZUGSACHSEN
100
AcDbCircle
 62
7
  6
CONTINUOUS
 10
609.3738848434
 20
70.1375100054
 40
5.808
100
AcDbArc
 50
134.9992831127
 51
180.0000019296
  0
ARC
  5
604
100
AcDbEntity
  8
RUNDUNGEN
100
AcDbCircle
 62
7
  6
CONTINUOUS
 10
653.0858848434
 20
-19.333524423
 40
14.52
100
AcDbArc
 50
171.9999810605
 51
180.000015487
  0
ARC
  5
605
100
AcDbEntity
  8
RUNDUNGEN
100
AcDbCircle
 62
7
  6
CONTINUOUS
 10
648.4029025779
 20
9.9436287613
 40
5.808
100
AcDbArc
 50
134.9998275086
 51
172.0000227003
  0
ARC
  5
606
100
AcDbEntity
  8
RUNDUNGEN
100
AcDbCircle
 62
7
  6
CONTINUOUS
 10
634.2098848434
 20
-56.0033959794
 40
4.356
100
AcDbArc
 50
276.0
 51
360.0
  0
ARC
  5
607
100
AcDbEntity
  8
RUNDUNGEN
100
AcDbCircle
 62
7
  6
CONTINUOUS
 10
625.3158848434
 20
44.6818128864
 40
26.0
100
AcDbArc
 50
35.3150819996
 51
144.6849180004
  0
CIRCLE
  5
608
100
AcDbEntity
  8
0
100
AcDbCircle
 62
7
  6
CONTINUOUS
 10
625.3158848434
 20
44.6818128864
 40
8.712
  0
ARC
  5
609
100
AcDbEntity
  8
RUNDUNGEN
100
AcDbCircle
 62
7
  6
CONTINUOUS
 10
641.2578848434
 20
19.2261157674
 40
5.808
100
AcDbArc
 50
315.000003649
 51
0.00006616
  0
ARC
  5
60A
100
AcDbEntity
  8
RUNDUNGEN
100
AcDbCircle
 62
7
  6
CONTINUOUS
 10
644.1618823447
 20
58.0329779018
 40
2.9040000356
100
AcDbArc
 50
359.9999207417
 51
35.3149888271
  0
ARC
  5
60B
100
AcDbEntity
  8
RUNDUNGEN
100
AcDbCircle
 62
7
  6
CONTINUOUS
 10
641.2578848434
 20
70.1375100054
 40
5.808
100
AcDbArc
 50
359.9999980704
 51
44.999996351
  0
ARC
  5
60C
100
AcDbEntity
  8
BEZUGSACHSEN
100
AcDbCircle
 62
7
  6
CONTINUOUS
 10
641.2578848434
 20
70.1375100054
 40
5.808
100
AcDbArc
 50
359.9999980704
 51
45.0007168873
  0
ARC
  5
60D
100
AcDbEntity
  8
BEZUGSACHSEN
100
AcDbCircle
 62
7
  6
CONTINUOUS
 10
649.2747305078
 20
68.6818128864
 40
12.3428456643
100
AcDbArc
 50
153.2266549468
 51
183.5162630668
  0
ARC
  5
60E
100
AcDbEntity
  8
RUNDUNGEN
100
AcDbCircle
 62
7
  6
CONTINUOUS
 10
648.4029025779
 20
79.4199970115
 40
5.808
100
AcDbArc
 50
187.9999837971
 51
225.0000011329
  0
ARC
  5
60F
100
AcDbEntity
  8
BEZUGSACHSEN
100
AcDbCircle
 62
7
  6
CONTINUOUS
 10
648.4029025779
 20
79.4199970115
 40
5.808
100
AcDbArc
 50
187.9999837971
 51
225.0000011329
  0
ARC
  5
610
100
AcDbEntity
  8
BEZUGSACHSEN
100
AcDbCircle
 62
7
  6
CONTINUOUS
 10
565.4375388031
 20
153.6999541567
 40
9.0
100
AcDbArc
 50
206.5
 51
330.0
  0
ARC
  5
611
100
AcDbEntity
  8
BEZUGSACHSEN
100
AcDbCircle
 62
7
  6
CONTINUOUS
 10
579.0380539805
 20
177.2567374531
 40
9.0
100
AcDbArc
 50
330.0
 51
60.0
  0
ARC
  5
612
100
AcDbEntity
  8
BEZUGSACHSEN
100
AcDbCircle
 62
7
  6
CONTINUOUS
 10
616.4218848434
 20
145.3670217522
 40
4.356
100
AcDbArc
 50
96.0
 51
180.0
  0
ARC
  5
613
100
AcDbEntity
  8
BEZUGSACHSEN
100
AcDbCircle
 62
7
  6
CONTINUOUS
 10
625.3158848434
 20
136.6818128864
 40
51.0
100
AcDbArc
 50
285.0600804964
 51
60.0
  0
ARC
  5
614
100
AcDbEntity
  8
BEZUGSACHSEN
100
AcDbCircle
 62
7
  6
CONTINUOUS
 10
625.3158848434
 20
136.6818128864
 40
23.0
100
AcDbArc
 50
305.1790351494
 51
234.8209648541
  0
ARC
  5
615
100
AcDbEntity
  8
RUNDUNGEN
100
AcDbCircle
 62
7
  6
CONTINUOUS
 10
634.2098848434
 20
145.3670217522
 40
4.356
100
AcDbArc
 50
0.0
 51
84.0
  0
ARC
  5
616
100
AcDbEntity
  8
BEZUGSACHSEN
100
AcDbCircle
 62
7
  6
CONTINUOUS
 10
634.2098848434
 20
145.3670217522
 40
4.356
100
AcDbArc
 50
0.0
 51
84.0
  0
ARC
  5
617
100
AcDbEntity
  8
0
100
AcDbCircle
 62
7
  6
CONTINUOUS
 10
450.3158848434
 20
516.6818128864
 40
146.0
100
AcDbArc
 50
278.7909425585
 51
360.0
  0
ARC
  5
618
100
AcDbEntity
  8
0
100
AcDbCircle
 62
7
  6
CONTINUOUS
 10
450.3158848434
 20
516.6818128864
 40
146.0
100
AcDbArc
 50
226.570174417
 51
261.2090574415
  0
ARC
  5
619
100
AcDbEntity
  8
0
100
AcDbCircle
 62
7
  6
CONTINUOUS
 10
450.3158848434
 20
516.6818128864
 40
146.0
100
AcDbArc
 50
180.0
 51
223.429825583
  0
ARC
  5
61A
100
AcDbEntity
  8
0
100
AcDbCircle
 62
7
  6
CONTINUOUS
 10
450.3158848434
 20
676.6818128864
 40
146.0
100
AcDbArc
 50
0.0
 51
180.0
  0
ARC
  5
61B
100
AcDbEntity
  8
0
100
AcDbCircle
 62
7
  6
CONTINUOUS
 10
450.3158848434
 20
516.6818128864
 40
95.0
100
AcDbArc
 50
284.4350077755
 51
360.0
  0
ARC
  5
61C
100
AcDbEntity
  8
0
100
AcDbCircle
 62
7
  6
CONTINUOUS
 10
450.3158848434
 20
516.6818128864
 40
95.0
100
AcDbArc
 50
227.4134373857
 51
255.564993183
  0
ARC
  5
61D
100
AcDbEntity
  8
0
100
AcDbCircle
 62
7
  6
CONTINUOUS
 10
450.3158848434
 20
516.6818128864
 40
95.0
100
AcDbArc
 50
180.0
 51
222.5865626143
  0
ARC
  5
61E
100
AcDbEntity
  8
0
100
AcDbCircle
 62
7
  6
CONTINUOUS
 10
450.3158848434
 20
676.6818128864
 40
95.0
100
AcDbArc
 50
0.0
 51
180.0
  0
ARC
  5
61F
100
AcDbEntity
  8
BEZUGSACHSEN
100
AcDbCircle
 62
7
  6
CONTINUOUS
 10
450.379922545
 20
446.6909630066
 40
25.0640416544
100
AcDbArc
 50
189.9951825412
 51
192.4627721273
  0
ARC
  5
620
100
AcDbEntity
  8
BEZUGSACHSEN
100
AcDbCircle
 62
7
  6
CONTINUOUS
 10
450.316248717
 20
446.6816880533
 40
24.9999219433
100
AcDbArc
 50
90.0008339327
 51
189.9995769249
  0
ARC
  5
621
100
AcDbEntity
  8
BEZUGSACHSEN
100
AcDbCircle
 62
7
  6
CONTINUOUS
 10
850.2171881841
 20
63.5965283216
 40
14.52
100
AcDbArc
 50
148.15
 51
180.0
  0
ARC
  5
622
100
AcDbEntity
  8
BEZUGSACHSEN
100
AcDbCircle
 62
7
  6
CONTINUOUS
 10
850.2171881841
 20
25.7670974512
 40
14.52
100
AcDbArc
 50
180.0
 51
211.85
  0
ARC
  5
623
100
AcDbEntity
  8
BEZUGSACHSEN
100
AcDbCircle
 62
7
  6
CONTINUOUS
 10
852.7263425197
 20
20.6818128864
 40
12.3428456643
100
AcDbArc
 50
4.6483857944
 51
14.0672526164
  0
ARC
  5
624
100
AcDbEntity
  8
BEZUGSACHSEN
100
AcDbCircle
 62
7
  6
CONTINUOUS
 10
852.7263425197
 20
68.6818128864
 40
12.3428456643
100
AcDbArc
 50
315.9475377101
 51
82.6011077975
  0
ARC
  5
625
100
AcDbEntity
  8
BEZUGSACHSEN
100
AcDbCircle
 62
7
  6
CONTINUOUS
 10
842.9156712193
 20
55.3378339279
 40
7.2184830562
100
AcDbArc
 50
144.9956305717
 51
180.0043694283
  0
CIRCLE
  5
626
100
AcDbEntity
  8
BEZUGSACHSEN
100
AcDbCircle
 62
7
  6
CONTINUOUS
 10
851.8431881841
 20
44.6818128864
 40
3.6313520448
  0
ARC
  5
627
100
AcDbEntity
  8
RUNDUNGEN
100
AcDbCircle
 62
7
  6
CONTINUOUS
 10
846.3767373552
 20
67.7441706973
 40
2.9376426457
100
AcDbArc
 50
89.9606562007
 51
144.9231529009
  0
ARC
  5
628
100
AcDbEntity
  8
RUNDUNGEN
100
AcDbCircle
 62
7
  6
CONTINUOUS
 10
864.0011881841
 20
64.7778128864
 40
2.904
100
AcDbArc
 50
90.0008973376
 51
124.8873574667
  0
ARC
  5
629
100
AcDbEntity
  8
RUNDUNGEN
100
AcDbCircle
 62
7
  6
CONTINUOUS
 10
864.5011881841
 20
62.7778128864
 40
2.904
100
AcDbArc
 50
90.0
 51
180.0
  0
ARC
  5
62A
100
AcDbEntity
  8
BEZUGSACHSEN
100
AcDbCircle
 62
7
  6
CONTINUOUS
 10
864.0011881841
 20
64.7778128864
 40
2.904
100
AcDbArc
 50
90.0008973376
 51
180.0
  0
ARC
  5
62B
100
AcDbEntity
  8
RUNDUNGEN
100
AcDbCircle
 62
7
  6
CONTINUOUS
 10
864.5011881841
 20
26.5858128864
 40
2.904
100
AcDbArc
 50
180.0
 51
270.0
  0
ARC
  5
62C
100
AcDbEntity
  8
BEZUGSACHSEN
100
AcDbCircle
 62
7
  6
CONTINUOUS
 10
864.5011881841
 20
26.5858128864
 40
2.904
100
AcDbArc
 50
180.0
 51
270.0
  0
ARC
  5
62D
100
AcDbEntity
  8
RUNDUNGEN
100
AcDbCircle
 62
7
  6
CONTINUOUS
 10
858.1931881841
 20
67.7778128864
 40
2.904
100
AcDbArc
 50
0.0
 51
90.0
  0
ARC
  5
62E
100
AcDbEntity
  8
RUNDUNGEN
100
AcDbCircle
 62
7
  6
CONTINUOUS
 10
864.0011881841
 20
24.5858128864
 40
2.904
100
AcDbArc
 50
180.0
 51
269.9991026624
  0
ARC
  5
62F
100
AcDbEntity
  8
BEZUGSACHSEN
100
AcDbCircle
 62
7
  6
CONTINUOUS
 10
864.0011881841
 20
24.5858128864
 40
2.904
100
AcDbArc
 50
235.1126425333
 51
269.9991026624
  0
ARC
  5
630
100
AcDbEntity
  8
RUNDUNGEN
100
AcDbCircle
 62
7
  6
CONTINUOUS
 10
870.1971881841
 20
202.6818128864
 40
15.0
100
AcDbArc
 50
270.0
 51
360.0
  0
ARC
  5
631
100
AcDbEntity
  8
RUNDUNGEN
100
AcDbCircle
 62
7
  6
CONTINUOUS
 10
860.1971881841
 20
202.6818128864
 40
15.0
100
AcDbArc
 50
180.0
 51
270.0
  0
ARC
  5
632
100
AcDbEntity
  8
RUNDUNGEN
100
AcDbCircle
 62
7
  6
CONTINUOUS
 10
825.2097513212
 20
288.3905944521
 40
19.999999979
100
AcDbArc
 50
357.9690651241
 51
2.2274071433
  0
ARC
  5
633
100
AcDbEntity
  8
KONSTRUKTIONSELEMENTE
100
AcDbCircle
 62
7
  6
CONTINUOUS
 10
868.1595999794
 20
308.356455083
 40
2.1134022176
100
AcDbArc
 50
17.7537368786
 51
20.3581536466
  0
ARC
  5
634
100
AcDbEntity
  8
BEZUGSACHSEN
100
AcDbCircle
 62
7
  6
CONTINUOUS
 10
891.6771881841
 20
26.3845364775
 40
14.52
100
AcDbArc
 50
319.4303027696
 51
360.0
  0
ARC
  5
635
100
AcDbEntity
  8
RUNDUNGEN
100
AcDbCircle
 62
7
  6
CONTINUOUS
 10
885.8931881841
 20
26.5858128864
 40
2.904
100
AcDbArc
 50
270.0
 51
360.0
  0
ARC
  5
636
100
AcDbEntity
  8
BEZUGSACHSEN
100
AcDbCircle
 62
7
  6
CONTINUOUS
 10
885.8931881841
 20
26.5858128864
 40
2.904
100
AcDbArc
 50
270.0
 51
360.0
  0
ARC
  5
637
100
AcDbEntity
  8
RUNDUNGEN
100
AcDbCircle
 62
7
  6
CONTINUOUS
 10
886.1931881841
 20
24.5858128864
 40
2.904
100
AcDbArc
 50
270.0008057215
 51
360.0
  0
ARC
  5
638
100
AcDbEntity
  8
BEZUGSACHSEN
100
AcDbCircle
 62
7
  6
CONTINUOUS
 10
886.1931881841
 20
24.5858128864
 40
2.904
100
AcDbArc
 50
270.0008057215
 51
304.8873574667
  0
ARC
  5
639
100
AcDbEntity
  8
BEZUGSACHSEN
100
AcDbCircle
 62
7
  6
CONTINUOUS
 10
891.6771881841
 20
62.9790892953
 40
14.52
100
AcDbArc
 50
31.5502665297
 51
40.5696972304
  0
ARC
  5
63A
100
AcDbEntity
  8
BEZUGSACHSEN
100
AcDbCircle
 62
7
  6
CONTINUOUS
 10
886.1931881841
 20
64.7778128864
 40
2.904
100
AcDbArc
 50
0.0
 51
37.6891599775
  0
ARC
  5
63B
100
AcDbEntity
  8
RUNDUNGEN
100
AcDbCircle
 62
7
  6
CONTINUOUS
 10
892.0011881841
 20
67.7778128864
 40
2.904
100
AcDbArc
 50
90.0
 51
180.0
  0
ARC
  5
63C
100
AcDbEntity
  8
BEZUGSACHSEN
100
AcDbCircle
 62
7
  6
CONTINUOUS
 10
900.6440338484
 20
20.6818128864
 40
12.3428456643
100
AcDbArc
 50
163.7019364916
 51
170.0622007851
  0
ARC
  5
63D
100
AcDbEntity
  8
RUNDUNGEN
100
AcDbCircle
 62
7
  6
CONTINUOUS
 10
900.6440338484
 20
20.6818128864
 40
12.3428456643
100
AcDbArc
 50
163.7019364916
 51
170.0712502792
  0
ARC
  5
63E
100
AcDbEntity
  8
RUNDUNGEN
100
AcDbCircle
 62
7
  6
CONTINUOUS
 10
900.6440338484
 20
68.6818128864
 40
12.3428456643
100
AcDbArc
 50
167.5279813677
 51
196.2980635084
  0
ARC
  5
63F
100
AcDbEntity
  8
BEZUGSACHSEN
100
AcDbCircle
 62
7
  6
CONTINUOUS
 10
900.6440338484
 20
68.6818128864
 40
12.3428456643
100
AcDbArc
 50
167.5279813677
 51
196.2980635084
  0
ARC
  5
640
100
AcDbEntity
  8
BEZUGSACHSEN
100
AcDbCircle
 62
7
  6
CONTINUOUS
 10
921.2784857585
 20
387.3354542436
 40
34.5477076931
100
AcDbArc
 50
153.0540630108
 51
179.4255705455
  0
ARC
  5
641
100
AcDbEntity
  8
BEZUGSACHSEN
100
AcDbCircle
 62
7
  6
CONTINUOUS
 10
921.0686668054
 20
387.4516737337
 40
34.3066800777
100
AcDbArc
 50
136.4765347449
 51
139.6526379056
  0
ARC
  5
642
100
AcDbEntity
  8
BEZUGSACHSEN
100
AcDbCircle
 62
7
  6
CONTINUOUS
 10
921.5988949638
 20
304.6038970438
 40
34.235761535
100
AcDbArc
 50
95.7096704505
 51
102.8725206806
  0
ARC
  5
643
100
AcDbEntity
  8
KONSTRUKTIONSELEMENTE
100
AcDbCircle
 62
7
  6
CONTINUOUS
 10
902.8870926674
 20
204.8501266898
 40
12.3719643645
100
AcDbArc
 50
88.8704932007
 51
89.999557653
  0
ARC
  5
644
100
AcDbEntity
  8
KONSTRUKTIONSELEMENTE
100
AcDbCircle
 62
7
  6
CONTINUOUS
 10
898.5155855737
 20
205.2598094066
 40
12.1186269457
100
AcDbArc
 50
80.7865697041
 51
83.8952734692
  0
ARC
  5
645
100
AcDbEntity
  8
KONSTRUKTIONSELEMENTE
100
AcDbCircle
 62
7
  6
CONTINUOUS
 10
898.5155855737
 20
208.7953433125
 40
12.1186269457
100
AcDbArc
 50
80.7865697041
 51
83.8952734692
  0
ARC
  5
646
100
AcDbEntity
  8
KONSTRUKTIONSELEMENTE
100
AcDbCircle
 62
7
  6
CONTINUOUS
 10
899.0273361261
 20
207.8694537615
 40
10.2120646186
100
AcDbArc
 50
67.5529193318
 51
68.267802552
  0
ARC
  5
647
100
AcDbEntity
  8
KONSTRUKTIONSELEMENTE
100
AcDbCircle
 62
7
  6
CONTINUOUS
 10
902.3540246046
 20
211.7875666078
 40
4.9556575803
100
AcDbArc
 50
22.7655882712
 51
23.0726205371
  0
ARC
  5
648
100
AcDbEntity
  8
KONSTRUKTIONSELEMENTE
100
AcDbCircle
 62
7
  6
CONTINUOUS
 10
907.1543478678
 20
213.7392597317
 40
4.5339677454
100
AcDbArc
 50
10.0260878615
 51
10.6388314798
  0
ARC
  5
649
100
AcDbEntity
  8
KONSTRUKTIONSELEMENTE
100
AcDbCircle
 62
7
  6
CONTINUOUS
 10
907.2479042252
 20
213.7539371994
 40
4.4392852083
100
AcDbArc
 50
0.0429868459
 51
10.0497651297
  0
ARC
  5
64A
100
AcDbEntity
  8
KONSTRUKTIONSELEMENTE
100
AcDbCircle
 62
7
  6
CONTINUOUS
 10
874.6848081764
 20
296.8015998073
 40
1.7988845578
100
AcDbArc
 50
13.6878166442
 51
24.7310910583
  0
ARC
  5
64B
100
AcDbEntity
  8
RUNDUNGEN
100
AcDbCircle
 62
7
  6
CONTINUOUS
 10
921.6971881841
 20
8.6818128864
 40
70.0
100
AcDbArc
 50
192.9725303091
 51
357.3317548133
  0
ARC
  5
64C
100
AcDbEntity
  8
BEZUGSACHSEN
100
AcDbCircle
 62
7
  6
CONTINUOUS
 10
921.6971881841
 20
0.6818128864
 40
62.0
100
AcDbArc
 50
211.85
 51
270.0
  0
ARC
  5
64D
100
AcDbEntity
  8
BEZUGSACHSEN
100
AcDbCircle
 62
7
  6
CONTINUOUS
 10
921.6971881841
 20
8.6818128864
 40
33.0
100
AcDbArc
 50
270.0
 51
360.0
  0
ARC
  5
64E
100
AcDbEntity
  8
BEZUGSACHSEN
100
AcDbCircle
 62
7
  6
CONTINUOUS
 10
921.6971881841
 20
0.6818128864
 40
25.0
100
AcDbArc
 50
139.4303027696
 51
40.5696972304
  0
ARC
  5
64F
100
AcDbEntity
  8
RUNDUNGEN
100
AcDbCircle
 62
7
  6
CONTINUOUS
 10
921.6971881841
 20
80.6818128864
 40
70.0
100
AcDbArc
 50
12.9725303091
 51
71.2485086925
  0
ARC
  5
650
100
AcDbEntity
  8
BEZUGSACHSEN
100
AcDbCircle
 62
7
  6
CONTINUOUS
 10
921.6971881841
 20
80.6818128864
 40
70.0
100
AcDbArc
 50
12.9725303091
 51
71.2485086925
  0
ARC
  5
651
100
AcDbEntity
  8
RUNDUNGEN
100
AcDbCircle
 62
7
  6
CONTINUOUS
 10
921.6971881841
 20
80.6818128864
 40
70.0
100
AcDbArc
 50
108.7514913075
 51
177.3317548133
  0
ARC
  5
652
100
AcDbEntity
  8
BEZUGSACHSEN
100
AcDbCircle
 62
7
  6
CONTINUOUS
 10
921.6971881841
 20
80.6818128864
 40
70.0
100
AcDbArc
 50
108.7514913075
 51
177.3317548133
  0
ARC
  5
653
100
AcDbEntity
  8
BEZUGSACHSEN
100
AcDbCircle
 62
7
  6
CONTINUOUS
 10
921.6971881841
 20
88.6818128864
 40
62.0
100
AcDbArc
 50
31.85
 51
68.7180853737
  0
ARC
  5
654
100
AcDbEntity
  8
BEZUGSACHSEN
100
AcDbCircle
 62
7
  6
CONTINUOUS
 10
921.6971881841
 20
80.6818128864
 40
33.0
100
AcDbArc
 50
132.9991973336
 51
180.0
  0
ARC
  5
655
100
AcDbEntity
  8
BEZUGSACHSEN
100
AcDbCircle
 62
7
  6
CONTINUOUS
 10
921.6971881841
 20
88.6818128864
 40
25.0
100
AcDbArc
 50
154.1948921199
 51
220.5696972304
  0
ARC
  5
656
100
AcDbEntity
  8
BEZUGSACHSEN
100
AcDbCircle
 62
7
  6
CONTINUOUS
 10
921.6971881841
 20
88.6818128864
 40
25.0
100
AcDbArc
 50
319.4303027696
 51
25.8051078801
  0
ARC
  5
657
100
AcDbEntity
  8
BEZUGSACHSEN
100
AcDbCircle
 62
7
  6
CONTINUOUS
 10
951.7171881841
 20
26.3845364775
 40
14.52
100
AcDbArc
 50
211.5502665297
 51
220.5696972304
  0
ARC
  5
658
100
AcDbEntity
  8
BEZUGSACHSEN
100
AcDbCircle
 62
7
  6
CONTINUOUS
 10
942.7503425197
 20
20.6818128864
 40
12.3428456643
100
AcDbArc
 50
347.5279813677
 51
16.2980635084
  0
ARC
  5
659
100
AcDbEntity
  8
RUNDUNGEN
100
AcDbCircle
 62
7
  6
CONTINUOUS
 10
942.7503425197
 20
20.6818128864
 40
12.3428456643
100
AcDbArc
 50
347.5279813677
 51
16.2980635084
  0
ARC
  5
65A
100
AcDbEntity
  8
BEZUGSACHSEN
100
AcDbCircle
 62
7
  6
CONTINUOUS
 10
957.2011881841
 20
24.5858128864
 40
2.904
100
AcDbArc
 50
180.0
 51
217.6891599775
  0
ARC
  5
65B
100
AcDbEntity
  8
RUNDUNGEN
100
AcDbCircle
 62
7
  6
CONTINUOUS
 10
951.3931881841
 20
21.5858128864
 40
2.904
100
AcDbArc
 50
270.0
 51
360.0
  0
ARC
  5
65C
100
AcDbEntity
  8
BEZUGSACHSEN
100
AcDbCircle
 62
7
  6
CONTINUOUS
 10
951.3931881841
 20
21.5858128864
 40
2.904
100
AcDbArc
 50
270.0
 51
360.0
  0
ARC
  5
65D
100
AcDbEntity
  8
BEZUGSACHSEN
100
AcDbCircle
 62
7
  6
CONTINUOUS
 10
951.7171881841
 20
62.9790892953
 40
14.52
100
AcDbArc
 50
139.4303027696
 51
180.0
  0
ARC
  5
65E
100
AcDbEntity
  8
RUNDUNGEN
100
AcDbCircle
 62
7
  6
CONTINUOUS
 10
942.7503425197
 20
68.6818128864
 40
12.3428456643
100
AcDbArc
 50
343.7019364916
 51
350.0712502792
  0
ARC
  5
65F
100
AcDbEntity
  8
BEZUGSACHSEN
100
AcDbCircle
 62
7
  6
CONTINUOUS
 10
942.7503425197
 20
68.6818128864
 40
12.3428456643
100
AcDbArc
 50
343.7019364916
 51
350.0712502792
  0
ARC
  5
660
100
AcDbEntity
  8
RUNDUNGEN
100
AcDbCircle
 62
7
  6
CONTINUOUS
 10
957.2011881841
 20
64.7778128864
 40
2.904
100
AcDbArc
 50
90.0008057215
 51
180.0
  0
ARC
  5
661
100
AcDbEntity
  8
RUNDUNGEN
100
AcDbCircle
 62
7
  6
CONTINUOUS
 10
957.5011881841
 20
62.7778128864
 40
2.904
100
AcDbArc
 50
90.0
 51
180.0
  0
ARC
  5
662
100
AcDbEntity
  8
BEZUGSACHSEN
100
AcDbCircle
 62
7
  6
CONTINUOUS
 10
957.2011881841
 20
64.7778128864
 40
2.904
100
AcDbArc
 50
90.0008057215
 51
180.0
  0
ARC
  5
663
100
AcDbEntity
  8
BEZUGSACHSEN
100
AcDbCircle
 62
7
  6
CONTINUOUS
 10
922.1159028506
 20
387.335456234
 40
34.5476954328
100
AcDbArc
 50
0.5744263572
 51
26.9492067888
  0
ARC
  5
664
100
AcDbEntity
  8
BEZUGSACHSEN
100
AcDbCircle
 62
7
  6
CONTINUOUS
 10
922.3257122375
 20
387.4516757037
 40
34.3066767816
100
AcDbArc
 50
40.352387767
 51
43.5234659457
  0
ARC
  5
665
100
AcDbEntity
  8
BEZUGSACHSEN
100
AcDbCircle
 62
7
  6
CONTINUOUS
 10
921.8575781343
 20
304.9834690525
 40
33.8519033272
100
AcDbArc
 50
77.0868144446
 51
84.3309944243
  0
ARC
  5
666
100
AcDbEntity
  8
0
100
AcDbCircle
 62
7
  6
CONTINUOUS
 10
921.6971881841
 20
396.1818128864
 40
25.5
100
AcDbArc
 50
292.508414875
 51
360.0
  0
ARC
  5
667
100
AcDbEntity
  8
0
100
AcDbCircle
 62
7
  6
CONTINUOUS
 10
921.6971881841
 20
396.1818128864
 40
25.5
100
AcDbArc
 50
180.0
 51
247.4877836982
  0
ARC
  5
668
100
AcDbEntity
  8
KONSTRUKTIONSELEMENTE
100
AcDbCircle
 62
7
  6
CONTINUOUS
 10
944.3157258095
 20
207.837699245
 40
10.075993937
100
AcDbArc
 50
112.1105000658
 51
113.9508226432
  0
ARC
  5
669
100
AcDbEntity
  8
KONSTRUKTIONSELEMENTE
100
AcDbCircle
 62
7
  6
CONTINUOUS
 10
966.2177558083
 20
238.0198207713
 40
6.1112402027
100
AcDbArc
 50
155.2963536344
 51
161.5960384295
  0
ARC
  5
66A
100
AcDbEntity
  8
KONSTRUKTIONSELEMENTE
100
AcDbCircle
 62
7
  6
CONTINUOUS
 10
936.2400285005
 20
213.7392597316
 40
4.5339677456
100
AcDbArc
 50
169.3611685202
 51
169.9739121385
  0
ARC
  5
66B
100
AcDbEntity
  8
KONSTRUKTIONSELEMENTE
100
AcDbCircle
 62
7
  6
CONTINUOUS
 10
936.1464721429
 20
213.7539371994
 40
4.4392852082
100
AcDbArc
 50
169.9502348703
 51
179.9570131541
  0
ARC
  5
66C
100
AcDbEntity
  8
KONSTRUKTIONSELEMENTE
100
AcDbCircle
 62
7
  6
CONTINUOUS
 10
921.6971881841
 20
380.3272874401
 40
3.5
100
AcDbArc
 50
180.0
 51
217.616392005
  0
ARC
  5
66D
100
AcDbEntity
  8
KONSTRUKTIONSELEMENTE
100
AcDbCircle
 62
7
  6
CONTINUOUS
 10
921.6971881841
 20
380.3272874401
 40
3.5
100
AcDbArc
 50
322.383607995
 51
360.0
  0
ARC
  5
66E
100
AcDbEntity
  8
KONSTRUKTIONSELEMENTE
100
AcDbCircle
 62
7
  6
CONTINUOUS
 10
921.6971881841
 20
351.8088495472
 40
3.5
100
AcDbArc
 50
0.0
 51
180.0
  0
ARC
  5
66F
100
AcDbEntity
  8
KONSTRUKTIONSELEMENTE
100
AcDbCircle
 62
7
  6
CONTINUOUS
 10
921.6971881841
 20
355.2496918753
 40
3.2
100
AcDbArc
 50
333.3575215217
 51
360.0
  0
ARC
  5
670
100
AcDbEntity
  8
KONSTRUKTIONSELEMENTE
100
AcDbCircle
 62
7
  6
CONTINUOUS
 10
921.6971881841
 20
355.2496918753
 40
3.2
100
AcDbArc
 50
180.0
 51
206.6424784783
  0
ARC
  5
671
100
AcDbEntity
  8
KONSTRUKTIONSELEMENTE
100
AcDbCircle
 62
7
  6
CONTINUOUS
 10
921.6971881841
 20
376.6036023996
 40
3.2
100
AcDbArc
 50
0.0
 51
180.0
  0
ARC
  5
672
100
AcDbEntity
  8
RUNDUNGEN
100
AcDbCircle
 62
7
  6
CONTINUOUS
 10
978.8931881841
 20
26.5858128864
 40
2.904
100
AcDbArc
 50
270.0
 51
360.0
  0
ARC
  5
673
100
AcDbEntity
  8
BEZUGSACHSEN
100
AcDbCircle
 62
7
  6
CONTINUOUS
 10
978.8931881841
 20
26.5858128864
 40
2.904
100
AcDbArc
 50
270.0
 51
360.0
  0
ARC
  5
674
100
AcDbEntity
  8
RUNDUNGEN
100
AcDbCircle
 62
7
  6
CONTINUOUS
 10
979.3931881841
 20
24.5858128864
 40
2.904
100
AcDbArc
 50
270.0008973376
 51
304.8873574667
  0
ARC
  5
675
100
AcDbEntity
  8
BEZUGSACHSEN
100
AcDbCircle
 62
7
  6
CONTINUOUS
 10
979.3931881841
 20
24.5858128864
 40
2.904
100
AcDbArc
 50
270.0008973376
 51
360.0
  0
ARC
  5
676
100
AcDbEntity
  8
RUNDUNGEN
100
AcDbCircle
 62
7
  6
CONTINUOUS
 10
985.2011881841
 20
21.5858128864
 40
2.904
100
AcDbArc
 50
180.0
 51
270.0
  0
ARC
  5
677
100
AcDbEntity
  8
BEZUGSACHSEN
100
AcDbCircle
 62
7
  6
CONTINUOUS
 10
985.2011881841
 20
21.5858128864
 40
2.904
100
AcDbArc
 50
180.0
 51
270.0
  0
ARC
  5
678
100
AcDbEntity
  8
RUNDUNGEN
100
AcDbCircle
 62
7
  6
CONTINUOUS
 10
979.3931881841
 20
64.7778128864
 40
2.904
100
AcDbArc
 50
0.0
 51
89.9991026624
  0
ARC
  5
679
100
AcDbEntity
  8
RUNDUNGEN
100
AcDbCircle
 62
7
  6
CONTINUOUS
 10
978.8931881841
 20
62.7778128864
 40
2.904
100
AcDbArc
 50
0.0
 51
90.0
  0
ARC
  5
67A
100
AcDbEntity
  8
BEZUGSACHSEN
100
AcDbCircle
 62
7
  6
CONTINUOUS
 10
979.3931881841
 20
64.7778128864
 40
2.904
100
AcDbArc
 50
0.0
 51
89.9991026624
  0
ARC
  5
67B
100
AcDbEntity
  8
BEZUGSACHSEN
100
AcDbCircle
 62
7
  6
CONTINUOUS
 10
993.1771881841
 20
25.7670974512
 40
14.52
100
AcDbArc
 50
328.15
 51
360.0
  0
ARC
  5
67C
100
AcDbEntity
  8
BEZUGSACHSEN
100
AcDbCircle
 62
7
  6
CONTINUOUS
 10
990.6680338484
 20
20.6818128864
 40
12.3428456643
100
AcDbArc
 50
135.9475377101
 51
262.6011077975
  0
ARC
  5
67D
100
AcDbEntity
  8
BEZUGSACHSEN
100
AcDbCircle
 62
7
  6
CONTINUOUS
 10
1000.4787051489
 20
34.0257918449
 40
7.2184830562
100
AcDbArc
 50
324.9956305717
 51
0.0043694283
  0
ARC
  5
67E
100
AcDbEntity
  8
RUNDUNGEN
100
AcDbCircle
 62
7
  6
CONTINUOUS
 10
997.017639013
 20
21.6194550755
 40
2.9376426457
100
AcDbArc
 50
269.9606562007
 51
324.9231529009
  0
ARC
  5
67F
100
AcDbEntity
  8
BEZUGSACHSEN
100
AcDbCircle
 62
7
  6
CONTINUOUS
 10
997.017639013
 20
21.6194550755
 40
2.9376426457
100
AcDbArc
 50
269.9606562007
 51
324.9231529009
  0
ARC
  5
680
100
AcDbEntity
  8
BEZUGSACHSEN
100
AcDbCircle
 62
7
  6
CONTINUOUS
 10
993.1771881841
 20
63.5965283216
 40
14.52
100
AcDbArc
 50
0.0
 51
31.85
  0
ARC
  5
681
100
AcDbEntity
  8
BEZUGSACHSEN
100
AcDbCircle
 62
7
  6
CONTINUOUS
 10
990.6680338484
 20
68.6818128864
 40
12.3428456643
100
AcDbArc
 50
184.6483857944
 51
194.0672526164
  0
CIRCLE
  5
682
100
AcDbEntity
  8
BEZUGSACHSEN
100
AcDbCircle
 62
7
  6
CONTINUOUS
 10
991.5511881841
 20
44.6818128864
 40
3.6313520448
  0
ARC
  5
683
100
AcDbEntity
  8
BEZUGSACHSEN
100
AcDbCircle
 62
7
  6
CONTINUOUS
 10
1018.184625047
 20
288.3905944521
 40
19.999999979
100
AcDbArc
 50
177.7725928567
 51
182.0309348759
  0
ARC
  5
684
100
AcDbEntity
  8
BEZUGSACHSEN
100
AcDbCircle
 62
7
  6
CONTINUOUS
 10
973.1971881841
 20
202.6818128864
 40
15.0
100
AcDbArc
 50
180.0
 51
270.0
  0
ARC
  5
685
100
AcDbEntity
  8
BEZUGSACHSEN
100
AcDbCircle
 62
7
  6
CONTINUOUS
 10
983.1971881841
 20
202.6818128864
 40
15.0
100
AcDbArc
 50
270.0
 51
360.0
  0
ARC
  5
686
100
AcDbEntity
  8
0
100
AcDbCircle
 62
7
  6
CONTINUOUS
 10
921.6971881841
 20
797.1818128864
 40
25.5
100
AcDbArc
 50
0.0
 51
180.0
  0
ARC
  5
687
100
AcDbEntity
  8
KONSTRUKTIONSELEMENTE
100
AcDbCircle
 62
7
  6
CONTINUOUS
 10
921.6971881841
 20
404.8418581362
 40
3.5
100
AcDbArc
 50
0.0
 51
180.0
  0
SPLINE
  5
688
100
AcDbEntity
  8
BEZUGSACHSEN
100
AcDbSpline
 62
7
  6
CONTINUOUS
 70
0
 71
3
 72
8
 73
4
 74
0
 42
0.0000001
 43
0.0000001
 44
0.0000000001
 40
0.0
 40
0.0
 40
0.0
 40
0.0
 40
1.0
 40
1.0
 40
1.0
 40
1.0
 10
450.3158848434
 20
287.6818128864
 30
0.0
 10
446.6771192286
 20
287.683236638
 30
0.0
 10
443.0383530567
 20
287.6817998475
 30
0.0
 10
439.3995871633
 20
287.6818015719
 30
0.0
  0
SPLINE
  5
689
100
AcDbEntity
  8
BEZUGSACHSEN
100
AcDbSpline
 62
7
  6
CONTINUOUS
 70
0
 71
3
 72
8
 73
4
 74
0
 42
0.0000001
 43
0.0000001
 44
0.0000000001
 40
0.0
 40
0.0
 40
0.0
 40
0.0
 40
1.0
 40
1.0
 40
1.0
 40
1.0
 10
461.2321767172
 20
287.6818078425
 30
0.0
 10
457.5934127593
 20
287.6817829465
 30
0.0
 10
453.9546487024
 20
287.6809644403
 30
0.0
 10
450.3158848434
 20
287.6818128864
 30
0.0
  0
SPLINE
  5
68A
100
AcDbEntity
  8
BEZUGSACHSEN
100
AcDbSpline
 62
7
  6
CONTINUOUS
 70
0
 71
3
 72
16
 73
12
 74
0
 42
0.0000001
 43
0.0000001
 44
0.0000000001
 40
0.0
 40
0.0
 40
0.0
 40
0.0
 40
0.1455849934
 40
0.28872666
 40
0.4256842382
 40
0.5528192156
 40
0.6689851487
 40
0.7241544488
 40
0.7784718728
 40
0.887838907
 40
1.0
 40
1.0
 40
1.0
 40
1.0
 10
439.3996839577
 20
287.6818017817
 30
0.0
 10
438.6203064807
 20
287.6818086631
 30
0.0
 10
437.0708608477
 20
287.8846812141
 30
0.0
 10
434.9087726822
 20
288.6433876295
 30
0.0
 10
433.0068954791
 20
289.73485145
 30
0.0
 10
431.4597583846
 20
291.0809141674
 30
0.0
 10
430.5333859987
 20
292.410419531
 30
0.0
 10
430.0840542233
 20
293.5364049092
 30
0.0
 10
429.8154554209
 20
294.6811566154
 30
0.0
 10
429.7845119618
 20
296.1720915984
 30
0.0
 10
429.9567602647
 20
297.3465460895
 30
0.0
 10
430.052616886
 20
297.9392906424
 30
0.0
  0
SPLINE
  5
68B
100
AcDbEntity
  8
BEZUGSACHSEN
100
AcDbSpline
 62
7
  6
CONTINUOUS
 70
0
 71
3
 72
16
 73
12
 74
0
 42
0.0000001
 43
0.0000001
 44
0.0000000001
 40
0.0
 40
0.0
 40
0.0
 40
0.0
 40
0.1121608261
 40
0.2215272181
 40
0.2758449971
 40
0.3310141988
 40
0.4471802719
 40
0.5743155252
 40
0.7112734809
 40
0.854415537
 40
1.0
 40
1.0
 40
1.0
 40
1.0
 10
470.5791604437
 20
297.9392747662
 30
0.0
 10
470.675004364
 20
297.3465329561
 30
0.0
 10
470.8472687485
 20
296.1720904568
 30
0.0
 10
470.8162931836
 20
294.6811703679
 30
0.0
 10
470.5477253456
 20
293.5364197151
 30
0.0
 10
470.0983729038
 20
292.4104477041
 30
0.0
 10
469.1720585704
 20
291.0809156416
 30
0.0
 10
467.6249139543
 20
289.7348609102
 30
0.0
 10
465.7230390645
 20
288.6434114502
 30
0.0
 10
463.5609636611
 20
287.8847041816
 30
0.0
 10
462.0115294667
 20
287.6818216008
 30
0.0
 10
461.2321591205
 20
287.6818081223
 30
0.0
  0
SPLINE
  5
68C
100
AcDbEntity
  8
KONSTRUKTIONSELEMENTE
100
AcDbSpline
 62
7
  6
CONTINUOUS
 70
0
 71
3
 72
9
 73
5
 74
0
 42
0.0000001
 43
0.0000001
 44
0.0000000001
 40
0.0
 40
0.0
 40
0.0
 40
0.0
 40
0.2925670556
 40
1.0
 40
1.0
 40
1.0
 40
1.0
 10
917.8971881841
 20
382.331524461
 30
0.0
 10
917.8971881841
 20
382.3773952814
 30
0.0
 10
917.9349464954
 20
382.5329932473
 30
0.0
 10
918.0223164218
 20
382.6669962703
 30
0.0
 10
918.0908158992
 20
382.754233324
 30
0.0
  0
SPLINE
  5
68D
100
AcDbEntity
  8
KONSTRUKTIONSELEMENTE
100
AcDbSpline
 62
7
  6
CONTINUOUS
 70
0
 71
3
 72
9
 73
5
 74
0
 42
0.0000001
 43
0.0000001
 44
0.0000000001
 40
0.0
 40
0.0
 40
0.0
 40
0.0
 40
0.2326159787
 40
1.0
 40
1.0
 40
1.0
 40
1.0
 10
918.0908158992
 20
382.754233324
 30
0.0
 10
918.0980522731
 20
382.7634491599
 30
0.0
 10
918.1296085587
 20
382.802715045
 30
0.0
 10
918.1629301957
 20
382.8405520673
 30
0.0
 10
918.1892755608
 20
382.8688383632
 30
0.0
  0
SPLINE
  5
68E
100
AcDbEntity
  8
KONSTRUKTIONSELEMENTE
100
AcDbSpline
 62
7
  6
CONTINUOUS
 70
0
 71
3
 72
9
 73
5
 74
0
 42
0.0000001
 43
0.0000001
 44
0.0000000001
 40
0.0
 40
0.0
 40
0.0
 40
0.0
 40
0.2674785319
 40
1.0
 40
1.0
 40
1.0
 40
1.0
 10
925.2051282217
 20
382.8688084602
 30
0.0
 10
925.2143035423
 20
382.858955281
 30
0.0
 10
925.2482434396
 20
382.821783018
 30
0.0
 10
925.280739434
 20
382.7832813848
 30
0.0
 10
925.3035109711
 20
382.7542813947
 30
0.0
  0
SPLINE
  5
68F
100
AcDbEntity
  8
KONSTRUKTIONSELEMENTE
100
AcDbSpline
 62
7
  6
CONTINUOUS
 70
0
 71
3
 72
9
 73
5
 74
0
 42
0.0000001
 43
0.0000001
 44
0.0000000001
 40
0.0
 40
0.0
 40
0.0
 40
0.0
 40
0.7073947347
 40
1.0
 40
1.0
 40
1.0
 40
1.0
 10
925.3035109711
 20
382.7542813947
 30
0.0
 10
925.3720174603
 20
382.6670370638
 30
0.0
 10
925.4594272416
 20
382.5330311141
 30
0.0
 10
925.4971881841
 20
382.3774079089
 30
0.0
 10
925.4971881841
 20
382.331524461
 30
0.0
  0
SPLINE
  5
690
100
AcDbEntity
  8
KONSTRUKTIONSELEMENTE
100
AcDbSpline
 62
7
  6
CONTINUOUS
 70
0
 71
3
 72
13
 73
9
 74
0
 42
0.0000001
 43
0.0000001
 44
0.0000000001
 40
0.0
 40
0.0
 40
0.0
 40
0.0
 40
0.1208023438
 40
0.2417405165
 40
0.3635818662
 40
0.4866533049
 40
0.7381983824
 40
1.0
 40
1.0
 40
1.0
 40
1.0
 10
911.4971881841
 20
382.331524461
 30
0.0
 10
911.4971881841
 20
382.770849193
 30
0.0
 10
911.5843432827
 20
383.6524479668
 30
0.0
 10
911.9696039328
 20
384.9253105953
 30
0.0
 10
912.587414711
 20
386.112165924
 30
0.0
 10
913.6934474272
 20
387.5493045365
 30
0.0
 10
915.5370939087
 20
389.0096637263
 30
0.0
 10
917.2810602953
 20
389.7364621462
 30
0.0
 10
918.1965533468
 20
389.9979331826
 30
0.0
  0
SPLINE
  5
691
100
AcDbEntity
  8
KONSTRUKTIONSELEMENTE
100
AcDbSpline
 62
7
  6
CONTINUOUS
 70
0
 71
3
 72
13
 73
9
 74
0
 42
0.0000001
 43
0.0000001
 44
0.0000000001
 40
0.0
 40
0.0
 40
0.0
 40
0.0
 40
0.2618007603
 40
0.5133270374
 40
0.6363939503
 40
0.7582240297
 40
0.8791948111
 40
1.0
 40
1.0
 40
1.0
 40
1.0
 10
925.2026239658
 20
389.9965406318
 30
0.0
 10
926.1175984293
 20
389.7348443554
 30
0.0
 10
927.860428221
 20
389.0077327048
 30
0.0
 10
929.7026270032
 20
387.5474627338
 30
0.0
 10
930.8077670246
 20
386.1108576701
 30
0.0
 10
931.4252043901
 20
384.9244211206
 30
0.0
 10
931.8100216071
 20
383.6519691318
 30
0.0
 10
931.8971881841
 20
382.7706594567
 30
0.0
 10
931.8971881841
 20
382.331524461
 30
0.0
  0
SPLINE
  5
692
100
AcDbEntity
  8
KONSTRUKTIONSELEMENTE
100
AcDbSpline
 62
7
  6
CONTINUOUS
 70
0
 71
3
 72
13
 73
9
 74
0
 42
0.0000001
 43
0.0000001
 44
0.0000000001
 40
0.0
 40
0.0
 40
0.0
 40
0.0
 40
0.1205814004
 40
0.2413301363
 40
0.3630239401
 40
0.4860289892
 40
0.7377510631
 40
1.0
 40
1.0
 40
1.0
 40
1.0
 10
931.8971881841
 20
374.9776139366
 30
0.0
 10
931.8971881841
 20
374.5264370001
 30
0.0
 10
931.8052211795
 20
373.6207970044
 30
0.0
 10
931.3990284036
 20
372.3159833436
 30
0.0
 10
930.7489390948
 20
371.1038263823
 30
0.0
 10
929.5871042498
 20
369.6436367916
 30
0.0
 10
927.6572212205
 20
368.1783090955
 30
0.0
 10
925.842555393
 20
367.4730425052
 30
0.0
 10
924.8923269256
 20
367.2282564058
 30
0.0
  0
SPLINE
  5
693
100
AcDbEntity
  8
KONSTRUKTIONSELEMENTE
100
AcDbSpline
 62
7
  6
CONTINUOUS
 70
0
 71
3
 72
13
 73
9
 74
0
 42
0.0000001
 43
0.0000001
 44
0.0000000001
 40
0.0
 40
0.0
 40
0.0
 40
0.0
 40
0.2622429925
 40
0.5139423583
 40
0.6369453389
 40
0.7586282612
 40
0.8794111013
 40
1.0
 40
1.0
 40
1.0
 40
1.0
 10
918.49175137
 20
367.2309371211
 30
0.0
 10
917.5426572355
 20
367.4763280069
 30
0.0
 10
915.7303731231
 20
368.182294301
 30
0.0
 10
913.8034530455
 20
369.6474986052
 30
0.0
 10
912.6435875048
 20
371.1068039722
 30
0.0
 10
911.9944278365
 20
372.3180741786
 30
0.0
 10
911.5890813835
 20
373.6219134872
 30
0.0
 10
911.4971881841
 20
374.5268342797
 30
0.0
 10
911.4971881841
 20
374.9776139366
 30
0.0
  0
SPLINE
  5
694
100
AcDbEntity
  8
KONSTRUKTIONSELEMENTE
100
AcDbSpline
 62
7
  6
CONTINUOUS
 70
0
 71
3
 72
10
 73
6
 74
0
 42
0.0000001
 43
0.0000001
 44
0.0000000001
 40
0.0
 40
0.0
 40
0.0
 40
0.0
 40
0.2488347756
 40
0.5438407514
 40
1.0
 40
1.0
 40
1.0
 40
1.0
 10
925.4971881841
 20
374.9776139366
 30
0.0
 10
925.4971881841
 20
374.8925696753
 30
0.0
 10
925.423299457
 20
374.7118052941
 30
0.0
 10
925.2208932129
 20
374.4379251683
 30
0.0
 10
925.0279470979
 20
374.2639483024
 30
0.0
 10
924.9047474182
 20
374.1684122823
 30
0.0
  0
SPLINE
  5
695
100
AcDbEntity
  8
KONSTRUKTIONSELEMENTE
100
AcDbSpline
 62
7
  6
CONTINUOUS
 70
0
 71
3
 72
10
 73
6
 74
0
 42
0.0000001
 43
0.0000001
 44
0.0000000001
 40
0.0
 40
0.0
 40
0.0
 40
0.0
 40
0.4561635586
 40
0.7511952336
 40
1.0
 40
1.0
 40
1.0
 40
1.0
 10
918.4898247644
 20
374.1682476056
 30
0.0
 10
918.3665809016
 20
374.2637915347
 30
0.0
 10
918.1735820403
 20
374.437823736
 30
0.0
 10
917.9711123097
 20
374.7117561668
 30
0.0
 10
917.8971881841
 20
374.8925590469
 30
0.0
 10
917.8971881841
 20
374.9776139366
 30
0.0
  0
SPLINE
  5
696
100
AcDbEntity
  8
KONSTRUKTIONSELEMENTE
100
AcDbSpline
 62
7
  6
CONTINUOUS
 70
0
 71
3
 72
10
 73
6
 74
0
 42
0.0000001
 43
0.0000001
 44
0.0000000001
 40
0.0
 40
0.0
 40
0.0
 40
0.0
 40
0.2488347756
 40
0.5438407514
 40
1.0
 40
1.0
 40
1.0
 40
1.0
 10
917.8971881841
 20
356.8756803382
 30
0.0
 10
917.8971881841
 20
356.9607245996
 30
0.0
 10
917.9710769111
 20
357.1414889808
 30
0.0
 10
918.1734831552
 20
357.4153691065
 30
0.0
 10
918.3664292703
 20
357.5893459725
 30
0.0
 10
918.4896289499
 20
357.6848819926
 30
0.0
  0
SPLINE
  5
697
100
AcDbEntity
  8
KONSTRUKTIONSELEMENTE
100
AcDbSpline
 62
7
  6
CONTINUOUS
 70
0
 71
3
 72
10
 73
6
 74
0
 42
0.0000001
 43
0.0000001
 44
0.0000000001
 40
0.0
 40
0.0
 40
0.0
 40
0.0
 40
0.4561635586
 40
0.7511952336
 40
1.0
 40
1.0
 40
1.0
 40
1.0
 10
924.9045516037
 20
357.6850466693
 30
0.0
 10
925.0277954665
 20
357.5895027401
 30
0.0
 10
925.2207943279
 20
357.4154705388
 30
0.0
 10
925.4232640584
 20
357.1415381081
 30
0.0
 10
925.4971881841
 20
356.9607352279
 30
0.0
 10
925.4971881841
 20
356.8756803382
 30
0.0
  0
SPLINE
  5
698
100
AcDbEntity
  8
KONSTRUKTIONSELEMENTE
100
AcDbSpline
 62
7
  6
CONTINUOUS
 70
0
 71
3
 72
13
 73
9
 74
0
 42
0.0000001
 43
0.0000001
 44
0.0000000001
 40
0.0
 40
0.0
 40
0.0
 40
0.0
 40
0.1205877878
 40
0.2413419854
 40
0.363040046
 40
0.4860469081
 40
0.7377636768
 40
1.0
 40
1.0
 40
1.0
 40
1.0
 10
911.4971881841
 20
356.8756803382
 30
0.0
 10
911.4971881841
 20
357.3265137131
 30
0.0
 10
911.5890137634
 20
358.231456553
 30
0.0
 10
911.994592428
 20
359.535346684
 30
0.0
 10
912.6437355666
 20
360.746777388
 30
0.0
 10
913.8039386955
 20
362.2063138792
 30
0.0
 10
915.7313085488
 20
363.6715290999
 30
0.0
 10
917.5439241565
 20
364.3774530678
 30
0.0
 10
918.4931490114
 20
364.6227414837
 30
0.0
  0
SPLINE
  5
699
100
AcDbEntity
  8
KONSTRUKTIONSELEMENTE
100
AcDbSpline
 62
7
  6
CONTINUOUS
 70
0
 71
3
 72
13
 73
9
 74
0
 42
0.0000001
 43
0.0000001
 44
0.0000000001
 40
0.0
 40
0.0
 40
0.0
 40
0.0
 40
0.2622429925
 40
0.5139423583
 40
0.6369453389
 40
0.7586282612
 40
0.8794111013
 40
1.0
 40
1.0
 40
1.0
 40
1.0
 10
924.9026249981
 20
364.6223571537
 30
0.0
 10
925.8517191326
 20
364.376966268
 30
0.0
 10
927.664003245
 20
363.6709999739
 30
0.0
 10
929.5909233226
 20
362.2057956697
 30
0.0
 10
930.7507888633
 20
360.7464903027
 30
0.0
 10
931.3999485317
 20
359.5352200962
 30
0.0
 10
931.8052949846
 20
358.2313807877
 30
0.0
 10
931.8971881841
 20
357.3264599952
 30
0.0
 10
931.8971881841
 20
356.8756803382
 30
0.0
  0
SPLINE
  5
69A
100
AcDbEntity
  8
KONSTRUKTIONSELEMENTE
100
AcDbSpline
 62
7
  6
CONTINUOUS
 70
0
 71
3
 72
13
 73
9
 74
0
 42
0.0000001
 43
0.0000001
 44
0.0000000001
 40
0.0
 40
0.0
 40
0.0
 40
0.0
 40
0.1208023438
 40
0.2417405165
 40
0.3635818662
 40
0.4866533049
 40
0.7381983824
 40
1.0
 40
1.0
 40
1.0
 40
1.0
 10
931.8971881841
 20
349.5217698139
 30
0.0
 10
931.8971881841
 20
349.0824450819
 30
0.0
 10
931.8100330855
 20
348.2008463081
 30
0.0
 10
931.4247724353
 20
346.9279836795
 30
0.0
 10
930.8069616571
 20
345.7411283509
 30
0.0
 10
929.7009289409
 20
344.3039897384
 30
0.0
 10
927.8572824594
 20
342.8436305485
 30
0.0
 10
926.1133160728
 20
342.1168321286
 30
0.0
 10
925.1978230213
 20
341.8553610922
 30
0.0
  0
SPLINE
  5
69B
100
AcDbEntity
  8
KONSTRUKTIONSELEMENTE
100
AcDbSpline
 62
7
  6
CONTINUOUS
 70
0
 71
3
 72
13
 73
9
 74
0
 42
0.0000001
 43
0.0000001
 44
0.0000000001
 40
0.0
 40
0.0
 40
0.0
 40
0.0
 40
0.2618007603
 40
0.5133270374
 40
0.6363939503
 40
0.7582240297
 40
0.8791948111
 40
1.0
 40
1.0
 40
1.0
 40
1.0
 10
918.1917524023
 20
341.856753643
 30
0.0
 10
917.2767779388
 20
342.1184499195
 30
0.0
 10
915.5339481471
 20
342.8455615701
 30
0.0
 10
913.691749365
 20
344.3058315411
 30
0.0
 10
912.5866093435
 20
345.7424366047
 30
0.0
 10
911.969171978
 20
346.9288731542
 30
0.0
 10
911.5843547611
 20
348.2013251431
 30
0.0
 10
911.4971881841
 20
349.0826348181
 30
0.0
 10
911.4971881841
 20
349.5217698139
 30
0.0
  0
SPLINE
  5
69C
100
AcDbEntity
  8
KONSTRUKTIONSELEMENTE
100
AcDbSpline
 62
7
  6
CONTINUOUS
 70
0
 71
3
 72
9
 73
5
 74
0
 42
0.0000001
 43
0.0000001
 44
0.0000000001
 40
0.0
 40
0.0
 40
0.0
 40
0.0
 40
0.2752644152
 40
1.0
 40
1.0
 40
1.0
 40
1.0
 10
925.4971881841
 20
349.5217698139
 30
0.0
 10
925.4971881841
 20
349.464871951
 30
0.0
 10
925.4368600189
 20
349.2610814675
 30
0.0
 10
925.307200955
 20
349.0940780398
 30
0.0
 10
925.2051008073
 20
348.9844559116
 30
0.0
  0
SPLINE
  5
69D
100
AcDbEntity
  8
KONSTRUKTIONSELEMENTE
100
AcDbSpline
 62
7
  6
CONTINUOUS
 70
0
 71
3
 72
9
 73
5
 74
0
 42
0.0000001
 43
0.0000001
 44
0.0000000001
 40
0.0
 40
0.0
 40
0.0
 40
0.0
 40
0.7247302759
 40
1.0
 40
1.0
 40
1.0
 40
1.0
 10
918.1892481464
 20
348.9844858147
 30
0.0
 10
918.0871658649
 20
349.0941097775
 30
0.0
 10
917.9575090326
 20
349.2610956181
 30
0.0
 10
917.8971881841
 20
349.4648745518
 30
0.0
 10
917.8971881841
 20
349.5217698139
 30
0.0
  0
SPLINE
  5
69E
100
AcDbEntity
  8
KONSTRUKTIONSELEMENTE
100
AcDbSpline
 62
7
  6
CONTINUOUS
 70
0
 71
3
 72
14
 73
10
 74
0
 42
0.0000001
 43
0.0000001
 44
0.0000000001
 40
0.0
 40
0.0
 40
0.0
 40
0.0
 40
0.0963199674
 40
0.1978463473
 40
0.308296781
 40
0.4292866879
 40
0.5606993066
 40
0.701215345
 40
1.0
 40
1.0
 40
1.0
 40
1.0
 10
956.6971881841
 20
424.7579313321
 30
0.0
 10
956.6971881841
 20
423.3838664488
 30
0.0
 10
956.313304139
 20
420.5485844765
 30
0.0
 10
954.6084559284
 20
416.4482933865
 30
0.0
 10
951.8009691362
 20
412.5695779376
 30
0.0
 10
947.9590796031
 20
409.0550879005
 30
0.0
 10
943.1987459897
 20
406.0448922876
 30
0.0
 10
935.7020229082
 20
402.8103250526
 30
0.0
 10
929.451229922
 20
401.5934937314
 30
0.0
 10
925.1989317874
 20
401.3009258502
 30
0.0
  0
SPLINE
  5
69F
100
AcDbEntity
  8
KONSTRUKTIONSELEMENTE
100
AcDbSpline
 62
7
  6
CONTINUOUS
 70
0
 71
3
 72
14
 73
10
 74
0
 42
0.0000001
 43
0.0000001
 44
0.0000000001
 40
0.0
 40
0.0
 40
0.0
 40
0.0
 40
0.2987838295
 40
0.4393002433
 40
0.5707133431
 40
0.6917038315
 40
0.8021544458
 40
0.9036804848
 40
1.0
 40
1.0
 40
1.0
 40
1.0
 10
918.1956225033
 20
401.3009170025
 30
0.0
 10
913.9433169112
 20
401.5934609022
 30
0.0
 10
907.6925050467
 20
402.8102933769
 30
0.0
 10
900.1957301288
 20
406.0448280316
 30
0.0
 10
895.4353600092
 20
409.0550478266
 30
0.0
 10
891.5934246239
 20
412.5695466498
 30
0.0
 10
888.7859283313
 20
416.4482877212
 30
0.0
 10
887.081068578
 20
420.5485839458
 30
0.0
 10
886.6971881841
 20
423.3838672365
 30
0.0
 10
886.6971881841
 20
424.7579313321
 30
0.0
  0
SPLINE
  5
6A0
100
AcDbEntity
  8
KONSTRUKTIONSELEMENTE
100
AcDbSpline
 62
7
  6
CONTINUOUS
 70
0
 71
3
 72
11
 73
7
 74
0
 42
0.0000001
 43
0.0000001
 44
0.0000000001
 40
0.0
 40
0.0
 40
0.0
 40
0.0
 40
0.2227768247
 40
0.4586029478
 40
0.7164986515
 40
1.0
 40
1.0
 40
1.0
 40
1.0
 10
886.6971881841
 20
424.7579313321
 30
0.0
 10
886.6971881841
 20
426.1943551006
 30
0.0
 10
887.1184818852
 20
429.1658484702
 30
0.0
 10
888.9852555817
 20
433.4446821206
 30
0.0
 10
892.0488300987
 20
437.4625712538
 30
0.0
 10
894.7135442838
 20
439.7568011833
 30
0.0
 10
896.1964634807
 20
440.8256342026
 30
0.0
  0
SPLINE
  5
6A1
100
AcDbEntity
  8
KONSTRUKTIONSELEMENTE
100
AcDbSpline
 62
7
  6
CONTINUOUS
 70
0
 71
3
 72
11
 73
7
 74
0
 42
0.0000001
 43
0.0000001
 44
0.0000000001
 40
0.0
 40
0.0
 40
0.0
 40
0.0
 40
0.2834952401
 40
0.5413886526
 40
0.7772169757
 40
1.0
 40
1.0
 40
1.0
 40
1.0
 10
947.201478007
 20
440.8230630743
 30
0.0
 10
948.6838724556
 20
439.7542760399
 30
0.0
 10
951.3476474918
 20
437.4602661834
 30
0.0
 10
954.4100415448
 20
433.4429740587
 30
0.0
 10
956.2760733766
 20
429.1649427475
 30
0.0
 10
956.6971881841
 20
426.1940703803
 30
0.0
 10
956.6971881841
 20
424.7579313321
 30
0.0
  0
SPLINE
  5
6A2
100
AcDbEntity
  8
KONSTRUKTIONSELEMENTE
100
AcDbSpline
 62
7
  6
CONTINUOUS
 70
0
 71
3
 72
13
 73
9
 74
0
 42
0.0000001
 43
0.0000001
 44
0.0000000001
 40
0.0
 40
0.0
 40
0.0
 40
0.0
 40
0.1167709681
 40
0.2344590387
 40
0.3539444649
 40
0.4760307469
 40
0.7300042786
 40
1.0
 40
1.0
 40
1.0
 40
1.0
 10
878.6971881841
 20
424.7579313321
 30
0.0
 10
878.6971881841
 20
426.0194001672
 30
0.0
 10
878.902589384
 20
428.5568948588
 30
0.0
 10
879.817032586
 20
432.2849821973
 30
0.0
 10
881.3148416791
 20
435.8816771948
 30
0.0
 10
884.0772233521
 20
440.4863712514
 30
0.0
 10
888.8745653679
 20
445.6663348088
 30
0.0
 10
893.6170436612
 20
448.8445482887
 30
0.0
 10
896.1855812215
 20
450.2265825646
 30
0.0
  0
SPLINE
  5
6A3
100
AcDbEntity
  8
KONSTRUKTIONSELEMENTE
100
AcDbSpline
 62
7
  6
CONTINUOUS
 70
0
 71
3
 72
13
 73
9
 74
0
 42
0.0000001
 43
0.0000001
 44
0.0000000001
 40
0.0
 40
0.0
 40
0.0
 40
0.0
 40
0.2699956703
 40
0.5239686517
 40
0.6460546881
 40
0.7655399983
 40
0.8832283121
 40
1.0
 40
1.0
 40
1.0
 40
1.0
 10
947.2081552883
 20
450.2269302015
 30
0.0
 10
949.7767724397
 20
448.8449069687
 30
0.0
 10
954.5194009569
 20
445.6666983983
 30
0.0
 10
959.3169179126
 20
440.4866916288
 30
0.0
 10
962.0794089058
 20
435.8819337556
 30
0.0
 10
963.577286
 20
432.2851732979
 30
0.0
 10
964.4917753568
 20
428.5569984709
 30
0.0
 10
964.6971881841
 20
426.0194362327
 30
0.0
 10
964.6971881841
 20
424.7579313321
 30
0.0
  0
SPLINE
  5
6A4
100
AcDbEntity
  8
KONSTRUKTIONSELEMENTE
100
AcDbSpline
 62
7
  6
CONTINUOUS
 70
0
 71
3
 72
14
 73
10
 74
0
 42
0.0000001
 43
0.0000001
 44
0.0000000001
 40
0.0
 40
0.0
 40
0.0
 40
0.0
 40
0.1097711693
 40
0.2217446557
 40
0.33786671
 40
0.4595304416
 40
0.5873221171
 40
0.720940402
 40
1.0
 40
1.0
 40
1.0
 40
1.0
 10
964.6971881841
 20
424.7579313321
 30
0.0
 10
964.6971881841
 20
422.7332270262
 30
0.0
 10
964.1587263236
 20
418.6246750839
 30
0.0
 10
961.8053240907
 20
412.7910089544
 30
0.0
 10
958.0546198872
 20
407.4781447364
 30
0.0
 10
953.0940167183
 20
402.8504555468
 30
0.0
 10
947.1150226672
 20
399.0187717899
 30
0.0
 10
937.942167685
 20
395.040055033
 30
0.0
 10
930.3368838983
 20
393.5897242516
 30
0.0
 10
925.19874545
 20
393.2845881763
 30
0.0
  0
SPLINE
  5
6A5
100
AcDbEntity
  8
KONSTRUKTIONSELEMENTE
100
AcDbSpline
 62
7
  6
CONTINUOUS
 70
0
 71
3
 72
14
 73
10
 74
0
 42
0.0000001
 43
0.0000001
 44
0.0000000001
 40
0.0
 40
0.0
 40
0.0
 40
0.0
 40
0.2790606332
 40
0.4126788533
 40
0.540470131
 40
0.662133315
 40
0.7782549324
 40
0.8902282314
 40
1.0
 40
1.0
 40
1.0
 40
1.0
 10
918.1959722608
 20
393.2845711586
 30
0.0
 10
913.0577822747
 20
393.5896942564
 30
0.0
 10
905.4524266011
 20
395.0399897537
 30
0.0
 10
896.2794852542
 20
399.0186934679
 30
0.0
 10
890.3004641649
 20
402.8503801258
 30
0.0
 10
885.3398271684
 20
407.4780564389
 30
0.0
 10
881.5890998255
 20
412.7909264742
 30
0.0
 10
879.2356569901
 20
418.6246173765
 30
0.0
 10
878.6971881841
 20
422.7332035474
 30
0.0
 10
878.6971881841
 20
424.7579313321
 30
0.0
  0
SPLINE
  5
6A6
100
AcDbEntity
  8
RUNDUNGEN
100
AcDbSpline
 62
7
  6
CONTINUOUS
 70
0
 71
3
 72
11
 73
7
 74
0
 42
0.0000001
 43
0.0000001
 44
0.0000000001
 40
0.0
 40
0.0
 40
0.0
 40
0.0
 40
0.2500170449
 40
0.5000257219
 40
0.750017317
 40
1.0
 40
1.0
 40
1.0
 40
1.0
 10
904.0464413549
 20
18.7887421033
 30
0.0
 10
904.3498921623
 20
18.8725065165
 30
0.0
 10
904.9341331743
 20
19.1395707159
 30
0.0
 10
905.6356054105
 20
19.7956049412
 30
0.0
 10
906.091689312
 20
20.641163491
 30
0.0
 10
906.1971881196
 20
21.2755246306
 30
0.0
 10
906.1971881841
 20
21.5902810941
 30
0.0
  0
SPLINE
  5
6A7
100
AcDbEntity
  8
BEZUGSACHSEN
100
AcDbSpline
 62
7
  6
CONTINUOUS
 70
0
 71
3
 72
11
 73
7
 74
0
 42
0.0000001
 43
0.0000001
 44
0.0000000001
 40
0.0
 40
0.0
 40
0.0
 40
0.0
 40
0.2500170449
 40
0.5000257219
 40
0.750017317
 40
1.0
 40
1.0
 40
1.0
 40
1.0
 10
904.0464413549
 20
18.7887421033
 30
0.0
 10
904.3498921623
 20
18.8725065165
 30
0.0
 10
904.9341331743
 20
19.1395707159
 30
0.0
 10
905.6356054105
 20
19.7956049412
 30
0.0
 10
906.091689312
 20
20.641163491
 30
0.0
 10
906.1971881196
 20
21.2755246306
 30
0.0
 10
906.1971881841
 20
21.5902810941
 30
0.0
  0
SPLINE
  5
6A8
100
AcDbEntity
  8
RUNDUNGEN
100
AcDbSpline
 62
7
  6
CONTINUOUS
 70
0
 71
3
 72
11
 73
7
 74
0
 42
0.0000001
 43
0.0000001
 44
0.0000000001
 40
0.0
 40
0.0
 40
0.0
 40
0.0
 40
0.2500170449
 40
0.5000257219
 40
0.750017317
 40
1.0
 40
1.0
 40
1.0
 40
1.0
 10
939.3479350132
 20
70.5748836695
 30
0.0
 10
939.0444842058
 20
70.4911192563
 30
0.0
 10
938.4602431938
 20
70.2240550569
 30
0.0
 10
937.7587709576
 20
69.5680208316
 30
0.0
 10
937.3026870561
 20
68.7224622818
 30
0.0
 10
937.1971882486
 20
68.0881011422
 30
0.0
 10
937.1971881841
 20
67.7733446787
 30
0.0
  0
SPLINE
  5
6A9
100
AcDbEntity
  8
RUNDUNGEN
100
AcDbSpline
 62
7
  6
CONTINUOUS
 70
0
 71
3
 72
11
 73
7
 74
0
 42
0.0000001
 43
0.0000001
 44
0.0000000001
 40
0.0
 40
0.0
 40
0.0
 40
0.0
 40
0.2500159253
 40
0.5000245538
 40
0.7500190856
 40
1.0
 40
1.0
 40
1.0
 40
1.0
 10
854.3158100326
 20
80.9218877283
 30
0.0
 10
853.9595293281
 20
80.9681530078
 30
0.0
 10
853.2574207532
 20
81.1952689358
 30
0.0
 10
852.4035979248
 20
81.8918749259
 30
0.0
 10
851.8596326717
 20
82.8504741267
 30
0.0
 10
851.7563573523
 20
83.5816788802
 30
0.0
 10
851.7730801422
 20
83.9405111767
 30
0.0
  0
SPLINE
  5
6AA
100
AcDbEntity
  8
RUNDUNGEN
100
AcDbSpline
 62
7
  6
CONTINUOUS
 70
0
 71
3
 72
8
 73
4
 74
0
 42
0.0000001
 43
0.0000001
 44
0.0000000001
 40
0.0
 40
0.0
 40
0.0
 40
0.0
 40
1.0
 40
1.0
 40
1.0
 40
1.0
 10
888.5924622968
 20
71.3474077901
 30
0.0
 10
888.6638598957
 20
71.6691536334
 30
0.0
 10
888.6971882931
 20
72.0009907281
 30
0.0
 10
888.6971881841
 20
72.3305631858
 30
0.0
  0
SPLINE
  5
6AB
100
AcDbEntity
  8
RUNDUNGEN
100
AcDbSpline
 62
7
  6
CONTINUOUS
 70
0
 71
3
 72
11
 73
7
 74
0
 42
0.0000001
 43
0.0000001
 44
0.0000000001
 40
0.0
 40
0.0
 40
0.0
 40
0.0
 40
0.2500346322
 40
0.5000539349
 40
0.750042561
 40
1.0
 40
1.0
 40
1.0
 40
1.0
 10
940.1373869093
 20
18.6818169035
 30
0.0
 10
939.75702903
 20
18.6818165182
 30
0.0
 10
938.9882180304
 20
18.831512267
 30
0.0
 10
938.0115502751
 20
19.4744504086
 30
0.0
 10
937.352500655
 20
20.4410165652
 30
0.0
 10
937.197188262
 20
21.2100406426
 30
0.0
 10
937.1971881841
 20
21.5902810941
 30
0.0
  0
SPLINE
  5
6AC
100
AcDbEntity
  8
BEZUGSACHSEN
100
AcDbSpline
 62
7
  6
CONTINUOUS
 70
0
 71
3
 72
9
 73
5
 74
0
 42
0.0000001
 43
0.0000001
 44
0.0000000001
 40
0.0
 40
0.0
 40
0.0
 40
0.0
 40
0.2374333836
 40
1.0
 40
1.0
 40
1.0
 40
1.0
 10
916.801152961
 20
330.0096907442
 30
0.0
 10
916.8875303318
 20
330.1290417496
 30
0.0
 10
917.2817161258
 20
330.6096534698
 30
0.0
 10
917.7837693812
 20
330.996165279
 30
0.0
 10
918.1922612126
 20
331.2349754218
 30
0.0
  0
SPLINE
  5
6AD
100
AcDbEntity
  8
BEZUGSACHSEN
100
AcDbSpline
 62
7
  6
CONTINUOUS
 70
0
 71
3
 72
9
 73
5
 74
0
 42
0.0000001
 43
0.0000001
 44
0.0000000001
 40
0.0
 40
0.0
 40
0.0
 40
0.0
 40
0.2639635848
 40
1.0
 40
1.0
 40
1.0
 40
1.0
 10
925.2021151555
 20
331.2349754218
 30
0.0
 10
925.3434739286
 20
331.1523350696
 30
0.0
 10
925.8644172067
 20
330.8159732598
 30
0.0
 10
926.3255343225
 20
330.3795672647
 30
0.0
 10
926.5932234071
 20
330.0096907442
 30
0.0
  0
SPLINE
  5
6AE
100
AcDbEntity
  8
KONSTRUKTIONSELEMENTE
100
AcDbSpline
 62
7
  6
CONTINUOUS
 70
0
 71
3
 72
11
 73
7
 74
0
 42
0.0000001
 43
0.0000001
 44
0.0000000001
 40
0.0
 40
0.0
 40
0.0
 40
0.0
 40
0.2773556544
 40
0.5416273378
 40
0.7832845041
 40
1.0
 40
1.0
 40
1.0
 40
1.0
 10
969.7021672433
 20
217.2220910539
 30
0.0
 10
970.8423682976
 20
217.2220910539
 30
0.0
 10
973.0773875038
 20
217.4655312933
 30
0.0
 10
976.1449096849
 20
218.542312562
 30
0.0
 10
978.6311805229
 20
220.2382074044
 30
0.0
 10
979.7918023743
 20
221.7871414521
 30
0.0
 10
980.1637889226
 20
222.5966775125
 30
0.0
  0
SPLINE
  5
6AF
100
AcDbEntity
  8
KONSTRUKTIONSELEMENTE
100
AcDbSpline
 62
7
  6
CONTINUOUS
 70
0
 71
3
 72
8
 73
4
 74
0
 42
0.0000001
 43
0.0000001
 44
0.0000000001
 40
0.0
 40
0.0
 40
0.0
 40
0.0
 40
1.0
 40
1.0
 40
1.0
 40
1.0
 10
982.0345930382
 20
226.6680166519
 30
0.0
 10
982.0688811046
 20
226.7426360872
 30
0.0
 10
982.0884374048
 20
226.8263025141
 30
0.0
 10
982.0884307313
 20
226.9084227405
 30
0.0
  0
SPLINE
  5
6B0
100
AcDbEntity
  8
KONSTRUKTIONSELEMENTE
100
AcDbSpline
 62
7
  6
CONTINUOUS
 70
0
 71
3
 72
9
 73
5
 74
0
 42
0.0000001
 43
0.0000001
 44
0.0000000001
 40
0.0
 40
0.0
 40
0.0
 40
0.0
 40
0.5421687125
 40
1.0
 40
1.0
 40
1.0
 40
1.0
 10
1016.3399750268
 20
303.842205234
 30
0.0
 10
1016.613062363
 20
303.7794626209
 30
0.0
 10
1017.1531044187
 20
303.7943948332
 30
0.0
 10
1017.6272607516
 20
304.1265917782
 30
0.0
 10
1017.7260558885
 20
304.3415947837
 30
0.0
  0
SPLINE
  5
6B1
100
AcDbEntity
  8
KONSTRUKTIONSELEMENTE
100
AcDbSpline
 62
7
  6
CONTINUOUS
 70
0
 71
3
 72
9
 73
5
 74
0
 42
0.0000001
 43
0.0000001
 44
0.0000000001
 40
0.0
 40
0.0
 40
0.0
 40
0.0
 40
0.2557501763
 40
1.0
 40
1.0
 40
1.0
 40
1.0
 10
1018.4058932761
 20
305.82109151
 30
0.0
 10
1018.4939356177
 20
306.012693735
 30
0.0
 10
1018.8008706899
 20
306.7783126389
 30
0.0
 10
1018.9442438213
 20
307.610637548
 30
0.0
 10
1018.9442625199
 20
308.224260404
 30
0.0
  0
SPLINE
  5
6B2
100
AcDbEntity
  8
KONSTRUKTIONSELEMENTE
100
AcDbSpline
 62
7
  6
CONTINUOUS
 70
0
 71
3
 72
11
 73
7
 74
0
 42
0.0000001
 43
0.0000001
 44
0.0000000001
 40
0.0
 40
0.0
 40
0.0
 40
0.0
 40
0.2165107186
 40
0.451460212
 40
0.7134365312
 40
1.0
 40
1.0
 40
1.0
 40
1.0
 10
860.0984206025
 20
292.9493478255
 30
0.0
 10
860.0983314204
 20
293.1956877116
 30
0.0
 10
860.2200272944
 20
293.7146989757
 30
0.0
 10
860.7193803019
 20
294.3771530982
 30
0.0
 10
861.4650083442
 20
294.8876462856
 30
0.0
 10
862.0609094936
 20
295.0962575148
 30
0.0
 10
862.3786744895
 20
295.1692649507
 30
0.0
  0
SPLINE
  5
6B3
100
AcDbEntity
  8
BEZUGSACHSEN
100
AcDbSpline
 62
7
  6
CONTINUOUS
 70
0
 71
3
 72
17
 73
13
 74
0
 42
0.0000001
 43
0.0000001
 44
0.0000000001
 40
0.0
 40
0.0
 40
0.0
 40
0.0
 40
0.0517709371
 40
0.1054831679
 40
0.2228477996
 40
0.3562840245
 40
0.5
 40
0.6437159755
 40
0.7771522004
 40
0.8945168321
 40
0.9482290629
 40
1.0
 40
1.0
 40
1.0
 40
1.0
 10
927.1971881841
 20
331.7733896061
 30
0.0
 10
927.1971881841
 20
331.5181698616
 30
0.0
 10
927.1227437387
 20
330.9955679314
 30
0.0
 10
926.6788662801
 20
329.9781770847
 30
0.0
 10
925.5811168423
 20
328.8801377922
 30
0.0
 10
923.7794692992
 20
328.0706096228
 30
0.0
 10
921.6971881841
 20
327.7877954688
 30
0.0
 10
919.6149070689
 20
328.0706096228
 30
0.0
 10
917.8132595258
 20
328.8801377922
 30
0.0
 10
916.715510088
 20
329.9781770847
 30
0.0
 10
916.2716326294
 20
330.9955679314
 30
0.0
 10
916.1971881841
 20
331.5181698616
 30
0.0
 10
916.1971881841
 20
331.7733896061
 30
0.0
  0
SPLINE
  5
6B4
100
AcDbEntity
  8
KONSTRUKTIONSELEMENTE
100
AcDbSpline
 62
7
  6
CONTINUOUS
 70
0
 71
3
 72
11
 73
7
 74
0
 42
0.0000001
 43
0.0000001
 44
0.0000000001
 40
0.0
 40
0.0
 40
0.0
 40
0.0
 40
0.2865634688
 40
0.548539788
 40
0.7834892814
 40
1.0
 40
1.0
 40
1.0
 40
1.0
 10
874.199970944
 20
295.3916770918
 30
0.0
 10
874.5177359399
 20
295.4646845277
 30
0.0
 10
875.1136370894
 20
295.6732957569
 30
0.0
 10
875.8592651317
 20
296.1837889443
 30
0.0
 10
876.3586181392
 20
296.8462430668
 30
0.0
 10
876.4803140131
 20
297.3652543309
 30
0.0
 10
876.480224831
 20
297.6115942171
 30
0.0
  0
SPLINE
  5
6B5
100
AcDbEntity
  8
KONSTRUKTIONSELEMENTE
100
AcDbSpline
 62
7
  6
CONTINUOUS
 70
0
 71
3
 72
11
 73
7
 74
0
 42
0.0000001
 43
0.0000001
 44
0.0000000001
 40
0.0
 40
0.0
 40
0.0
 40
0.0
 40
0.2094829334
 40
0.4446557434
 40
0.7120095299
 40
1.0
 40
1.0
 40
1.0
 40
1.0
 10
907.2871881841
 20
189.2206625189
 30
0.0
 10
907.2871881841
 20
188.9114281267
 30
0.0
 10
907.4880205285
 20
188.2472621089
 30
0.0
 10
908.2569694153
 20
187.4867193362
 30
0.0
 10
909.3371134478
 20
186.99836111
 30
0.0
 10
910.1620625828
 20
186.887210141
 30
0.0
 10
910.5871881841
 20
186.887210141
 30
0.0
  0
SPLINE
  5
6B6
100
AcDbEntity
  8
KONSTRUKTIONSELEMENTE
100
AcDbSpline
 62
7
  6
CONTINUOUS
 70
0
 71
3
 72
10
 73
6
 74
0
 42
0.0000001
 43
0.0000001
 44
0.0000000001
 40
0.0
 40
0.0
 40
0.0
 40
0.0
 40
0.2176045202
 40
0.4537200981
 40
1.0
 40
1.0
 40
1.0
 40
1.0
 10
982.0884307313
 20
230.4439566464
 30
0.0
 10
982.0884240595
 20
230.5260561778
 30
0.0
 10
982.0477294365
 20
230.6990839975
 30
0.0
 10
981.8161224122
 20
231.0063810157
 30
0.0
 10
981.5292208483
 20
231.1375069702
 30
0.0
 10
981.3283495641
 20
231.1836577344
 30
0.0
  0
SPLINE
  5
6B7
100
AcDbEntity
  8
KONSTRUKTIONSELEMENTE
100
AcDbSpline
 62
7
  6
CONTINUOUS
 70
0
 71
3
 72
11
 73
7
 74
0
 42
0.0000001
 43
0.0000001
 44
0.0000000001
 40
0.0
 40
0.0
 40
0.0
 40
0.0
 40
0.2165288793
 40
0.4514682974
 40
0.7134745108
 40
1.0
 40
1.0
 40
1.0
 40
1.0
 10
1018.9442625199
 20
311.7597943099
 30
0.0
 10
1018.9442875402
 20
312.580873382
 30
0.0
 10
1018.5384271206
 20
314.3105875465
 30
0.0
 10
1016.8736238655
 20
316.5182409389
 30
0.0
 10
1014.3883449952
 20
318.2191178688
 30
0.0
 10
1012.4023764205
 20
318.9144077052
 30
0.0
 10
1011.343458535
 20
319.157697182
 30
0.0
  0
SPLINE
  5
6B8
100
AcDbEntity
  8
KONSTRUKTIONSELEMENTE
100
AcDbSpline
 62
7
  6
CONTINUOUS
 70
0
 71
3
 72
11
 73
7
 74
0
 42
0.0000001
 43
0.0000001
 44
0.0000000001
 40
0.0
 40
0.0
 40
0.0
 40
0.0
 40
0.2865336694
 40
0.5485304647
 40
0.7834780293
 40
1.0
 40
1.0
 40
1.0
 40
1.0
 10
967.7282413811
 20
234.3083223092
 30
0.0
 10
966.6694064147
 20
234.5515927351
 30
0.0
 10
964.6836517394
 20
235.2467842747
 30
0.0
 10
962.198554009
 20
236.9473885965
 30
0.0
 10
960.5337642868
 20
239.1545912196
 30
0.0
 10
960.1275500904
 20
240.8840209239
 30
0.0
 10
960.1274343156
 20
241.7049860595
 30
0.0
  0
SPLINE
  5
6B9
100
AcDbEntity
  8
KONSTRUKTIONSELEMENTE
100
AcDbSpline
 62
7
  6
CONTINUOUS
 70
0
 71
3
 72
12
 73
8
 74
0
 42
0.0000001
 43
0.0000001
 44
0.0000000001
 40
0.0
 40
0.0
 40
0.0
 40
0.0
 40
0.2717333359
 40
0.5393349627
 40
0.6659868489
 40
0.785402399
 40
1.0
 40
1.0
 40
1.0
 40
1.0
 10
1002.7398668437
 20
306.9668698088
 30
0.0
 10
1001.3503457158
 20
307.2861163461
 30
0.0
 10
998.4885412816
 20
307.5177652142
 30
0.0
 10
995.0081097925
 20
306.8505734266
 30
0.0
 10
992.5366154458
 20
305.7433031546
 30
0.0
 10
990.5240515108
 20
304.3970761528
 30
0.0
 10
989.3491796973
 20
302.9960765856
 30
0.0
 10
988.8790582264
 20
301.9729743117
 30
0.0
  0
SPLINE
  5
6BA
100
AcDbEntity
  8
KONSTRUKTIONSELEMENTE
100
AcDbSpline
 62
7
  6
CONTINUOUS
 70
0
 71
3
 72
11
 73
7
 74
0
 42
0.0000001
 43
0.0000001
 44
0.0000000001
 40
0.0
 40
0.0
 40
0.0
 40
0.0
 40
0.2777790518
 40
0.5402254587
 40
0.7811583744
 40
1.0
 40
1.0
 40
1.0
 40
1.0
 10
899.8043542554
 20
217.3097137355
 30
0.0
 10
898.8196668307
 20
217.4151187897
 30
0.0
 10
896.9181306593
 20
217.8058865394
 30
0.0
 10
894.3468781084
 20
218.9342952592
 30
0.0
 10
892.2834796717
 20
220.5217182747
 30
0.0
 10
891.3149486325
 20
221.8877453556
 30
0.0
 10
890.9891901654
 20
222.5966775125
 30
0.0
  0
SPLINE
  5
6BB
100
AcDbEntity
  8
KONSTRUKTIONSELEMENTE
100
AcDbSpline
 62
7
  6
CONTINUOUS
 70
0
 71
3
 72
11
 73
7
 74
0
 42
0.0000001
 43
0.0000001
 44
0.0000000001
 40
0.0
 40
0.0
 40
0.0
 40
0.0
 40
0.2865336694
 40
0.5485304647
 40
0.7834780293
 40
1.0
 40
1.0
 40
1.0
 40
1.0
 10
857.1588098633
 20
324.9263087047
 30
0.0
 10
856.0999748969
 20
324.6830382788
 30
0.0
 10
854.1142202216
 20
323.9878467392
 30
0.0
 10
851.6291224913
 20
322.2872424174
 30
0.0
 10
849.964332769
 20
320.0800397943
 30
0.0
 10
849.5581185727
 20
318.3506100901
 30
0.0
 10
849.5580027978
 20
317.5296449545
 30
0.0
  0
SPLINE
  5
6BC
100
AcDbEntity
  8
KONSTRUKTIONSELEMENTE
100
AcDbSpline
 62
7
  6
CONTINUOUS
 70
0
 71
3
 72
9
 73
5
 74
0
 42
0.0000001
 43
0.0000001
 44
0.0000000001
 40
0.0
 40
0.0
 40
0.0
 40
0.0
 40
0.2556232295
 40
1.0
 40
1.0
 40
1.0
 40
1.0
 10
850.0963751222
 20
311.5897030327
 30
0.0
 10
850.0083333946
 20
311.7813039216
 30
0.0
 10
849.7013743459
 20
312.5473467554
 30
0.0
 10
849.5579162058
 20
313.380083027
 30
0.0
 10
849.5580027978
 20
313.9941110486
 30
0.0
  0
SPLINE
  5
6BD
100
AcDbEntity
  8
KONSTRUKTIONSELEMENTE
100
AcDbSpline
 62
7
  6
CONTINUOUS
 70
0
 71
3
 72
9
 73
5
 74
0
 42
0.0000001
 43
0.0000001
 44
0.0000000001
 40
0.0
 40
0.0
 40
0.0
 40
0.0
 40
0.2639692443
 40
1.0
 40
1.0
 40
1.0
 40
1.0
 10
852.4514799464
 20
307.0750219756
 30
0.0
 10
852.3794931832
 20
307.133167558
 30
0.0
 10
852.1178359333
 20
307.3662654966
 30
0.0
 10
851.9037015362
 20
307.6565072985
 30
0.0
 10
851.7959685912
 20
307.8909612169
 30
0.0
  0
SPLINE
  5
6BE
100
AcDbEntity
  8
KONSTRUKTIONSELEMENTE
100
AcDbSpline
 62
7
  6
CONTINUOUS
 70
0
 71
3
 72
9
 73
5
 74
0
 42
0.0000001
 43
0.0000001
 44
0.0000000001
 40
0.0
 40
0.0
 40
0.0
 40
0.0
 40
0.255719081
 40
1.0
 40
1.0
 40
1.0
 40
1.0
 10
944.9071881841
 20
217.9999085132
 30
0.0
 10
944.5256158112
 20
217.9999085132
 30
0.0
 10
943.0348211522
 20
217.9313464158
 30
0.0
 10
941.5520586593
 20
217.5907976964
 30
0.0
 10
940.5231816123
 20
217.1727012445
 30
0.0
  0
SPLINE
  5
6BF
100
AcDbEntity
  8
KONSTRUKTIONSELEMENTE
100
AcDbSpline
 62
7
  6
CONTINUOUS
 70
0
 71
3
 72
9
 73
5
 74
0
 42
0.0000001
 43
0.0000001
 44
0.0000000001
 40
0.0
 40
0.0
 40
0.0
 40
0.0
 40
0.5306957308
 40
1.0
 40
1.0
 40
1.0
 40
1.0
 10
940.2253519783
 20
217.0460919245
 30
0.0
 10
939.3896207484
 20
216.6747797553
 30
0.0
 10
937.8947707238
 20
215.7561738467
 30
0.0
 10
936.8133085526
 20
214.3399358306
 30
0.0
 10
936.4921550691
 20
213.5977236697
 30
0.0
  0
SPLINE
  5
6C0
100
AcDbEntity
  8
KONSTRUKTIONSELEMENTE
100
AcDbSpline
 62
7
  6
CONTINUOUS
 70
0
 71
3
 72
9
 73
5
 74
0
 42
0.0000001
 43
0.0000001
 44
0.0000000001
 40
0.0
 40
0.0
 40
0.0
 40
0.0
 40
0.2552723735
 40
1.0
 40
1.0
 40
1.0
 40
1.0
 10
936.4921550691
 20
213.5977236697
 30
0.0
 10
936.429036964
 20
213.4518525282
 30
0.0
 10
936.2090111558
 20
212.8691042945
 30
0.0
 10
936.1071881841
 20
212.2410612245
 30
0.0
 10
936.1071881841
 20
211.7773688388
 30
0.0
  0
SPLINE
  5
6C1
100
AcDbEntity
  8
KONSTRUKTIONSELEMENTE
100
AcDbSpline
 62
7
  6
CONTINUOUS
 70
0
 71
3
 72
11
 73
7
 74
0
 42
0.0000001
 43
0.0000001
 44
0.0000000001
 40
0.0
 40
0.0
 40
0.0
 40
0.0
 40
0.2865634688
 40
0.548539788
 40
0.7834892814
 40
1.0
 40
1.0
 40
1.0
 40
1.0
 10
872.8402961688
 20
297.5728530852
 30
0.0
 10
873.1580611647
 20
297.645860521
 30
0.0
 10
873.7539623141
 20
297.8544717503
 30
0.0
 10
874.4995903564
 20
298.3649649376
 30
0.0
 10
874.9989433639
 20
299.0274190601
 30
0.0
 10
875.1206392379
 20
299.5464303243
 30
0.0
 10
875.1205500558
 20
299.7927702104
 30
0.0
  0
SPLINE
  5
6C2
100
AcDbEntity
  8
KONSTRUKTIONSELEMENTE
100
AcDbSpline
 62
7
  6
CONTINUOUS
 70
0
 71
3
 72
11
 73
7
 74
0
 42
0.0000001
 43
0.0000001
 44
0.0000000001
 40
0.0
 40
0.0
 40
0.0
 40
0.0
 40
0.2879904701
 40
0.5553442566
 40
0.7905170666
 40
1.0
 40
1.0
 40
1.0
 40
1.0
 10
932.8071881841
 20
186.887210141
 30
0.0
 10
933.2323137853
 20
186.887210141
 30
0.0
 10
934.0572629203
 20
186.99836111
 30
0.0
 10
935.1374069528
 20
187.4867193362
 30
0.0
 10
935.9063558396
 20
188.2472621089
 30
0.0
 10
936.1071881841
 20
188.9114281267
 30
0.0
 10
936.1071881841
 20
189.2206625189
 30
0.0
  0
SPLINE
  5
6C3
100
AcDbEntity
  8
KONSTRUKTIONSELEMENTE
100
AcDbSpline
 62
7
  6
CONTINUOUS
 70
0
 71
3
 72
9
 73
5
 74
0
 42
0.0000001
 43
0.0000001
 44
0.0000000001
 40
0.0
 40
0.0
 40
0.0
 40
0.0
 40
0.2545660971
 40
1.0
 40
1.0
 40
1.0
 40
1.0
 10
900.4559300896
 20
217.9999085132
 30
0.0
 10
900.6604617322
 20
217.9667113126
 30
0.0
 10
901.4603059074
 20
217.8154123423
 30
0.0
 10
902.2449154418
 20
217.5803625282
 30
0.0
 10
902.8085453065
 20
217.3556922631
 30
0.0
  0
SPLINE
  5
6C4
100
AcDbEntity
  8
KONSTRUKTIONSELEMENTE
100
AcDbSpline
 62
7
  6
CONTINUOUS
 70
0
 71
3
 72
9
 73
5
 74
0
 42
0.0000001
 43
0.0000001
 44
0.0000000001
 40
0.0
 40
0.0
 40
0.0
 40
0.0
 40
0.5321075983
 40
1.0
 40
1.0
 40
1.0
 40
1.0
 10
902.9266083388
 20
217.307776705
 30
0.0
 10
903.8211807881
 20
216.9381877809
 30
0.0
 10
905.4225318576
 20
216.003335397
 30
0.0
 10
906.5797288852
 20
214.5127007572
 30
0.0
 10
906.913273561
 20
213.7296765448
 30
0.0
  0
SPLINE
  5
6C5
100
AcDbEntity
  8
KONSTRUKTIONSELEMENTE
100
AcDbSpline
 62
7
  6
CONTINUOUS
 70
0
 71
3
 72
9
 73
5
 74
0
 42
0.0000001
 43
0.0000001
 44
0.0000000001
 40
0.0
 40
0.0
 40
0.0
 40
0.0
 40
0.2549481099
 40
1.0
 40
1.0
 40
1.0
 40
1.0
 10
906.9236152808
 20
213.7052170204
 30
0.0
 10
906.9832613688
 20
213.5630851286
 30
0.0
 10
907.1913470708
 20
212.9951593946
 30
0.0
 10
907.2871881841
 20
212.3855431965
 30
0.0
 10
907.2871881841
 20
211.9350896656
 30
0.0
  0
SPLINE
  5
6C6
100
AcDbEntity
  8
KONSTRUKTIONSELEMENTE
100
AcDbSpline
 62
7
  6
CONTINUOUS
 70
0
 71
3
 72
9
 73
5
 74
0
 42
0.0000001
 43
0.0000001
 44
0.0000000001
 40
0.0
 40
0.0
 40
0.0
 40
0.0
 40
0.2553805419
 40
1.0
 40
1.0
 40
1.0
 40
1.0
 10
860.2599440672
 20
290.2490444335
 30
0.0
 10
860.2335891658
 20
290.3063993113
 30
0.0
 10
860.1416789559
 20
290.5359503366
 30
0.0
 10
860.0984872307
 20
290.7854076248
 30
0.0
 10
860.0984206025
 20
290.9694488381
 30
0.0
  0
SPLINE
  5
6C7
100
AcDbEntity
  8
KONSTRUKTIONSELEMENTE
100
AcDbSpline
 62
7
  6
CONTINUOUS
 70
0
 71
3
 72
9
 73
5
 74
0
 42
0.0000001
 43
0.0000001
 44
0.0000000001
 40
0.0
 40
0.0
 40
0.0
 40
0.0
 40
0.7446194581
 40
1.0
 40
1.0
 40
1.0
 40
1.0
 10
875.1205500558
 20
299.7927702104
 30
0.0
 10
875.1204834276
 20
299.9768114237
 30
0.0
 10
875.0772917024
 20
300.2262687119
 30
0.0
 10
874.9853814924
 20
300.4558197372
 30
0.0
 10
874.9590265911
 20
300.513174615
 30
0.0
  0
SPLINE
  5
6C8
100
AcDbEntity
  8
KONSTRUKTIONSELEMENTE
100
AcDbSpline
 62
7
  6
CONTINUOUS
 70
0
 71
3
 72
11
 73
7
 74
0
 42
0.0000001
 43
0.0000001
 44
0.0000000001
 40
0.0
 40
0.0
 40
0.0
 40
0.0
 40
0.2773556544
 40
0.5416273378
 40
0.7832845041
 40
1.0
 40
1.0
 40
1.0
 40
1.0
 10
969.7021672433
 20
220.7576249598
 30
0.0
 10
970.8423682976
 20
220.7576249598
 30
0.0
 10
973.0773875038
 20
221.0010651992
 30
0.0
 10
976.1449096849
 20
222.0778464679
 30
0.0
 10
978.6311805229
 20
223.7737413103
 30
0.0
 10
979.7918023743
 20
225.3226753581
 30
0.0
 10
980.1637889226
 20
226.1322114184
 30
0.0
  0
SPLINE
  5
6C9
100
AcDbEntity
  8
KONSTRUKTIONSELEMENTE
100
AcDbSpline
 62
7
  6
CONTINUOUS
 70
0
 71
3
 72
12
 73
8
 74
0
 42
0.0000001
 43
0.0000001
 44
0.0000000001
 40
0.0
 40
0.0
 40
0.0
 40
0.0
 40
0.2874378001
 40
0.5543027143
 40
0.7890463209
 40
0.896415877
 40
1.0
 40
1.0
 40
1.0
 40
1.0
 10
940.5071881841
 20
220.7576249598
 30
0.0
 10
939.3735720168
 20
220.7576249598
 30
0.0
 10
937.1737852361
 20
220.459482548
 30
0.0
 10
934.2930572957
 20
219.1643830997
 30
0.0
 10
932.5368072732
 20
217.4073693933
 30
0.0
 10
931.825922025
 20
215.7798153513
 30
0.0
 10
931.7071881841
 20
214.9436071862
 30
0.0
 10
931.7071881841
 20
214.5350852854
 30
0.0
  0
SPLINE
  5
6CA
100
AcDbEntity
  8
KONSTRUKTIONSELEMENTE
100
AcDbSpline
 62
7
  6
CONTINUOUS
 70
0
 71
3
 72
12
 73
8
 74
0
 42
0.0000001
 43
0.0000001
 44
0.0000000001
 40
0.0
 40
0.0
 40
0.0
 40
0.0
 40
0.103584123
 40
0.2109536791
 40
0.4456972857
 40
0.7125621999
 40
1.0
 40
1.0
 40
1.0
 40
1.0
 10
911.6871881841
 20
214.5350852854
 30
0.0
 10
911.6871881841
 20
214.9436071862
 30
0.0
 10
911.5684543431
 20
215.7798153513
 30
0.0
 10
910.8575690949
 20
217.4073693933
 30
0.0
 10
909.1013190724
 20
219.1643830997
 30
0.0
 10
906.220591132
 20
220.459482548
 30
0.0
 10
904.0208043513
 20
220.7576249598
 30
0.0
 10
902.8871881841
 20
220.7576249598
 30
0.0
  0
SPLINE
  5
6CB
100
AcDbEntity
  8
KONSTRUKTIONSELEMENTE
100
AcDbSpline
 62
7
  6
CONTINUOUS
 70
0
 71
3
 72
9
 73
5
 74
0
 42
0.0000001
 43
0.0000001
 44
0.0000000001
 40
0.0
 40
0.0
 40
0.0
 40
0.0
 40
0.24703719
 40
1.0
 40
1.0
 40
1.0
 40
1.0
 10
960.1274343156
 20
241.7049860595
 30
0.0
 10
960.1274055749
 20
241.9087873179
 30
0.0
 10
960.1726319242
 20
242.7335162153
 30
0.0
 10
960.4064419154
 20
243.5449513602
 30
0.0
 10
960.6658066399
 20
244.1093940753
 30
0.0
  0
SPLINE
  5
6CC
100
AcDbEntity
  8
KONSTRUKTIONSELEMENTE
100
AcDbSpline
 62
7
  6
CONTINUOUS
 70
0
 71
3
 72
11
 73
7
 74
0
 42
0.0000001
 43
0.0000001
 44
0.0000000001
 40
0.0
 40
0.0
 40
0.0
 40
0.0
 40
0.2094829334
 40
0.4446557434
 40
0.7120095299
 40
1.0
 40
1.0
 40
1.0
 40
1.0
 10
907.2871881841
 20
191.2005615062
 30
0.0
 10
907.2871881841
 20
190.891327114
 30
0.0
 10
907.4880205285
 20
190.2271610962
 30
0.0
 10
908.2569694153
 20
189.4666183235
 30
0.0
 10
909.3371134478
 20
188.9782600974
 30
0.0
 10
910.1620625828
 20
188.8671091283
 30
0.0
 10
910.5871881841
 20
188.8671091283
 30
0.0
  0
SPLINE
  5
6CD
100
AcDbEntity
  8
KONSTRUKTIONSELEMENTE
100
AcDbSpline
 62
7
  6
CONTINUOUS
 70
0
 71
3
 72
9
 73
5
 74
0
 42
0.0000001
 43
0.0000001
 44
0.0000000001
 40
0.0
 40
0.0
 40
0.0
 40
0.0
 40
0.24703719
 40
1.0
 40
1.0
 40
1.0
 40
1.0
 10
849.5580027978
 20
317.5296449545
 30
0.0
 10
849.5579740572
 20
317.3258436961
 30
0.0
 10
849.6032004065
 20
316.5011147987
 30
0.0
 10
849.8370103976
 20
315.6896796537
 30
0.0
 10
850.0963751222
 20
315.1252369387
 30
0.0
  0
SPLINE
  5
6CE
100
AcDbEntity
  8
KONSTRUKTIONSELEMENTE
100
AcDbSpline
 62
7
  6
CONTINUOUS
 70
0
 71
3
 72
12
 73
8
 74
0
 42
0.0000001
 43
0.0000001
 44
0.0000000001
 40
0.0
 40
0.0
 40
0.0
 40
0.0
 40
0.214597601
 40
0.3340131511
 40
0.4606650373
 40
0.7282666641
 40
1.0
 40
1.0
 40
1.0
 40
1.0
 10
988.8790582264
 20
305.5085082176
 30
0.0
 10
989.3491796973
 20
306.5316104915
 30
0.0
 10
990.5240515108
 20
307.9326100587
 30
0.0
 10
992.5366154458
 20
309.2788370606
 30
0.0
 10
995.0081097925
 20
310.3861073326
 30
0.0
 10
998.4885412816
 20
311.0532991202
 30
0.0
 10
1001.3503457158
 20
310.821650252
 30
0.0
 10
1002.7398668437
 20
310.5024037147
 30
0.0
  0
SPLINE
  5
6CF
100
AcDbEntity
  8
KONSTRUKTIONSELEMENTE
100
AcDbSpline
 62
7
  6
CONTINUOUS
 70
0
 71
3
 72
9
 73
5
 74
0
 42
0.0000001
 43
0.0000001
 44
0.0000000001
 40
0.0
 40
0.0
 40
0.0
 40
0.0
 40
0.7446194581
 40
1.0
 40
1.0
 40
1.0
 40
1.0
 10
876.480224831
 20
297.6115942171
 30
0.0
 10
876.4801582029
 20
297.7956354304
 30
0.0
 10
876.4369664776
 20
298.0450927186
 30
0.0
 10
876.3450562677
 20
298.2746437439
 30
0.0
 10
876.3187013663
 20
298.3319986216
 30
0.0
  0
SPLINE
  5
6D0
100
AcDbEntity
  8
KONSTRUKTIONSELEMENTE
100
AcDbSpline
 62
7
  6
CONTINUOUS
 70
0
 71
3
 72
11
 73
7
 74
0
 42
0.0000001
 43
0.0000001
 44
0.0000000001
 40
0.0
 40
0.0
 40
0.0
 40
0.0
 40
0.2188416256
 40
0.4597745413
 40
0.7222209482
 40
1.0
 40
1.0
 40
1.0
 40
1.0
 10
890.9891901654
 20
226.1322114184
 30
0.0
 10
891.3149486325
 20
225.4232792615
 30
0.0
 10
892.2834796717
 20
224.0572521806
 30
0.0
 10
894.3468781084
 20
222.4698291651
 30
0.0
 10
896.9181306593
 20
221.3414204454
 30
0.0
 10
898.8196668307
 20
220.9506526957
 30
0.0
 10
899.8043542554
 20
220.8452476414
 30
0.0
  0
SPLINE
  5
6D1
100
AcDbEntity
  8
KONSTRUKTIONSELEMENTE
100
AcDbSpline
 62
7
  6
CONTINUOUS
 70
0
 71
3
 72
12
 73
8
 74
0
 42
0.0000001
 43
0.0000001
 44
0.0000000001
 40
0.0
 40
0.0
 40
0.0
 40
0.0
 40
0.1038893022
 40
0.2127454956
 40
0.450602775
 40
0.7166673289
 40
1.0
 40
1.0
 40
1.0
 40
1.0
 10
911.6103787604
 20
214.5763094319
 30
0.0
 10
911.539910315
 20
214.9514534552
 30
0.0
 10
911.2964737235
 20
215.7039854778
 30
0.0
 10
910.4277761715
 20
217.1278499447
 30
0.0
 10
908.6686852881
 20
218.6236577512
 30
0.0
 10
905.9573995937
 20
219.727142407
 30
0.0
 10
903.9281957208
 20
219.9798075005
 30
0.0
 10
902.8871881841
 20
219.9798075005
 30
0.0
  0
SPLINE
  5
6D2
100
AcDbEntity
  8
KONSTRUKTIONSELEMENTE
100
AcDbSpline
 62
7
  6
CONTINUOUS
 70
0
 71
3
 72
9
 73
5
 74
0
 42
0.0000001
 43
0.0000001
 44
0.0000000001
 40
0.0
 40
0.0
 40
0.0
 40
0.0
 40
0.2557501763
 40
1.0
 40
1.0
 40
1.0
 40
1.0
 10
1018.4058932761
 20
309.3566254159
 30
0.0
 10
1018.4939356177
 20
309.548227641
 30
0.0
 10
1018.8008706899
 20
310.3138465448
 30
0.0
 10
1018.9442438213
 20
311.146171454
 30
0.0
 10
1018.9442625199
 20
311.7597943099
 30
0.0
  0
SPLINE
  5
6D3
100
AcDbEntity
  8
KONSTRUKTIONSELEMENTE
100
AcDbSpline
 62
7
  6
CONTINUOUS
 70
0
 71
3
 72
9
 73
5
 74
0
 42
0.0000001
 43
0.0000001
 44
0.0000000001
 40
0.0
 40
0.0
 40
0.0
 40
0.0
 40
0.5421687125
 40
1.0
 40
1.0
 40
1.0
 40
1.0
 10
1016.3399750268
 20
307.3777391399
 30
0.0
 10
1016.613062363
 20
307.3149965268
 30
0.0
 10
1017.1531044187
 20
307.3299287391
 30
0.0
 10
1017.6272607516
 20
307.6621256842
 30
0.0
 10
1017.7260558885
 20
307.8771286896
 30
0.0
  0
SPLINE
  5
6D4
100
AcDbEntity
  8
KONSTRUKTIONSELEMENTE
100
AcDbSpline
 62
7
  6
CONTINUOUS
 70
0
 71
3
 72
9
 73
5
 74
0
 42
0.0000001
 43
0.0000001
 44
0.0000000001
 40
0.0
 40
0.0
 40
0.0
 40
0.0
 40
0.2381299476
 40
1.0
 40
1.0
 40
1.0
 40
1.0
 10
851.7959685912
 20
311.4264951229
 30
0.0
 10
851.8308357399
 20
311.3506154593
 30
0.0
 10
851.9983228267
 20
311.0416641073
 30
0.0
 10
852.2436394999
 20
310.7784340202
 30
0.0
 10
852.4514799464
 20
310.6105558816
 30
0.0
  0
SPLINE
  5
6D5
100
AcDbEntity
  8
BEZUGSACHSEN
100
AcDbSpline
 62
7
  6
CONTINUOUS
 70
0
 71
3
 72
10
 73
6
 74
0
 42
0.0000001
 43
0.0000001
 44
0.0000000001
 40
0.0
 40
0.0
 40
0.0
 40
0.0
 40
0.2291435722
 40
0.4687569581
 40
1.0
 40
1.0
 40
1.0
 40
1.0
 10
916.1971881841
 20
331.7733896061
 30
0.0
 10
916.1971881841
 20
332.0595853974
 30
0.0
 10
916.29170523
 20
332.6488157959
 30
0.0
 10
916.8519145491
 20
333.7810610236
 30
0.0
 10
917.6194530969
 20
334.4356375447
 30
0.0
 10
918.1922612126
 20
334.7705093277
 30
0.0
  0
SPLINE
  5
6D6
100
AcDbEntity
  8
BEZUGSACHSEN
100
AcDbSpline
 62
7
  6
CONTINUOUS
 70
0
 71
3
 72
10
 73
6
 74
0
 42
0.0000001
 43
0.0000001
 44
0.0000000001
 40
0.0
 40
0.0
 40
0.0
 40
0.0
 40
0.5312430419
 40
0.7708564278
 40
1.0
 40
1.0
 40
1.0
 40
1.0
 10
925.2021151555
 20
334.7705093277
 30
0.0
 10
925.7749232712
 20
334.4356375447
 30
0.0
 10
926.542461819
 20
333.7810610236
 30
0.0
 10
927.1026711381
 20
332.6488157959
 30
0.0
 10
927.1971881841
 20
332.0595853974
 30
0.0
 10
927.1971881841
 20
331.7733896061
 30
0.0
  0
SPLINE
  5
6D7
100
AcDbEntity
  8
KONSTRUKTIONSELEMENTE
100
AcDbSpline
 62
7
  6
CONTINUOUS
 70
0
 71
3
 72
9
 73
5
 74
0
 42
0.0000001
 43
0.0000001
 44
0.0000000001
 40
0.0
 40
0.0
 40
0.0
 40
0.0
 40
0.4931897686
 40
1.0
 40
1.0
 40
1.0
 40
1.0
 10
870.1409913201
 20
309.0916810947
 30
0.0
 10
869.9786981494
 20
309.5291405945
 30
0.0
 10
869.3460294872
 20
310.3253571756
 30
0.0
 10
868.3460940143
 20
310.5839118289
 30
0.0
 10
867.8695054796
 20
310.5313349516
 30
0.0
  0
SPLINE
  5
6D8
100
AcDbEntity
  8
KONSTRUKTIONSELEMENTE
100
AcDbSpline
 62
7
  6
CONTINUOUS
 70
0
 71
3
 72
10
 73
6
 74
0
 42
0.0000001
 43
0.0000001
 44
0.0000000001
 40
0.0
 40
0.0
 40
0.0
 40
0.0
 40
0.1683895585
 40
0.402954735
 40
1.0
 40
1.0
 40
1.0
 40
1.0
 10
870.1723533482
 20
310.8795668999
 30
0.0
 10
870.0795286337
 20
310.9935954277
 30
0.0
 10
869.7608793737
 20
311.1787367496
 30
0.0
 10
868.9078940961
 20
311.3693431852
 30
0.0
 10
868.1602945071
 20
311.318496205
 30
0.0
 10
867.6522063269
 20
311.2017614617
 30
0.0
  0
SPLINE
  5
6D9
100
AcDbEntity
  8
KONSTRUKTIONSELEMENTE
100
AcDbSpline
 62
7
  6
CONTINUOUS
 70
0
 71
3
 72
9
 73
5
 74
0
 42
0.0000001
 43
0.0000001
 44
0.0000000001
 40
0.0
 40
0.0
 40
0.0
 40
0.0
 40
0.2553805419
 40
1.0
 40
1.0
 40
1.0
 40
1.0
 10
860.2599440672
 20
292.2289434209
 30
0.0
 10
860.2335891658
 20
292.2862982986
 30
0.0
 10
860.1416789559
 20
292.5158493239
 30
0.0
 10
860.0984872307
 20
292.7653066121
 30
0.0
 10
860.0984206025
 20
292.9493478255
 30
0.0
  0
SPLINE
  5
6DA
100
AcDbEntity
  8
KONSTRUKTIONSELEMENTE
100
AcDbSpline
 62
7
  6
CONTINUOUS
 70
0
 71
3
 72
8
 73
4
 74
0
 42
0.0000001
 43
0.0000001
 44
0.0000000001
 40
0.0
 40
0.0
 40
0.0
 40
0.0
 40
1.0
 40
1.0
 40
1.0
 40
1.0
 10
982.0345930382
 20
230.2035505578
 30
0.0
 10
982.0688811046
 20
230.2781699931
 30
0.0
 10
982.0884374048
 20
230.36183642
 30
0.0
 10
982.0884307313
 20
230.4439566464
 30
0.0
  0
SPLINE
  5
6DB
100
AcDbEntity
  8
KONSTRUKTIONSELEMENTE
100
AcDbSpline
 62
7
  6
CONTINUOUS
 70
0
 71
3
 72
11
 73
7
 74
0
 42
0.0000001
 43
0.0000001
 44
0.0000000001
 40
0.0
 40
0.0
 40
0.0
 40
0.0
 40
0.287605988
 40
0.5510964966
 40
0.7857669704
 40
1.0
 40
1.0
 40
1.0
 40
1.0
 10
900.4559300896
 20
219.9798075005
 30
0.0
 10
901.388725927
 20
219.8284069146
 30
0.0
 10
903.1521256802
 20
219.32669039
 30
0.0
 10
905.3873511699
 20
217.961942519
 30
0.0
 10
906.9094543413
 20
216.1101800096
 30
0.0
 10
907.2871881841
 20
214.6189058596
 30
0.0
 10
907.2871881841
 20
213.9149886529
 30
0.0
  0
SPLINE
  5
6DC
100
AcDbEntity
  8
KONSTRUKTIONSELEMENTE
100
AcDbSpline
 62
7
  6
CONTINUOUS
 70
0
 71
3
 72
12
 73
8
 74
0
 42
0.0000001
 43
0.0000001
 44
0.0000000001
 40
0.0
 40
0.0
 40
0.0
 40
0.0
 40
0.2833326711
 40
0.549397225
 40
0.7872545044
 40
0.8961106978
 40
1.0
 40
1.0
 40
1.0
 40
1.0
 10
940.5071881841
 20
219.9798075005
 30
0.0
 10
939.4661806474
 20
219.9798075005
 30
0.0
 10
937.4369767744
 20
219.727142407
 30
0.0
 10
934.72569108
 20
218.6236577512
 30
0.0
 10
932.9666001967
 20
217.1278499447
 30
0.0
 10
932.0979026447
 20
215.7039854778
 30
0.0
 10
931.8544660531
 20
214.9514534552
 30
0.0
 10
931.7839976077
 20
214.5763094319
 30
0.0
  0
SPLINE
  5
6DD
100
AcDbEntity
  8
KONSTRUKTIONSELEMENTE
100
AcDbSpline
 62
7
  6
CONTINUOUS
 70
0
 71
3
 72
12
 73
8
 74
0
 42
0.0000001
 43
0.0000001
 44
0.0000000001
 40
0.0
 40
0.0
 40
0.0
 40
0.0
 40
0.2874378001
 40
0.5543027143
 40
0.7890463209
 40
0.896415877
 40
1.0
 40
1.0
 40
1.0
 40
1.0
 10
944.9071881841
 20
219.9798075005
 30
0.0
 10
943.7735720168
 20
219.9798075005
 30
0.0
 10
941.5737852361
 20
219.6816650887
 30
0.0
 10
938.6930572957
 20
218.3865656404
 30
0.0
 10
936.9368072732
 20
216.629551934
 30
0.0
 10
936.225922025
 20
215.001997892
 30
0.0
 10
936.1071881841
 20
214.1657897269
 30
0.0
 10
936.1071881841
 20
213.7572678261
 30
0.0
  0
SPLINE
  5
6DE
100
AcDbEntity
  8
KONSTRUKTIONSELEMENTE
100
AcDbSpline
 62
7
  6
CONTINUOUS
 70
0
 71
3
 72
11
 73
7
 74
0
 42
0.0000001
 43
0.0000001
 44
0.0000000001
 40
0.0
 40
0.0
 40
0.0
 40
0.0
 40
0.2879904701
 40
0.5553442566
 40
0.7905170666
 40
1.0
 40
1.0
 40
1.0
 40
1.0
 10
932.8071881841
 20
188.8671091283
 30
0.0
 10
933.2323137853
 20
188.8671091283
 30
0.0
 10
934.0572629203
 20
188.9782600974
 30
0.0
 10
935.1374069528
 20
189.4666183235
 30
0.0
 10
935.9063558396
 20
190.2271610962
 30
0.0
 10
936.1071881841
 20
190.891327114
 30
0.0
 10
936.1071881841
 20
191.2005615062
 30
0.0
  0
SPLINE
  5
6DF
100
AcDbEntity
  8
BEZUGSACHSEN
100
AcDbSpline
 62
7
  6
CONTINUOUS
 70
0
 71
3
 72
11
 73
7
 74
0
 42
0.0000001
 43
0.0000001
 44
0.0000000001
 40
0.0
 40
0.0
 40
0.0
 40
0.0
 40
0.2500159253
 40
0.5000245538
 40
0.7500190856
 40
1.0
 40
1.0
 40
1.0
 40
1.0
 10
854.3158100326
 20
80.9218877283
 30
0.0
 10
853.9595293281
 20
80.9681530078
 30
0.0
 10
853.2574207532
 20
81.1952689358
 30
0.0
 10
852.4035979248
 20
81.8918749259
 30
0.0
 10
851.8596326717
 20
82.8504741267
 30
0.0
 10
851.7563573523
 20
83.5816788802
 30
0.0
 10
851.7730801422
 20
83.9405111767
 30
0.0
  0
SPLINE
  5
6E0
100
AcDbEntity
  8
BEZUGSACHSEN
100
AcDbSpline
 62
7
  6
CONTINUOUS
 70
0
 71
3
 72
8
 73
4
 74
0
 42
0.0000001
 43
0.0000001
 44
0.0000000001
 40
0.0
 40
0.0
 40
0.0
 40
0.0
 40
1.0
 40
1.0
 40
1.0
 40
1.0
 10
888.5924622968
 20
71.3474077901
 30
0.0
 10
888.6638598957
 20
71.6691536334
 30
0.0
 10
888.6971882931
 20
72.0009907281
 30
0.0
 10
888.6971881841
 20
72.3305631858
 30
0.0
  0
SPLINE
  5
6E1
100
AcDbEntity
  8
BEZUGSACHSEN
100
AcDbSpline
 62
7
  6
CONTINUOUS
 70
0
 71
3
 72
11
 73
7
 74
0
 42
0.0000001
 43
0.0000001
 44
0.0000000001
 40
0.0
 40
0.0
 40
0.0
 40
0.0
 40
0.2500346322
 40
0.5000539349
 40
0.750042561
 40
1.0
 40
1.0
 40
1.0
 40
1.0
 10
940.1373869093
 20
18.6818169035
 30
0.0
 10
939.75702903
 20
18.6818165182
 30
0.0
 10
938.9882180304
 20
18.831512267
 30
0.0
 10
938.0115502751
 20
19.4744504086
 30
0.0
 10
937.352500655
 20
20.4410165652
 30
0.0
 10
937.197188262
 20
21.2100406426
 30
0.0
 10
937.1971881841
 20
21.5902810941
 30
0.0
  0
SPLINE
  5
6E2
100
AcDbEntity
  8
RUNDUNGEN
100
AcDbSpline
 62
7
  6
CONTINUOUS
 70
0
 71
3
 72
11
 73
7
 74
0
 42
0.0000001
 43
0.0000001
 44
0.0000000001
 40
0.0
 40
0.0
 40
0.0
 40
0.0
 40
0.2500346322
 40
0.5000539349
 40
0.750042561
 40
1.0
 40
1.0
 40
1.0
 40
1.0
 10
903.2569894588
 20
70.6818088693
 30
0.0
 10
903.6373473381
 20
70.6818092546
 30
0.0
 10
904.4061583377
 20
70.5321135058
 30
0.0
 10
905.382826093
 20
69.8891753642
 30
0.0
 10
906.0418757131
 20
68.9226092076
 30
0.0
 10
906.1971881061
 20
68.1535851302
 30
0.0
 10
906.1971881841
 20
67.7733446787
 30
0.0
  0
SPLINE
  5
6E3
100
AcDbEntity
  8
RUNDUNGEN
100
AcDbSpline
 62
7
  6
CONTINUOUS
 70
0
 71
3
 72
8
 73
4
 74
0
 42
0.0000001
 43
0.0000001
 44
0.0000000001
 40
0.0
 40
0.0
 40
0.0
 40
0.0
 40
1.0
 40
1.0
 40
1.0
 40
1.0
 10
954.8019140714
 20
18.0162179827
 30
0.0
 10
954.7305164724
 20
17.6944721394
 30
0.0
 10
954.6971880751
 20
17.3626350447
 30
0.0
 10
954.6971881841
 20
17.033062587
 30
0.0
  0
SPLINE
  5
6E4
100
AcDbEntity
  8
RUNDUNGEN
100
AcDbSpline
 62
7
  6
CONTINUOUS
 70
0
 71
3
 72
11
 73
7
 74
0
 42
0.0000001
 43
0.0000001
 44
0.0000000001
 40
0.0
 40
0.0
 40
0.0
 40
0.0
 40
0.2500159253
 40
0.5000245538
 40
0.7500190856
 40
1.0
 40
1.0
 40
1.0
 40
1.0
 10
989.0785663356
 20
8.4417380445
 30
0.0
 10
989.43484704
 20
8.3954727649
 30
0.0
 10
990.1369556149
 20
8.168356837
 30
0.0
 10
990.9907784434
 20
7.4717508469
 30
0.0
 10
991.5347436964
 20
6.5131516461
 30
0.0
 10
991.6380190159
 20
5.7819468926
 30
0.0
 10
991.6212962259
 20
5.4231145961
 30
0.0
  0
SPLINE
  5
6E5
100
AcDbEntity
  8
BEZUGSACHSEN
100
AcDbSpline
 62
7
  6
CONTINUOUS
 70
0
 71
3
 72
17
 73
13
 74
0
 42
0.0000001
 43
0.0000001
 44
0.0000000001
 40
0.0
 40
0.0
 40
0.0
 40
0.0
 40
0.0286891105
 40
0.0564933801
 40
0.0866521338
 40
0.1217169334
 40
0.2113905047
 40
0.3291711722
 40
0.4725291447
 40
0.6364473222
 40
0.8146057617
 40
1.0
 40
1.0
 40
1.0
 40
1.0
 10
888.7971881841
 20
57.4112489753
 30
0.0
 10
888.7971881841
 20
57.3669533102
 30
0.0
 10
888.7855422541
 20
57.2787591432
 30
0.0
 10
888.7223131144
 20
57.1578534187
 30
0.0
 10
888.6166107745
 20
57.057625209
 30
0.0
 10
888.4072287834
 20
56.938979893
 30
0.0
 10
888.0420220221
 20
56.8397966159
 30
0.0
 10
887.5048418348
 20
56.770529025
 30
0.0
 10
886.8486523918
 20
56.7379078174
 30
0.0
 10
886.0990061971
 20
56.7387520958
 30
0.0
 10
885.285105515
 20
56.7737393153
 30
0.0
 10
884.725615488
 20
56.8220917431
 30
0.0
 10
884.4411881841
 20
56.8543134723
 30
0.0
  0
SPLINE
  5
6E6
100
AcDbEntity
  8
BEZUGSACHSEN
100
AcDbSpline
 62
7
  6
CONTINUOUS
 70
0
 71
3
 72
17
 73
13
 74
0
 42
0.0000001
 43
0.0000001
 44
0.0000000001
 40
0.0
 40
0.0
 40
0.0
 40
0.0
 40
0.0286891105
 40
0.0564933801
 40
0.0866521338
 40
0.1217169334
 40
0.2113905047
 40
0.3291711722
 40
0.4725291447
 40
0.6364473222
 40
0.8146057617
 40
1.0
 40
1.0
 40
1.0
 40
1.0
 10
954.5971881841
 20
31.9523767975
 30
0.0
 10
954.5971881841
 20
31.9966724626
 30
0.0
 10
954.6088341141
 20
32.0848666296
 30
0.0
 10
954.6720632537
 20
32.2057723541
 30
0.0
 10
954.7777655936
 20
32.3060005638
 30
0.0
 10
954.9871475847
 20
32.4246458798
 30
0.0
 10
955.352354346
 20
32.5238291569
 30
0.0
 10
955.8895345334
 20
32.5930967478
 30
0.0
 10
956.5457239763
 20
32.6257179554
 30
0.0
 10
957.2953701711
 20
32.624873677
 30
0.0
 10
958.1092708531
 20
32.5898864575
 30
0.0
 10
958.6687608801
 20
32.5415340297
 30
0.0
 10
958.9531881841
 20
32.5093123005
 30
0.0
  0
SPLINE
  5
6E7
100
AcDbEntity
  8
BEZUGSACHSEN
100
AcDbSpline
 62
7
  6
CONTINUOUS
 70
0
 71
3
 72
13
 73
9
 74
0
 42
0.0000001
 43
0.0000001
 44
0.0000000001
 40
0.0
 40
0.0
 40
0.0
 40
0.0
 40
0.249992652
 40
0.3749933814
 40
0.4999917427
 40
0.6249913645
 40
0.7499942046
 40
1.0
 40
1.0
 40
1.0
 40
1.0
 10
958.9531881841
 20
32.5093123005
 30
0.0
 10
960.4895074817
 20
32.3352683051
 30
0.0
 10
962.7952525508
 20
32.0724912535
 30
0.0
 10
965.8856310156
 20
31.9270285112
 30
0.0
 10
968.2060448434
 20
31.9460991931
 30
0.0
 10
970.5218315479
 20
32.0888804018
 30
0.0
 10
973.5990814092
 20
32.397485484
 30
0.0
 10
975.9012497335
 20
32.6832475658
 30
0.0
 10
977.4411881841
 20
32.8225646171
 30
0.0
  0
SPLINE
  5
6E8
100
AcDbEntity
  8
BEZUGSACHSEN
100
AcDbSpline
 62
7
  6
CONTINUOUS
 70
0
 71
3
 72
19
 73
15
 74
0
 42
0.0000001
 43
0.0000001
 44
0.0000000001
 40
0.0
 40
0.0
 40
0.0
 40
0.0
 40
0.1916264007
 40
0.3758778489
 40
0.5456434943
 40
0.6943570095
 40
0.7590052368
 40
0.8163573425
 40
0.8659165755
 40
0.9073268439
 40
0.9404665843
 40
0.9656473924
 40
0.9842430728
 40
1.0
 40
1.0
 40
1.0
 40
1.0
 10
977.4411881841
 20
32.8225646171
 30
0.0
 10
977.72401859
 20
32.8481520672
 30
0.0
 10
978.2798765298
 20
32.8866194572
 30
0.0
 10
979.0879396356
 20
32.9187704847
 30
0.0
 10
979.8329118455
 20
32.9316365563
 30
0.0
 10
980.4007683227
 20
32.9291300734
 30
0.0
 10
980.8018072296
 20
32.9171591412
 30
0.0
 10
981.0557223253
 20
32.903686098
 30
0.0
 10
981.274785288
 20
32.8846672036
 30
0.0
 10
981.4570266631
 20
32.8593113215
 30
0.0
 10
981.6015719021
 20
32.8264826912
 30
0.0
 10
981.7080969848
 20
32.7850666745
 30
0.0
 10
981.7805234203
 20
32.7294294127
 30
0.0
 10
981.7971881841
 20
32.6772932407
 30
0.0
 10
981.7971881841
 20
32.6539418726
 30
0.0
  0
SPLINE
  5
6E9
100
AcDbEntity
  8
BEZUGSACHSEN
100
AcDbSpline
 62
7
  6
CONTINUOUS
 70
0
 71
3
 72
19
 73
15
 74
0
 42
0.0000001
 43
0.0000001
 44
0.0000000001
 40
0.0
 40
0.0
 40
0.0
 40
0.0
 40
0.1916264007
 40
0.3758778489
 40
0.5456434943
 40
0.6943570095
 40
0.7590052368
 40
0.8163573425
 40
0.8659165755
 40
0.9073268439
 40
0.9404665843
 40
0.9656473924
 40
0.9842430728
 40
1.0
 40
1.0
 40
1.0
 40
1.0
 10
865.9531881841
 20
56.5410611557
 30
0.0
 10
865.6703577781
 20
56.5154737056
 30
0.0
 10
865.1144998384
 20
56.4770063156
 30
0.0
 10
864.3064367325
 20
56.4448552881
 30
0.0
 10
863.5614645226
 20
56.4319892165
 30
0.0
 10
862.9936080454
 20
56.4344956994
 30
0.0
 10
862.5925691386
 20
56.4464666316
 30
0.0
 10
862.3386540429
 20
56.4599396748
 30
0.0
 10
862.1195910801
 20
56.4789585692
 30
0.0
 10
861.937349705
 20
56.5043144513
 30
0.0
 10
861.792804466
 20
56.5371430816
 30
0.0
 10
861.6862793833
 20
56.5785590983
 30
0.0
 10
861.6138529478
 20
56.6341963601
 30
0.0
 10
861.5971881841
 20
56.6863325321
 30
0.0
 10
861.5971881841
 20
56.7096839002
 30
0.0
  0
SPLINE
  5
6EA
100
AcDbEntity
  8
BEZUGSACHSEN
100
AcDbSpline
 62
7
  6
CONTINUOUS
 70
0
 71
3
 72
13
 73
9
 74
0
 42
0.0000001
 43
0.0000001
 44
0.0000000001
 40
0.0
 40
0.0
 40
0.0
 40
0.0
 40
0.249992652
 40
0.3749933814
 40
0.4999917427
 40
0.6249913645
 40
0.7499942046
 40
1.0
 40
1.0
 40
1.0
 40
1.0
 10
884.4411881841
 20
56.8543134723
 30
0.0
 10
882.9048688864
 20
57.0283574677
 30
0.0
 10
880.5991238173
 20
57.2911345193
 30
0.0
 10
877.5087453525
 20
57.4365972616
 30
0.0
 10
875.1883315247
 20
57.4175265797
 30
0.0
 10
872.8725448202
 20
57.274745371
 30
0.0
 10
869.7952949589
 20
56.9661402888
 30
0.0
 10
867.4931266346
 20
56.680378207
 30
0.0
 10
865.9531881841
 20
56.5410611557
 30
0.0
  0
SPLINE
  5
6EB
100
AcDbEntity
  8
BEZUGSACHSEN
100
AcDbSpline
 62
7
  6
CONTINUOUS
 70
0
 71
3
 72
15
 73
11
 74
0
 42
0.0000001
 43
0.0000001
 44
0.0000000001
 40
0.0
 40
0.0
 40
0.0
 40
0.0
 40
0.1249957277
 40
0.2499926461
 40
0.374990892
 40
0.4999903862
 40
0.6249912578
 40
0.7499931278
 40
0.8749961212
 40
1.0
 40
1.0
 40
1.0
 40
1.0
 10
841.3629488625
 20
387.6818128864
 30
0.0
 10
841.195627106
 20
391.9837042014
 30
0.0
 10
841.5642251854
 20
400.631131385
 30
0.0
 10
844.2016197243
 20
413.3293032382
 30
0.0
 10
848.8421539395
 20
425.4429300825
 30
0.0
 10
855.3559515314
 20
436.6595387969
 30
0.0
 10
863.5675358747
 20
446.6995308927
 30
0.0
 10
873.2631299934
 20
455.3156113225
 30
0.0
 10
884.1902758772
 20
462.2975965632
 30
0.0
 10
892.1220766367
 20
465.7553682571
 30
0.0
 10
896.1913350334
 20
467.1617177561
 30
0.0
  0
SPLINE
  5
6EC
100
AcDbEntity
  8
BEZUGSACHSEN
100
AcDbSpline
 62
7
  6
CONTINUOUS
 70
0
 71
3
 72
15
 73
11
 74
0
 42
0.0000001
 43
0.0000001
 44
0.0000000001
 40
0.0
 40
0.0
 40
0.0
 40
0.0
 40
0.1249957277
 40
0.2499926461
 40
0.374990892
 40
0.4999903862
 40
0.6249912578
 40
0.7499931278
 40
0.8749961212
 40
1.0
 40
1.0
 40
1.0
 40
1.0
 10
1002.0314275057
 20
387.6818128864
 30
0.0
 10
1002.1987492621
 20
391.9837042014
 30
0.0
 10
1001.8301511828
 20
400.631131385
 30
0.0
 10
999.1927566439
 20
413.3293032382
 30
0.0
 10
994.5522224286
 20
425.4429300825
 30
0.0
 10
988.0384248368
 20
436.6595387969
 30
0.0
 10
979.8268404935
 20
446.6995308927
 30
0.0
 10
970.1312463747
 20
455.3156113225
 30
0.0
 10
959.2041004909
 20
462.2975965632
 30
0.0
 10
951.2722997315
 20
465.7553682571
 30
0.0
 10
947.2030413347
 20
467.1617177561
 30
0.0
  0
SPLINE
  5
6ED
100
AcDbEntity
  8
BEZUGSACHSEN
100
AcDbSpline
 62
7
  6
CONTINUOUS
 70
0
 71
3
 72
18
 73
14
 74
0
 42
0.0000001
 43
0.0000001
 44
0.0000000001
 40
0.0
 40
0.0
 40
0.0
 40
0.0
 40
0.0060107425
 40
0.0234216241
 40
0.051367386
 40
0.0890758795
 40
0.1358577878
 40
0.1910550671
 40
0.3238195367
 40
0.480222795
 40
0.6506436704
 40
0.825611931
 40
1.0
 40
1.0
 40
1.0
 40
1.0
 10
998.1971903224
 20
287.6818017817
 30
0.0
 10
998.1882242537
 20
287.7071047479
 30
0.0
 10
998.1449040778
 20
287.8024996094
 30
0.0
 10
998.0447556818
 20
288.0088284305
 30
0.0
 10
997.8616043752
 20
288.3318241226
 30
0.0
 10
997.5931507411
 20
288.7563362585
 30
0.0
 10
997.2346854199
 20
289.2672259359
 30
0.0
 10
996.5972606483
 20
290.0998856844
 30
0.0
 10
995.5953401142
 20
291.2680599575
 30
0.0
 10
994.1979414301
 20
292.7715170191
 30
0.0
 10
992.6624476252
 20
294.4039101075
 30
0.0
 10
991.1199792097
 20
296.1395317769
 30
0.0
 10
990.129982217
 20
297.3457181859
 30
0.0
 10
989.625745868
 20
297.9392906424
 30
0.0
  0
SPLINE
  5
6EE
100
AcDbEntity
  8
RUNDUNGEN
100
AcDbSpline
 62
7
  6
CONTINUOUS
 70
0
 71
3
 72
15
 73
11
 74
0
 42
0.0000001
 43
0.0000001
 44
0.0000000001
 40
0.0
 40
0.0
 40
0.0
 40
0.0
 40
0.023954919
 40
0.0899093757
 40
0.192012644
 40
0.3247709664
 40
0.4810325607
 40
0.6512133043
 40
0.8258984814
 40
1.0
 40
1.0
 40
1.0
 40
1.0
 10
845.1972075388
 20
287.6818587336
 30
0.0
 10
845.2350378452
 20
287.7819256977
 30
0.0
 10
845.4175168853
 20
288.140951056
 30
0.0
 10
845.8637232372
 20
288.873778247
 30
0.0
 10
846.6700893564
 20
289.9509199472
 30
0.0
 10
847.8071825546
 20
291.277504867
 30
0.0
 10
849.203967049
 20
292.7793197233
 30
0.0
 10
850.7370930512
 20
294.4095993878
 30
0.0
 10
852.2769197257
 20
296.1425816678
 30
0.0
 10
853.2652504347
 20
297.3467261781
 30
0.0
 10
853.7686305001
 20
297.9392906424
 30
0.0
  0
ELLIPSE
  5
6EF
100
AcDbEntity
  8
0
100
AcDbEllipse
 62
7
  6
CONTINUOUS
 10
1007.6971881841
 20
44.6818128864
 30
0.0
 11
-0.0
 21
8.712
 31
0.0
 40
0.1051042353
 41
-0.0
 42
3.1415926536
  0
ELLIPSE
  5
6F0
100
AcDbEntity
  8
0
100
AcDbEllipse
 62
7
  6
CONTINUOUS
 10
937.1971881841
 20
44.6818128864
 30
0.0
 11
0.0
 21
8.5305
 31
0.0
 40
0.1583844403
 41
3.1415926536
 42
6.2831853072
  0
ELLIPSE
  5
6F1
100
AcDbEntity
  8
KONSTRUKTIONSELEMENTE
100
AcDbEllipse
 62
7
  6
CONTINUOUS
 10
854.934455095
 20
307.6927988417
 30
0.0
 11
3.2999138614
 21
0.7218827969
 31
0.0
 40
0.0330294486
 41
-2.4297450715
 42
-1.2638623942
  0
ELLIPSE
  5
6F2
100
AcDbEntity
  8
KONSTRUKTIONSELEMENTE
100
AcDbEllipse
 62
7
  6
CONTINUOUS
 10
867.908204387
 20
308.5233251095
 30
0.0
 11
-1.8159852916
 21
1.2949601975
 31
0.0
 40
0.8040646284
 41
4.0929319743
 42
5.403653476
  0
ELLIPSE
  5
6F3
100
AcDbEntity
  8
KONSTRUKTIONSELEMENTE
100
AcDbEllipse
 62
7
  6
CONTINUOUS
 10
854.934455095
 20
313.0668103788
 30
0.0
 11
-0.997053051
 21
4.5577886021
 31
0.0
 40
0.690197126
 41
-4.3002499981
 42
-3.1343673208
  0
ELLIPSE
  5
6F4
100
AcDbEntity
  8
KONSTRUKTIONSELEMENTE
100
AcDbEllipse
 62
7
  6
CONTINUOUS
 10
867.908204387
 20
312.0588590154
 30
0.0
 11
-1.8159852916
 21
1.2949601975
 31
0.0
 40
0.8040646284
 41
-2.1902533329
 42
-0.6194570061
  0
ELLIPSE
  5
6F5
100
AcDbEntity
  8
0
100
AcDbEllipse
 62
7
  6
CONTINUOUS
 10
835.6971881841
 20
44.6818128864
 30
0.0
 11
0.0
 21
8.712
 31
0.0
 40
0.1051042353
 41
-3.1415926536
 42
0.0
  0
ELLIPSE
  5
6F6
100
AcDbEntity
  8
BEZUGSACHSEN
100
AcDbEllipse
 62
7
  6
CONTINUOUS
 10
1007.6971881841
 20
44.6818128864
 30
0.0
 11
-0.0
 21
8.712
 31
0.0
 40
0.1051042353
 41
-0.0
 42
3.1415926536
  0
ELLIPSE
  5
6F7
100
AcDbEntity
  8
BEZUGSACHSEN
100
AcDbEllipse
 62
7
  6
CONTINUOUS
 10
937.1971881841
 20
44.6818128864
 30
0.0
 11
-0.0
 21
8.5305
 31
0.0
 40
0.1583844403
 41
-3.1415926536
 42
0.0
  0
ELLIPSE
  5
6F8
100
AcDbEntity
  8
0
100
AcDbEllipse
 62
7
  6
CONTINUOUS
 10
906.1971881841
 20
44.6818128864
 30
0.0
 11
-0.0
 21
8.5305
 31
0.0
 40
0.1583844403
 41
0.0
 42
3.1415926536
  0
ENDSEC
  0
SECTION
  2
OBJECTS
  0
DICTIONARY
  5
C
100
AcDbDictionary
280
0
281
1
  3
ACAD_GROUP
350
D
  3
ACAD_MLINESTYLE
350
17
  3
ACAD_LAYOUT
350
1A
  3
ACAD_PLOTSETTINGS
350
19
  3
ACAD_PLOTSTYLENAME
350
E
  0
DICTIONARY
  5
D
102
{ACAD_REACTORS
330
C
102
}
100
AcDbDictionary
280
0
281
1
  0
ACDBDICTIONARYWDFLT
  5
E
102
{ACAD_REACTORS
330
C
102
}
100
AcDbDictionary
281
1
  3
Normal
350
F
100
AcDbDictionaryWithDefault
340
F
  0
DICTIONARY
  5
17
102
{ACAD_REACTORS
330
C
102
}
100
AcDbDictionary
280
0
281
1
  3
Standard
350
18
  0
DICTIONARY
  5
19
102
{ACAD_REACTORS
330
C
102
}
100
AcDbDictionary
281
1
  0
DICTIONARY
  5
1A
102
{ACAD_REACTORS
330
C
102
}
100
AcDbDictionary
281
1
  3
Model
350
6F9
  3
Layout1
350
6FA
  0
ACDBPLACEHOLDER
  5
F
102
{ACAD_REACTORS
330
E
102
}
  0
MLINESTYLE
  5
18
102
{ACAD_REACTORS
330
17
102
}
100
AcDbMlineStyle
  2
STANDARD
 70
0
  3

 62
256
 51
90.0
 52
90.0
 71
2
 49
0.5
 62
256
  6
BYLAYER
 49
-0.5
 62
256
  6
BYLAYER
  0
LAYOUT
  5
6F9
102
{ACAD_REACTORS
330
1A
102
}
100
AcDbPlotSettings
  1

  2
none_device
  4
ISO_A0_(1189.00_x_841.00_MM)
  6

 40
0.0
 41
0.0
 42
0.0
 43
0.0
 44
1189.0
 45
841.0
 46
0.0
 47
0.0
 48
0.0
 49
0.0
140
0.0
141
0.0
142
1.0
143
1.0
 70
1024
 72
1
 73
0
 74
0
  7

 75
0
147
1.0
148
0.0
149
0.0
100
AcDbLayout
  1
Model
 70
0
 71
0
 10
0.0
 20
0.0
 11
1189.0
 21
841.0
 12
0.0
 22
0.0
 32
0.0
 14
0.0
 24
0.0
 34
0.0
 15
0.0
 25
0.0
 35
0.0
146
0.0
 13
0.0
 23
0.0
 33
0.0
 16
1.0
 26
0.0
 36
0.0
 17
0.0
 27
1.0
 37
0.0
 76
0
330
20E
345
0
346
0
  0
LAYOUT
  5
6FA
102
{ACAD_REACTORS
330
1A
102
}
100
AcDbPlotSettings
  1

  2
none_device
  4
ISO_A0_(1189.00_x_841.00_MM)
  6

 40
0.0
 41
0.0
 42
0.0
 43
0.0
 44
1189.0
 45
841.0
 46
0.0
 47
0.0
 48
0.0
 49
0.0
140
0.0
141
0.0
142
1.0
143
1.0
 70
0
 72
1
 73
0
 74
0
  7

 75
0
147
1.0
148
0.0
149
0.0
100
AcDbLayout
  1
Layout1
 70
0
 71
1
 10
0.0
 20
0.0
 11
1189.0
 21
841.0
 12
0.0
 22
0.0
 32
0.0
 14
0.0
 24
0.0
 34
0.0
 15
0.0
 25
0.0
 35
0.0
146
0.0
 13
0.0
 23
0.0
 33
0.0
 16
1.0
 26
0.0
 36
0.0
 17
0.0
 27
1.0
 37
0.0
 76
0
330
20F
345
0
346
0
  0
ENDSEC
  0
EOF
