999
DXF file: VWK-2S-20_7904507_M34927-P-6.dxf
999
Pro/ENGINEER 2011490 by Parametric Technology Corporation
  0
SECTION
  2
HEADER
  9
$ACADVER
  1
AC1015
  9
$DWGCODEPAGE
  3
ANSI_1252
  9
$EXTMAX
 10
1189.0
 20
841.0
 30
0.0
  9
$EXTMIN
 10
0.0
 20
0.0
 30
0.0
  9
$LIMMIN
 10
0.0
 20
0.0
  9
$LIMMAX
 10
1189.0
 20
841.0
  9
$VIEWCTR
 10
594.5
 20
420.5
  9
$VIEWSIZE
 40
841.0
  9
$CLAYER
  8
0
  9
$LTSCALE
 40
65.395
  9
$CELTYPE
  6
BYLAYER
  9
$DIMSCALE
 40
1.0
  9
$DIMASZ
 40
3.5
  9
$DIMEXO
 40
7.43125
  9
$DIMDLI
 40
45.182
  9
$DIMEXE
 40
21.402
  9
$DIMCEN
 40
10.701
  9
$DIMLFAC
 40
1.0
  9
$DIMBLK
  1
_FILLED
  9
$DIMTXT
 40
3.5
  9
$DIMTOL
 70
1
  9
$DIMLIM
 70
0
  9
$DIMTFAC
 40
1.0
  9
$DIMTP
 40
0.005
  9
$DIMTM
 40
0.005
  9
$PDMODE
 70
3
  9
$PDSIZE
 40
0.3125
  9
$HANDSEED
  5
565
  9
$TILEMODE
 70
1
  9
$MEASUREMENT
 70
1
  9
$INSUNITS
 70
4
  0
ENDSEC
  0
SECTION
  2
CLASSES
  0
CLASS
  1
ACDBDICTIONARYWDFLT
  2
AcDbDictionaryWithDefault
  3
AutoCAD 2000
 90
0
280
0
281
0
  0
CLASS
  1
ACDBPLACEHOLDER
  2
AcDbPlaceHolder
  3
AutoCAD 2000
 90
0
280
0
281
0
  0
CLASS
  1
LAYOUT
  2
AcDbLayout
  3
AutoCAD 2000
 90
0
280
0
281
0
  0
ENDSEC
  0
SECTION
  2
TABLES
  0
TABLE
  2
VPORT
  5
8
100
AcDbSymbolTable
 70
2
  0
VPORT
  5
1F4
100
AcDbSymbolTableRecord
100
AcDbViewportTableRecord
  2
*ACTIVE
 70
0
 10
0.0
 20
0.0
 11
1.0
 21
1.0
 12
594.5
 22
420.5
 13
0.0
 23
0.0
 14
1.0
 24
1.0
 15
0.0
 25
0.0
 16
0.0
 26
0.0
 36
1.0
 17
0.0
 27
0.0
 37
0.0
 40
841.0
 41
1.4137931034
 42
50.0
 43
0.0
 44
0.0
 50
0.0
 51
0.0
 71
0
 72
100
 73
1
 74
1
 75
0
 76
0
 77
0
 78
0
  0
ENDTAB
  0
TABLE
  2
LTYPE
  5
5
100
AcDbSymbolTable
 70
6
  0
LTYPE
  5
14
100
AcDbSymbolTableRecord
100
AcDbLinetypeTableRecord
  2
BYBLOCK
 70
0
  3

 72
65
 73
0
 40
0.0
  0
LTYPE
  5
15
100
AcDbSymbolTableRecord
100
AcDbLinetypeTableRecord
  2
BYLAYER
 70
0
  3

 72
65
 73
0
 40
0.0
  0
LTYPE
  5
16
100
AcDbSymbolTableRecord
100
AcDbLinetypeTableRecord
  2
CONTINUOUS
 70
64
  3
Solid line
 72
65
 73
0
 40
0.0
  0
LTYPE
  5
1F5
100
AcDbSymbolTableRecord
100
AcDbLinetypeTableRecord
  2
CENTER
 70
64
  3
____ _ ____ _ ____ _ ____ _ ____ _ ____ _ ____
 72
65
 73
4
 40
0.6
 49
0.375
 74
0
 49
-0.075
 74
0
 49
0.075
 74
0
 49
-0.075
 74
0
  0
LTYPE
  5
1F6
100
AcDbSymbolTableRecord
100
AcDbLinetypeTableRecord
  2
HIDDEN
 70
64
  3
- - - - - - - - - - - - - - - - - - - -
 72
65
 73
2
 40
0.2
 49
0.1
 74
0
 49
-0.1
 74
0
  0
LTYPE
  5
1F7
100
AcDbSymbolTableRecord
100
AcDbLinetypeTableRecord
  2
PHANTOM
 70
64
  3
_____ _ _ _____ _ _ _____ _ _ _____
 72
65
 73
6
 40
0.8
 49
0.45
 74
0
 49
-0.05
 74
0
 49
0.1
 74
0
 49
-0.05
 74
0
 49
0.1
 74
0
 49
-0.05
 74
0
  0
LTYPE
  5
1F8
100
AcDbSymbolTableRecord
100
AcDbLinetypeTableRecord
  2
DOT
 70
64
  3
. . . . . . . . . . . . . . . . . . . .
 72
65
 73
2
 40
0.2
 49
0.1
 74
0
 49
-0.1
 74
0
  0
LTYPE
  5
1F9
100
AcDbSymbolTableRecord
100
AcDbLinetypeTableRecord
  2
DASHED
 70
64
  3
- - - - - - - - - - - - - - - - - - - -
 72
65
 73
2
 40
0.2
 49
0.1
 74
0
 49
-0.1
 74
0
  0
ENDTAB
  0
TABLE
  2
LAYER
  5
2
100
AcDbSymbolTable
 70
36
  0
LAYER
  5
10
100
AcDbSymbolTableRecord
100
AcDbLayerTableRecord
  2
0
 70
0
 62
7
  6
CONTINUOUS
370
-3
390
F
  0
LAYER
  5
1FA
100
AcDbSymbolTableRecord
100
AcDbLayerTableRecord
  2
DEFAULT_1
 70
0
 62
7
  6
CENTER
370
-3
390
F
  0
LAYER
  5
1FB
100
AcDbSymbolTableRecord
100
AcDbLayerTableRecord
  2
DEFAULT_2
 70
0
 62
8
  6
HIDDEN
370
-3
390
F
  0
LAYER
  5
1FC
100
AcDbSymbolTableRecord
100
AcDbLayerTableRecord
  2
DEFAULT_3
 70
0
 62
7
  6
PHANTOM
370
-3
390
F
  0
LAYER
  5
1FD
100
AcDbSymbolTableRecord
100
AcDbLayerTableRecord
  2
AUSFORMSCHRAEGEN
 70
0
 62
7
  6
CONTINUOUS
370
-3
390
F
  0
LAYER
  5
1FE
100
AcDbSymbolTableRecord
100
AcDbLayerTableRecord
  2
BEZUGSACHSEN
 70
0
 62
7
  6
CONTINUOUS
370
-3
390
F
  0
LAYER
  5
1FF
100
AcDbSymbolTableRecord
100
AcDbLayerTableRecord
  2
BEZUGSEBENEN
 70
0
 62
7
  6
CONTINUOUS
370
-3
390
F
  0
LAYER
  5
200
100
AcDbSymbolTableRecord
100
AcDbLayerTableRecord
  2
BG_STARTBEZUEGE
 70
0
 62
7
  6
CONTINUOUS
370
-3
390
F
  0
LAYER
  5
201
100
AcDbSymbolTableRecord
100
AcDbLayerTableRecord
  2
BOHRUNGEN
 70
0
 62
7
  6
CONTINUOUS
370
-3
390
F
  0
LAYER
  5
202
100
AcDbSymbolTableRecord
100
AcDbLayerTableRecord
  2
FASEN
 70
0
 62
7
  6
CONTINUOUS
370
-3
390
F
  0
LAYER
  5
203
100
AcDbSymbolTableRecord
100
AcDbLayerTableRecord
  2
HILFEN
 70
0
 62
7
  6
CONTINUOUS
370
-3
390
F
  0
LAYER
  5
204
100
AcDbSymbolTableRecord
100
AcDbLayerTableRecord
  2
KONSTRUKTIONSELEMENTE
 70
0
 62
7
  6
CONTINUOUS
370
-3
390
F
  0
LAYER
  5
205
100
AcDbSymbolTableRecord
100
AcDbLayerTableRecord
  2
KURVEN
 70
0
 62
7
  6
CONTINUOUS
370
-3
390
F
  0
LAYER
  5
206
100
AcDbSymbolTableRecord
100
AcDbLayerTableRecord
  2
NORM
 70
0
 62
7
  6
CONTINUOUS
370
-3
390
F
  0
LAYER
  5
207
100
AcDbSymbolTableRecord
100
AcDbLayerTableRecord
  2
PLATZIERUNG
 70
0
 62
7
  6
CONTINUOUS
370
-3
390
F
  0
LAYER
  5
208
100
AcDbSymbolTableRecord
100
AcDbLayerTableRecord
  2
RUNDUNGEN
 70
0
 62
7
  6
CONTINUOUS
370
-3
390
F
  0
LAYER
  5
209
100
AcDbSymbolTableRecord
100
AcDbLayerTableRecord
  2
TEIL_STARTBEZUEGE
 70
0
 62
7
  6
CONTINUOUS
370
-3
390
F
  0
LAYER
  5
20A
100
AcDbSymbolTableRecord
100
AcDbLayerTableRecord
  2
T_STARTBEZUEGE
 70
0
 62
7
  6
CONTINUOUS
370
-3
390
F
  0
LAYER
  5
20B
100
AcDbSymbolTableRecord
100
AcDbLayerTableRecord
  2
ZEICHNUNGSBEMASSUNGEN
 70
0
 62
7
  6
CONTINUOUS
370
-3
390
F
  0
ENDTAB
  0
TABLE
  2
STYLE
  5
3
100
AcDbSymbolTable
 70
1
  0
STYLE
  5
11
100
AcDbSymbolTableRecord
100
AcDbTextStyleTableRecord
  2
STANDARD
 70
0
 40
0.0
 41
0.7
 50
0.0
 71
0
 42
0.2
  3
txt
  4

  0
STYLE
  5
20C
100
AcDbSymbolTableRecord
100
AcDbTextStyleTableRecord
  2
TEXTSTYLE_1
 70
0
 40
0.0
 41
0.8
 50
0.0
 71
0
 42
0.2
  3
gdt
  4

  0
ENDTAB
  0
TABLE
  2
VIEW
  5
6
100
AcDbSymbolTable
 70
0
  0
ENDTAB
  0
TABLE
  2
UCS
  5
7
100
AcDbSymbolTable
 70
0
  0
ENDTAB
  0
TABLE
  2
APPID
  5
9
100
AcDbSymbolTable
 70
1
  0
APPID
  5
20D
100
AcDbSymbolTableRecord
100
AcDbRegAppTableRecord
  2
ACAD
 70
0
  0
ENDTAB
  0
TABLE
  2
BLOCK_RECORD
  5
1
100
AcDbSymbolTable
 70
0
  0
BLOCK_RECORD
  5
20E
100
AcDbSymbolTableRecord
100
AcDbBlockTableRecord
  2
*Model_Space
  0
BLOCK_RECORD
  5
20F
100
AcDbSymbolTableRecord
100
AcDbBlockTableRecord
  2
*Paper_Space
  0
ENDTAB
  0
TABLE
  2
DIMSTYLE
  5
A
100
AcDbSymbolTable
 70
1
100
AcDbDimStyleTable
 71
0
  0
DIMSTYLE
105
210
100
AcDbSymbolTableRecord
100
AcDbDimStyleTableRecord
  2
STANDARD
 70
0
  3

  4

 40
1.0
 41
3.5
 42
0.0625
 43
0.38
 44
0.18
 45
0.0
 46
0.0
 47
0.005
 48
0.005
140
3.5
141
0.09
142
0.0
143
25.4
144
1.0
145
0.0
146
1.0
147
0.09
 71
1.0
 72
0.0
 73
0
 74
0
 75
0
 76
0
 77
1
 78
8
170
0
171
2
172
0
173
0
174
0
175
0
176
0
177
0
178
5
270
2
271
3
272
3
273
2
274
2
275
0
280
0
281
0
282
0
283
1
284
8
285
0
286
0
287
3
288
0
340
11
  0
ENDTAB
  0
ENDSEC
  0
SECTION
  2
BLOCKS
  0
BLOCK
  5
20
100
AcDbEntity
  8
0
100
AcDbBlockBegin
  2
*Model_Space
 70
0
 10
0.0
 20
0.0
 30
0.0
  3
*Model_Space
  1

  0
ENDBLK
  5
21
100
AcDbEntity
  8
0
100
AcDbBlockEnd
  0
BLOCK
  5
1C
100
AcDbEntity
  8
0
100
AcDbBlockBegin
  2
*Paper_Space
 70
0
 10
0.0
 20
0.0
 30
0.0
  3
*Paper_Space
  1

  0
ENDBLK
  5
1D
100
AcDbEntity
  8
0
100
AcDbBlockEnd
  0
ENDSEC
  0
SECTION
  2
ENTITIES
  0
MTEXT
  5
211
100
AcDbEntity
  8
0
100
AcDbMText
 62
5
  6
CONTINUOUS
  7
STANDARD
 71
1
 72
1
 10
380.342572774
 20
407.0311429795
 30
0.0
 11
1.0
 21
0.0
 31
0.0
 44
0.9
  1
VWK-2S-20
 40
12.0
 41
92.8571428571
  0
MTEXT
  5
212
100
AcDbEntity
  8
0
100
AcDbMText
 62
5
  6
CONTINUOUS
  7
STANDARD
 71
1
 72
1
 10
911.2842271171
 20
500.9125739415
 30
0.0
 11
0.0
 21
1.0
 31
0.0
 44
0.9
  1
VWK-2S-20
 40
12.0
 41
92.8571428571
  0
LINE
  5
213
100
AcDbEntity
  8
0
100
AcDbLine
 62
7
  6
CONTINUOUS
 10
0.0
 20
0.0
 11
0.0
 21
841.0
  0
LINE
  5
214
100
AcDbEntity
  8
0
100
AcDbLine
 62
7
  6
CONTINUOUS
 10
0.0
 20
0.0
 11
1189.0
 21
0.0
  0
LINE
  5
215
100
AcDbEntity
  8
0
100
AcDbLine
 62
7
  6
CONTINUOUS
 10
0.0
 20
841.0
 11
1189.0
 21
841.0
  0
LINE
  5
216
100
AcDbEntity
  8
0
100
AcDbLine
 62
7
  6
CONTINUOUS
 10
1189.0
 20
0.0
 11
1189.0
 21
841.0
  0
LINE
  5
217
100
AcDbEntity
  8
BEZUGSACHSEN
100
AcDbLine
 62
7
  6
CONTINUOUS
 10
575.52926149
 20
11.127573046
 11
584.0371481372
 21
12.0217879658
  0
LINE
  5
218
100
AcDbEntity
  8
AUSFORMSCHRAEGEN
100
AcDbLine
 62
7
  6
CONTINUOUS
 10
575.52926149
 20
11.127573046
 11
584.0371481372
 21
12.0217879658
  0
LINE
  5
219
100
AcDbEntity
  8
BEZUGSACHSEN
100
AcDbLine
 62
7
  6
CONTINUOUS
 10
275.52926149
 20
11.127573046
 11
267.0213748427
 21
12.0217879658
  0
LINE
  5
21A
100
AcDbEntity
  8
BEZUGSACHSEN
100
AcDbLine
 62
7
  6
CONTINUOUS
 10
275.52926149
 20
11.127573046
 11
284.0371481372
 21
12.0217879658
  0
LINE
  5
21B
100
AcDbEntity
  8
AUSFORMSCHRAEGEN
100
AcDbLine
 62
7
  6
CONTINUOUS
 10
275.52926149
 20
11.127573046
 11
284.0371481372
 21
12.0217879658
  0
LINE
  5
21C
100
AcDbEntity
  8
BEZUGSACHSEN
100
AcDbLine
 62
7
  6
CONTINUOUS
 10
575.52926149
 20
11.127573046
 11
567.0213748427
 21
12.0217879658
  0
LINE
  5
21D
100
AcDbEntity
  8
KONSTRUKTIONSELEMENTE
100
AcDbLine
 62
7
  6
CONTINUOUS
 10
114.4022777679
 20
199.775055418
 11
110.8667438619
 21
203.3105893239
  0
LINE
  5
21E
100
AcDbEntity
  8
BEZUGSACHSEN
100
AcDbLine
 62
7
  6
CONTINUOUS
 10
258.2573326801
 20
79.7130828206
 11
256.8272841615
 21
81.1431313392
  0
LINE
  5
21F
100
AcDbEntity
  8
KONSTRUKTIONSELEMENTE
100
AcDbLine
 62
7
  6
CONTINUOUS
 10
142.6865490153
 20
228.0593266655
 11
139.1510151094
 21
231.5948605714
  0
LINE
  5
220
100
AcDbEntity
  8
0
100
AcDbLine
 62
7
  6
CONTINUOUS
 10
442.3342602979
 20
176.0116155564
 11
441.08426149
 21
175.6924666583
  0
LINE
  5
221
100
AcDbEntity
  8
0
100
AcDbLine
 62
7
  6
CONTINUOUS
 10
441.08426149
 20
173.777573046
 11
442.6467626821
 21
174.0967219721
  0
LINE
  5
222
100
AcDbEntity
  8
BEZUGSACHSEN
100
AcDbLine
 62
7
  6
CONTINUOUS
 10
287.58676149
 20
145.5040114692
 11
425.52926149
 21
169.8269960055
  0
LINE
  5
223
100
AcDbEntity
  8
0
100
AcDbLine
 62
7
  6
CONTINUOUS
 10
427.334262086
 20
176.0116155564
 11
426.08426149
 21
175.6924666583
  0
LINE
  5
224
100
AcDbEntity
  8
0
100
AcDbLine
 62
7
  6
CONTINUOUS
 10
426.08426149
 20
173.777573046
 11
427.6467608939
 21
174.0967219721
  0
LINE
  5
225
100
AcDbEntity
  8
0
100
AcDbLine
 62
7
  6
CONTINUOUS
 10
313.483684837
 20
159.2091772796
 11
314.9608963785
 21
159.4696495305
  0
LINE
  5
226
100
AcDbEntity
  8
0
100
AcDbLine
 62
7
  6
CONTINUOUS
 10
320.8697425444
 20
160.5115385344
 11
322.3469548783
 21
160.7720109251
  0
LINE
  5
227
100
AcDbEntity
  8
0
100
AcDbLine
 62
7
  6
CONTINUOUS
 10
325.3013774329
 20
161.2929553339
 11
326.7785897669
 21
161.5534277246
  0
LINE
  5
228
100
AcDbEntity
  8
0
100
AcDbLine
 62
7
  6
CONTINUOUS
 10
333.7953446549
 20
162.7906709284
 11
340.4427969877
 21
163.9627961277
  0
LINE
  5
229
100
AcDbEntity
  8
0
100
AcDbLine
 62
7
  6
CONTINUOUS
 10
361.8623642069
 20
167.7396437435
 11
363.339578654
 21
168.0001165068
  0
LINE
  5
22A
100
AcDbEntity
  8
0
100
AcDbLine
 62
7
  6
CONTINUOUS
 10
367.7712135426
 20
168.7815333063
 11
368.8791222647
 21
168.9768875062
  0
LINE
  5
22B
100
AcDbEntity
  8
0
100
AcDbLine
 62
7
  6
CONTINUOUS
 10
370.3563324855
 20
169.2373595243
 11
371.4642412076
 21
169.4327137242
  0
LINE
  5
22C
100
AcDbEntity
  8
0
100
AcDbLine
 62
7
  6
CONTINUOUS
 10
340.2765380907
 20
164.9056971875
 11
335.1062980918
 21
163.9940443789
  0
LINE
  5
22D
100
AcDbEntity
  8
0
100
AcDbLine
 62
7
  6
CONTINUOUS
 10
329.167733161
 20
165.2802357381
 11
331.7528521038
 21
165.7360619561
  0
LINE
  5
22E
100
AcDbEntity
  8
0
100
AcDbLine
 62
7
  6
CONTINUOUS
 10
370.7659538449
 20
173.3928981489
 11
374.0896800113
 21
173.9789607485
  0
LINE
  5
22F
100
AcDbEntity
  8
0
100
AcDbLine
 62
7
  6
CONTINUOUS
 10
331.5865931836
 20
166.678963148
 11
329.0014742407
 21
166.22313693
  0
LINE
  5
230
100
AcDbEntity
  8
0
100
AcDbLine
 62
7
  6
CONTINUOUS
 10
374.0748222254
 20
175.1430011435
 11
370.5664431965
 21
174.5243792621
  0
LINE
  5
231
100
AcDbEntity
  8
0
100
AcDbLine
 62
7
  6
CONTINUOUS
 10
332.7829313273
 20
169.6121175737
 11
333.7061893001
 21
169.7749128644
  0
LINE
  5
232
100
AcDbEntity
  8
0
100
AcDbLine
 62
7
  6
CONTINUOUS
 10
335.3531924842
 20
171.2319841866
 11
336.0917997077
 21
171.3622205683
  0
LINE
  5
233
100
AcDbEntity
  8
0
100
AcDbLine
 62
7
  6
CONTINUOUS
 10
370.0676664823
 20
177.3530825736
 11
373.5760455112
 21
177.9717044549
  0
LINE
  5
234
100
AcDbEntity
  8
0
100
AcDbLine
 62
7
  6
CONTINUOUS
 10
373.225133775
 20
178.8820461009
 11
368.7934988864
 21
178.1006293014
  0
LINE
  5
235
100
AcDbEntity
  8
0
100
AcDbLine
 62
7
  6
CONTINUOUS
 10
367.3162886657
 20
177.8401572833
 11
366.2083799436
 21
177.6448030834
  0
LINE
  5
236
100
AcDbEntity
  8
0
100
AcDbLine
 62
7
  6
CONTINUOUS
 10
364.7311654965
 20
177.3843303201
 11
363.6232567744
 21
177.1889761203
  0
LINE
  5
237
100
AcDbEntity
  8
0
100
AcDbLine
 62
7
  6
CONTINUOUS
 10
358.4530188886
 20
176.2773236843
 11
357.3451101665
 21
176.0819694844
  0
LINE
  5
238
100
AcDbEntity
  8
0
100
AcDbLine
 62
7
  6
CONTINUOUS
 10
336.1101915834
 20
172.3376804051
 11
335.371586473
 21
172.2074443961
  0
LINE
  5
239
100
AcDbEntity
  8
0
100
AcDbLine
 62
7
  6
CONTINUOUS
 10
326.6929674452
 20
170.6771697062
 11
325.585058723
 21
170.4818155063
  0
LINE
  5
23A
100
AcDbEntity
  8
0
100
AcDbLine
 62
7
  6
CONTINUOUS
 10
322.9999387236
 20
170.025989102
 11
321.5227263897
 21
169.7655167113
  0
LINE
  5
23B
100
AcDbEntity
  8
0
100
AcDbLine
 62
7
  6
CONTINUOUS
 10
318.9376063902
 20
169.309690307
 11
317.8296976681
 21
169.1143361072
  0
LINE
  5
23C
100
AcDbEntity
  8
0
100
AcDbLine
 62
7
  6
CONTINUOUS
 10
316.3524858625
 20
168.8538638096
 11
315.2445771403
 21
168.6585096097
  0
LINE
  5
23D
100
AcDbEntity
  8
0
100
AcDbLine
 62
7
  6
CONTINUOUS
 10
310.0743366131
 20
167.746856708
 11
308.966427891
 21
167.5515025082
  0
LINE
  5
23E
100
AcDbEntity
  8
BEZUGSACHSEN
100
AcDbLine
 62
7
  6
CONTINUOUS
 10
575.52926149
 20
204.047573046
 11
567.0213748427
 21
203.1533581262
  0
LINE
  5
23F
100
AcDbEntity
  8
0
100
AcDbLine
 62
7
  6
CONTINUOUS
 10
344.1025749882
 20
164.8025571202
 11
345.243735488
 21
164.809331118
  0
LINE
  5
240
100
AcDbEntity
  8
0
100
AcDbLine
 62
7
  6
CONTINUOUS
 10
337.2513520802
 20
172.3444544194
 11
336.1101915834
 21
172.3376804051
  0
LINE
  5
241
100
AcDbEntity
  8
0
100
AcDbLine
 62
7
  6
CONTINUOUS
 10
344.8220602727
 20
173.6793745368
 11
343.680901889
 21
173.6726008951
  0
LINE
  5
242
100
AcDbEntity
  8
0
100
AcDbLine
 62
7
  6
CONTINUOUS
 10
405.45926149
 20
173.777573046
 11
407.33426149
 21
173.777573046
  0
LINE
  5
243
100
AcDbEntity
  8
0
100
AcDbLine
 62
7
  6
CONTINUOUS
 10
415.1467611919
 20
173.777573046
 11
417.334261788
 21
173.777573046
  0
LINE
  5
244
100
AcDbEntity
  8
0
100
AcDbLine
 62
7
  6
CONTINUOUS
 10
424.8342608939
 20
173.777573046
 11
426.08426149
 21
173.777573046
  0
LINE
  5
245
100
AcDbEntity
  8
0
100
AcDbLine
 62
7
  6
CONTINUOUS
 10
433.58426149
 20
173.777573046
 11
441.08426149
 21
173.777573046
  0
LINE
  5
246
100
AcDbEntity
  8
0
100
AcDbLine
 62
7
  6
CONTINUOUS
 10
441.08426149
 20
175.6924666583
 11
435.45926149
 21
175.6924666583
  0
LINE
  5
247
100
AcDbEntity
  8
0
100
AcDbLine
 62
7
  6
CONTINUOUS
 10
426.08426149
 20
175.6924666583
 11
424.8342608939
 21
175.6924666583
  0
LINE
  5
248
100
AcDbEntity
  8
0
100
AcDbLine
 62
7
  6
CONTINUOUS
 10
407.33426149
 20
180.4797008007
 11
412.6467613409
 21
180.4797008007
  0
LINE
  5
249
100
AcDbEntity
  8
0
100
AcDbLine
 62
7
  6
CONTINUOUS
 10
413.2717611919
 20
182.3945941895
 11
407.33426149
 21
182.3945941895
  0
LINE
  5
24A
100
AcDbEntity
  8
0
100
AcDbLine
 62
7
  6
CONTINUOUS
 10
435.45926149
 20
186.8626796573
 11
441.08426149
 21
186.8626796573
  0
LINE
  5
24B
100
AcDbEntity
  8
0
100
AcDbLine
 62
7
  6
CONTINUOUS
 10
407.33426149
 20
187.1818285554
 11
413.2717611919
 21
187.1818285554
  0
LINE
  5
24C
100
AcDbEntity
  8
0
100
AcDbLine
 62
7
  6
CONTINUOUS
 10
441.08426149
 20
188.777573046
 11
433.58426149
 21
188.777573046
  0
LINE
  5
24D
100
AcDbEntity
  8
0
100
AcDbLine
 62
7
  6
CONTINUOUS
 10
431.084262086
 20
188.777573046
 11
429.209262086
 21
188.777573046
  0
LINE
  5
24E
100
AcDbEntity
  8
0
100
AcDbLine
 62
7
  6
CONTINUOUS
 10
421.709262086
 20
188.777573046
 11
419.8342611919
 21
188.777573046
  0
LINE
  5
24F
100
AcDbEntity
  8
0
100
AcDbLine
 62
7
  6
CONTINUOUS
 10
412.95926149
 20
188.777573046
 11
405.45926149
 21
188.777573046
  0
LINE
  5
250
100
AcDbEntity
  8
0
100
AcDbLine
 62
7
  6
CONTINUOUS
 10
345.077476591
 20
165.7522321778
 11
344.1209668435
 21
165.7780170726
  0
LINE
  5
251
100
AcDbEntity
  8
0
100
AcDbLine
 62
7
  6
CONTINUOUS
 10
336.0917997077
 20
171.3622205683
 11
337.0483073422
 21
171.3364353009
  0
LINE
  5
252
100
AcDbEntity
  8
0
100
AcDbLine
 62
7
  6
CONTINUOUS
 10
343.8471607627
 20
172.7296999674
 11
344.8036705103
 21
172.7039150726
  0
LINE
  5
253
100
AcDbEntity
  8
0
100
AcDbLine
 62
7
  6
CONTINUOUS
 10
374.1816414094
 20
178.8562608335
 11
373.225133775
 21
178.8820461009
  0
LINE
  5
254
100
AcDbEntity
  8
BEZUGSACHSEN
100
AcDbLine
 62
7
  6
CONTINUOUS
 10
275.52926149
 20
204.047573046
 11
284.0371481372
 21
203.1533581262
  0
LINE
  5
255
100
AcDbEntity
  8
0
100
AcDbLine
 62
7
  6
CONTINUOUS
 10
373.5760455112
 20
177.9717044549
 11
374.163251647
 21
177.8808013693
  0
LINE
  5
256
100
AcDbEntity
  8
BEZUGSACHSEN
100
AcDbLine
 62
7
  6
CONTINUOUS
 10
563.47176149
 20
145.5040114692
 11
425.52926149
 21
169.8269960055
  0
LINE
  5
257
100
AcDbEntity
  8
0
100
AcDbLine
 62
7
  6
CONTINUOUS
 10
423.27176149
 20
174.0967219721
 11
424.8342608939
 21
173.777573046
  0
LINE
  5
258
100
AcDbEntity
  8
0
100
AcDbLine
 62
7
  6
CONTINUOUS
 10
338.0564607401
 20
172.0975300574
 11
337.2513520802
 21
172.3444544194
  0
LINE
  5
259
100
AcDbEntity
  8
0
100
AcDbLine
 62
7
  6
CONTINUOUS
 10
343.0795616825
 20
165.2055024356
 11
344.1025749882
 21
164.8025571202
  0
LINE
  5
25A
100
AcDbEntity
  8
0
100
AcDbLine
 62
7
  6
CONTINUOUS
 10
345.845075683
 20
173.2764296436
 11
344.8220602727
 21
173.6793745368
  0
LINE
  5
25B
100
AcDbEntity
  8
0
100
AcDbLine
 62
7
  6
CONTINUOUS
 10
344.1209668435
 20
165.7780170726
 11
343.5005089329
 21
166.0575003437
  0
LINE
  5
25C
100
AcDbEntity
  8
0
100
AcDbLine
 62
7
  6
CONTINUOUS
 10
337.0483073422
 20
171.3364353009
 11
337.6687652527
 21
171.0569520297
  0
LINE
  5
25D
100
AcDbEntity
  8
0
100
AcDbLine
 62
7
  6
CONTINUOUS
 10
344.8036705103
 20
172.7039150726
 11
345.4241284208
 21
172.4244318015
  0
LINE
  5
25E
100
AcDbEntity
  8
BEZUGSACHSEN
100
AcDbLine
 62
7
  6
CONTINUOUS
 10
292.8011905642
 20
135.462063007
 11
294.2312388222
 21
134.032014749
  0
LINE
  5
25F
100
AcDbEntity
  8
BEZUGSACHSEN
100
AcDbLine
 62
7
  6
CONTINUOUS
 10
275.52926149
 20
204.047573046
 11
267.0213748427
 21
203.1533581262
  0
LINE
  5
260
100
AcDbEntity
  8
BEZUGSACHSEN
100
AcDbLine
 62
7
  6
CONTINUOUS
 10
575.52926149
 20
204.047573046
 11
584.0371481372
 21
203.1533581262
  0
LINE
  5
261
100
AcDbEntity
  8
0
100
AcDbLine
 62
7
  6
CONTINUOUS
 10
414.521761788
 20
188.4584241479
 11
412.95926149
 21
188.777573046
  0
LINE
  5
262
100
AcDbEntity
  8
0
100
AcDbLine
 62
7
  6
CONTINUOUS
 10
442.6467626821
 20
188.4584241479
 11
441.08426149
 21
188.777573046
  0
LINE
  5
263
100
AcDbEntity
  8
0
100
AcDbLine
 62
7
  6
CONTINUOUS
 10
424.8342608939
 20
175.6924666583
 11
423.584262086
 21
176.0116155564
  0
LINE
  5
264
100
AcDbEntity
  8
0
100
AcDbLine
 62
7
  6
CONTINUOUS
 10
441.08426149
 20
186.8626796573
 11
442.3342602979
 21
186.5435307591
  0
LINE
  5
265
100
AcDbEntity
  8
0
100
AcDbLine
 62
7
  6
CONTINUOUS
 10
413.2717611919
 20
187.1818285554
 11
414.2092611919
 21
186.8626796573
  0
LINE
  5
266
100
AcDbEntity
  8
0
100
AcDbLine
 62
7
  6
CONTINUOUS
 10
422.0217608939
 20
174.7350198522
 11
423.27176149
 21
174.0967219721
  0
LINE
  5
267
100
AcDbEntity
  8
0
100
AcDbLine
 62
7
  6
CONTINUOUS
 10
375.0200039572
 20
178.4207566586
 11
374.1816414094
 21
178.8562608335
  0
LINE
  5
268
100
AcDbEntity
  8
0
100
AcDbLine
 62
7
  6
CONTINUOUS
 10
342.4258519855
 20
165.6735659583
 11
343.0795616825
 21
165.2055024356
  0
LINE
  5
269
100
AcDbEntity
  8
0
100
AcDbLine
 62
7
  6
CONTINUOUS
 10
338.9280750626
 20
171.4734456969
 11
338.0564607401
 21
172.0975300574
  0
LINE
  5
26A
100
AcDbEntity
  8
0
100
AcDbLine
 62
7
  6
CONTINUOUS
 10
346.4987853682
 20
172.8083661869
 11
345.845075683
 21
173.2764296436
  0
LINE
  5
26B
100
AcDbEntity
  8
0
100
AcDbLine
 62
7
  6
CONTINUOUS
 10
374.163251647
 20
177.8808013693
 11
374.599056695
 21
177.5687588165
  0
LINE
  5
26C
100
AcDbEntity
  8
0
100
AcDbLine
 62
7
  6
CONTINUOUS
 10
337.6687652527
 20
171.0569520297
 11
338.1378241887
 21
170.5563296639
  0
LINE
  5
26D
100
AcDbEntity
  8
0
100
AcDbLine
 62
7
  6
CONTINUOUS
 10
343.5005089329
 20
166.0575003437
 11
342.5623931508
 21
167.05874558
  0
LINE
  5
26E
100
AcDbEntity
  8
BEZUGSACHSEN
100
AcDbLine
 62
7
  6
CONTINUOUS
 10
263.6683596878
 20
134.6764032684
 11
263.7549720741
 21
134.4863899814
  0
LINE
  5
26F
100
AcDbEntity
  8
0
100
AcDbLine
 62
7
  6
CONTINUOUS
 10
420.52926149
 20
232.087573046
 11
379.6881189682
 21
232.087573046
  0
LINE
  5
270
100
AcDbEntity
  8
BEZUGSACHSEN
100
AcDbLine
 62
7
  6
CONTINUOUS
 10
430.52926149
 20
232.087573046
 11
471.3704040117
 21
232.087573046
  0
LINE
  5
271
100
AcDbEntity
  8
0
100
AcDbLine
 62
7
  6
CONTINUOUS
 10
443.89676149
 20
187.8201263516
 11
442.6467626821
 21
188.4584241479
  0
LINE
  5
272
100
AcDbEntity
  8
0
100
AcDbLine
 62
7
  6
CONTINUOUS
 10
423.584262086
 20
176.0116155564
 11
422.646762086
 21
176.6499135762
  0
LINE
  5
273
100
AcDbEntity
  8
0
100
AcDbLine
 62
7
  6
CONTINUOUS
 10
375.7069654172
 20
177.7641130163
 11
375.0200039572
 21
178.4207566586
  0
LINE
  5
274
100
AcDbEntity
  8
KONSTRUKTIONSELEMENTE
100
AcDbLine
 62
7
  6
CONTINUOUS
 10
219.3740055059
 20
304.746783156
 11
215.8384715999
 21
308.2823170619
  0
LINE
  5
275
100
AcDbEntity
  8
0
100
AcDbLine
 62
7
  6
CONTINUOUS
 10
345.4241284208
 20
172.4244318015
 11
346.3622421596
 21
171.4231857964
  0
LINE
  5
276
100
AcDbEntity
  8
0
100
AcDbLine
 62
7
  6
CONTINUOUS
 10
341.9235412515
 20
166.3627686417
 11
342.4258519855
 21
165.6735659583
  0
LINE
  5
277
100
AcDbEntity
  8
0
100
AcDbLine
 62
7
  6
CONTINUOUS
 10
347.0010939658
 20
172.1191632629
 11
346.4987853682
 21
172.8083661869
  0
LINE
  5
278
100
AcDbEntity
  8
0
100
AcDbLine
 62
7
  6
CONTINUOUS
 10
314.022779804
 20
160.4708946271
 11
310.0743366131
 21
167.746856708
  0
LINE
  5
279
100
AcDbEntity
  8
0
100
AcDbLine
 62
7
  6
CONTINUOUS
 10
308.966427891
 20
167.5515025082
 11
313.483684837
 21
159.2091772796
  0
LINE
  5
27A
100
AcDbEntity
  8
0
100
AcDbLine
 62
7
  6
CONTINUOUS
 10
442.3342602979
 20
186.5435307591
 11
443.2717602979
 21
185.9052329629
  0
LINE
  5
27B
100
AcDbEntity
  8
0
100
AcDbLine
 62
7
  6
CONTINUOUS
 10
415.77176149
 20
187.5009774535
 11
414.521761788
 21
188.4584241479
  0
LINE
  5
27C
100
AcDbEntity
  8
BEZUGSACHSEN
100
AcDbLine
 62
7
  6
CONTINUOUS
 10
247.3383526309
 20
332.7111302811
 11
243.802818725
 21
336.246664187
  0
LINE
  5
27D
100
AcDbEntity
  8
KONSTRUKTIONSELEMENTE
100
AcDbLine
 62
7
  6
CONTINUOUS
 10
251.4395719618
 20
333.9132118091
 11
256.3893194301
 21
328.9634643408
  0
LINE
  5
27E
100
AcDbEntity
  8
KONSTRUKTIONSELEMENTE
100
AcDbLine
 62
7
  6
CONTINUOUS
 10
251.7931253524
 20
334.2667651997
 11
256.7428728207
 21
329.3170177314
  0
LINE
  5
27F
100
AcDbEntity
  8
0
100
AcDbLine
 62
7
  6
CONTINUOUS
 10
420.771762086
 20
176.0116155564
 11
422.0217608939
 21
174.7350198522
  0
LINE
  5
280
100
AcDbEntity
  8
0
100
AcDbLine
 62
7
  6
CONTINUOUS
 10
414.2092611919
 20
186.8626796573
 11
414.83426149
 21
186.224381861
  0
LINE
  5
281
100
AcDbEntity
  8
RUNDUNGEN
100
AcDbLine
 62
7
  6
CONTINUOUS
 10
307.3063011523
 20
221.1357613713
 11
319.2521024267
 21
200.4450266268
  0
LINE
  5
282
100
AcDbEntity
  8
0
100
AcDbLine
 62
7
  6
CONTINUOUS
 10
341.639135178
 20
166.8959502892
 11
341.9235412515
 21
166.3627686417
  0
LINE
  5
283
100
AcDbEntity
  8
0
100
AcDbLine
 62
7
  6
CONTINUOUS
 10
347.2855022456
 20
171.5859814597
 11
347.0010939658
 21
172.1191632629
  0
LINE
  5
284
100
AcDbEntity
  8
0
100
AcDbLine
 62
7
  6
CONTINUOUS
 10
339.2457329108
 20
170.7516838638
 11
338.9280750626
 21
171.4734456969
  0
LINE
  5
285
100
AcDbEntity
  8
0
100
AcDbLine
 62
7
  6
CONTINUOUS
 10
325.6742140312
 20
163.4975738344
 11
322.9999387236
 21
170.025989102
  0
LINE
  5
286
100
AcDbEntity
  8
0
100
AcDbLine
 62
7
  6
CONTINUOUS
 10
322.5605985293
 20
168.1985312368
 11
325.3013774329
 21
161.2929553339
  0
LINE
  5
287
100
AcDbEntity
  8
0
100
AcDbLine
 62
7
  6
CONTINUOUS
 10
317.8296976681
 20
169.1143361072
 11
320.8697425444
 21
160.5115385344
  0
LINE
  5
288
100
AcDbEntity
  8
0
100
AcDbLine
 62
7
  6
CONTINUOUS
 10
321.2425791426
 20
162.7161570349
 11
318.9376063902
 21
169.309690307
  0
LINE
  5
289
100
AcDbEntity
  8
BEZUGSACHSEN
100
AcDbLine
 62
7
  6
CONTINUOUS
 10
259.7539196614
 20
76.7113922257
 11
263.343170928
 21
51.1725424373
  0
LWPOLYLINE
  5
28A
100
AcDbEntity
  8
BEZUGSACHSEN
100
AcDbPolyline
 62
7
  6
CONTINUOUS
 90
6
 70
0
 10
263.47176149
 20
135.6766142332
 10
263.4797209011
 20
135.4716649505
 10
263.5035511941
 20
135.2679502108
 10
263.5431088282
 20
135.0666971571
 10
263.5981555216
 20
134.8691181128
 10
263.6683596878
 20
134.6764032684
  0
LINE
  5
28B
100
AcDbEntity
  8
BEZUGSACHSEN
100
AcDbLine
 62
7
  6
CONTINUOUS
 10
255.27926149
 20
130.2947569429
 11
255.27926149
 21
119.0640836307
  0
LINE
  5
28C
100
AcDbEntity
  8
BEZUGSACHSEN
100
AcDbLine
 62
7
  6
CONTINUOUS
 10
255.27926149
 20
118.238065724
 11
255.27926149
 21
84.8804028558
  0
LINE
  5
28D
100
AcDbEntity
  8
RUNDUNGEN
100
AcDbLine
 62
7
  6
CONTINUOUS
 10
255.27926149
 20
116.7306131604
 11
255.27926149
 21
119.0640836307
  0
LINE
  5
28E
100
AcDbEntity
  8
BEZUGSACHSEN
100
AcDbLine
 62
7
  6
CONTINUOUS
 10
263.47176149
 20
49.3336125229
 11
263.47176149
 21
15.9640329782
  0
LINE
  5
28F
100
AcDbEntity
  8
BEZUGSACHSEN
100
AcDbLine
 62
7
  6
CONTINUOUS
 10
263.47176149
 20
135.6768522836
 11
263.47176149
 21
199.2111131139
  0
LINE
  5
290
100
AcDbEntity
  8
BEZUGSACHSEN
100
AcDbLine
 62
7
  6
CONTINUOUS
 10
558.2573326801
 20
79.7130828206
 11
556.8272841615
 21
81.1431313392
  0
LINE
  5
291
100
AcDbEntity
  8
0
100
AcDbLine
 62
7
  6
CONTINUOUS
 10
445.1467602979
 20
186.5435307591
 11
443.89676149
 21
187.8201263516
  0
LINE
  5
292
100
AcDbEntity
  8
0
100
AcDbLine
 62
7
  6
CONTINUOUS
 10
416.70926149
 20
186.224381861
 11
415.77176149
 21
187.5009774535
  0
LINE
  5
293
100
AcDbEntity
  8
0
100
AcDbLine
 62
7
  6
CONTINUOUS
 10
362.4014607588
 20
169.0013613705
 11
358.4530188886
 21
176.2773236843
  0
LINE
  5
294
100
AcDbEntity
  8
0
100
AcDbLine
 62
7
  6
CONTINUOUS
 10
357.3451101665
 20
176.0819694844
 11
361.8623642069
 21
167.7396437435
  0
LINE
  5
295
100
AcDbEntity
  8
0
100
AcDbLine
 62
7
  6
CONTINUOUS
 10
374.599056695
 20
177.5687588165
 11
374.8834648817
 21
177.0355775415
  0
LINE
  5
296
100
AcDbEntity
  8
0
100
AcDbLine
 62
7
  6
CONTINUOUS
 10
375.9913736039
 20
177.2309317414
 11
375.7069654172
 21
177.7641130163
  0
LINE
  5
297
100
AcDbEntity
  8
0
100
AcDbLine
 62
7
  6
CONTINUOUS
 10
341.2882255084
 20
167.806292572
 11
341.639135178
 21
166.8959502892
  0
LINE
  5
298
100
AcDbEntity
  8
0
100
AcDbLine
 62
7
  6
CONTINUOUS
 10
347.6364097555
 20
170.6756390685
 11
347.2855022456
 21
171.5859814597
  0
LINE
  5
299
100
AcDbEntity
  8
0
100
AcDbLine
 62
7
  6
CONTINUOUS
 10
342.5623931508
 20
167.05874558
 11
342.1782295934
 21
168.1576676757
  0
LINE
  5
29A
100
AcDbEntity
  8
0
100
AcDbLine
 62
7
  6
CONTINUOUS
 10
346.3622421596
 20
171.4231857964
 11
346.7464056705
 21
170.3242639648
  0
LINE
  5
29B
100
AcDbEntity
  8
BEZUGSACHSEN
100
AcDbLine
 62
7
  6
CONTINUOUS
 10
290.2491818247
 20
145.9734680082
 11
291.3046034228
 21
138.4637531241
  0
LINE
  5
29C
100
AcDbEntity
  8
0
100
AcDbLine
 62
7
  6
CONTINUOUS
 10
279.52926149
 20
514.437573046
 11
279.52926149
 21
674.437573046
  0
LINE
  5
29D
100
AcDbEntity
  8
BEZUGSACHSEN
100
AcDbLine
 62
7
  6
CONTINUOUS
 10
287.58676149
 20
199.2111131139
 11
287.58676149
 21
135.6766167797
  0
LINE
  5
29E
100
AcDbEntity
  8
RUNDUNGEN
100
AcDbLine
 62
7
  6
CONTINUOUS
 10
287.58676149
 20
49.3336125229
 11
287.58676149
 21
15.9640329782
  0
LINE
  5
29F
100
AcDbEntity
  8
BEZUGSACHSEN
100
AcDbLine
 62
7
  6
CONTINUOUS
 10
295.77926149
 20
130.2947569429
 11
295.77926149
 21
119.0640836307
  0
LINE
  5
2A0
100
AcDbEntity
  8
RUNDUNGEN
100
AcDbLine
 62
7
  6
CONTINUOUS
 10
295.77926149
 20
119.0640836307
 11
295.77926149
 21
84.8804028558
  0
LINE
  5
2A1
100
AcDbEntity
  8
BEZUGSACHSEN
100
AcDbLine
 62
7
  6
CONTINUOUS
 10
260.880853545
 20
146.4823051011
 11
259.7539195571
 21
138.4637531241
  0
LINE
  5
2A2
100
AcDbEntity
  8
KONSTRUKTIONSELEMENTE
100
AcDbLine
 62
7
  6
CONTINUOUS
 10
442.57926149
 20
335.287573046
 11
441.0856106761
 21
335.287573046
  0
LINE
  5
2A3
100
AcDbEntity
  8
KONSTRUKTIONSELEMENTE
100
AcDbLine
 62
7
  6
CONTINUOUS
 10
442.57926149
 20
336.662573046
 11
441.0856106761
 21
336.662573046
  0
LINE
  5
2A4
100
AcDbEntity
  8
KONSTRUKTIONSELEMENTE
100
AcDbLine
 62
7
  6
CONTINUOUS
 10
442.57926149
 20
339.8709062701
 11
442.02926149
 21
339.8709062701
  0
LINE
  5
2A5
100
AcDbEntity
  8
KONSTRUKTIONSELEMENTE
100
AcDbLine
 62
7
  6
CONTINUOUS
 10
442.57926149
 20
343.0792394941
 11
441.0856106761
 21
343.0792394941
  0
LINE
  5
2A6
100
AcDbEntity
  8
KONSTRUKTIONSELEMENTE
100
AcDbLine
 62
7
  6
CONTINUOUS
 10
442.57926149
 20
344.4542394941
 11
441.0856106761
 21
344.4542394941
  0
LINE
  5
2A7
100
AcDbEntity
  8
KONSTRUKTIONSELEMENTE
100
AcDbLine
 62
7
  6
CONTINUOUS
 10
442.57926149
 20
345.3709065979
 11
442.02926149
 21
345.3709065979
  0
LINE
  5
2A8
100
AcDbEntity
  8
KONSTRUKTIONSELEMENTE
100
AcDbLine
 62
7
  6
CONTINUOUS
 10
442.57926149
 20
346.287573046
 11
441.9356277976
 21
346.287573046
  0
LINE
  5
2A9
100
AcDbEntity
  8
KONSTRUKTIONSELEMENTE
100
AcDbLine
 62
7
  6
CONTINUOUS
 10
442.57926149
 20
346.5167401498
 11
441.7678347407
 21
346.5167401498
  0
LINE
  5
2AA
100
AcDbEntity
  8
KONSTRUKTIONSELEMENTE
100
AcDbLine
 62
7
  6
CONTINUOUS
 10
442.57926149
 20
346.975073046
 11
441.570996283
 21
346.975073046
  0
LINE
  5
2AB
100
AcDbEntity
  8
KONSTRUKTIONSELEMENTE
100
AcDbLine
 62
7
  6
CONTINUOUS
 10
442.57926149
 20
347.8917401498
 11
441.3162947832
 21
347.8917401498
  0
LINE
  5
2AC
100
AcDbEntity
  8
KONSTRUKTIONSELEMENTE
100
AcDbLine
 62
7
  6
CONTINUOUS
 10
442.57926149
 20
348.8084059423
 11
441.1663869251
 21
348.8084059423
  0
LINE
  5
2AD
100
AcDbEntity
  8
KONSTRUKTIONSELEMENTE
100
AcDbLine
 62
7
  6
CONTINUOUS
 10
442.57926149
 20
349.9542401498
 11
441.0856106761
 21
349.9542401498
  0
LINE
  5
2AE
100
AcDbEntity
  8
KONSTRUKTIONSELEMENTE
100
AcDbLine
 62
7
  6
CONTINUOUS
 10
442.57926149
 20
352.0167401498
 11
441.0856106761
 21
352.0167401498
  0
LINE
  5
2AF
100
AcDbEntity
  8
KONSTRUKTIONSELEMENTE
100
AcDbLine
 62
7
  6
CONTINUOUS
 10
442.57926149
 20
353.162573046
 11
441.1663869251
 21
353.162573046
  0
LINE
  5
2B0
100
AcDbEntity
  8
KONSTRUKTIONSELEMENTE
100
AcDbLine
 62
7
  6
CONTINUOUS
 10
442.57926149
 20
354.0792401498
 11
441.3162947832
 21
354.0792401498
  0
LINE
  5
2B1
100
AcDbEntity
  8
KONSTRUKTIONSELEMENTE
100
AcDbLine
 62
7
  6
CONTINUOUS
 10
442.57926149
 20
354.9959059423
 11
441.570996283
 21
354.9959059423
  0
LINE
  5
2B2
100
AcDbEntity
  8
KONSTRUKTIONSELEMENTE
100
AcDbLine
 62
7
  6
CONTINUOUS
 10
442.57926149
 20
355.225073046
 11
441.8082628949
 21
355.225073046
  0
LINE
  5
2B3
100
AcDbEntity
  8
KONSTRUKTIONSELEMENTE
100
AcDbLine
 62
7
  6
CONTINUOUS
 10
442.57926149
 20
355.6834059423
 11
442.02926149
 21
355.6834059423
  0
LINE
  5
2B4
100
AcDbEntity
  8
KONSTRUKTIONSELEMENTE
100
AcDbLine
 62
7
  6
CONTINUOUS
 10
442.57926149
 20
356.1417401498
 11
442.02926149
 21
356.1417401498
  0
LINE
  5
2B5
100
AcDbEntity
  8
BEZUGSACHSEN
100
AcDbLine
 62
7
  6
CONTINUOUS
 10
509.1977029599
 20
251.4781269867
 11
540.4579931936
 21
233.4299900053
  0
LINE
  5
2B6
100
AcDbEntity
  8
KONSTRUKTIONSELEMENTE
100
AcDbLine
 62
7
  6
CONTINUOUS
 10
304.4725805508
 20
386.9462203981
 11
309.4223280191
 21
381.9964729298
  0
LINE
  5
2B7
100
AcDbEntity
  8
KONSTRUKTIONSELEMENTE
100
AcDbLine
 62
7
  6
CONTINUOUS
 10
304.8261339414
 20
387.2997737887
 11
309.7758814097
 21
382.3500263204
  0
LINE
  5
2B8
100
AcDbEntity
  8
0
100
AcDbLine
 62
7
  6
CONTINUOUS
 10
422.646762086
 20
176.6499135762
 11
422.0217608939
 21
177.6073602706
  0
LINE
  5
2B9
100
AcDbEntity
  8
0
100
AcDbLine
 62
7
  6
CONTINUOUS
 10
443.2717602979
 20
185.9052329629
 11
443.89676149
 21
184.9477853745
  0
LINE
  5
2BA
100
AcDbEntity
  8
0
100
AcDbLine
 62
7
  6
CONTINUOUS
 10
329.0014742407
 20
166.22313693
 11
329.167733161
 21
165.2802357381
  0
LINE
  5
2BB
100
AcDbEntity
  8
0
100
AcDbLine
 62
7
  6
CONTINUOUS
 10
331.7528521038
 20
165.7360619561
 11
331.5865931836
 21
166.678963148
  0
LINE
  5
2BC
100
AcDbEntity
  8
0
100
AcDbLine
 62
7
  6
CONTINUOUS
 10
333.6290857579
 20
163.7335719882
 11
333.7953446549
 21
162.7906709284
  0
LINE
  5
2BD
100
AcDbEntity
  8
0
100
AcDbLine
 62
7
  6
CONTINUOUS
 10
338.1378241887
 20
170.5563296639
 11
338.2043278313
 21
170.1791687646
  0
LINE
  5
2BE
100
AcDbEntity
  8
0
100
AcDbLine
 62
7
  6
CONTINUOUS
 10
340.4427969877
 20
163.9627961277
 11
340.2765380907
 21
164.9056971875
  0
LINE
  5
2BF
100
AcDbEntity
  8
0
100
AcDbLine
 62
7
  6
CONTINUOUS
 10
339.3122365535
 20
170.3745229644
 11
339.2457329108
 21
170.7516838638
  0
LINE
  5
2C0
100
AcDbEntity
  8
0
100
AcDbLine
 62
7
  6
CONTINUOUS
 10
340.9889595358
 20
169.5035142419
 11
341.2882255084
 21
167.806292572
  0
LINE
  5
2C1
100
AcDbEntity
  8
0
100
AcDbLine
 62
7
  6
CONTINUOUS
 10
342.1782295934
 20
168.1576676757
 11
341.9454671702
 21
169.4777289745
  0
LINE
  5
2C2
100
AcDbEntity
  8
0
100
AcDbLine
 62
7
  6
CONTINUOUS
 10
346.7464056705
 20
170.3242639648
 11
346.9791680937
 21
169.004202666
  0
LINE
  5
2C3
100
AcDbEntity
  8
0
100
AcDbLine
 62
7
  6
CONTINUOUS
 10
347.9356757281
 20
168.9784173986
 11
347.6364097555
 21
170.6756390685
  0
LINE
  5
2C4
100
AcDbEntity
  8
0
100
AcDbLine
 62
7
  6
CONTINUOUS
 10
325.585058723
 20
170.4818155063
 11
325.6742140312
 21
163.4975738344
  0
LINE
  5
2C5
100
AcDbEntity
  8
0
100
AcDbLine
 62
7
  6
CONTINUOUS
 10
326.7785897669
 20
161.5534277246
 11
326.6929674452
 21
170.6771697062
  0
LINE
  5
2C6
100
AcDbEntity
  8
0
100
AcDbLine
 62
7
  6
CONTINUOUS
 10
330.52926149
 20
514.437573046
 11
330.52926149
 21
674.437573046
  0
LINE
  5
2C7
100
AcDbEntity
  8
0
100
AcDbLine
 62
7
  6
CONTINUOUS
 10
322.3469548783
 20
160.7720109251
 11
322.5605985293
 21
168.1985312368
  0
LINE
  5
2C8
100
AcDbEntity
  8
0
100
AcDbLine
 62
7
  6
CONTINUOUS
 10
321.5227263897
 20
169.7655167113
 11
321.2425791426
 21
162.7161570349
  0
LINE
  5
2C9
100
AcDbEntity
  8
KONSTRUKTIONSELEMENTE
100
AcDbLine
 62
7
  6
CONTINUOUS
 10
297.4722234171
 20
402.7147016185
 11
289.057652721
 21
394.3001309224
  0
LINE
  5
2CA
100
AcDbEntity
  8
KONSTRUKTIONSELEMENTE
100
AcDbLine
 62
7
  6
CONTINUOUS
 10
244.4392148281
 20
349.6816930296
 11
236.024644132
 21
341.2671223334
  0
LINE
  5
2CB
100
AcDbEntity
  8
KONSTRUKTIONSELEMENTE
100
AcDbLine
 62
7
  6
CONTINUOUS
 10
263.8846513107
 20
367.217941203
 11
271.2385618351
 21
374.5718517273
  0
LINE
  5
2CC
100
AcDbEntity
  8
KONSTRUKTIONSELEMENTE
100
AcDbLine
 62
7
  6
CONTINUOUS
 10
302.4219708854
 20
397.7649541502
 11
294.0074001893
 21
389.3503834541
  0
LINE
  5
2CD
100
AcDbEntity
  8
KONSTRUKTIONSELEMENTE
100
AcDbLine
 62
7
  6
CONTINUOUS
 10
249.3889622964
 20
344.7319455612
 11
240.9743916003
 21
336.3173748651
  0
LINE
  5
2CE
100
AcDbEntity
  8
KONSTRUKTIONSELEMENTE
100
AcDbLine
 62
7
  6
CONTINUOUS
 10
358.3541172772
 20
452.9192830828
 11
303.1997883447
 21
397.7649541502
  0
LINE
  5
2CF
100
AcDbEntity
  8
KONSTRUKTIONSELEMENTE
100
AcDbLine
 62
7
  6
CONTINUOUS
 10
268.4101347103
 20
362.6924578034
 11
275.7640452346
 21
370.0463683277
  0
LINE
  5
2D0
100
AcDbEntity
  8
KONSTRUKTIONSELEMENTE
100
AcDbLine
 62
7
  6
CONTINUOUS
 10
293.865978833
 20
387.2997737887
 11
276.648662604
 21
370.0824575597
  0
LINE
  5
2D1
100
AcDbEntity
  8
KONSTRUKTIONSELEMENTE
100
AcDbLine
 62
7
  6
CONTINUOUS
 10
268.4101347103
 20
361.843929666
 11
251.1928184813
 21
344.626613437
  0
LINE
  5
2D2
100
AcDbEntity
  8
KONSTRUKTIONSELEMENTE
100
AcDbLine
 62
7
  6
CONTINUOUS
 10
110.8667438619
 20
203.3105893239
 11
242.9376119945
 21
335.3814574564
  0
LINE
  5
2D3
100
AcDbEntity
  8
BEZUGSACHSEN
100
AcDbLine
 62
7
  6
CONTINUOUS
 10
242.9376119945
 20
335.3814574564
 11
243.8020244276
 21
336.2458698896
  0
LINE
  5
2D4
100
AcDbEntity
  8
KONSTRUKTIONSELEMENTE
100
AcDbLine
 62
7
  6
CONTINUOUS
 10
111.5738506431
 20
202.6034825428
 11
139.8581218906
 21
230.8877537902
  0
LINE
  5
2D5
100
AcDbEntity
  8
KONSTRUKTIONSELEMENTE
100
AcDbLine
 62
7
  6
CONTINUOUS
 10
442.57926149
 20
356.3709059423
 11
442.02926149
 21
356.3709059423
  0
LINE
  5
2D6
100
AcDbEntity
  8
KONSTRUKTIONSELEMENTE
100
AcDbLine
 62
7
  6
CONTINUOUS
 10
442.57926149
 20
356.600073046
 11
442.02926149
 21
356.600073046
  0
LINE
  5
2D7
100
AcDbEntity
  8
KONSTRUKTIONSELEMENTE
100
AcDbLine
 62
7
  6
CONTINUOUS
 10
442.57926149
 20
357.0584059423
 11
442.0255263465
 21
357.0584059423
  0
LINE
  5
2D8
100
AcDbEntity
  8
KONSTRUKTIONSELEMENTE
100
AcDbLine
 62
7
  6
CONTINUOUS
 10
442.57926149
 20
360.2667388385
 11
442.0255263465
 21
360.2667388385
  0
LINE
  5
2D9
100
AcDbEntity
  8
KONSTRUKTIONSELEMENTE
100
AcDbLine
 62
7
  6
CONTINUOUS
 10
442.57926149
 20
361.412573046
 11
442.02926149
 21
361.412573046
  0
LINE
  5
2DA
100
AcDbEntity
  8
KONSTRUKTIONSELEMENTE
100
AcDbLine
 62
7
  6
CONTINUOUS
 10
442.57926149
 20
362.100073046
 11
442.02926149
 21
362.100073046
  0
LINE
  5
2DB
100
AcDbEntity
  8
KONSTRUKTIONSELEMENTE
100
AcDbLine
 62
7
  6
CONTINUOUS
 10
442.57926149
 20
362.787573046
 11
441.7678347407
 21
362.787573046
  0
LINE
  5
2DC
100
AcDbEntity
  8
KONSTRUKTIONSELEMENTE
100
AcDbLine
 62
7
  6
CONTINUOUS
 10
442.57926149
 20
363.0167388385
 11
441.570996283
 21
363.0167388385
  0
LINE
  5
2DD
100
AcDbEntity
  8
KONSTRUKTIONSELEMENTE
100
AcDbLine
 62
7
  6
CONTINUOUS
 10
442.57926149
 20
363.9334072536
 11
441.3162947832
 21
363.9334072536
  0
LINE
  5
2DE
100
AcDbEntity
  8
KONSTRUKTIONSELEMENTE
100
AcDbLine
 62
7
  6
CONTINUOUS
 10
442.57926149
 20
364.850073046
 11
441.1663869251
 21
364.850073046
  0
LINE
  5
2DF
100
AcDbEntity
  8
KONSTRUKTIONSELEMENTE
100
AcDbLine
 62
7
  6
CONTINUOUS
 10
442.57926149
 20
365.7667388385
 11
441.0856106761
 21
365.7667388385
  0
LINE
  5
2E0
100
AcDbEntity
  8
KONSTRUKTIONSELEMENTE
100
AcDbLine
 62
7
  6
CONTINUOUS
 10
442.57926149
 20
366.912573046
 11
441.0856106761
 21
366.912573046
  0
LINE
  5
2E1
100
AcDbEntity
  8
KONSTRUKTIONSELEMENTE
100
AcDbLine
 62
7
  6
CONTINUOUS
 10
442.57926149
 20
368.0584072536
 11
441.1663869251
 21
368.0584072536
  0
LINE
  5
2E2
100
AcDbEntity
  8
KONSTRUKTIONSELEMENTE
100
AcDbLine
 62
7
  6
CONTINUOUS
 10
442.57926149
 20
368.975073046
 11
441.385536483
 21
368.975073046
  0
LINE
  5
2E3
100
AcDbEntity
  8
KONSTRUKTIONSELEMENTE
100
AcDbLine
 62
7
  6
CONTINUOUS
 10
442.57926149
 20
369.662573046
 11
441.625536972
 21
369.662573046
  0
LINE
  5
2E4
100
AcDbEntity
  8
KONSTRUKTIONSELEMENTE
100
AcDbLine
 62
7
  6
CONTINUOUS
 10
442.57926149
 20
369.8917388385
 11
441.7678347407
 21
369.8917388385
  0
LINE
  5
2E5
100
AcDbEntity
  8
KONSTRUKTIONSELEMENTE
100
AcDbLine
 62
7
  6
CONTINUOUS
 10
442.57926149
 20
370.1209072536
 11
442.02926149
 21
370.1209072536
  0
LINE
  5
2E6
100
AcDbEntity
  8
KONSTRUKTIONSELEMENTE
100
AcDbLine
 62
7
  6
CONTINUOUS
 10
442.57926149
 20
370.5792388385
 11
442.02926149
 21
370.5792388385
  0
LINE
  5
2E7
100
AcDbEntity
  8
KONSTRUKTIONSELEMENTE
100
AcDbLine
 62
7
  6
CONTINUOUS
 10
442.57926149
 20
372.412573046
 11
441.9356277976
 21
372.412573046
  0
LINE
  5
2E8
100
AcDbEntity
  8
KONSTRUKTIONSELEMENTE
100
AcDbLine
 62
7
  6
CONTINUOUS
 10
442.57926149
 20
372.6417388385
 11
441.7678347407
 21
372.6417388385
  0
LINE
  5
2E9
100
AcDbEntity
  8
KONSTRUKTIONSELEMENTE
100
AcDbLine
 62
7
  6
CONTINUOUS
 10
442.57926149
 20
373.100073046
 11
441.570996283
 21
373.100073046
  0
LINE
  5
2EA
100
AcDbEntity
  8
KONSTRUKTIONSELEMENTE
100
AcDbLine
 62
7
  6
CONTINUOUS
 10
442.57926149
 20
374.0167388385
 11
441.3162947832
 21
374.0167388385
  0
LINE
  5
2EB
100
AcDbEntity
  8
KONSTRUKTIONSELEMENTE
100
AcDbLine
 62
7
  6
CONTINUOUS
 10
442.57926149
 20
374.9334072536
 11
441.1663869251
 21
374.9334072536
  0
LINE
  5
2EC
100
AcDbEntity
  8
KONSTRUKTIONSELEMENTE
100
AcDbLine
 62
7
  6
CONTINUOUS
 10
442.57926149
 20
376.0792388385
 11
441.0856106761
 21
376.0792388385
  0
LINE
  5
2ED
100
AcDbEntity
  8
KONSTRUKTIONSELEMENTE
100
AcDbLine
 62
7
  6
CONTINUOUS
 10
442.57926149
 20
378.1417388385
 11
441.0856106761
 21
378.1417388385
  0
LINE
  5
2EE
100
AcDbEntity
  8
KONSTRUKTIONSELEMENTE
100
AcDbLine
 62
7
  6
CONTINUOUS
 10
442.57926149
 20
379.287573046
 11
441.1663869251
 21
379.287573046
  0
LINE
  5
2EF
100
AcDbEntity
  8
KONSTRUKTIONSELEMENTE
100
AcDbLine
 62
7
  6
CONTINUOUS
 10
442.57926149
 20
380.2042414611
 11
441.3162947832
 21
380.2042414611
  0
LINE
  5
2F0
100
AcDbEntity
  8
KONSTRUKTIONSELEMENTE
100
AcDbLine
 62
7
  6
CONTINUOUS
 10
442.57926149
 20
381.1209046309
 11
441.570996283
 21
381.1209046309
  0
LINE
  5
2F1
100
AcDbEntity
  8
KONSTRUKTIONSELEMENTE
100
AcDbLine
 62
7
  6
CONTINUOUS
 10
442.57926149
 20
381.350073046
 11
441.8082628949
 21
381.350073046
  0
LINE
  5
2F2
100
AcDbEntity
  8
KONSTRUKTIONSELEMENTE
100
AcDbLine
 62
7
  6
CONTINUOUS
 10
442.57926149
 20
383.1834046309
 11
441.0856106761
 21
383.1834046309
  0
LINE
  5
2F3
100
AcDbEntity
  8
KONSTRUKTIONSELEMENTE
100
AcDbLine
 62
7
  6
CONTINUOUS
 10
442.57926149
 20
384.5584046309
 11
441.0856106761
 21
384.5584046309
  0
LINE
  5
2F4
100
AcDbEntity
  8
BEZUGSACHSEN
100
AcDbLine
 62
7
  6
CONTINUOUS
 10
478.4554022832
 20
299.2494165557
 11
598.52926149
 21
229.9247416201
  0
LINE
  5
2F5
100
AcDbEntity
  8
BEZUGSACHSEN
100
AcDbLine
 62
7
  6
CONTINUOUS
 10
592.8011905642
 20
135.462063007
 11
594.2312388222
 21
134.032014749
  0
LINE
  5
2F6
100
AcDbEntity
  8
0
100
AcDbLine
 62
7
  6
CONTINUOUS
 10
420.146761788
 20
177.2882113724
 11
420.771762086
 21
176.0116155564
  0
LINE
  5
2F7
100
AcDbEntity
  8
0
100
AcDbLine
 62
7
  6
CONTINUOUS
 10
445.77176149
 20
185.2669351666
 11
445.1467602979
 21
186.5435307591
  0
LINE
  5
2F8
100
AcDbEntity
  8
0
100
AcDbLine
 62
7
  6
CONTINUOUS
 10
417.334261788
 20
173.777573046
 11
414.521761788
 21
181.117998597
  0
LINE
  5
2F9
100
AcDbEntity
  8
0
100
AcDbLine
 62
7
  6
CONTINUOUS
 10
412.6467613409
 20
180.4797008007
 11
415.1467611919
 21
173.777573046
  0
LINE
  5
2FA
100
AcDbEntity
  8
0
100
AcDbLine
 62
7
  6
CONTINUOUS
 10
366.2083799436
 20
177.6448030834
 11
367.7712135426
 21
168.7815333063
  0
LINE
  5
2FB
100
AcDbEntity
  8
0
100
AcDbLine
 62
7
  6
CONTINUOUS
 10
368.8791222647
 20
168.9768875062
 11
367.3162886657
 21
177.8401572833
  0
LINE
  5
2FC
100
AcDbEntity
  8
0
100
AcDbLine
 62
7
  6
CONTINUOUS
 10
368.7934988864
 20
178.1006293014
 11
370.3563324855
 21
169.2373595243
  0
LINE
  5
2FD
100
AcDbEntity
  8
0
100
AcDbLine
 62
7
  6
CONTINUOUS
 10
371.4642412076
 20
169.4327137242
 11
370.7659538449
 21
173.3928981489
  0
LINE
  5
2FE
100
AcDbEntity
  8
0
100
AcDbLine
 62
7
  6
CONTINUOUS
 10
370.5664431965
 20
174.5243792621
 11
370.0676664823
 21
177.3530825736
  0
LINE
  5
2FF
100
AcDbEntity
  8
0
100
AcDbLine
 62
7
  6
CONTINUOUS
 10
374.8834648817
 20
177.0355775415
 11
374.9832202991
 21
176.4698364566
  0
LINE
  5
300
100
AcDbEntity
  8
0
100
AcDbLine
 62
7
  6
CONTINUOUS
 10
376.124380796
 20
176.476610471
 11
375.9913736039
 21
177.2309317414
  0
LINE
  5
301
100
AcDbEntity
  8
0
100
AcDbLine
 62
7
  6
CONTINUOUS
 10
341.9454671702
 20
169.4777289745
 11
341.9306093842
 21
170.6417693695
  0
LINE
  5
302
100
AcDbEntity
  8
0
100
AcDbLine
 62
7
  6
CONTINUOUS
 10
346.9791680937
 20
169.004202666
 11
346.9940259262
 21
167.8401620069
  0
LINE
  5
303
100
AcDbEntity
  8
0
100
AcDbLine
 62
7
  6
CONTINUOUS
 10
341.0073514114
 20
170.4789740787
 11
340.9889595358
 21
169.5035142419
  0
LINE
  5
304
100
AcDbEntity
  8
0
100
AcDbLine
 62
7
  6
CONTINUOUS
 10
347.9172860122
 20
168.0029576703
 11
347.9356757281
 21
168.9784173986
  0
LINE
  5
305
100
AcDbEntity
  8
0
100
AcDbLine
 62
7
  6
CONTINUOUS
 10
332.8345770908
 20
170.3989975976
 11
332.7829313273
 21
169.6121175737
  0
LINE
  5
306
100
AcDbEntity
  8
0
100
AcDbLine
 62
7
  6
CONTINUOUS
 10
339.2605929031
 20
169.5876433132
 11
339.3122365535
 21
170.3745229644
  0
LINE
  5
307
100
AcDbEntity
  8
RUNDUNGEN
100
AcDbLine
 62
7
  6
CONTINUOUS
 10
291.3046033185
 20
76.7113922257
 11
287.7153520519
 21
51.1725424373
  0
LINE
  5
308
100
AcDbEntity
  8
0
100
AcDbLine
 62
7
  6
CONTINUOUS
 10
314.9608963785
 20
159.4696495305
 11
316.3524858625
 21
168.8538638096
  0
LINE
  5
309
100
AcDbEntity
  8
0
100
AcDbLine
 62
7
  6
CONTINUOUS
 10
315.2445771403
 20
168.6585096097
 11
314.022779804
 21
160.4708946271
  0
LINE
  5
30A
100
AcDbEntity
  8
KONSTRUKTIONSELEMENTE
100
AcDbLine
 62
7
  6
CONTINUOUS
 10
113.6951709867
 20
200.4821621992
 11
141.9794422342
 21
228.7664334467
  0
LINE
  5
30B
100
AcDbEntity
  8
KONSTRUKTIONSELEMENTE
100
AcDbLine
 62
7
  6
CONTINUOUS
 10
114.4022777679
 20
199.775055418
 11
246.4731459004
 21
331.8459235505
  0
LINE
  5
30C
100
AcDbEntity
  8
BEZUGSACHSEN
100
AcDbLine
 62
7
  6
CONTINUOUS
 10
246.4731459004
 20
331.8459235505
 11
247.3375583335
 21
332.7103359837
  0
LINE
  5
30D
100
AcDbEntity
  8
KONSTRUKTIONSELEMENTE
100
AcDbLine
 62
7
  6
CONTINUOUS
 10
298.3914622326
 20
382.7742903891
 11
281.1741460036
 21
365.5569741601
  0
LINE
  5
30E
100
AcDbEntity
  8
KONSTRUKTIONSELEMENTE
100
AcDbLine
 62
7
  6
CONTINUOUS
 10
272.9356181099
 20
357.3184462664
 11
255.7183018809
 21
340.1011300374
  0
LINE
  5
30F
100
AcDbEntity
  8
KONSTRUKTIONSELEMENTE
100
AcDbLine
 62
7
  6
CONTINUOUS
 10
281.1380567717
 20
364.6723567907
 11
273.7841462473
 21
357.3184462664
  0
LINE
  5
310
100
AcDbEntity
  8
KONSTRUKTIONSELEMENTE
100
AcDbLine
 62
7
  6
CONTINUOUS
 10
364.0109715267
 20
447.2624288333
 11
308.8566425942
 21
392.1080999007
  0
LINE
  5
311
100
AcDbEntity
  8
KONSTRUKTIONSELEMENTE
100
AcDbLine
 62
7
  6
CONTINUOUS
 10
247.4090633091
 20
329.8827031563
 11
251.4395719618
 21
333.9132118091
  0
LINE
  5
312
100
AcDbEntity
  8
KONSTRUKTIONSELEMENTE
100
AcDbLine
 62
7
  6
CONTINUOUS
 10
251.7931253524
 20
334.2667651997
 11
255.8236340052
 21
338.2972738525
  0
LINE
  5
313
100
AcDbEntity
  8
KONSTRUKTIONSELEMENTE
100
AcDbLine
 62
7
  6
CONTINUOUS
 10
300.4420718981
 20
382.9157117453
 11
304.4725805508
 21
386.9462203981
  0
LINE
  5
314
100
AcDbEntity
  8
KONSTRUKTIONSELEMENTE
100
AcDbLine
 62
7
  6
CONTINUOUS
 10
304.8261339414
 20
387.2997737887
 11
308.8566425942
 21
391.3302824414
  0
LINE
  5
315
100
AcDbEntity
  8
KONSTRUKTIONSELEMENTE
100
AcDbLine
 62
7
  6
CONTINUOUS
 10
285.6635401713
 20
360.1468733911
 11
278.3096296469
 21
352.7929628668
  0
LINE
  5
316
100
AcDbEntity
  8
KONSTRUKTIONSELEMENTE
100
AcDbLine
 62
7
  6
CONTINUOUS
 10
252.3588107774
 20
324.932955688
 11
256.3893194301
 21
328.9634643408
  0
LINE
  5
317
100
AcDbEntity
  8
KONSTRUKTIONSELEMENTE
100
AcDbLine
 62
7
  6
CONTINUOUS
 10
256.7428728207
 20
329.3170177314
 11
260.7733814735
 21
333.3475263841
  0
LINE
  5
318
100
AcDbEntity
  8
KONSTRUKTIONSELEMENTE
100
AcDbLine
 62
7
  6
CONTINUOUS
 10
305.3918193664
 20
377.965964277
 11
309.4223280191
 21
381.9964729298
  0
LINE
  5
319
100
AcDbEntity
  8
KONSTRUKTIONSELEMENTE
100
AcDbLine
 62
7
  6
CONTINUOUS
 10
309.7758814097
 20
382.3500263204
 11
313.8063900625
 21
386.3805349731
  0
LINE
  5
31A
100
AcDbEntity
  8
KONSTRUKTIONSELEMENTE
100
AcDbLine
 62
7
  6
CONTINUOUS
 10
442.57926149
 20
390.975073046
 11
441.0856106761
 21
390.975073046
  0
LINE
  5
31B
100
AcDbEntity
  8
KONSTRUKTIONSELEMENTE
100
AcDbLine
 62
7
  6
CONTINUOUS
 10
442.57926149
 20
392.350073046
 11
441.0856106761
 21
392.350073046
  0
LWPOLYLINE
  5
31C
100
AcDbEntity
  8
KONSTRUKTIONSELEMENTE
100
AcDbPolyline
 62
7
  6
CONTINUOUS
 90
17
 70
0
 10
450.2792554348
 20
309.0003843717
 10
449.3744368811
 20
309.7657054909
 10
448.4697655116
 20
310.6209168382
 10
447.6148316572
 20
311.5260271145
 10
446.8124030763
 20
312.4781352067
 10
446.0650722293
 20
313.4741912539
 10
445.3752547313
 20
314.510999459
 10
444.7451793475
 20
315.5852307077
 10
444.1768805641
 20
316.6934337903
 10
443.6721922302
 20
317.8320461836
 10
443.232741344
 20
318.9974059774
 10
442.8599426345
 20
320.1857640067
 10
442.5549938625
 20
321.3932962847
 10
442.3188718591
 20
322.6161166952
 10
442.1523293181
 20
323.8502898855
 10
442.0558927341
 20
325.0918365277
 10
442.0292571327
 20
326.1740798317
  0
LINE
  5
31D
100
AcDbEntity
  8
0
100
AcDbLine
 62
7
  6
CONTINUOUS
 10
414.83426149
 20
186.224381861
 11
415.1467611919
 21
185.2669351666
  0
LINE
  5
31E
100
AcDbEntity
  8
0
100
AcDbLine
 62
7
  6
CONTINUOUS
 10
417.0217611919
 20
185.2669351666
 11
416.70926149
 21
186.224381861
  0
LINE
  5
31F
100
AcDbEntity
  8
0
100
AcDbLine
 62
7
  6
CONTINUOUS
 10
422.0217608939
 20
177.6073602706
 11
421.709262086
 21
178.883955863
  0
LINE
  5
320
100
AcDbEntity
  8
0
100
AcDbLine
 62
7
  6
CONTINUOUS
 10
341.0922467433
 20
171.0772740727
 11
341.0073514114
 21
170.4789740787
  0
LINE
  5
321
100
AcDbEntity
  8
0
100
AcDbLine
 62
7
  6
CONTINUOUS
 10
347.832388474
 20
167.4046578319
 11
347.9172860122
 21
168.0029576703
  0
LINE
  5
322
100
AcDbEntity
  8
0
100
AcDbLine
 62
7
  6
CONTINUOUS
 10
363.339578654
 20
168.0001165068
 11
364.7311654965
 21
177.3843303201
  0
LINE
  5
323
100
AcDbEntity
  8
0
100
AcDbLine
 62
7
  6
CONTINUOUS
 10
363.6232567744
 20
177.1889761203
 11
362.4014607588
 21
169.0013613705
  0
LINE
  5
324
100
AcDbEntity
  8
BEZUGSACHSEN
100
AcDbLine
 62
7
  6
CONTINUOUS
 10
480.6824548473
 20
213.4104885223
 11
471.3704040117
 21
232.087573046
  0
LINE
  5
325
100
AcDbEntity
  8
0
100
AcDbLine
 62
7
  6
CONTINUOUS
 10
443.89676149
 20
184.9477853745
 11
444.2092602979
 21
183.671189782
  0
LINE
  5
326
100
AcDbEntity
  8
0
100
AcDbLine
 62
7
  6
CONTINUOUS
 10
419.8342611919
 20
178.883955863
 11
420.146761788
 21
177.2882113724
  0
LINE
  5
327
100
AcDbEntity
  8
0
100
AcDbLine
 62
7
  6
CONTINUOUS
 10
446.0842602979
 20
183.671189782
 11
445.77176149
 21
185.2669351666
  0
LINE
  5
328
100
AcDbEntity
  8
BEZUGSACHSEN
100
AcDbLine
 62
7
  6
CONTINUOUS
 10
440.2893565916
 20
194.37891404
 11
437.6846339266
 21
209.1510303352
  0
LINE
  5
329
100
AcDbEntity
  8
0
100
AcDbLine
 62
7
  6
CONTINUOUS
 10
405.45926149
 20
188.777573046
 11
405.45926149
 21
173.777573046
  0
LINE
  5
32A
100
AcDbEntity
  8
0
100
AcDbLine
 62
7
  6
CONTINUOUS
 10
407.33426149
 20
173.777573046
 11
407.33426149
 21
180.4797008007
  0
LINE
  5
32B
100
AcDbEntity
  8
0
100
AcDbLine
 62
7
  6
CONTINUOUS
 10
407.33426149
 20
182.3945941895
 11
407.33426149
 21
187.1818285554
  0
LINE
  5
32C
100
AcDbEntity
  8
BEZUGSACHSEN
100
AcDbLine
 62
7
  6
CONTINUOUS
 10
409.02926149
 20
394.137573046
 11
409.02926149
 21
326.1958470762
  0
LINE
  5
32D
100
AcDbEntity
  8
KONSTRUKTIONSELEMENTE
100
AcDbLine
 62
7
  6
CONTINUOUS
 10
409.02926149
 20
394.137573046
 11
409.02926149
 21
439.7874919418
  0
LINE
  5
32E
100
AcDbEntity
  8
0
100
AcDbLine
 62
7
  6
CONTINUOUS
 10
415.1467611919
 20
185.2669351666
 11
415.1467611919
 21
184.3094875782
  0
LINE
  5
32F
100
AcDbEntity
  8
0
100
AcDbLine
 62
7
  6
CONTINUOUS
 10
417.0217611919
 20
183.9903386801
 11
417.0217611919
 21
185.2669351666
  0
LINE
  5
330
100
AcDbEntity
  8
0
100
AcDbLine
 62
7
  6
CONTINUOUS
 10
419.8342611919
 20
188.777573046
 11
419.8342611919
 21
178.883955863
  0
LINE
  5
331
100
AcDbEntity
  8
KONSTRUKTIONSELEMENTE
100
AcDbLine
 62
7
  6
CONTINUOUS
 10
420.02926149
 20
302.7825117987
 11
420.02926149
 21
253.3926342933
  0
LINE
  5
332
100
AcDbEntity
  8
0
100
AcDbLine
 62
7
  6
CONTINUOUS
 10
420.52926149
 20
238.8179167683
 11
420.52926149
 21
232.087573046
  0
LINE
  5
333
100
AcDbEntity
  8
0
100
AcDbLine
 62
7
  6
CONTINUOUS
 10
421.709262086
 20
178.883955863
 11
421.709262086
 21
188.777573046
  0
LINE
  5
334
100
AcDbEntity
  8
0
100
AcDbLine
 62
7
  6
CONTINUOUS
 10
429.209262086
 20
188.777573046
 11
429.209262086
 21
178.883955863
  0
LINE
  5
335
100
AcDbEntity
  8
BEZUGSACHSEN
100
AcDbLine
 62
7
  6
CONTINUOUS
 10
430.52926149
 20
238.817838208
 11
430.52926149
 21
232.087573046
  0
LINE
  5
336
100
AcDbEntity
  8
KONSTRUKTIONSELEMENTE
100
AcDbLine
 62
7
  6
CONTINUOUS
 10
431.02926149
 20
253.3926342933
 11
431.02926149
 21
302.7825117987
  0
LINE
  5
337
100
AcDbEntity
  8
0
100
AcDbLine
 62
7
  6
CONTINUOUS
 10
431.084262086
 20
178.883955863
 11
431.084262086
 21
188.777573046
  0
LINE
  5
338
100
AcDbEntity
  8
0
100
AcDbLine
 62
7
  6
CONTINUOUS
 10
433.58426149
 20
188.777573046
 11
433.58426149
 21
173.777573046
  0
LINE
  5
339
100
AcDbEntity
  8
0
100
AcDbLine
 62
7
  6
CONTINUOUS
 10
374.9832202991
 20
176.4698364566
 11
374.8983227608
 21
175.8715366183
  0
LINE
  5
33A
100
AcDbEntity
  8
0
100
AcDbLine
 62
7
  6
CONTINUOUS
 10
376.0394832577
 20
175.8783106326
 11
376.124380796
 21
176.476610471
  0
LINE
  5
33B
100
AcDbEntity
  8
0
100
AcDbLine
 62
7
  6
CONTINUOUS
 10
338.2043278313
 20
170.1791687646
 11
337.9680313185
 21
169.3597298316
  0
LINE
  5
33C
100
AcDbEntity
  8
0
100
AcDbLine
 62
7
  6
CONTINUOUS
 10
341.3285432561
 20
171.8967130057
 11
341.0922467433
 21
171.0772740727
  0
LINE
  5
33D
100
AcDbEntity
  8
0
100
AcDbLine
 62
7
  6
CONTINUOUS
 10
347.5960940976
 20
166.5852191395
 11
347.832388474
 21
167.4046578319
  0
LINE
  5
33E
100
AcDbEntity
  8
0
100
AcDbLine
 62
7
  6
CONTINUOUS
 10
333.7061893001
 20
169.7749128644
 11
333.9757375877
 21
170.4057716119
  0
LWPOLYLINE
  5
33F
100
AcDbEntity
  8
BEZUGSACHSEN
100
AcDbPolyline
 62
7
  6
CONTINUOUS
 90
7
 70
0
 10
287.3035520446
 20
134.4864038422
 10
287.3901642985
 20
134.6764163352
 10
287.4603681668
 20
134.8691299144
 10
287.5154145888
 20
135.0667075558
 10
287.5549719981
 20
135.2679590662
 10
287.5788021362
 20
135.4716721172
 10
287.58676149
 20
135.6766195858
  0
LINE
  5
340
100
AcDbEntity
  8
RUNDUNGEN
100
AcDbLine
 62
7
  6
CONTINUOUS
 10
335.1007403152
 20
200.9292463088
 11
354.4152292745
 21
239.6681180347
  0
LINE
  5
341
100
AcDbEntity
  8
BEZUGSACHSEN
100
AcDbLine
 62
7
  6
CONTINUOUS
 10
515.9577826647
 20
200.9292463088
 11
496.6432937055
 21
239.6681180347
  0
LINE
  5
342
100
AcDbEntity
  8
BEZUGSACHSEN
100
AcDbLine
 62
7
  6
CONTINUOUS
 10
563.6683596878
 20
134.6764032684
 11
563.7549720741
 21
134.4863899814
  0
LINE
  5
343
100
AcDbEntity
  8
0
100
AcDbLine
 62
7
  6
CONTINUOUS
 10
435.45926149
 20
175.6924666583
 11
435.45926149
 21
186.8626796573
  0
LINE
  5
344
100
AcDbEntity
  8
KONSTRUKTIONSELEMENTE
100
AcDbLine
 62
7
  6
CONTINUOUS
 10
441.0856106761
 20
392.350073046
 11
441.0856106761
 21
390.975073046
  0
LINE
  5
345
100
AcDbEntity
  8
KONSTRUKTIONSELEMENTE
100
AcDbLine
 62
7
  6
CONTINUOUS
 10
441.0856106761
 20
384.5584046309
 11
441.0856106761
 21
383.1834046309
  0
LINE
  5
346
100
AcDbEntity
  8
KONSTRUKTIONSELEMENTE
100
AcDbLine
 62
7
  6
CONTINUOUS
 10
441.0856106761
 20
378.1417388385
 11
441.0856106761
 21
376.0792388385
  0
LINE
  5
347
100
AcDbEntity
  8
KONSTRUKTIONSELEMENTE
100
AcDbLine
 62
7
  6
CONTINUOUS
 10
441.0856106761
 20
366.912573046
 11
441.0856106761
 21
365.7667388385
  0
LINE
  5
348
100
AcDbEntity
  8
KONSTRUKTIONSELEMENTE
100
AcDbLine
 62
7
  6
CONTINUOUS
 10
441.0856106761
 20
352.0167401498
 11
441.0856106761
 21
349.9542401498
  0
LINE
  5
349
100
AcDbEntity
  8
KONSTRUKTIONSELEMENTE
100
AcDbLine
 62
7
  6
CONTINUOUS
 10
441.0856106761
 20
344.4542394941
 11
441.0856106761
 21
343.0792394941
  0
LINE
  5
34A
100
AcDbEntity
  8
KONSTRUKTIONSELEMENTE
100
AcDbLine
 62
7
  6
CONTINUOUS
 10
441.0856106761
 20
336.662573046
 11
441.0856106761
 21
335.287573046
  0
LINE
  5
34B
100
AcDbEntity
  8
KONSTRUKTIONSELEMENTE
100
AcDbLine
 62
7
  6
CONTINUOUS
 10
441.9956146974
 20
390.975073046
 11
441.9956146974
 21
384.5584046309
  0
LINE
  5
34C
100
AcDbEntity
  8
KONSTRUKTIONSELEMENTE
100
AcDbLine
 62
7
  6
CONTINUOUS
 10
442.02926149
 20
439.7874919418
 11
442.02926149
 21
394.137573046
  0
LINE
  5
34D
100
AcDbEntity
  8
BEZUGSACHSEN
100
AcDbLine
 62
7
  6
CONTINUOUS
 10
442.02926149
 20
394.137573046
 11
442.02926149
 21
392.350073046
  0
LINE
  5
34E
100
AcDbEntity
  8
BEZUGSACHSEN
100
AcDbLine
 62
7
  6
CONTINUOUS
 10
442.02926149
 20
383.1834046309
 11
442.02926149
 21
381.350073046
  0
LINE
  5
34F
100
AcDbEntity
  8
BEZUGSACHSEN
100
AcDbLine
 62
7
  6
CONTINUOUS
 10
442.02926149
 20
372.412573046
 11
442.02926149
 21
369.8917388385
  0
LINE
  5
350
100
AcDbEntity
  8
BEZUGSACHSEN
100
AcDbLine
 62
7
  6
CONTINUOUS
 10
442.02926149
 20
362.787573046
 11
442.02926149
 21
355.225073046
  0
LINE
  5
351
100
AcDbEntity
  8
BEZUGSACHSEN
100
AcDbLine
 62
7
  6
CONTINUOUS
 10
442.02926149
 20
346.287573046
 11
442.02926149
 21
344.4542394941
  0
LINE
  5
352
100
AcDbEntity
  8
BEZUGSACHSEN
100
AcDbLine
 62
7
  6
CONTINUOUS
 10
442.02926149
 20
341.2401932215
 11
442.02926149
 21
338.5016193187
  0
LINE
  5
353
100
AcDbEntity
  8
BEZUGSACHSEN
100
AcDbLine
 62
7
  6
CONTINUOUS
 10
442.02926149
 20
335.287573046
 11
442.02926149
 21
326.195541041
  0
LINE
  5
354
100
AcDbEntity
  8
KONSTRUKTIONSELEMENTE
100
AcDbLine
 62
7
  6
CONTINUOUS
 10
442.57926149
 20
335.287573046
 11
442.57926149
 21
344.4542394941
  0
LINE
  5
355
100
AcDbEntity
  8
KONSTRUKTIONSELEMENTE
100
AcDbLine
 62
7
  6
CONTINUOUS
 10
442.57926149
 20
345.3709065979
 11
442.57926149
 21
356.600073046
  0
LINE
  5
356
100
AcDbEntity
  8
KONSTRUKTIONSELEMENTE
100
AcDbLine
 62
7
  6
CONTINUOUS
 10
442.57926149
 20
357.0584059423
 11
442.57926149
 21
370.5792388385
  0
LINE
  5
357
100
AcDbEntity
  8
KONSTRUKTIONSELEMENTE
100
AcDbLine
 62
7
  6
CONTINUOUS
 10
442.57926149
 20
372.412573046
 11
442.57926149
 21
381.350073046
  0
LINE
  5
358
100
AcDbEntity
  8
KONSTRUKTIONSELEMENTE
100
AcDbLine
 62
7
  6
CONTINUOUS
 10
442.57926149
 20
383.1834046309
 11
442.57926149
 21
392.350073046
  0
LINE
  5
359
100
AcDbEntity
  8
0
100
AcDbLine
 62
7
  6
CONTINUOUS
 10
444.2092602979
 20
183.671189782
 11
444.2092602979
 21
178.883955863
  0
LINE
  5
35A
100
AcDbEntity
  8
0
100
AcDbLine
 62
7
  6
CONTINUOUS
 10
446.0842602979
 20
178.883955863
 11
446.0842602979
 21
183.671189782
  0
LINE
  5
35B
100
AcDbEntity
  8
0
100
AcDbLine
 62
7
  6
CONTINUOUS
 10
410.7691663883
 20
194.37891404
 11
413.3738890533
 21
209.1510303352
  0
LINE
  5
35C
100
AcDbEntity
  8
0
100
AcDbLine
 62
7
  6
CONTINUOUS
 10
338.9910446155
 20
168.9567845657
 11
339.2605929031
 21
169.5876433132
  0
LINE
  5
35D
100
AcDbEntity
  8
0
100
AcDbLine
 62
7
  6
CONTINUOUS
 10
341.9306093842
 20
170.6417693695
 11
342.469703753
 21
171.9034870201
  0
LINE
  5
35E
100
AcDbEntity
  8
0
100
AcDbLine
 62
7
  6
CONTINUOUS
 10
346.9940259262
 20
167.8401620069
 11
346.4549336007
 21
166.5784451251
  0
LINE
  5
35F
100
AcDbEntity
  8
0
100
AcDbLine
 62
7
  6
CONTINUOUS
 10
370.3760681326
 20
213.4104885223
 11
379.6881189682
 21
232.087573046
  0
LINE
  5
360
100
AcDbEntity
  8
0
100
AcDbLine
 62
7
  6
CONTINUOUS
 10
430.77176149
 20
177.2882113724
 11
431.084262086
 21
178.883955863
  0
LINE
  5
361
100
AcDbEntity
  8
0
100
AcDbLine
 62
7
  6
CONTINUOUS
 10
445.77176149
 20
177.2882113724
 11
446.0842602979
 21
178.883955863
  0
LINE
  5
362
100
AcDbEntity
  8
0
100
AcDbLine
 62
7
  6
CONTINUOUS
 10
429.209262086
 20
178.883955863
 11
428.89676149
 21
177.6073602706
  0
LINE
  5
363
100
AcDbEntity
  8
0
100
AcDbLine
 62
7
  6
CONTINUOUS
 10
415.1467611919
 20
184.3094875782
 11
414.83426149
 21
183.3520408838
  0
LINE
  5
364
100
AcDbEntity
  8
0
100
AcDbLine
 62
7
  6
CONTINUOUS
 10
416.70926149
 20
183.0328919857
 11
417.0217611919
 21
183.9903386801
  0
LINE
  5
365
100
AcDbEntity
  8
0
100
AcDbLine
 62
7
  6
CONTINUOUS
 10
375.6185359956
 20
175.0263127905
 11
376.0394832577
 21
175.8783106326
  0
LINE
  5
366
100
AcDbEntity
  8
0
100
AcDbLine
 62
7
  6
CONTINUOUS
 10
333.4401751022
 20
171.2835543488
 11
332.8345770908
 21
170.3989975976
  0
LINE
  5
367
100
AcDbEntity
  8
0
100
AcDbLine
 62
7
  6
CONTINUOUS
 10
341.782742293
 20
172.5601306623
 11
341.3285432561
 21
171.8967130057
  0
LINE
  5
368
100
AcDbEntity
  8
0
100
AcDbLine
 62
7
  6
CONTINUOUS
 10
347.1418950724
 20
165.9218014169
 11
347.5960940976
 21
166.5852191395
  0
LINE
  5
369
100
AcDbEntity
  8
0
100
AcDbLine
 62
7
  6
CONTINUOUS
 10
337.9680313185
 20
169.3597298316
 11
333.6290857579
 21
163.7335719882
  0
LINE
  5
36A
100
AcDbEntity
  8
0
100
AcDbLine
 62
7
  6
CONTINUOUS
 10
335.1062980918
 20
163.9940443789
 11
338.9910446155
 21
168.9567845657
  0
LINE
  5
36B
100
AcDbEntity
  8
BEZUGSACHSEN
100
AcDbLine
 62
7
  6
CONTINUOUS
 10
258.2573324157
 20
135.462063007
 11
256.8272841577
 21
134.032014749
  0
LINE
  5
36C
100
AcDbEntity
  8
BEZUGSACHSEN
100
AcDbLine
 62
7
  6
CONTINUOUS
 10
372.6031206967
 20
299.2494165557
 11
252.52926149
 21
229.9247416201
  0
LINE
  5
36D
100
AcDbEntity
  8
RUNDUNGEN
100
AcDbLine
 62
7
  6
CONTINUOUS
 10
341.86082002
 20
251.4781269867
 11
310.6005297864
 21
233.4299900053
  0
LINE
  5
36E
100
AcDbEntity
  8
0
100
AcDbLine
 62
7
  6
CONTINUOUS
 10
520.52926149
 20
674.437573046
 11
520.52926149
 21
514.437573046
  0
LINE
  5
36F
100
AcDbEntity
  8
0
100
AcDbLine
 62
7
  6
CONTINUOUS
 10
444.2092602979
 20
178.883955863
 11
443.89676149
 21
177.6073602706
  0
LINE
  5
370
100
AcDbEntity
  8
0
100
AcDbLine
 62
7
  6
CONTINUOUS
 10
430.146762086
 20
176.0116155564
 11
430.77176149
 21
177.2882113724
  0
LINE
  5
371
100
AcDbEntity
  8
0
100
AcDbLine
 62
7
  6
CONTINUOUS
 10
374.8983227608
 20
175.8715366183
 11
374.5955248117
 21
175.429258429
  0
LINE
  5
372
100
AcDbEntity
  8
0
100
AcDbLine
 62
7
  6
CONTINUOUS
 10
333.9757375877
 20
170.4057716119
 11
334.4631883993
 21
170.8806090829
  0
LINE
  5
373
100
AcDbEntity
  8
0
100
AcDbLine
 62
7
  6
CONTINUOUS
 10
342.469703753
 20
171.9034870201
 11
342.9571545646
 21
172.3783244911
  0
LINE
  5
374
100
AcDbEntity
  8
BEZUGSACHSEN
100
AcDbLine
 62
7
  6
CONTINUOUS
 10
559.7539196614
 20
76.7113922257
 11
563.343170928
 21
51.1725424373
  0
LWPOLYLINE
  5
375
100
AcDbEntity
  8
BEZUGSACHSEN
100
AcDbPolyline
 62
7
  6
CONTINUOUS
 90
6
 70
0
 10
563.47176149
 20
135.6766142332
 10
563.4797209011
 20
135.4716649505
 10
563.5035511941
 20
135.2679502108
 10
563.5431088282
 20
135.0666971571
 10
563.5981555216
 20
134.8691181128
 10
563.6683596878
 20
134.6764032684
  0
LINE
  5
376
100
AcDbEntity
  8
BEZUGSACHSEN
100
AcDbLine
 62
7
  6
CONTINUOUS
 10
555.27926149
 20
130.2947569429
 11
555.27926149
 21
119.0640836307
  0
LINE
  5
377
100
AcDbEntity
  8
BEZUGSACHSEN
100
AcDbLine
 62
7
  6
CONTINUOUS
 10
555.27926149
 20
118.238065724
 11
555.27926149
 21
84.8804028558
  0
LINE
  5
378
100
AcDbEntity
  8
RUNDUNGEN
100
AcDbLine
 62
7
  6
CONTINUOUS
 10
555.27926149
 20
116.7306131604
 11
555.27926149
 21
119.0640836307
  0
LINE
  5
379
100
AcDbEntity
  8
0
100
AcDbLine
 62
7
  6
CONTINUOUS
 10
445.1467602979
 20
176.0116155564
 11
445.77176149
 21
177.2882113724
  0
LINE
  5
37A
100
AcDbEntity
  8
0
100
AcDbLine
 62
7
  6
CONTINUOUS
 10
428.89676149
 20
177.6073602706
 11
428.271762086
 21
176.6499135762
  0
LINE
  5
37B
100
AcDbEntity
  8
0
100
AcDbLine
 62
7
  6
CONTINUOUS
 10
443.89676149
 20
177.6073602706
 11
443.2717602979
 21
176.6499135762
  0
LINE
  5
37C
100
AcDbEntity
  8
0
100
AcDbLine
 62
7
  6
CONTINUOUS
 10
415.77176149
 20
181.7562963932
 11
416.70926149
 21
183.0328919857
  0
LINE
  5
37D
100
AcDbEntity
  8
0
100
AcDbLine
 62
7
  6
CONTINUOUS
 10
374.9796840963
 20
174.3303358522
 11
375.6185359956
 21
175.0263127905
  0
LINE
  5
37E
100
AcDbEntity
  8
RUNDUNGEN
100
AcDbLine
 62
7
  6
CONTINUOUS
 10
294.2311977338
 20
81.1430902546
 11
292.80120155
 21
79.7130940708
  0
LINE
  5
37F
100
AcDbEntity
  8
0
100
AcDbLine
 62
7
  6
CONTINUOUS
 10
346.4549336007
 20
166.5784451251
 11
345.9674827891
 21
166.1036076541
  0
LINE
  5
380
100
AcDbEntity
  8
0
100
AcDbLine
 62
7
  6
CONTINUOUS
 10
342.6062449416
 20
173.2886665097
 11
341.782742293
 21
172.5601306623
  0
LINE
  5
381
100
AcDbEntity
  8
0
100
AcDbLine
 62
7
  6
CONTINUOUS
 10
346.3183903193
 20
165.1932651473
 11
347.1418950724
 21
165.9218014169
  0
LINE
  5
382
100
AcDbEntity
  8
0
100
AcDbLine
 62
7
  6
CONTINUOUS
 10
334.1122766631
 20
171.7909507289
 11
333.4401751022
 21
171.2835543488
  0
LINE
  5
383
100
AcDbEntity
  8
BEZUGSACHSEN
100
AcDbLine
 62
7
  6
CONTINUOUS
 10
590.1776694349
 20
146.4823051011
 11
591.3046034228
 21
138.4637531241
  0
LINE
  5
384
100
AcDbEntity
  8
BEZUGSACHSEN
100
AcDbLine
 62
7
  6
CONTINUOUS
 10
563.47176149
 20
49.3336125229
 11
563.47176149
 21
15.9640329782
  0
LINE
  5
385
100
AcDbEntity
  8
BEZUGSACHSEN
100
AcDbLine
 62
7
  6
CONTINUOUS
 10
563.47176149
 20
135.6768522836
 11
563.47176149
 21
199.2111131139
  0
LINE
  5
386
100
AcDbEntity
  8
0
100
AcDbLine
 62
7
  6
CONTINUOUS
 10
571.52926149
 20
674.437573046
 11
571.52926149
 21
514.437573046
  0
LINE
  5
387
100
AcDbEntity
  8
BEZUGSACHSEN
100
AcDbLine
 62
7
  6
CONTINUOUS
 10
587.58676149
 20
199.2111131139
 11
587.58676149
 21
135.6766167797
  0
LINE
  5
388
100
AcDbEntity
  8
RUNDUNGEN
100
AcDbLine
 62
7
  6
CONTINUOUS
 10
587.58676149
 20
49.3336125229
 11
587.58676149
 21
15.9640329782
  0
LINE
  5
389
100
AcDbEntity
  8
0
100
AcDbLine
 62
7
  6
CONTINUOUS
 10
414.83426149
 20
183.3520408838
 11
414.2092611919
 21
182.7137430876
  0
LINE
  5
38A
100
AcDbEntity
  8
0
100
AcDbLine
 62
7
  6
CONTINUOUS
 10
428.89676149
 20
174.7350198522
 11
430.146762086
 21
176.0116155564
  0
LINE
  5
38B
100
AcDbEntity
  8
0
100
AcDbLine
 62
7
  6
CONTINUOUS
 10
443.89676149
 20
174.7350198522
 11
445.1467602979
 21
176.0116155564
  0
LINE
  5
38C
100
AcDbEntity
  8
0
100
AcDbLine
 62
7
  6
CONTINUOUS
 10
374.5955248117
 20
175.429258429
 11
374.0748222254
 21
175.1430011435
  0
LINE
  5
38D
100
AcDbEntity
  8
0
100
AcDbLine
 62
7
  6
CONTINUOUS
 10
334.4631883993
 20
170.8806090829
 11
335.3531924842
 21
171.2319841866
  0
LINE
  5
38E
100
AcDbEntity
  8
0
100
AcDbLine
 62
7
  6
CONTINUOUS
 10
342.9571545646
 20
172.3783244911
 11
343.8471607627
 21
172.7296999674
  0
LINE
  5
38F
100
AcDbEntity
  8
0
100
AcDbLine
 62
7
  6
CONTINUOUS
 10
345.9674827891
 20
166.1036076541
 11
345.077476591
 21
165.7522321778
  0
LINE
  5
390
100
AcDbEntity
  8
0
100
AcDbLine
 62
7
  6
CONTINUOUS
 10
343.680901889
 20
173.6726008951
 11
342.6062449416
 21
173.2886665097
  0
LINE
  5
391
100
AcDbEntity
  8
0
100
AcDbLine
 62
7
  6
CONTINUOUS
 10
335.371586473
 20
172.2074443961
 11
334.1122766631
 21
171.7909507289
  0
LINE
  5
392
100
AcDbEntity
  8
BEZUGSACHSEN
100
AcDbLine
 62
7
  6
CONTINUOUS
 10
595.77926149
 20
130.2947569429
 11
595.77926149
 21
119.0640836307
  0
LINE
  5
393
100
AcDbEntity
  8
RUNDUNGEN
100
AcDbLine
 62
7
  6
CONTINUOUS
 10
595.77926149
 20
119.0640836307
 11
595.77926149
 21
84.8804028558
  0
LINE
  5
394
100
AcDbEntity
  8
BEZUGSACHSEN
100
AcDbLine
 62
7
  6
CONTINUOUS
 10
560.8093411552
 20
145.9734680082
 11
559.7539195571
 21
138.4637531241
  0
LINE
  5
395
100
AcDbEntity
  8
BEZUGSACHSEN
100
AcDbLine
 62
7
  6
CONTINUOUS
 10
543.7522218276
 20
221.1357613713
 11
531.8064205532
 21
200.4450266268
  0
LINE
  5
396
100
AcDbEntity
  8
0
100
AcDbLine
 62
7
  6
CONTINUOUS
 10
428.271762086
 20
176.6499135762
 11
427.334262086
 21
176.0116155564
  0
LINE
  5
397
100
AcDbEntity
  8
0
100
AcDbLine
 62
7
  6
CONTINUOUS
 10
443.2717602979
 20
176.6499135762
 11
442.3342602979
 21
176.0116155564
  0
LINE
  5
398
100
AcDbEntity
  8
0
100
AcDbLine
 62
7
  6
CONTINUOUS
 10
414.521761788
 20
181.117998597
 11
415.77176149
 21
181.7562963932
  0
LINE
  5
399
100
AcDbEntity
  8
0
100
AcDbLine
 62
7
  6
CONTINUOUS
 10
427.6467608939
 20
174.0967219721
 11
428.89676149
 21
174.7350198522
  0
LINE
  5
39A
100
AcDbEntity
  8
0
100
AcDbLine
 62
7
  6
CONTINUOUS
 10
442.6467626821
 20
174.0967219721
 11
443.89676149
 21
174.7350198522
  0
LINE
  5
39B
100
AcDbEntity
  8
0
100
AcDbLine
 62
7
  6
CONTINUOUS
 10
374.0896800113
 20
173.9789607485
 11
374.9796840963
 21
174.3303358522
  0
LINE
  5
39C
100
AcDbEntity
  8
0
100
AcDbLine
 62
7
  6
CONTINUOUS
 10
345.243735488
 20
164.809331118
 11
346.3183903193
 21
165.1932651473
  0
LINE
  5
39D
100
AcDbEntity
  8
0
100
AcDbLine
 62
7
  6
CONTINUOUS
 10
414.2092611919
 20
182.7137430876
 11
413.2717611919
 21
182.3945941895
  0
LINE
  5
39E
100
AcDbEntity
  8
RUNDUNGEN
100
AcDbLine
 62
7
  6
CONTINUOUS
 10
591.3046033185
 20
76.7113922257
 11
587.7153520519
 21
51.1725424373
  0
LWPOLYLINE
  5
39F
100
AcDbEntity
  8
BEZUGSACHSEN
100
AcDbPolyline
 62
7
  6
CONTINUOUS
 90
7
 70
0
 10
587.3035520446
 20
134.4864038422
 10
587.3901642985
 20
134.6764163352
 10
587.4603681668
 20
134.8691299144
 10
587.5154145888
 20
135.0667075558
 10
587.5549719981
 20
135.2679590662
 10
587.5788021362
 20
135.4716721172
 10
587.58676149
 20
135.6766195858
  0
LINE
  5
3A0
100
AcDbEntity
  8
BEZUGSACHSEN
100
AcDbLine
 62
7
  6
CONTINUOUS
 10
558.2573324157
 20
135.462063007
 11
556.8272841577
 21
134.032014749
  0
LINE
  5
3A1
100
AcDbEntity
  8
RUNDUNGEN
100
AcDbLine
 62
7
  6
CONTINUOUS
 10
594.2311977338
 20
81.1430902546
 11
592.80120155
 21
79.7130940708
  0
LINE
  5
3A2
100
AcDbEntity
  8
BEZUGSACHSEN
100
AcDbLine
 62
7
  6
CONTINUOUS
 10
897.7282415087
 20
83.927573046
 11
887.4854623487
 21
83.927573046
  0
LINE
  5
3A3
100
AcDbEntity
  8
BEZUGSACHSEN
100
AcDbLine
 62
7
  6
CONTINUOUS
 10
856.7201823487
 20
83.927573046
 11
847.2290477618
 21
83.927573046
  0
LINE
  5
3A4
100
AcDbEntity
  8
BEZUGSACHSEN
100
AcDbLine
 62
7
  6
CONTINUOUS
 10
967.0121823488
 20
86.657573046
 11
946.8174623487
 21
86.657573046
  0
LINE
  5
3A5
100
AcDbEntity
  8
BEZUGSACHSEN
100
AcDbLine
 62
7
  6
CONTINUOUS
 10
966.5571823487
 20
88.477573046
 11
947.0904623487
 21
88.477573046
  0
LINE
  5
3A6
100
AcDbEntity
  8
0
100
AcDbLine
 62
7
  6
CONTINUOUS
 10
969.6548223487
 20
99.337573046
 11
969.1998223487
 21
99.337573046
  0
LINE
  5
3A7
100
AcDbEntity
  8
0
100
AcDbLine
 62
7
  6
CONTINUOUS
 10
944.4478223487
 20
99.337573046
 11
944.1748223487
 21
99.337573046
  0
LINE
  5
3A8
100
AcDbEntity
  8
0
100
AcDbLine
 62
7
  6
CONTINUOUS
 10
928.6138223487
 20
99.337573046
 11
900.4038223487
 21
99.337573046
  0
LINE
  5
3A9
100
AcDbEntity
  8
0
100
AcDbLine
 62
7
  6
CONTINUOUS
 10
884.8428223487
 20
99.337573046
 11
884.5698223487
 21
99.337573046
  0
LINE
  5
3AA
100
AcDbEntity
  8
0
100
AcDbLine
 62
7
  6
CONTINUOUS
 10
859.8178223487
 20
99.337573046
 11
859.3628223487
 21
99.337573046
  0
LINE
  5
3AB
100
AcDbEntity
  8
0
100
AcDbLine
 62
7
  6
CONTINUOUS
 10
969.6548223487
 20
115.837573046
 11
969.1998223487
 21
115.837573046
  0
LINE
  5
3AC
100
AcDbEntity
  8
0
100
AcDbLine
 62
7
  6
CONTINUOUS
 10
944.4478223487
 20
115.837573046
 11
944.1748223487
 21
115.837573046
  0
LINE
  5
3AD
100
AcDbEntity
  8
0
100
AcDbLine
 62
7
  6
CONTINUOUS
 10
928.6138223487
 20
115.837573046
 11
900.4038223487
 21
115.837573046
  0
LINE
  5
3AE
100
AcDbEntity
  8
0
100
AcDbLine
 62
7
  6
CONTINUOUS
 10
884.8428223487
 20
115.837573046
 11
884.5698223487
 21
115.837573046
  0
LINE
  5
3AF
100
AcDbEntity
  8
0
100
AcDbLine
 62
7
  6
CONTINUOUS
 10
859.8178223487
 20
115.837573046
 11
859.3628223487
 21
115.837573046
  0
LINE
  5
3B0
100
AcDbEntity
  8
0
100
AcDbLine
 62
7
  6
CONTINUOUS
 10
862.4604623487
 20
126.697573046
 11
881.9271823487
 21
126.697573046
  0
LINE
  5
3B1
100
AcDbEntity
  8
BEZUGSACHSEN
100
AcDbLine
 62
7
  6
CONTINUOUS
 10
882.2001914978
 20
128.517573046
 11
862.0054266439
 21
128.517573046
  0
LINE
  5
3B2
100
AcDbEntity
  8
BEZUGSACHSEN
100
AcDbLine
 62
7
  6
CONTINUOUS
 10
931.2894031888
 20
131.247573046
 11
941.5321823487
 21
131.247573046
  0
LINE
  5
3B3
100
AcDbEntity
  8
BEZUGSACHSEN
100
AcDbLine
 62
7
  6
CONTINUOUS
 10
972.2974623487
 20
131.247573046
 11
981.7885969357
 21
131.247573046
  0
LINE
  5
3B4
100
AcDbEntity
  8
BEZUGSACHSEN
100
AcDbLine
 62
7
  6
CONTINUOUS
 10
894.5088223487
 20
144.087573046
 11
934.5088223487
 21
144.087573046
  0
LINE
  5
3B5
100
AcDbEntity
  8
BEZUGSACHSEN
100
AcDbLine
 62
7
  6
CONTINUOUS
 10
845.0394684598
 20
85.064575813
 11
838.6970672677
 21
94.1224634334
  0
LINE
  5
3B6
100
AcDbEntity
  8
KONSTRUKTIONSELEMENTE
100
AcDbLine
 62
7
  6
CONTINUOUS
 10
905.4088223487
 20
199.775055418
 11
923.6088223487
 21
199.775055418
  0
LINE
  5
3B7
100
AcDbEntity
  8
KONSTRUKTIONSELEMENTE
100
AcDbLine
 62
7
  6
CONTINUOUS
 10
904.4088223487
 20
200.4821621992
 11
905.4088223487
 21
200.4821621992
  0
LINE
  5
3B8
100
AcDbEntity
  8
KONSTRUKTIONSELEMENTE
100
AcDbLine
 62
7
  6
CONTINUOUS
 10
923.6088223487
 20
200.4821621992
 11
924.6088223487
 21
200.4821621992
  0
LINE
  5
3B9
100
AcDbEntity
  8
KONSTRUKTIONSELEMENTE
100
AcDbLine
 62
7
  6
CONTINUOUS
 10
904.4088223487
 20
202.6034825428
 11
905.4088223487
 21
202.6034825428
  0
LINE
  5
3BA
100
AcDbEntity
  8
KONSTRUKTIONSELEMENTE
100
AcDbLine
 62
7
  6
CONTINUOUS
 10
923.6088223487
 20
202.6034825428
 11
924.6088223487
 21
202.6034825428
  0
LINE
  5
3BB
100
AcDbEntity
  8
KONSTRUKTIONSELEMENTE
100
AcDbLine
 62
7
  6
CONTINUOUS
 10
905.4088223487
 20
203.3105893239
 11
923.6088223487
 21
203.3105893239
  0
LINE
  5
3BC
100
AcDbEntity
  8
KONSTRUKTIONSELEMENTE
100
AcDbLine
 62
7
  6
CONTINUOUS
 10
956.4955883103
 20
228.0593266655
 11
931.7623228043
 21
228.0593266655
  0
LINE
  5
3BD
100
AcDbEntity
  8
KONSTRUKTIONSELEMENTE
100
AcDbLine
 62
7
  6
CONTINUOUS
 10
897.4088223487
 20
228.0593266655
 11
894.9020848511
 21
228.0593266655
  0
LINE
  5
3BE
100
AcDbEntity
  8
KONSTRUKTIONSELEMENTE
100
AcDbLine
 62
7
  6
CONTINUOUS
 10
935.6088223487
 20
230.8877537902
 11
931.6088223487
 21
230.8877537902
  0
LINE
  5
3BF
100
AcDbEntity
  8
KONSTRUKTIONSELEMENTE
100
AcDbLine
 62
7
  6
CONTINUOUS
 10
897.4088223487
 20
230.8877537902
 11
894.9020848511
 21
230.8877537902
  0
LINE
  5
3C0
100
AcDbEntity
  8
KONSTRUKTIONSELEMENTE
100
AcDbLine
 62
7
  6
CONTINUOUS
 10
897.4088223487
 20
231.5948605714
 11
894.9020848511
 21
231.5948605714
  0
LINE
  5
3C1
100
AcDbEntity
  8
KONSTRUKTIONSELEMENTE
100
AcDbLine
 62
7
  6
CONTINUOUS
 10
931.6088223487
 20
231.5948605714
 11
956.4955883103
 21
231.5948605714
  0
LINE
  5
3C2
100
AcDbEntity
  8
BEZUGSACHSEN
100
AcDbLine
 62
7
  6
CONTINUOUS
 10
855.7088223487
 20
238.487573046
 11
883.5969599161
 21
238.487573046
  0
LINE
  5
3C3
100
AcDbEntity
  8
BEZUGSACHSEN
100
AcDbLine
 62
7
  6
CONTINUOUS
 10
965.3451000458
 20
238.487573046
 11
973.4088223487
 21
238.487573046
  0
LINE
  5
3C4
100
AcDbEntity
  8
KONSTRUKTIONSELEMENTE
100
AcDbLine
 62
7
  6
CONTINUOUS
 10
855.7088223487
 20
247.837573046
 11
833.7088223487
 21
247.837573046
  0
LINE
  5
3C5
100
AcDbEntity
  8
BEZUGSACHSEN
100
AcDbLine
 62
7
  6
CONTINUOUS
 10
973.4088223487
 20
252.787573046
 11
981.1088223487
 21
252.787573046
  0
LINE
  5
3C6
100
AcDbEntity
  8
KONSTRUKTIONSELEMENTE
100
AcDbLine
 62
7
  6
CONTINUOUS
 10
980.0088223487
 20
253.3926342933
 11
986.6088223487
 21
253.3926342933
  0
LINE
  5
3C7
100
AcDbEntity
  8
KONSTRUKTIONSELEMENTE
100
AcDbLine
 62
7
  6
CONTINUOUS
 10
830.4088223487
 20
255.537573046
 11
826.0088223487
 21
255.537573046
  0
LINE
  5
3C8
100
AcDbEntity
  8
KONSTRUKTIONSELEMENTE
100
AcDbLine
 62
7
  6
CONTINUOUS
 10
820.5088223487
 20
258.287573046
 11
826.0088223487
 21
258.287573046
  0
LINE
  5
3C9
100
AcDbEntity
  8
KONSTRUKTIONSELEMENTE
100
AcDbLine
 62
7
  6
CONTINUOUS
 10
830.4088223487
 20
258.287573046
 11
833.7088223487
 21
258.287573046
  0
LINE
  5
3CA
100
AcDbEntity
  8
KONSTRUKTIONSELEMENTE
100
AcDbLine
 62
7
  6
CONTINUOUS
 10
830.4088223487
 20
276.7869692336
 11
826.0088223487
 21
276.7869692336
  0
LINE
  5
3CB
100
AcDbEntity
  8
KONSTRUKTIONSELEMENTE
100
AcDbLine
 62
7
  6
CONTINUOUS
 10
855.7088223487
 20
278.087573046
 11
833.7088223487
 21
278.087573046
  0
LINE
  5
3CC
100
AcDbEntity
  8
KONSTRUKTIONSELEMENTE
100
AcDbLine
 62
7
  6
CONTINUOUS
 10
830.4088223487
 20
278.087573046
 11
826.0088223487
 21
278.087573046
  0
LINE
  5
3CD
100
AcDbEntity
  8
KONSTRUKTIONSELEMENTE
100
AcDbLine
 62
7
  6
CONTINUOUS
 10
830.4088223487
 20
279.3881768584
 11
826.0088223487
 21
279.3881768584
  0
LINE
  5
3CE
100
AcDbEntity
  8
KONSTRUKTIONSELEMENTE
100
AcDbLine
 62
7
  6
CONTINUOUS
 10
965.8260208491
 20
238.3770800869
 11
955.3643991698
 21
240.7806682214
  0
LINE
  5
3CF
100
AcDbEntity
  8
KONSTRUKTIONSELEMENTE
100
AcDbLine
 62
7
  6
CONTINUOUS
 10
820.5088223487
 20
297.887573046
 11
826.0088223487
 21
297.887573046
  0
LINE
  5
3D0
100
AcDbEntity
  8
KONSTRUKTIONSELEMENTE
100
AcDbLine
 62
7
  6
CONTINUOUS
 10
830.4088223487
 20
297.887573046
 11
833.7088223487
 21
297.887573046
  0
LINE
  5
3D1
100
AcDbEntity
  8
KONSTRUKTIONSELEMENTE
100
AcDbLine
 62
7
  6
CONTINUOUS
 10
830.4088223487
 20
300.637573046
 11
826.0088223487
 21
300.637573046
  0
LINE
  5
3D2
100
AcDbEntity
  8
KONSTRUKTIONSELEMENTE
100
AcDbLine
 62
7
  6
CONTINUOUS
 10
980.0088223487
 20
302.7825117987
 11
986.6088223487
 21
302.7825117987
  0
LINE
  5
3D3
100
AcDbEntity
  8
BEZUGSACHSEN
100
AcDbLine
 62
7
  6
CONTINUOUS
 10
975.3158297879
 20
303.387573046
 11
981.1088223487
 21
303.387573046
  0
LINE
  5
3D4
100
AcDbEntity
  8
KONSTRUKTIONSELEMENTE
100
AcDbLine
 62
7
  6
CONTINUOUS
 10
851.5004769157
 20
308.337573046
 11
833.7088223487
 21
308.337573046
  0
LINE
  5
3D5
100
AcDbEntity
  8
KONSTRUKTIONSELEMENTE
100
AcDbLine
 62
7
  6
CONTINUOUS
 10
820.5088223487
 20
297.887573046
 11
820.5088223487
 21
258.287573046
  0
LINE
  5
3D6
100
AcDbEntity
  8
KONSTRUKTIONSELEMENTE
100
AcDbLine
 62
7
  6
CONTINUOUS
 10
826.0088223487
 20
255.537573046
 11
826.0088223487
 21
300.637573046
  0
LINE
  5
3D7
100
AcDbEntity
  8
KONSTRUKTIONSELEMENTE
100
AcDbLine
 62
7
  6
CONTINUOUS
 10
830.4088223487
 20
255.537573046
 11
830.4088223487
 21
300.637573046
  0
LINE
  5
3D8
100
AcDbEntity
  8
KONSTRUKTIONSELEMENTE
100
AcDbLine
 62
7
  6
CONTINUOUS
 10
833.7088223487
 20
247.837573046
 11
833.7088223487
 21
308.337573046
  0
LINE
  5
3D9
100
AcDbEntity
  8
KONSTRUKTIONSELEMENTE
100
AcDbLine
 62
7
  6
CONTINUOUS
 10
859.5858140198
 20
294.2773848065
 11
872.4250769898
 21
297.2272429715
  0
LINE
  5
3DA
100
AcDbEntity
  8
KONSTRUKTIONSELEMENTE
100
AcDbLine
 62
7
  6
CONTINUOUS
 10
861.2029155912
 20
296.9157961098
 11
871.1890090123
 21
299.2101302382
  0
LINE
  5
3DB
100
AcDbEntity
  8
KONSTRUKTIONSELEMENTE
100
AcDbLine
 62
7
  6
CONTINUOUS
 10
867.3125042501
 20
310.808654874
 11
855.4242977964
 21
308.0773047212
  0
LINE
  5
3DC
100
AcDbEntity
  8
KONSTRUKTIONSELEMENTE
100
AcDbLine
 62
7
  6
CONTINUOUS
 10
855.4242977964
 20
308.7844115024
 11
867.3125042501
 21
311.5157616552
  0
LINE
  5
3DD
100
AcDbEntity
  8
KONSTRUKTIONSELEMENTE
100
AcDbLine
 62
7
  6
CONTINUOUS
 10
866.6944702613
 20
314.2749722415
 11
852.1162697598
 21
310.9255880999
  0
LINE
  5
3DE
100
AcDbEntity
  8
KONSTRUKTIONSELEMENTE
100
AcDbLine
 62
7
  6
CONTINUOUS
 10
867.4211202076
 20
310.8267718644
 11
867.3125042501
 21
310.808654874
  0
LINE
  5
3DF
100
AcDbEntity
  8
BEZUGSACHSEN
100
AcDbLine
 62
7
  6
CONTINUOUS
 10
894.5088223487
 20
335.087573046
 11
905.5042650643
 21
335.087573046
  0
LINE
  5
3E0
100
AcDbEntity
  8
BEZUGSACHSEN
100
AcDbLine
 62
7
  6
CONTINUOUS
 10
923.5133796332
 20
335.087573046
 11
934.5088223487
 21
335.087573046
  0
LINE
  5
3E1
100
AcDbEntity
  8
KONSTRUKTIONSELEMENTE
100
AcDbLine
 62
7
  6
CONTINUOUS
 10
987.5021665848
 20
307.1849795597
 11
997.9637882641
 21
304.7813914252
  0
LINE
  5
3E2
100
AcDbEntity
  8
KONSTRUKTIONSELEMENTE
100
AcDbLine
 62
7
  6
CONTINUOUS
 10
987.5021665848
 20
310.7205134656
 11
997.9637882641
 21
308.3169253312
  0
LINE
  5
3E3
100
AcDbEntity
  8
RUNDUNGEN
100
AcDbLine
 62
7
  6
CONTINUOUS
 10
983.9781762377
 20
130.110570279
 11
990.3205774298
 21
121.0526826586
  0
LINE
  5
3E4
100
AcDbEntity
  8
KONSTRUKTIONSELEMENTE
100
AcDbLine
 62
7
  6
CONTINUOUS
 10
850.0989922925
 20
311.3875552178
 11
851.6440772644
 21
308.025062658
  0
LINE
  5
3E5
100
AcDbEntity
  8
KONSTRUKTIONSELEMENTE
100
AcDbLine
 62
7
  6
CONTINUOUS
 10
859.5858140198
 20
290.7418509005
 11
886.1436601575
 21
232.9453143551
  0
LINE
  5
3E6
100
AcDbEntity
  8
KONSTRUKTIONSELEMENTE
100
AcDbLine
 62
7
  6
CONTINUOUS
 10
859.5858140198
 20
291.4489576817
 11
859.2767970254
 21
292.1214561937
  0
LINE
  5
3E7
100
AcDbEntity
  8
KONSTRUKTIONSELEMENTE
100
AcDbLine
 62
7
  6
CONTINUOUS
 10
859.5858140198
 20
293.5702780253
 11
859.2767970254
 21
294.2427765373
  0
LINE
  5
3E8
100
AcDbEntity
  8
KONSTRUKTIONSELEMENTE
100
AcDbLine
 62
7
  6
CONTINUOUS
 10
850.0989922925
 20
314.9230891238
 11
851.6440772644
 21
311.5605965639
  0
LINE
  5
3E9
100
AcDbEntity
  8
KONSTRUKTIONSELEMENTE
100
AcDbLine
 62
7
  6
CONTINUOUS
 10
859.5858140198
 20
294.2773848065
 11
886.1436601575
 21
236.480848261
  0
LINE
  5
3EA
100
AcDbEntity
  8
KONSTRUKTIONSELEMENTE
100
AcDbLine
 62
7
  6
CONTINUOUS
 10
872.6878118919
 20
299.9846688323
 11
868.0825428021
 21
310.0068898315
  0
LINE
  5
3EB
100
AcDbEntity
  8
KONSTRUKTIONSELEMENTE
100
AcDbLine
 62
7
  6
CONTINUOUS
 10
874.3511955556
 20
299.1931557629
 11
873.1151275781
 21
301.8831498107
  0
LINE
  5
3EC
100
AcDbEntity
  8
KONSTRUKTIONSELEMENTE
100
AcDbLine
 62
7
  6
CONTINUOUS
 10
868.0825428021
 20
313.5424237374
 11
874.3511955556
 21
299.9002625441
  0
LINE
  5
3ED
100
AcDbEntity
  8
BEZUGSACHSEN
100
AcDbLine
 62
7
  6
CONTINUOUS
 10
837.5088223487
 20
126.8281818529
 11
837.5088223487
 21
115.515493046
  0
LINE
  5
3EE
100
AcDbEntity
  8
BEZUGSACHSEN
100
AcDbLine
 62
7
  6
CONTINUOUS
 10
837.5088223487
 20
99.659653046
 11
837.5088223487
 21
97.8910948425
  0
LINE
  5
3EF
100
AcDbEntity
  8
KONSTRUKTIONSELEMENTE
100
AcDbLine
 62
7
  6
CONTINUOUS
 10
849.6095574554
 20
317.108169246
 11
849.6095574554
 21
313.5726353401
  0
LINE
  5
3F0
100
AcDbEntity
  8
BEZUGSACHSEN
100
AcDbLine
 62
7
  6
CONTINUOUS
 10
855.7088223487
 20
397.437573046
 11
855.7088223487
 21
339.6875111575
  0
LINE
  5
3F1
100
AcDbEntity
  8
KONSTRUKTIONSELEMENTE
100
AcDbLine
 62
7
  6
CONTINUOUS
 10
855.7088223487
 20
238.4875730506
 11
855.7088223487
 21
308.142675068
  0
LINE
  5
3F2
100
AcDbEntity
  8
KONSTRUKTIONSELEMENTE
100
AcDbLine
 62
7
  6
CONTINUOUS
 10
855.7088223487
 20
323.6155781794
 11
855.7088223487
 21
339.6875581738
  0
LINE
  5
3F3
100
AcDbEntity
  8
KONSTRUKTIONSELEMENTE
100
AcDbLine
 62
7
  6
CONTINUOUS
 10
859.1299665743
 20
294.8983005739
 11
859.1299665743
 21
292.7769802304
  0
LINE
  5
3F4
100
AcDbEntity
  8
BEZUGSACHSEN
100
AcDbLine
 62
7
  6
CONTINUOUS
 10
859.3628223487
 20
125.874933046
 11
859.3628223487
 21
86.570213046
  0
LINE
  5
3F5
100
AcDbEntity
  8
KONSTRUKTIONSELEMENTE
100
AcDbLine
 62
7
  6
CONTINUOUS
 10
859.5858140198
 20
294.2773848065
 11
859.5858140198
 21
293.5702780253
  0
LINE
  5
3F6
100
AcDbEntity
  8
KONSTRUKTIONSELEMENTE
100
AcDbLine
 62
7
  6
CONTINUOUS
 10
859.5858140198
 20
290.7418509005
 11
859.5858140198
 21
291.4489576817
  0
LINE
  5
3F7
100
AcDbEntity
  8
0
100
AcDbLine
 62
7
  6
CONTINUOUS
 10
859.8178223487
 20
94.7105377855
 11
859.8178223487
 21
102.0578588898
  0
LINE
  5
3F8
100
AcDbEntity
  8
BEZUGSACHSEN
100
AcDbLine
 62
7
  6
CONTINUOUS
 10
859.8178223487
 20
93.5573633533
 11
859.8178223487
 21
102.0578588898
  0
LINE
  5
3F9
100
AcDbEntity
  8
0
100
AcDbLine
 62
7
  6
CONTINUOUS
 10
859.8178223487
 20
113.1172872022
 11
859.8178223487
 21
122.8744688728
  0
LINE
  5
3FA
100
AcDbEntity
  8
BEZUGSACHSEN
100
AcDbLine
 62
7
  6
CONTINUOUS
 10
859.8178223487
 20
113.1172872022
 11
859.8178223487
 21
122.8745305901
  0
LINE
  5
3FB
100
AcDbEntity
  8
RUNDUNGEN
100
AcDbLine
 62
7
  6
CONTINUOUS
 10
859.8178223487
 20
122.8744688728
 11
859.8178223487
 21
124.0548734268
  0
LINE
  5
3FC
100
AcDbEntity
  8
KONSTRUKTIONSELEMENTE
100
AcDbLine
 62
7
  6
CONTINUOUS
 10
906.7833974894
 20
335.3814574564
 11
856.5193875117
 21
323.8331543657
  0
LINE
  5
3FD
100
AcDbEntity
  8
KONSTRUKTIONSELEMENTE
100
AcDbLine
 62
7
  6
CONTINUOUS
 10
922.2342472081
 20
335.3814574564
 11
993.4215005443
 21
319.0259780967
  0
LINE
  5
3FE
100
AcDbEntity
  8
RUNDUNGEN
100
AcDbLine
 62
7
  6
CONTINUOUS
 10
884.4788223487
 20
82.4272102736
 11
884.4788223487
 21
74.827573046
  0
LINE
  5
3FF
100
AcDbEntity
  8
RUNDUNGEN
100
AcDbLine
 62
7
  6
CONTINUOUS
 10
884.5698223487
 20
124.0548734501
 11
884.5698223487
 21
122.8745270016
  0
LINE
  5
400
100
AcDbEntity
  8
BEZUGSACHSEN
100
AcDbLine
 62
7
  6
CONTINUOUS
 10
884.5698223487
 20
88.8996542253
 11
884.5698223487
 21
102.0578588898
  0
LINE
  5
401
100
AcDbEntity
  8
BEZUGSACHSEN
100
AcDbLine
 62
7
  6
CONTINUOUS
 10
884.5698223487
 20
113.1172872022
 11
884.5698223487
 21
122.8745270016
  0
LINE
  5
402
100
AcDbEntity
  8
BEZUGSACHSEN
100
AcDbLine
 62
7
  6
CONTINUOUS
 10
884.8428223487
 20
86.570213046
 11
884.8428223487
 21
125.874933046
  0
LINE
  5
403
100
AcDbEntity
  8
BEZUGSACHSEN
100
AcDbLine
 62
7
  6
CONTINUOUS
 10
888.7088223487
 20
394.137573046
 11
888.7088223487
 21
339.6877092623
  0
LINE
  5
404
100
AcDbEntity
  8
KONSTRUKTIONSELEMENTE
100
AcDbLine
 62
7
  6
CONTINUOUS
 10
888.7088223487
 20
339.6872792048
 11
888.7088223487
 21
331.2287710302
  0
LINE
  5
405
100
AcDbEntity
  8
0
100
AcDbLine
 62
7
  6
CONTINUOUS
 10
889.0088223487
 20
393.937573046
 11
889.0088223487
 21
397.0561528358
  0
LINE
  5
406
100
AcDbEntity
  8
0
100
AcDbLine
 62
7
  6
CONTINUOUS
 10
889.0088223487
 20
406.4509682425
 11
889.0088223487
 21
794.937573046
  0
LINE
  5
407
100
AcDbEntity
  8
BEZUGSACHSEN
100
AcDbLine
 62
7
  6
CONTINUOUS
 10
894.5088223487
 20
228.104909366
 11
894.5088223487
 21
144.0876329891
  0
LINE
  5
408
100
AcDbEntity
  8
BEZUGSACHSEN
100
AcDbLine
 62
7
  6
CONTINUOUS
 10
894.5088223487
 20
332.5613379694
 11
894.5088223487
 21
335.087573046
  0
LINE
  5
409
100
AcDbEntity
  8
KONSTRUKTIONSELEMENTE
100
AcDbLine
 62
7
  6
CONTINUOUS
 10
894.9020848511
 20
231.5948605714
 11
894.9020848511
 21
230.8877537902
  0
LINE
  5
40A
100
AcDbEntity
  8
KONSTRUKTIONSELEMENTE
100
AcDbLine
 62
7
  6
CONTINUOUS
 10
894.9020848511
 20
228.7664334467
 11
894.9020848511
 21
228.0593266655
  0
LINE
  5
40B
100
AcDbEntity
  8
BEZUGSACHSEN
100
AcDbLine
 62
7
  6
CONTINUOUS
 10
900.4038223487
 20
86.574279115
 11
900.4038223487
 21
99.337573046
  0
LINE
  5
40C
100
AcDbEntity
  8
BEZUGSACHSEN
100
AcDbLine
 62
7
  6
CONTINUOUS
 10
900.4038223487
 20
115.837573046
 11
900.4038223487
 21
124.2380945781
  0
LINE
  5
40D
100
AcDbEntity
  8
KONSTRUKTIONSELEMENTE
100
AcDbLine
 62
7
  6
CONTINUOUS
 10
901.4088223487
 20
202.6034825428
 11
901.4088223487
 21
225.3303188109
  0
LINE
  5
40E
100
AcDbEntity
  8
KONSTRUKTIONSELEMENTE
100
AcDbLine
 62
7
  6
CONTINUOUS
 10
904.3088223487
 20
347.2775299735
 11
904.3088223487
 21
354.6314404979
  0
LINE
  5
40F
100
AcDbEntity
  8
KONSTRUKTIONSELEMENTE
100
AcDbLine
 62
7
  6
CONTINUOUS
 10
904.3088223487
 20
372.7333740962
 11
904.3088223487
 21
380.0872846206
  0
LINE
  5
410
100
AcDbEntity
  8
KONSTRUKTIONSELEMENTE
100
AcDbLine
 62
7
  6
CONTINUOUS
 10
905.4088223487
 20
199.775055418
 11
905.4088223487
 21
200.4821621992
  0
LINE
  5
411
100
AcDbEntity
  8
KONSTRUKTIONSELEMENTE
100
AcDbLine
 62
7
  6
CONTINUOUS
 10
905.4088223487
 20
202.6034825428
 11
905.4088223487
 21
225.9380063219
  0
LINE
  5
412
100
AcDbEntity
  8
KONSTRUKTIONSELEMENTE
100
AcDbLine
 62
7
  6
CONTINUOUS
 10
910.7088223487
 20
347.2775299735
 11
910.7088223487
 21
354.6314404979
  0
LINE
  5
413
100
AcDbEntity
  8
KONSTRUKTIONSELEMENTE
100
AcDbLine
 62
7
  6
CONTINUOUS
 10
910.7088223487
 20
372.7333740962
 11
910.7088223487
 21
380.0872846206
  0
LINE
  5
414
100
AcDbEntity
  8
KONSTRUKTIONSELEMENTE
100
AcDbLine
 62
7
  6
CONTINUOUS
 10
911.0088223487
 20
402.5829315073
 11
911.0088223487
 21
378.0977343882
  0
LINE
  5
415
100
AcDbEntity
  8
KONSTRUKTIONSELEMENTE
100
AcDbLine
 62
7
  6
CONTINUOUS
 10
911.0088223487
 20
349.5499229183
 11
911.0088223487
 21
326.1847233091
  0
LINE
  5
416
100
AcDbEntity
  8
KONSTRUKTIONSELEMENTE
100
AcDbLine
 62
7
  6
CONTINUOUS
 10
911.3088223487
 20
353.0182231553
 11
911.3088223487
 21
374.3465914388
  0
LINE
  5
417
100
AcDbEntity
  8
KONSTRUKTIONSELEMENTE
100
AcDbLine
 62
7
  6
CONTINUOUS
 10
956.9088223487
 20
394.137573046
 11
940.4095555812
 21
394.137573046
  0
LINE
  5
418
100
AcDbEntity
  8
KONSTRUKTIONSELEMENTE
100
AcDbLine
 62
7
  6
CONTINUOUS
 10
888.7080891164
 20
394.137573046
 11
872.2088223487
 21
394.137573046
  0
LINE
  5
419
100
AcDbEntity
  8
KONSTRUKTIONSELEMENTE
100
AcDbLine
 62
7
  6
CONTINUOUS
 10
917.7088223487
 20
353.0182231553
 11
917.7088223487
 21
374.3465914388
  0
LINE
  5
41A
100
AcDbEntity
  8
KONSTRUKTIONSELEMENTE
100
AcDbLine
 62
7
  6
CONTINUOUS
 10
918.0088223487
 20
402.5829315073
 11
918.0088223487
 21
378.0977343882
  0
LINE
  5
41B
100
AcDbEntity
  8
KONSTRUKTIONSELEMENTE
100
AcDbLine
 62
7
  6
CONTINUOUS
 10
918.0088223487
 20
349.5499229183
 11
918.0088223487
 21
326.1847233091
  0
LINE
  5
41C
100
AcDbEntity
  8
KONSTRUKTIONSELEMENTE
100
AcDbLine
 62
7
  6
CONTINUOUS
 10
918.3088223487
 20
380.0872846206
 11
918.3088223487
 21
372.7333740962
  0
LINE
  5
41D
100
AcDbEntity
  8
KONSTRUKTIONSELEMENTE
100
AcDbLine
 62
7
  6
CONTINUOUS
 10
918.3088223487
 20
354.6314404979
 11
918.3088223487
 21
347.2775299735
  0
LINE
  5
41E
100
AcDbEntity
  8
KONSTRUKTIONSELEMENTE
100
AcDbLine
 62
7
  6
CONTINUOUS
 10
923.6088223487
 20
199.775055418
 11
923.6088223487
 21
200.4821621992
  0
LINE
  5
41F
100
AcDbEntity
  8
KONSTRUKTIONSELEMENTE
100
AcDbLine
 62
7
  6
CONTINUOUS
 10
923.6088223487
 20
202.6034825428
 11
923.6088223487
 21
225.9380063219
  0
LINE
  5
420
100
AcDbEntity
  8
KONSTRUKTIONSELEMENTE
100
AcDbLine
 62
7
  6
CONTINUOUS
 10
924.7088223487
 20
380.0872846206
 11
924.7088223487
 21
372.7333740962
  0
LINE
  5
421
100
AcDbEntity
  8
KONSTRUKTIONSELEMENTE
100
AcDbLine
 62
7
  6
CONTINUOUS
 10
924.7088223487
 20
354.6314404979
 11
924.7088223487
 21
347.2775299735
  0
LINE
  5
422
100
AcDbEntity
  8
KONSTRUKTIONSELEMENTE
100
AcDbLine
 62
7
  6
CONTINUOUS
 10
927.6088223487
 20
202.6034825428
 11
927.6088223487
 21
225.2308995407
  0
LINE
  5
423
100
AcDbEntity
  8
0
100
AcDbLine
 62
7
  6
CONTINUOUS
 10
928.6138223487
 20
128.600866977
 11
928.6138223487
 21
115.837573046
  0
LINE
  5
424
100
AcDbEntity
  8
0
100
AcDbLine
 62
7
  6
CONTINUOUS
 10
928.6138223487
 20
99.337573046
 11
928.6138223487
 21
90.9370515139
  0
LINE
  5
425
100
AcDbEntity
  8
BEZUGSACHSEN
100
AcDbLine
 62
7
  6
CONTINUOUS
 10
934.5088223487
 20
335.087573046
 11
934.5088223487
 21
332.5613379694
  0
LINE
  5
426
100
AcDbEntity
  8
BEZUGSACHSEN
100
AcDbLine
 62
7
  6
CONTINUOUS
 10
934.5088223487
 20
228.0593266655
 11
934.5088223487
 21
144.0876329891
  0
LINE
  5
427
100
AcDbEntity
  8
0
100
AcDbLine
 62
7
  6
CONTINUOUS
 10
940.0088223487
 20
393.937573046
 11
940.0088223487
 21
397.0571633375
  0
LINE
  5
428
100
AcDbEntity
  8
0
100
AcDbLine
 62
7
  6
CONTINUOUS
 10
940.0088223487
 20
406.4463953537
 11
940.0088223487
 21
794.937573046
  0
LINE
  5
429
100
AcDbEntity
  8
BEZUGSACHSEN
100
AcDbLine
 62
7
  6
CONTINUOUS
 10
940.4088223487
 20
394.137573046
 11
940.4088223487
 21
339.6877215829
  0
LINE
  5
42A
100
AcDbEntity
  8
KONSTRUKTIONSELEMENTE
100
AcDbLine
 62
7
  6
CONTINUOUS
 10
940.4088223487
 20
331.2057957382
 11
940.4088223487
 21
339.6872698305
  0
LINE
  5
42B
100
AcDbEntity
  8
RUNDUNGEN
100
AcDbLine
 62
7
  6
CONTINUOUS
 10
944.1748223487
 20
128.604933046
 11
944.1748223487
 21
89.300213046
  0
LINE
  5
42C
100
AcDbEntity
  8
BEZUGSACHSEN
100
AcDbLine
 62
7
  6
CONTINUOUS
 10
944.4478223487
 20
91.120272642
 11
944.4478223487
 21
102.0578588898
  0
LINE
  5
42D
100
AcDbEntity
  8
BEZUGSACHSEN
100
AcDbLine
 62
7
  6
CONTINUOUS
 10
944.4478223487
 20
113.1172872022
 11
944.4478223487
 21
126.2754918667
  0
LINE
  5
42E
100
AcDbEntity
  8
BEZUGSACHSEN
100
AcDbLine
 62
7
  6
CONTINUOUS
 10
944.5388223487
 20
132.7479358184
 11
944.5388223487
 21
140.347573046
  0
LINE
  5
42F
100
AcDbEntity
  8
KONSTRUKTIONSELEMENTE
100
AcDbLine
 62
7
  6
CONTINUOUS
 10
966.5170038547
 20
234.169047669
 11
966.5170038547
 21
237.4860735627
  0
LINE
  5
430
100
AcDbEntity
  8
BEZUGSACHSEN
100
AcDbLine
 62
7
  6
CONTINUOUS
 10
969.1998223487
 20
121.6177827387
 11
969.1998223487
 21
113.1172872022
  0
LINE
  5
431
100
AcDbEntity
  8
BEZUGSACHSEN
100
AcDbLine
 62
7
  6
CONTINUOUS
 10
969.1998223487
 20
102.0578588898
 11
969.1998223487
 21
91.1202726653
  0
LINE
  5
432
100
AcDbEntity
  8
RUNDUNGEN
100
AcDbLine
 62
7
  6
CONTINUOUS
 10
969.6548223487
 20
89.300213046
 11
969.6548223487
 21
128.604933046
  0
LINE
  5
433
100
AcDbEntity
  8
BEZUGSACHSEN
100
AcDbLine
 62
7
  6
CONTINUOUS
 10
973.4088223487
 20
397.437573046
 11
973.4088223487
 21
339.6877092623
  0
LINE
  5
434
100
AcDbEntity
  8
KONSTRUKTIONSELEMENTE
100
AcDbLine
 62
7
  6
CONTINUOUS
 10
973.4088223487
 20
339.6872749728
 11
973.4088223487
 21
323.6239493601
  0
LINE
  5
435
100
AcDbEntity
  8
KONSTRUKTIONSELEMENTE
100
AcDbLine
 62
7
  6
CONTINUOUS
 10
973.4088223487
 20
299.3967826019
 11
973.4088223487
 21
238.4875730508
  0
LINE
  5
436
100
AcDbEntity
  8
KONSTRUKTIONSELEMENTE
100
AcDbLine
 62
7
  6
CONTINUOUS
 10
980.0088223487
 20
302.7825117987
 11
980.0088223487
 21
253.3926342933
  0
LINE
  5
437
100
AcDbEntity
  8
0
100
AcDbLine
 62
7
  6
CONTINUOUS
 10
991.5088223487
 20
88.3469642391
 11
991.5088223487
 21
99.659653046
  0
LINE
  5
438
100
AcDbEntity
  8
0
100
AcDbLine
 62
7
  6
CONTINUOUS
 10
991.5088223487
 20
115.515493046
 11
991.5088223487
 21
117.2840512496
  0
LINE
  5
439
100
AcDbEntity
  8
BEZUGSACHSEN
100
AcDbLine
 62
7
  6
CONTINUOUS
 10
866.5838399231
 20
177.4002527961
 11
839.4983006581
 21
133.8007513686
  0
LINE
  5
43A
100
AcDbEntity
  8
KONSTRUKTIONSELEMENTE
100
AcDbLine
 62
7
  6
CONTINUOUS
 10
1000.3313306005
 20
308.7654590711
 11
1000.3313306005
 21
312.3009929771
  0
LINE
  5
43B
100
AcDbEntity
  8
KONSTRUKTIONSELEMENTE
100
AcDbLine
 62
7
  6
CONTINUOUS
 10
948.9440039506
 20
249.6907334633
 11
974.9014314781
 21
306.1806084682
  0
LINE
  5
43C
100
AcDbEntity
  8
KONSTRUKTIONSELEMENTE
100
AcDbLine
 62
7
  6
CONTINUOUS
 10
948.9440039506
 20
246.1551995573
 11
974.9014314781
 21
302.6450745623
  0
LINE
  5
43D
100
AcDbEntity
  8
KONSTRUKTIONSELEMENTE
100
AcDbLine
 62
7
  6
CONTINUOUS
 10
966.0061534732
 20
236.480848261
 11
966.468060371
 21
237.4860735627
  0
LINE
  5
43E
100
AcDbEntity
  8
KONSTRUKTIONSELEMENTE
100
AcDbLine
 62
7
  6
CONTINUOUS
 10
999.2238617747
 20
308.7709158309
 11
999.8418957635
 21
310.1159128548
  0
LINE
  5
43F
100
AcDbEntity
  8
KONSTRUKTIONSELEMENTE
100
AcDbLine
 62
7
  6
CONTINUOUS
 10
966.0061534732
 20
232.9453143551
 11
966.468060371
 21
233.9505396568
  0
LINE
  5
440
100
AcDbEntity
  8
KONSTRUKTIONSELEMENTE
100
AcDbLine
 62
7
  6
CONTINUOUS
 10
999.2238617747
 20
305.235381925
 11
999.8418957635
 21
306.5803789489
  0
LINE
  5
441
100
AcDbEntity
  8
BEZUGSACHSEN
100
AcDbLine
 62
7
  6
CONTINUOUS
 10
962.4338047744
 20
37.7748932959
 11
989.5193440394
 21
81.3743947235
  0
ARC
  5
442
100
AcDbEntity
  8
BEZUGSACHSEN
100
AcDbCircle
 62
7
  6
CONTINUOUS
 10
250.25856149
 20
49.3336160944
 40
13.2132
100
AcDbArc
 50
359.999984513
 51
8.0000189395
  0
ARC
  5
443
100
AcDbEntity
  8
BEZUGSACHSEN
100
AcDbCircle
 62
7
  6
CONTINUOUS
 10
254.5200753516
 20
75.9758254922
 40
5.28528
100
AcDbArc
 50
7.9999773008
 51
45.0001724764
  0
ARC
  5
444
100
AcDbEntity
  8
BEZUGSACHSEN
100
AcDbCircle
 62
7
  6
CONTINUOUS
 10
267.43572149
 20
15.9640329782
 40
3.96396
100
AcDbArc
 50
180.0
 51
264.0
  0
ARC
  5
445
100
AcDbEntity
  8
BEZUGSACHSEN
100
AcDbCircle
 62
7
  6
CONTINUOUS
 10
253.7267119354
 20
129.427573046
 40
11.2319895545
100
AcDbArc
 50
356.4793898029
 51
26.8198457324
  0
ARC
  5
446
100
AcDbEntity
  8
BEZUGSACHSEN
100
AcDbCircle
 62
7
  6
CONTINUOUS
 10
260.56454149
 20
84.8803886677
 40
5.28528
100
AcDbArc
 50
179.9998461922
 51
225.0
  0
ARC
  5
447
100
AcDbEntity
  8
BEZUGSACHSEN
100
AcDbCircle
 62
7
  6
CONTINUOUS
 10
254.5200753516
 20
139.1993205999
 40
5.28528
100
AcDbArc
 50
314.9999959467
 51
352.0000145739
  0
ARC
  5
448
100
AcDbEntity
  8
BEZUGSACHSEN
100
AcDbCircle
 62
7
  6
CONTINUOUS
 10
260.56454149
 20
130.2947574243
 40
5.28528
100
AcDbArc
 50
135.0000000583
 51
180.0001538078
  0
ARC
  5
449
100
AcDbEntity
  8
RUNDUNGEN
100
AcDbCircle
 62
7
  6
CONTINUOUS
 10
257.92190149
 20
119.0640836307
 40
2.64264
100
AcDbArc
 50
146.90361512
 51
180.0
  0
ARC
  5
44A
100
AcDbEntity
  8
RUNDUNGEN
100
AcDbCircle
 62
7
  6
CONTINUOUS
 10
300.79996149
 20
49.3336160944
 40
13.2132
100
AcDbArc
 50
171.9999810605
 51
180.000015487
  0
ARC
  5
44B
100
AcDbEntity
  8
RUNDUNGEN
100
AcDbCircle
 62
7
  6
CONTINUOUS
 10
296.5384476283
 20
75.9758254922
 40
5.28528
100
AcDbArc
 50
134.9998275236
 51
172.0000226992
  0
ARC
  5
44C
100
AcDbEntity
  8
RUNDUNGEN
100
AcDbCircle
 62
7
  6
CONTINUOUS
 10
283.62280149
 20
15.9640329782
 40
3.96396
100
AcDbArc
 50
276.0
 51
360.0
  0
ARC
  5
44D
100
AcDbEntity
  8
RUNDUNGEN
100
AcDbCircle
 62
7
  6
CONTINUOUS
 10
275.52926149
 20
107.587573046
 40
23.66
100
AcDbArc
 50
33.09638488
 51
146.90361512
  0
CIRCLE
  5
44E
100
AcDbEntity
  8
0
100
AcDbCircle
 62
7
  6
CONTINUOUS
 10
275.52926149
 20
107.587573046
 40
7.92792
  0
ARC
  5
44F
100
AcDbEntity
  8
RUNDUNGEN
100
AcDbCircle
 62
7
  6
CONTINUOUS
 10
290.49398149
 20
84.8803886677
 40
5.28528
100
AcDbArc
 50
315.0
 51
0.0005108285
  0
ARC
  5
450
100
AcDbEntity
  8
BEZUGSACHSEN
100
AcDbCircle
 62
7
  6
CONTINUOUS
 10
297.3318110445
 20
129.427573046
 40
11.2319895545
100
AcDbArc
 50
153.226655599
 51
183.5198377384
  0
ARC
  5
451
100
AcDbEntity
  8
BEZUGSACHSEN
100
AcDbCircle
 62
7
  6
CONTINUOUS
 10
296.5384476283
 20
139.1993205999
 40
5.28528
100
AcDbArc
 50
187.9999854261
 51
225.0000040533
  0
ARC
  5
452
100
AcDbEntity
  8
BEZUGSACHSEN
100
AcDbCircle
 62
7
  6
CONTINUOUS
 10
290.49398149
 20
130.2947574243
 40
5.28528
100
AcDbArc
 50
359.9999947813
 51
45.0
  0
ARC
  5
453
100
AcDbEntity
  8
RUNDUNGEN
100
AcDbCircle
 62
7
  6
CONTINUOUS
 10
293.136619158
 20
119.0640877043
 40
2.642640034
100
AcDbArc
 50
359.9999116784
 51
33.0962832799
  0
ARC
  5
454
100
AcDbEntity
  8
BEZUGSACHSEN
100
AcDbCircle
 62
7
  6
CONTINUOUS
 10
275.52926149
 20
190.087573046
 40
46.0
100
AcDbArc
 50
120.0
 51
254.801766334
  0
ARC
  5
455
100
AcDbEntity
  8
RUNDUNGEN
100
AcDbCircle
 62
7
  6
CONTINUOUS
 10
275.52926149
 20
190.087573046
 40
20.0
100
AcDbArc
 50
307.0919889983
 51
232.9080109998
  0
ARC
  5
456
100
AcDbEntity
  8
KONSTRUKTIONSELEMENTE
100
AcDbCircle
 62
7
  6
CONTINUOUS
 10
252.6062981508
 20
341.5146097068
 40
11.55
100
AcDbArc
 50
315.0
 51
28.8894195135
  0
ARC
  5
457
100
AcDbEntity
  8
KONSTRUKTIONSELEMENTE
100
AcDbCircle
 62
7
  6
CONTINUOUS
 10
252.6062981508
 20
341.5146097068
 40
11.55
100
AcDbArc
 50
61.1105804865
 51
135.0
  0
ARC
  5
458
100
AcDbEntity
  8
KONSTRUKTIONSELEMENTE
100
AcDbCircle
 62
7
  6
CONTINUOUS
 10
244.1917274547
 20
333.1000390107
 40
11.55
100
AcDbArc
 50
135.0
 51
212.4958536287
  0
ARC
  5
459
100
AcDbEntity
  8
KONSTRUKTIONSELEMENTE
100
AcDbCircle
 62
7
  6
CONTINUOUS
 10
244.1917274547
 20
333.1000390107
 40
11.55
100
AcDbArc
 50
237.5041463713
 51
315.0
  0
ARC
  5
45A
100
AcDbEntity
  8
RUNDUNGEN
100
AcDbCircle
 62
7
  6
CONTINUOUS
 10
315.1005297864
 20
225.6357613713
 40
9.0
100
AcDbArc
 50
120.0
 51
210.0
  0
ARC
  5
45B
100
AcDbEntity
  8
KONSTRUKTIONSELEMENTE
100
AcDbCircle
 62
7
  6
CONTINUOUS
 10
252.6062981508
 20
341.5146097068
 40
4.55
100
AcDbArc
 50
315.0
 51
0.2905636468
  0
ARC
  5
45C
100
AcDbEntity
  8
KONSTRUKTIONSELEMENTE
100
AcDbCircle
 62
7
  6
CONTINUOUS
 10
252.6062981508
 20
341.5146097068
 40
4.55
100
AcDbArc
 50
89.7094363532
 51
135.0
  0
ARC
  5
45D
100
AcDbEntity
  8
KONSTRUKTIONSELEMENTE
100
AcDbCircle
 62
7
  6
CONTINUOUS
 10
244.1917274547
 20
333.1000390107
 40
4.55
100
AcDbArc
 50
135.0
 51
191.5899756535
  0
ARC
  5
45E
100
AcDbEntity
  8
KONSTRUKTIONSELEMENTE
100
AcDbCircle
 62
7
  6
CONTINUOUS
 10
244.1917274547
 20
333.1000390107
 40
4.55
100
AcDbArc
 50
258.4100243465
 51
315.0
  0
ARC
  5
45F
100
AcDbEntity
  8
BEZUGSACHSEN
100
AcDbCircle
 62
7
  6
CONTINUOUS
 10
283.62280149
 20
199.2111131139
 40
3.96396
100
AcDbArc
 50
0.0
 51
84.0
  0
ARC
  5
460
100
AcDbEntity
  8
BEZUGSACHSEN
100
AcDbCircle
 62
7
  6
CONTINUOUS
 10
267.43572149
 20
199.2111131139
 40
3.96396
100
AcDbArc
 50
96.0
 51
180.0
  0
ARC
  5
461
100
AcDbEntity
  8
KONSTRUKTIONSELEMENTE
100
AcDbCircle
 62
7
  6
CONTINUOUS
 10
253.4194709492
 20
342.3277825052
 40
3.2
100
AcDbArc
 50
135.0
 51
315.0
  0
ARC
  5
462
100
AcDbEntity
  8
KONSTRUKTIONSELEMENTE
100
AcDbCircle
 62
7
  6
CONTINUOUS
 10
387.0292710523
 20
326.1740785969
 40
21.9999945379
100
AcDbArc
 50
308.682256462
 51
359.9999999868
  0
ARC
  5
463
100
AcDbEntity
  8
RUNDUNGEN
100
AcDbCircle
 62
7
  6
CONTINUOUS
 10
327.0463310608
 20
204.9450266268
 40
9.0
100
AcDbArc
 50
210.0
 51
333.5
  0
ARC
  5
464
100
AcDbEntity
  8
RUNDUNGEN
100
AcDbCircle
 62
7
  6
CONTINUOUS
 10
346.36082002
 20
243.6838983527
 40
9.0
100
AcDbArc
 50
333.5
 51
120.0
  0
ARC
  5
465
100
AcDbEntity
  8
KONSTRUKTIONSELEMENTE
100
AcDbCircle
 62
7
  6
CONTINUOUS
 10
271.0971404788
 20
360.0054520349
 40
10.2
100
AcDbArc
 50
243.2981709753
 51
315.0
  0
ARC
  5
466
100
AcDbEntity
  8
KONSTRUKTIONSELEMENTE
100
AcDbCircle
 62
7
  6
CONTINUOUS
 10
271.0971404788
 20
360.0054520349
 40
10.2
100
AcDbArc
 50
135.0
 51
206.7018290247
  0
ARC
  5
467
100
AcDbEntity
  8
KONSTRUKTIONSELEMENTE
100
AcDbCircle
 62
7
  6
CONTINUOUS
 10
278.4510510032
 20
367.3593625592
 40
10.2
100
AcDbArc
 50
63.2981709753
 51
135.0
  0
ARC
  5
468
100
AcDbEntity
  8
KONSTRUKTIONSELEMENTE
100
AcDbCircle
 62
7
  6
CONTINUOUS
 10
278.4510510032
 20
367.3593625592
 40
10.2
100
AcDbArc
 50
315.0
 51
26.7018290247
  0
ARC
  5
469
100
AcDbEntity
  8
KONSTRUKTIONSELEMENTE
100
AcDbCircle
 62
7
  6
CONTINUOUS
 10
271.0971404788
 20
360.0054520349
 40
3.8
100
AcDbArc
 50
282.3746409809
 51
315.0
  0
ARC
  5
46A
100
AcDbEntity
  8
KONSTRUKTIONSELEMENTE
100
AcDbCircle
 62
7
  6
CONTINUOUS
 10
271.0971404788
 20
360.0054520349
 40
3.8
100
AcDbArc
 50
135.0
 51
167.6253590191
  0
ARC
  5
46B
100
AcDbEntity
  8
KONSTRUKTIONSELEMENTE
100
AcDbCircle
 62
7
  6
CONTINUOUS
 10
278.4510510032
 20
367.3593625592
 40
3.8
100
AcDbArc
 50
102.3746409809
 51
135.0
  0
ARC
  5
46C
100
AcDbEntity
  8
KONSTRUKTIONSELEMENTE
100
AcDbCircle
 62
7
  6
CONTINUOUS
 10
278.4510510032
 20
367.3593625592
 40
3.8
100
AcDbArc
 50
315.0
 51
347.6253590191
  0
ARC
  5
46D
100
AcDbEntity
  8
KONSTRUKTIONSELEMENTE
100
AcDbCircle
 62
7
  6
CONTINUOUS
 10
270.6728764101
 20
359.5811879662
 40
3.2
100
AcDbArc
 50
315.0
 51
135.0
  0
ARC
  5
46E
100
AcDbEntity
  8
KONSTRUKTIONSELEMENTE
100
AcDbCircle
 62
7
  6
CONTINUOUS
 10
278.8753150719
 20
367.7836266279
 40
3.2
100
AcDbArc
 50
135.0
 51
315.0
  0
ARC
  5
46F
100
AcDbEntity
  8
KONSTRUKTIONSELEMENTE
100
AcDbCircle
 62
7
  6
CONTINUOUS
 10
305.6393067398
 20
394.5476182958
 40
11.55
100
AcDbArc
 50
315.0
 51
24.7189393151
  0
ARC
  5
470
100
AcDbEntity
  8
KONSTRUKTIONSELEMENTE
100
AcDbCircle
 62
7
  6
CONTINUOUS
 10
305.6393067398
 20
394.5476182958
 40
11.55
100
AcDbArc
 50
65.2810606849
 51
135.0
  0
ARC
  5
471
100
AcDbEntity
  8
KONSTRUKTIONSELEMENTE
100
AcDbCircle
 62
7
  6
CONTINUOUS
 10
297.2247360437
 20
386.1330475997
 40
11.55
100
AcDbArc
 50
135.0
 51
208.8894195135
  0
ARC
  5
472
100
AcDbEntity
  8
KONSTRUKTIONSELEMENTE
100
AcDbCircle
 62
7
  6
CONTINUOUS
 10
297.2247360437
 20
386.1330475997
 40
11.55
100
AcDbArc
 50
241.1105804865
 51
315.0
  0
ARC
  5
473
100
AcDbEntity
  8
KONSTRUKTIONSELEMENTE
100
AcDbCircle
 62
7
  6
CONTINUOUS
 10
305.6393067398
 20
394.5476182958
 40
4.55
100
AcDbArc
 50
315.0
 51
343.3023499414
  0
ARC
  5
474
100
AcDbEntity
  8
KONSTRUKTIONSELEMENTE
100
AcDbCircle
 62
7
  6
CONTINUOUS
 10
305.6393067398
 20
394.5476182958
 40
4.55
100
AcDbArc
 50
106.6976500586
 51
135.0
  0
ARC
  5
475
100
AcDbEntity
  8
KONSTRUKTIONSELEMENTE
100
AcDbCircle
 62
7
  6
CONTINUOUS
 10
297.2247360437
 20
386.1330475997
 40
4.55
100
AcDbArc
 50
135.0
 51
180.2905636468
  0
ARC
  5
476
100
AcDbEntity
  8
KONSTRUKTIONSELEMENTE
100
AcDbCircle
 62
7
  6
CONTINUOUS
 10
297.2247360437
 20
386.1330475997
 40
4.55
100
AcDbArc
 50
269.7094363532
 51
315.0
  0
ARC
  5
477
100
AcDbEntity
  8
KONSTRUKTIONSELEMENTE
100
AcDbCircle
 62
7
  6
CONTINUOUS
 10
306.0282154694
 20
394.9365270255
 40
4.0
100
AcDbArc
 50
135.0
 51
315.0
  0
ARC
  5
478
100
AcDbEntity
  8
KONSTRUKTIONSELEMENTE
100
AcDbCircle
 62
7
  6
CONTINUOUS
 10
296.1287205328
 20
385.0370320889
 40
3.2
100
AcDbArc
 50
315.0
 51
135.0
  0
ARC
  5
479
100
AcDbEntity
  8
KONSTRUKTIONSELEMENTE
100
AcDbCircle
 62
7
  6
CONTINUOUS
 10
361.182544402
 20
450.090855958
 40
4.0
100
AcDbArc
 50
315.0
 51
135.0
  0
ARC
  5
47A
100
AcDbEntity
  8
BEZUGSACHSEN
100
AcDbCircle
 62
7
  6
CONTINUOUS
 10
425.52926149
 20
278.087573046
 40
85.0
100
AcDbArc
 50
280.0
 51
310.4557885063
  0
ARC
  5
47B
100
AcDbEntity
  8
0
100
AcDbCircle
 62
7
  6
CONTINUOUS
 10
425.52926149
 20
278.087573046
 40
85.0
100
AcDbArc
 50
229.5442114937
 51
260.0
  0
ARC
  5
47C
100
AcDbEntity
  8
BEZUGSACHSEN
100
AcDbCircle
 62
7
  6
CONTINUOUS
 10
425.52926149
 20
278.087573046
 40
70.0
100
AcDbArc
 50
260.0
 51
280.0
  0
ARC
  5
47D
100
AcDbEntity
  8
BEZUGSACHSEN
100
AcDbCircle
 62
7
  6
CONTINUOUS
 10
425.52926149
 20
278.087573046
 40
57.0
100
AcDbArc
 50
21.793371199
 51
73.1697923264
  0
ARC
  5
47E
100
AcDbEntity
  8
BEZUGSACHSEN
100
AcDbCircle
 62
7
  6
CONTINUOUS
 10
425.52926149
 20
278.087573046
 40
57.0
100
AcDbArc
 50
106.8302076736
 51
158.206628801
  0
ARC
  5
47F
100
AcDbEntity
  8
KONSTRUKTIONSELEMENTE
100
AcDbCircle
 62
7
  6
CONTINUOUS
 10
425.52926149
 20
278.087573046
 40
39.6
100
AcDbArc
 50
124.3813799852
 51
55.6189282114
  0
CIRCLE
  5
480
100
AcDbEntity
  8
KONSTRUKTIONSELEMENTE
100
AcDbCircle
 62
7
  6
CONTINUOUS
 10
425.52926149
 20
278.087573046
 40
25.3
  0
ARC
  5
481
100
AcDbEntity
  8
BEZUGSACHSEN
100
AcDbCircle
 62
7
  6
CONTINUOUS
 10
504.6977029599
 20
243.6838983527
 40
9.0
100
AcDbArc
 50
60.0
 51
206.5
  0
ARC
  5
482
100
AcDbEntity
  8
BEZUGSACHSEN
100
AcDbCircle
 62
7
  6
CONTINUOUS
 10
550.25856149
 20
49.3336160944
 40
13.2132
100
AcDbArc
 50
359.999984513
 51
8.0000189395
  0
ARC
  5
483
100
AcDbEntity
  8
BEZUGSACHSEN
100
AcDbCircle
 62
7
  6
CONTINUOUS
 10
554.5200753516
 20
75.9758254922
 40
5.28528
100
AcDbArc
 50
7.9999773008
 51
45.0001724764
  0
ARC
  5
484
100
AcDbEntity
  8
BEZUGSACHSEN
100
AcDbCircle
 62
7
  6
CONTINUOUS
 10
567.43572149
 20
15.9640329782
 40
3.96396
100
AcDbArc
 50
180.0
 51
264.0
  0
ARC
  5
485
100
AcDbEntity
  8
BEZUGSACHSEN
100
AcDbCircle
 62
7
  6
CONTINUOUS
 10
553.7267119354
 20
129.427573046
 40
11.2319895545
100
AcDbArc
 50
356.4793898029
 51
26.8198457324
  0
ARC
  5
486
100
AcDbEntity
  8
BEZUGSACHSEN
100
AcDbCircle
 62
7
  6
CONTINUOUS
 10
560.56454149
 20
84.8803886677
 40
5.28528
100
AcDbArc
 50
179.9998461922
 51
225.0
  0
ARC
  5
487
100
AcDbEntity
  8
BEZUGSACHSEN
100
AcDbCircle
 62
7
  6
CONTINUOUS
 10
554.5200753516
 20
139.1993205999
 40
5.28528
100
AcDbArc
 50
314.9999959467
 51
352.0000145739
  0
ARC
  5
488
100
AcDbEntity
  8
BEZUGSACHSEN
100
AcDbCircle
 62
7
  6
CONTINUOUS
 10
560.56454149
 20
130.2947574243
 40
5.28528
100
AcDbArc
 50
135.0000000583
 51
180.0001538078
  0
ARC
  5
489
100
AcDbEntity
  8
RUNDUNGEN
100
AcDbCircle
 62
7
  6
CONTINUOUS
 10
557.92190149
 20
119.0640836307
 40
2.64264
100
AcDbArc
 50
146.90361512
 51
180.0
  0
ARC
  5
48A
100
AcDbEntity
  8
RUNDUNGEN
100
AcDbCircle
 62
7
  6
CONTINUOUS
 10
600.79996149
 20
49.3336160944
 40
13.2132
100
AcDbArc
 50
171.9999810605
 51
180.000015487
  0
ARC
  5
48B
100
AcDbEntity
  8
RUNDUNGEN
100
AcDbCircle
 62
7
  6
CONTINUOUS
 10
596.5384476283
 20
75.9758254922
 40
5.28528
100
AcDbArc
 50
134.9998275236
 51
172.0000226992
  0
ARC
  5
48C
100
AcDbEntity
  8
RUNDUNGEN
100
AcDbCircle
 62
7
  6
CONTINUOUS
 10
583.62280149
 20
15.9640329782
 40
3.96396
100
AcDbArc
 50
276.0
 51
360.0
  0
ARC
  5
48D
100
AcDbEntity
  8
RUNDUNGEN
100
AcDbCircle
 62
7
  6
CONTINUOUS
 10
575.52926149
 20
107.587573046
 40
23.66
100
AcDbArc
 50
33.09638488
 51
146.90361512
  0
CIRCLE
  5
48E
100
AcDbEntity
  8
0
100
AcDbCircle
 62
7
  6
CONTINUOUS
 10
575.52926149
 20
107.587573046
 40
7.92792
  0
ARC
  5
48F
100
AcDbEntity
  8
RUNDUNGEN
100
AcDbCircle
 62
7
  6
CONTINUOUS
 10
590.49398149
 20
84.8803886677
 40
5.28528
100
AcDbArc
 50
315.0
 51
0.0005108285
  0
ARC
  5
490
100
AcDbEntity
  8
BEZUGSACHSEN
100
AcDbCircle
 62
7
  6
CONTINUOUS
 10
597.3318110445
 20
129.427573046
 40
11.2319895545
100
AcDbArc
 50
153.226655599
 51
183.5198377384
  0
ARC
  5
491
100
AcDbEntity
  8
BEZUGSACHSEN
100
AcDbCircle
 62
7
  6
CONTINUOUS
 10
596.5384476283
 20
139.1993205999
 40
5.28528
100
AcDbArc
 50
187.9999854261
 51
225.0000040533
  0
ARC
  5
492
100
AcDbEntity
  8
BEZUGSACHSEN
100
AcDbCircle
 62
7
  6
CONTINUOUS
 10
590.49398149
 20
130.2947574243
 40
5.28528
100
AcDbArc
 50
359.9999947813
 51
45.0
  0
ARC
  5
493
100
AcDbEntity
  8
RUNDUNGEN
100
AcDbCircle
 62
7
  6
CONTINUOUS
 10
593.136619158
 20
119.0640877043
 40
2.642640034
100
AcDbArc
 50
359.9999116784
 51
33.0962832799
  0
ARC
  5
494
100
AcDbEntity
  8
BEZUGSACHSEN
100
AcDbCircle
 62
7
  6
CONTINUOUS
 10
575.52926149
 20
190.087573046
 40
46.0
100
AcDbArc
 50
285.198233666
 51
60.0
  0
ARC
  5
495
100
AcDbEntity
  8
BEZUGSACHSEN
100
AcDbCircle
 62
7
  6
CONTINUOUS
 10
575.52926149
 20
190.087573046
 40
20.0
100
AcDbArc
 50
307.0791615841
 51
232.9208384159
  0
ARC
  5
496
100
AcDbEntity
  8
BEZUGSACHSEN
100
AcDbCircle
 62
7
  6
CONTINUOUS
 10
524.0121919191
 20
204.9450266268
 40
9.0
100
AcDbArc
 50
206.5
 51
330.0
  0
ARC
  5
497
100
AcDbEntity
  8
BEZUGSACHSEN
100
AcDbCircle
 62
7
  6
CONTINUOUS
 10
535.9579931936
 20
225.6357613713
 40
9.0
100
AcDbArc
 50
330.0
 51
60.0
  0
ARC
  5
498
100
AcDbEntity
  8
BEZUGSACHSEN
100
AcDbCircle
 62
7
  6
CONTINUOUS
 10
583.62280149
 20
199.2111131139
 40
3.96396
100
AcDbArc
 50
0.0
 51
84.0
  0
ARC
  5
499
100
AcDbEntity
  8
BEZUGSACHSEN
100
AcDbCircle
 62
7
  6
CONTINUOUS
 10
567.43572149
 20
199.2111131139
 40
3.96396
100
AcDbArc
 50
96.0
 51
180.0
  0
ARC
  5
49A
100
AcDbEntity
  8
0
100
AcDbCircle
 62
7
  6
CONTINUOUS
 10
425.52926149
 20
674.437573046
 40
146.0
100
AcDbArc
 50
0.0
 51
180.0
  0
ARC
  5
49B
100
AcDbEntity
  8
0
100
AcDbCircle
 62
7
  6
CONTINUOUS
 10
425.52926149
 20
514.437573046
 40
146.0
100
AcDbArc
 50
276.7160980425
 51
360.0
  0
ARC
  5
49C
100
AcDbEntity
  8
0
100
AcDbCircle
 62
7
  6
CONTINUOUS
 10
425.52926149
 20
514.437573046
 40
146.0
100
AcDbArc
 50
226.5700056267
 51
263.5101751648
  0
ARC
  5
49D
100
AcDbEntity
  8
0
100
AcDbCircle
 62
7
  6
CONTINUOUS
 10
425.52926149
 20
514.437573046
 40
146.0
100
AcDbArc
 50
180.0
 51
223.4299943733
  0
ARC
  5
49E
100
AcDbEntity
  8
0
100
AcDbCircle
 62
7
  6
CONTINUOUS
 10
425.52926149
 20
674.437573046
 40
95.0
100
AcDbArc
 50
0.0
 51
180.0
  0
ARC
  5
49F
100
AcDbEntity
  8
0
100
AcDbCircle
 62
7
  6
CONTINUOUS
 10
425.52926149
 20
514.437573046
 40
95.0
100
AcDbArc
 50
280.0021032787
 51
360.0
  0
ARC
  5
4A0
100
AcDbEntity
  8
0
100
AcDbCircle
 62
7
  6
CONTINUOUS
 10
425.52926149
 20
514.437573046
 40
95.0
100
AcDbArc
 50
227.4134373857
 51
259.9978967213
  0
ARC
  5
4A1
100
AcDbEntity
  8
0
100
AcDbCircle
 62
7
  6
CONTINUOUS
 10
425.52926149
 20
514.437573046
 40
95.0
100
AcDbArc
 50
180.0
 51
222.5865626143
  0
ARC
  5
4A2
100
AcDbEntity
  8
KONSTRUKTIONSELEMENTE
100
AcDbCircle
 62
7
  6
CONTINUOUS
 10
425.52926149
 20
439.787573046
 40
16.5
100
AcDbArc
 50
0.0
 51
180.0000000206
  0
ARC
  5
4A3
100
AcDbEntity
  8
BEZUGSACHSEN
100
AcDbCircle
 62
7
  6
CONTINUOUS
 10
850.7220223487
 20
126.8281818529
 40
13.2132
100
AcDbArc
 50
148.15
 51
180.0
  0
ARC
  5
4A4
100
AcDbEntity
  8
BEZUGSACHSEN
100
AcDbCircle
 62
7
  6
CONTINUOUS
 10
851.7453527942
 20
85.747573046
 40
11.2319895545
100
AcDbArc
 50
277.3988922025
 51
44.0524622899
  0
ARC
  5
4A5
100
AcDbEntity
  8
BEZUGSACHSEN
100
AcDbCircle
 62
7
  6
CONTINUOUS
 10
844.0776419108
 20
97.8905938983
 40
6.5688195811
100
AcDbArc
 50
179.9956305717
 51
215.0043694283
  0
CIRCLE
  5
4A6
100
AcDbEntity
  8
BEZUGSACHSEN
100
AcDbCircle
 62
7
  6
CONTINUOUS
 10
850.9416823487
 20
107.587573046
 40
3.3045303608
  0
ARC
  5
4A7
100
AcDbEntity
  8
BEZUGSACHSEN
100
AcDbCircle
 62
7
  6
CONTINUOUS
 10
847.2272098379
 20
86.600824708
 40
2.673251392
100
AcDbArc
 50
215.0768270062
 51
270.0393922134
  0
ARC
  5
4A8
100
AcDbEntity
  8
BEZUGSACHSEN
100
AcDbCircle
 62
7
  6
CONTINUOUS
 10
856.7201823487
 20
86.570213046
 40
2.64264
100
AcDbArc
 50
270.0
 51
360.0
  0
ARC
  5
4A9
100
AcDbEntity
  8
RUNDUNGEN
100
AcDbCircle
 62
7
  6
CONTINUOUS
 10
862.4604623487
 20
124.054933046
 40
2.64264
100
AcDbArc
 50
90.0
 51
180.0
  0
ARC
  5
4AA
100
AcDbEntity
  8
BEZUGSACHSEN
100
AcDbCircle
 62
7
  6
CONTINUOUS
 10
862.0054623487
 20
125.874933046
 40
2.64264
100
AcDbArc
 50
90.0007741254
 51
180.0
  0
ARC
  5
4AB
100
AcDbEntity
  8
KONSTRUKTIONSELEMENTE
100
AcDbCircle
 62
7
  6
CONTINUOUS
 10
872.8658381101
 20
298.5089908947
 40
1.635349598
100
AcDbArc
 50
13.6878166443
 51
24.7310910582
  0
ARC
  5
4AC
100
AcDbEntity
  8
KONSTRUKTIONSELEMENTE
100
AcDbCircle
 62
7
  6
CONTINUOUS
 10
867.5415489406
 20
309.7305606716
 40
1.0829223484
100
AcDbArc
 50
17.8092360883
 51
28.3400275647
  0
ARC
  5
4AD
100
AcDbEntity
  8
BEZUGSACHSEN
100
AcDbCircle
 62
7
  6
CONTINUOUS
 10
887.1906223487
 20
124.2380945781
 40
13.2132
100
AcDbArc
 50
0.0
 51
40.5696972304
  0
ARC
  5
4AE
100
AcDbEntity
  8
BEZUGSACHSEN
100
AcDbCircle
 62
7
  6
CONTINUOUS
 10
895.3504519033
 20
85.747573046
 40
11.2319895545
100
AcDbArc
 50
163.7019364916
 51
192.4720186323
  0
ARC
  5
4AF
100
AcDbEntity
  8
BEZUGSACHSEN
100
AcDbCircle
 62
7
  6
CONTINUOUS
 10
887.4854623487
 20
86.570213046
 40
2.64264
100
AcDbArc
 50
180.0
 51
270.0
  0
ARC
  5
4B0
100
AcDbEntity
  8
RUNDUNGEN
100
AcDbCircle
 62
7
  6
CONTINUOUS
 10
881.9271823487
 20
124.054933046
 40
2.64264
100
AcDbArc
 50
0.0
 51
90.0
  0
ARC
  5
4B1
100
AcDbEntity
  8
BEZUGSACHSEN
100
AcDbCircle
 62
7
  6
CONTINUOUS
 10
882.2001823487
 20
125.874933046
 40
2.64264
100
AcDbArc
 50
0.0
 51
89.9998016375
  0
ARC
  5
4B2
100
AcDbEntity
  8
KONSTRUKTIONSELEMENTE
100
AcDbCircle
 62
7
  6
CONTINUOUS
 10
897.4087991593
 20
216.8254041804
 40
11.2339224851
100
AcDbArc
 50
89.4474576328
 51
89.999881728
  0
ARC
  5
4B3
100
AcDbEntity
  8
KONSTRUKTIONSELEMENTE
100
AcDbCircle
 62
7
  6
CONTINUOUS
 10
893.4237881473
 20
217.0510472187
 40
11.1070958185
100
AcDbArc
 50
82.3515341598
 51
84.9226131091
  0
ARC
  5
4B4
100
AcDbEntity
  8
KONSTRUKTIONSELEMENTE
100
AcDbCircle
 62
7
  6
CONTINUOUS
 10
893.4237881473
 20
220.5865811246
 40
11.1070958185
100
AcDbArc
 50
82.3515341598
 51
84.9226131091
  0
ARC
  5
4B5
100
AcDbEntity
  8
RUNDUNGEN
100
AcDbCircle
 62
7
  6
CONTINUOUS
 10
914.5088223487
 20
74.827573046
 40
63.7
100
AcDbArc
 50
182.6682451867
 51
270.0
  0
ARC
  5
4B6
100
AcDbEntity
  8
BEZUGSACHSEN
100
AcDbCircle
 62
7
  6
CONTINUOUS
 10
914.5088223487
 20
140.347573046
 40
63.7
100
AcDbArc
 50
2.6682451867
 51
71.700719473
  0
ARC
  5
4B7
100
AcDbEntity
  8
BEZUGSACHSEN
100
AcDbCircle
 62
7
  6
CONTINUOUS
 10
914.5088223487
 20
67.547573046
 40
56.42
100
AcDbArc
 50
270.0
 51
328.15
  0
ARC
  5
4B8
100
AcDbEntity
  8
BEZUGSACHSEN
100
AcDbCircle
 62
7
  6
CONTINUOUS
 10
914.5088223487
 20
74.827573046
 40
30.03
100
AcDbArc
 50
180.0
 51
270.0
  0
ARC
  5
4B9
100
AcDbEntity
  8
BEZUGSACHSEN
100
AcDbCircle
 62
7
  6
CONTINUOUS
 10
914.5088223487
 20
140.347573046
 40
30.03
100
AcDbArc
 50
0.0
 51
48.2331216945
  0
ARC
  5
4BA
100
AcDbEntity
  8
BEZUGSACHSEN
100
AcDbCircle
 62
7
  6
CONTINUOUS
 10
914.5088223487
 20
67.547573046
 40
22.75
100
AcDbArc
 50
270.0
 51
40.5696972304
  0
ARC
  5
4BB
100
AcDbEntity
  8
BEZUGSACHSEN
100
AcDbCircle
 62
7
  6
CONTINUOUS
 10
914.5088223487
 20
147.627573046
 40
56.42
100
AcDbArc
 50
110.766570641
 51
148.15
  0
ARC
  5
4BC
100
AcDbEntity
  8
BEZUGSACHSEN
100
AcDbCircle
 62
7
  6
CONTINUOUS
 10
914.5088223487
 20
147.627573046
 40
22.75
100
AcDbArc
 50
151.5632566305
 51
220.5696972304
  0
ARC
  5
4BD
100
AcDbEntity
  8
KONSTRUKTIONSELEMENTE
100
AcDbCircle
 62
7
  6
CONTINUOUS
 10
901.2880584246
 20
225.2145285457
 40
4.1217888598
100
AcDbArc
 50
10.0260878616
 51
10.63883148
  0
ARC
  5
4BE
100
AcDbEntity
  8
KONSTRUKTIONSELEMENTE
100
AcDbCircle
 62
7
  6
CONTINUOUS
 10
901.3731096589
 20
225.2278716983
 40
4.0357138257
100
AcDbArc
 50
0.0429868459
 51
10.0497651297
  0
ARC
  5
4BF
100
AcDbEntity
  8
KONSTRUKTIONSELEMENTE
100
AcDbCircle
 62
7
  6
CONTINUOUS
 10
914.5588223487
 20
397.437573046
 40
58.85
100
AcDbArc
 50
115.7392467993
 51
180.0
  0
ARC
  5
4C0
100
AcDbEntity
  8
KONSTRUKTIONSELEMENTE
100
AcDbCircle
 62
7
  6
CONTINUOUS
 10
914.5588223487
 20
397.437573046
 40
58.85
100
AcDbArc
 50
0.0
 51
64.3690016214
  0
ARC
  5
4C1
100
AcDbEntity
  8
BEZUGSACHSEN
100
AcDbCircle
 62
7
  6
CONTINUOUS
 10
914.4105291285
 20
302.0061038128
 40
34.235761535
100
AcDbArc
 50
95.7096704505
 51
102.8725206806
  0
ARC
  5
4C2
100
AcDbEntity
  8
BEZUGSACHSEN
100
AcDbCircle
 62
7
  6
CONTINUOUS
 10
914.6692122989
 20
302.3856758216
 40
33.8519033272
100
AcDbArc
 50
77.0868144446
 51
84.3309944243
  0
ARC
  5
4C3
100
AcDbEntity
  8
KONSTRUKTIONSELEMENTE
100
AcDbCircle
 62
7
  6
CONTINUOUS
 10
914.5588223487
 20
394.137573046
 40
25.85
100
AcDbArc
 50
173.3634466278
 51
180.0
  0
ARC
  5
4C4
100
AcDbEntity
  8
KONSTRUKTIONSELEMENTE
100
AcDbCircle
 62
7
  6
CONTINUOUS
 10
914.5588223487
 20
394.137573046
 40
25.85
100
AcDbArc
 50
0.0
 51
6.7484579414
  0
ARC
  5
4C5
100
AcDbEntity
  8
0
100
AcDbCircle
 62
7
  6
CONTINUOUS
 10
914.5088223487
 20
393.937573046
 40
25.5
100
AcDbArc
 50
292.508414875
 51
360.0
  0
ARC
  5
4C6
100
AcDbEntity
  8
0
100
AcDbCircle
 62
7
  6
CONTINUOUS
 10
914.5088223487
 20
393.937573046
 40
25.5
100
AcDbArc
 50
180.0
 51
247.4877836982
  0
ARC
  5
4C7
100
AcDbEntity
  8
KONSTRUKTIONSELEMENTE
100
AcDbCircle
 62
7
  6
CONTINUOUS
 10
914.5088223487
 20
402.5976182958
 40
3.5
100
AcDbArc
 50
0.0
 51
180.0
  0
ARC
  5
4C8
100
AcDbEntity
  8
KONSTRUKTIONSELEMENTE
100
AcDbCircle
 62
7
  6
CONTINUOUS
 10
914.5088223487
 20
378.0830475997
 40
3.5
100
AcDbArc
 50
180.0
 51
217.616392005
  0
ARC
  5
4C9
100
AcDbEntity
  8
KONSTRUKTIONSELEMENTE
100
AcDbCircle
 62
7
  6
CONTINUOUS
 10
914.5088223487
 20
378.0830475997
 40
3.5
100
AcDbArc
 50
322.383607995
 51
360.0
  0
ARC
  5
4CA
100
AcDbEntity
  8
KONSTRUKTIONSELEMENTE
100
AcDbCircle
 62
7
  6
CONTINUOUS
 10
914.5088223487
 20
349.5646097068
 40
3.5
100
AcDbArc
 50
0.0
 51
180.0
  0
ARC
  5
4CB
100
AcDbEntity
  8
KONSTRUKTIONSELEMENTE
100
AcDbCircle
 62
7
  6
CONTINUOUS
 10
914.5088223487
 20
353.0054520349
 40
3.2
100
AcDbArc
 50
333.3575215217
 51
360.0
  0
ARC
  5
4CC
100
AcDbEntity
  8
KONSTRUKTIONSELEMENTE
100
AcDbCircle
 62
7
  6
CONTINUOUS
 10
914.5088223487
 20
353.0054520349
 40
3.2
100
AcDbArc
 50
180.0
 51
206.6424784783
  0
ARC
  5
4CD
100
AcDbEntity
  8
KONSTRUKTIONSELEMENTE
100
AcDbCircle
 62
7
  6
CONTINUOUS
 10
914.5088223487
 20
374.3593625592
 40
3.2
100
AcDbArc
 50
0.0
 51
180.0
  0
ARC
  5
4CE
100
AcDbEntity
  8
0
100
AcDbCircle
 62
7
  6
CONTINUOUS
 10
914.5088223487
 20
794.937573046
 40
25.5
100
AcDbArc
 50
0.0
 51
180.0
  0
ARC
  5
4CF
100
AcDbEntity
  8
BEZUGSACHSEN
100
AcDbCircle
 62
7
  6
CONTINUOUS
 10
941.8270223487
 20
90.9370515139
 40
13.2132
100
AcDbArc
 50
180.0
 51
220.5696972304
  0
ARC
  5
4D0
100
AcDbEntity
  8
BEZUGSACHSEN
100
AcDbCircle
 62
7
  6
CONTINUOUS
 10
933.6671927942
 20
129.427573046
 40
11.2319895545
100
AcDbArc
 50
343.7019364916
 51
12.4720186323
  0
ARC
  5
4D1
100
AcDbEntity
  8
BEZUGSACHSEN
100
AcDbCircle
 62
7
  6
CONTINUOUS
 10
947.0904623487
 20
91.120213046
 40
2.64264
100
AcDbArc
 50
180.0
 51
270.0
  0
ARC
  5
4D2
100
AcDbEntity
  8
RUNDUNGEN
100
AcDbCircle
 62
7
  6
CONTINUOUS
 10
941.5321823487
 20
128.604933046
 40
2.64264
100
AcDbArc
 50
0.0
 51
90.0
  0
ARC
  5
4D3
100
AcDbEntity
  8
BEZUGSACHSEN
100
AcDbCircle
 62
7
  6
CONTINUOUS
 10
946.8174623487
 20
89.300213046
 40
2.64264
100
AcDbArc
 50
180.0
 51
269.9998016375
  0
ARC
  5
4D4
100
AcDbEntity
  8
KONSTRUKTIONSELEMENTE
100
AcDbCircle
 62
7
  6
CONTINUOUS
 10
935.0711292808
 20
219.5280613849
 40
9.1599944879
100
AcDbArc
 50
112.1105000657
 51
113.9508226432
  0
ARC
  5
4D5
100
AcDbEntity
  8
KONSTRUKTIONSELEMENTE
100
AcDbCircle
 62
7
  6
CONTINUOUS
 10
954.0235324632
 20
243.8196355939
 40
5.5907485131
100
AcDbArc
 50
155.3070585906
 51
159.9556470253
  0
ARC
  5
4D6
100
AcDbEntity
  8
KONSTRUKTIONSELEMENTE
100
AcDbCircle
 62
7
  6
CONTINUOUS
 10
927.7295862725
 20
225.2145285458
 40
4.1217888593
100
AcDbArc
 50
169.3611685204
 51
169.9739121388
  0
ARC
  5
4D7
100
AcDbEntity
  8
BEZUGSACHSEN
100
AcDbCircle
 62
7
  6
CONTINUOUS
 10
978.2956223487
 20
88.3469642391
 40
13.2132
100
AcDbArc
 50
328.15
 51
360.0
  0
ARC
  5
4D8
100
AcDbEntity
  8
BEZUGSACHSEN
100
AcDbCircle
 62
7
  6
CONTINUOUS
 10
977.2722919033
 20
129.427573046
 40
11.2319895545
100
AcDbArc
 50
97.3988922025
 51
224.0524622899
  0
ARC
  5
4D9
100
AcDbEntity
  8
BEZUGSACHSEN
100
AcDbCircle
 62
7
  6
CONTINUOUS
 10
984.9400027867
 20
117.2845521937
 40
6.5688195811
100
AcDbArc
 50
359.9956305717
 51
35.0043694283
  0
CIRCLE
  5
4DA
100
AcDbEntity
  8
BEZUGSACHSEN
100
AcDbCircle
 62
7
  6
CONTINUOUS
 10
978.0759623487
 20
107.587573046
 40
3.0
  0
ARC
  5
4DB
100
AcDbEntity
  8
RUNDUNGEN
100
AcDbCircle
 62
7
  6
CONTINUOUS
 10
981.7904348596
 20
128.574321384
 40
2.673251392
100
AcDbArc
 50
35.0768270062
 51
90.0393922134
  0
ARC
  5
4DC
100
AcDbEntity
  8
BEZUGSACHSEN
100
AcDbCircle
 62
7
  6
CONTINUOUS
 10
966.5571823487
 20
91.120213046
 40
2.64264
100
AcDbArc
 50
270.0
 51
360.0
  0
ARC
  5
4DD
100
AcDbEntity
  8
RUNDUNGEN
100
AcDbCircle
 62
7
  6
CONTINUOUS
 10
972.2974623487
 20
128.604933046
 40
2.64264
100
AcDbArc
 50
90.0
 51
180.0
  0
ARC
  5
4DE
100
AcDbEntity
  8
BEZUGSACHSEN
100
AcDbCircle
 62
7
  6
CONTINUOUS
 10
967.0121823487
 20
89.300213046
 40
2.64264
100
AcDbArc
 50
270.0007741254
 51
360.0
  0
ARC
  5
4DF
100
AcDbEntity
  8
KONSTRUKTIONSELEMENTE
100
AcDbCircle
 62
7
  6
CONTINUOUS
 10
981.1088223487
 20
278.087573046
 40
25.3
100
AcDbArc
 50
270.0
 51
90.0
  0
CIRCLE
  5
4E0
100
AcDbEntity
  8
BEZUGSACHSEN
100
AcDbCircle
 62
7
  6
CONTINUOUS
 10
992.1088223487
 20
278.0325117987
 40
5.5
  0
SPLINE
  5
4E1
100
AcDbEntity
  8
KONSTRUKTIONSELEMENTE
100
AcDbSpline
 62
7
  6
CONTINUOUS
 70
0
 71
3
 72
15
 73
11
 74
0
 42
0.0000001
 43
0.0000001
 44
0.0000000001
 40
0.0
 40
0.0
 40
0.0
 40
0.0
 40
0.1249790487
 40
0.249985446
 40
0.3750049236
 40
0.5000229572
 40
0.6250329648
 40
0.7500361888
 40
0.8750252883
 40
1.0
 40
1.0
 40
1.0
 40
1.0
 10
425.5294955429
 20
339.6872749728
 30
0.0
 10
424.5261690531
 20
338.5284200616
 30
0.0
 10
422.6525766987
 20
336.0934467771
 30
0.0
 10
420.1566610261
 20
332.227820129
 30
0.0
 10
417.7965819715
 20
328.2796318929
 30
0.0
 10
415.4075689427
 20
324.3483899424
 30
0.0
 10
412.8540347501
 20
320.5196983503
 30
0.0
 10
410.0236859983
 20
316.8865889869
 30
0.0
 10
406.8328861639
 20
313.5614414057
 30
0.0
 10
404.4322086332
 20
311.6348816045
 30
0.0
 10
403.1671879112
 20
310.7693365428
 30
0.0
  0
SPLINE
  5
4E2
100
AcDbEntity
  8
KONSTRUKTIONSELEMENTE
100
AcDbSpline
 62
7
  6
CONTINUOUS
 70
0
 71
3
 72
15
 73
11
 74
0
 42
0.0000001
 43
0.0000001
 44
0.0000000001
 40
0.0
 40
0.0
 40
0.0
 40
0.0
 40
0.1249694115
 40
0.249961413
 40
0.3749653693
 40
0.4999766524
 40
0.6249967302
 40
0.7500183286
 40
0.8750245807
 40
1.0
 40
1.0
 40
1.0
 40
1.0
 10
447.8911592716
 20
310.769456829
 30
0.0
 10
446.6261781175
 20
311.6349077494
 30
0.0
 10
444.2256152743
 20
313.5615086037
 30
0.0
 10
441.0348766375
 20
316.886585028
 30
0.0
 10
438.2044574797
 20
320.5196412769
 30
0.0
 10
435.6510055686
 20
324.348374824
 30
0.0
 10
433.261918438
 20
328.2795675075
 30
0.0
 10
430.9019879889
 20
332.2278601918
 30
0.0
 10
428.4056522875
 20
336.0930259189
 30
0.0
 10
426.5333116125
 20
338.5289305552
 30
0.0
 10
425.5294955429
 20
339.6872749728
 30
0.0
  0
SPLINE
  5
4E3
100
AcDbEntity
  8
KONSTRUKTIONSELEMENTE
100
AcDbSpline
 62
7
  6
CONTINUOUS
 70
0
 71
3
 72
9
 73
5
 74
0
 42
0.0000001
 43
0.0000001
 44
0.0000000001
 40
0.0
 40
0.0
 40
0.0
 40
0.0
 40
0.2925670556
 40
1.0
 40
1.0
 40
1.0
 40
1.0
 10
910.7088223487
 20
380.0872846206
 30
0.0
 10
910.7088223487
 20
380.1331554411
 30
0.0
 10
910.7465806601
 20
380.2887534069
 30
0.0
 10
910.8339505865
 20
380.4227564299
 30
0.0
 10
910.9024500639
 20
380.5099934837
 30
0.0
  0
SPLINE
  5
4E4
100
AcDbEntity
  8
KONSTRUKTIONSELEMENTE
100
AcDbSpline
 62
7
  6
CONTINUOUS
 70
0
 71
3
 72
9
 73
5
 74
0
 42
0.0000001
 43
0.0000001
 44
0.0000000001
 40
0.0
 40
0.0
 40
0.0
 40
0.0
 40
0.2326159787
 40
1.0
 40
1.0
 40
1.0
 40
1.0
 10
910.9024500639
 20
380.5099934837
 30
0.0
 10
910.9096864378
 20
380.5192093196
 30
0.0
 10
910.9412427234
 20
380.5584752046
 30
0.0
 10
910.9745643603
 20
380.5963122269
 30
0.0
 10
911.0009097255
 20
380.6245985228
 30
0.0
  0
SPLINE
  5
4E5
100
AcDbEntity
  8
KONSTRUKTIONSELEMENTE
100
AcDbSpline
 62
7
  6
CONTINUOUS
 70
0
 71
3
 72
9
 73
5
 74
0
 42
0.0000001
 43
0.0000001
 44
0.0000000001
 40
0.0
 40
0.0
 40
0.0
 40
0.0
 40
0.2674785319
 40
1.0
 40
1.0
 40
1.0
 40
1.0
 10
918.0167623864
 20
380.6245686198
 30
0.0
 10
918.025937707
 20
380.6147154407
 30
0.0
 10
918.0598776043
 20
380.5775431776
 30
0.0
 10
918.0923735987
 20
380.5390415445
 30
0.0
 10
918.1151451357
 20
380.5100415543
 30
0.0
  0
SPLINE
  5
4E6
100
AcDbEntity
  8
KONSTRUKTIONSELEMENTE
100
AcDbSpline
 62
7
  6
CONTINUOUS
 70
0
 71
3
 72
9
 73
5
 74
0
 42
0.0000001
 43
0.0000001
 44
0.0000000001
 40
0.0
 40
0.0
 40
0.0
 40
0.0
 40
0.7073947347
 40
1.0
 40
1.0
 40
1.0
 40
1.0
 10
918.1151451357
 20
380.5100415543
 30
0.0
 10
918.183651625
 20
380.4227972235
 30
0.0
 10
918.2710614063
 20
380.2887912737
 30
0.0
 10
918.3088223487
 20
380.1331680686
 30
0.0
 10
918.3088223487
 20
380.0872846206
 30
0.0
  0
SPLINE
  5
4E7
100
AcDbEntity
  8
KONSTRUKTIONSELEMENTE
100
AcDbSpline
 62
7
  6
CONTINUOUS
 70
0
 71
3
 72
13
 73
9
 74
0
 42
0.0000001
 43
0.0000001
 44
0.0000000001
 40
0.0
 40
0.0
 40
0.0
 40
0.0
 40
0.1208023438
 40
0.2417405165
 40
0.3635818662
 40
0.4866533049
 40
0.7381983824
 40
1.0
 40
1.0
 40
1.0
 40
1.0
 10
904.3088223487
 20
380.0872846206
 30
0.0
 10
904.3088223487
 20
380.5266093526
 30
0.0
 10
904.3959774473
 20
381.4082081264
 30
0.0
 10
904.7812380975
 20
382.681070755
 30
0.0
 10
905.3990488757
 20
383.8679260836
 30
0.0
 10
906.5050815919
 20
385.3050646961
 30
0.0
 10
908.3487280734
 20
386.7654238859
 30
0.0
 10
910.09269446
 20
387.4922223058
 30
0.0
 10
911.0081875115
 20
387.7536933422
 30
0.0
  0
SPLINE
  5
4E8
100
AcDbEntity
  8
KONSTRUKTIONSELEMENTE
100
AcDbSpline
 62
7
  6
CONTINUOUS
 70
0
 71
3
 72
13
 73
9
 74
0
 42
0.0000001
 43
0.0000001
 44
0.0000000001
 40
0.0
 40
0.0
 40
0.0
 40
0.0
 40
0.2618007603
 40
0.5133270374
 40
0.6363939503
 40
0.7582240297
 40
0.8791948111
 40
1.0
 40
1.0
 40
1.0
 40
1.0
 10
918.0142581305
 20
387.7523007915
 30
0.0
 10
918.929232594
 20
387.490604515
 30
0.0
 10
920.6720623857
 20
386.7634928644
 30
0.0
 10
922.5142611678
 20
385.3032228934
 30
0.0
 10
923.6194011893
 20
383.8666178298
 30
0.0
 10
924.2368385548
 20
382.6801812803
 30
0.0
 10
924.6216557718
 20
381.4077292914
 30
0.0
 10
924.7088223487
 20
380.5264196163
 30
0.0
 10
924.7088223487
 20
380.0872846206
 30
0.0
  0
SPLINE
  5
4E9
100
AcDbEntity
  8
KONSTRUKTIONSELEMENTE
100
AcDbSpline
 62
7
  6
CONTINUOUS
 70
0
 71
3
 72
13
 73
9
 74
0
 42
0.0000001
 43
0.0000001
 44
0.0000000001
 40
0.0
 40
0.0
 40
0.0
 40
0.0
 40
0.1205814004
 40
0.2413301363
 40
0.3630239401
 40
0.4860289892
 40
0.7377510631
 40
1.0
 40
1.0
 40
1.0
 40
1.0
 10
924.7088223487
 20
372.7333740962
 30
0.0
 10
924.7088223487
 20
372.2821971597
 30
0.0
 10
924.6168553441
 20
371.376557164
 30
0.0
 10
924.2106625683
 20
370.0717435032
 30
0.0
 10
923.5605732594
 20
368.8595865419
 30
0.0
 10
922.3987384144
 20
367.3993969512
 30
0.0
 10
920.4688553852
 20
365.9340692551
 30
0.0
 10
918.6541895577
 20
365.2288026648
 30
0.0
 10
917.7039610903
 20
364.9840165654
 30
0.0
  0
SPLINE
  5
4EA
100
AcDbEntity
  8
KONSTRUKTIONSELEMENTE
100
AcDbSpline
 62
7
  6
CONTINUOUS
 70
0
 71
3
 72
13
 73
9
 74
0
 42
0.0000001
 43
0.0000001
 44
0.0000000001
 40
0.0
 40
0.0
 40
0.0
 40
0.0
 40
0.2622429925
 40
0.5139423583
 40
0.6369453389
 40
0.7586282612
 40
0.8794111013
 40
1.0
 40
1.0
 40
1.0
 40
1.0
 10
911.3033855347
 20
364.9866972808
 30
0.0
 10
910.3542914002
 20
365.2320881665
 30
0.0
 10
908.5420072878
 20
365.9380544606
 30
0.0
 10
906.6150872102
 20
367.4032587648
 30
0.0
 10
905.4552216695
 20
368.8625641318
 30
0.0
 10
904.8060620012
 20
370.0738343382
 30
0.0
 10
904.4007155482
 20
371.3776736468
 30
0.0
 10
904.3088223487
 20
372.2825944393
 30
0.0
 10
904.3088223487
 20
372.7333740962
 30
0.0
  0
SPLINE
  5
4EB
100
AcDbEntity
  8
KONSTRUKTIONSELEMENTE
100
AcDbSpline
 62
7
  6
CONTINUOUS
 70
0
 71
3
 72
10
 73
6
 74
0
 42
0.0000001
 43
0.0000001
 44
0.0000000001
 40
0.0
 40
0.0
 40
0.0
 40
0.0
 40
0.2488347756
 40
0.5438407514
 40
1.0
 40
1.0
 40
1.0
 40
1.0
 10
918.3088223487
 20
372.7333740962
 30
0.0
 10
918.3088223487
 20
372.6483298349
 30
0.0
 10
918.2349336217
 20
372.4675654537
 30
0.0
 10
918.0325273776
 20
372.1936853279
 30
0.0
 10
917.8395812626
 20
372.019708462
 30
0.0
 10
917.7163815829
 20
371.9241724419
 30
0.0
  0
SPLINE
  5
4EC
100
AcDbEntity
  8
KONSTRUKTIONSELEMENTE
100
AcDbSpline
 62
7
  6
CONTINUOUS
 70
0
 71
3
 72
10
 73
6
 74
0
 42
0.0000001
 43
0.0000001
 44
0.0000000001
 40
0.0
 40
0.0
 40
0.0
 40
0.0
 40
0.4561635586
 40
0.7511952336
 40
1.0
 40
1.0
 40
1.0
 40
1.0
 10
911.3014589291
 20
371.9240077652
 30
0.0
 10
911.1782150663
 20
372.0195516944
 30
0.0
 10
910.9852162049
 20
372.1935838956
 30
0.0
 10
910.7827464744
 20
372.4675163264
 30
0.0
 10
910.7088223487
 20
372.6483192065
 30
0.0
 10
910.7088223487
 20
372.7333740962
 30
0.0
  0
SPLINE
  5
4ED
100
AcDbEntity
  8
KONSTRUKTIONSELEMENTE
100
AcDbSpline
 62
7
  6
CONTINUOUS
 70
0
 71
3
 72
10
 73
6
 74
0
 42
0.0000001
 43
0.0000001
 44
0.0000000001
 40
0.0
 40
0.0
 40
0.0
 40
0.0
 40
0.2488347756
 40
0.5438407514
 40
1.0
 40
1.0
 40
1.0
 40
1.0
 10
910.7088223487
 20
354.6314404979
 30
0.0
 10
910.7088223487
 20
354.7164847592
 30
0.0
 10
910.7827110758
 20
354.8972491404
 30
0.0
 10
910.9851173199
 20
355.1711292662
 30
0.0
 10
911.1780634349
 20
355.3451061321
 30
0.0
 10
911.3012631146
 20
355.4406421522
 30
0.0
  0
SPLINE
  5
4EE
100
AcDbEntity
  8
KONSTRUKTIONSELEMENTE
100
AcDbSpline
 62
7
  6
CONTINUOUS
 70
0
 71
3
 72
10
 73
6
 74
0
 42
0.0000001
 43
0.0000001
 44
0.0000000001
 40
0.0
 40
0.0
 40
0.0
 40
0.0
 40
0.4561635586
 40
0.7511952336
 40
1.0
 40
1.0
 40
1.0
 40
1.0
 10
917.7161857684
 20
355.4408068289
 30
0.0
 10
917.8394296312
 20
355.3452628997
 30
0.0
 10
918.0324284926
 20
355.1712306984
 30
0.0
 10
918.2348982231
 20
354.8972982677
 30
0.0
 10
918.3088223487
 20
354.7164953876
 30
0.0
 10
918.3088223487
 20
354.6314404979
 30
0.0
  0
SPLINE
  5
4EF
100
AcDbEntity
  8
KONSTRUKTIONSELEMENTE
100
AcDbSpline
 62
7
  6
CONTINUOUS
 70
0
 71
3
 72
13
 73
9
 74
0
 42
0.0000001
 43
0.0000001
 44
0.0000000001
 40
0.0
 40
0.0
 40
0.0
 40
0.0
 40
0.1205877878
 40
0.2413419854
 40
0.363040046
 40
0.4860469081
 40
0.7377636768
 40
1.0
 40
1.0
 40
1.0
 40
1.0
 10
904.3088223487
 20
354.6314404979
 30
0.0
 10
904.3088223487
 20
355.0822738727
 30
0.0
 10
904.4006479281
 20
355.9872167127
 30
0.0
 10
904.8062265927
 20
357.2911068436
 30
0.0
 10
905.4553697313
 20
358.5025375476
 30
0.0
 10
906.6155728602
 20
359.9620740388
 30
0.0
 10
908.5429427135
 20
361.4272892595
 30
0.0
 10
910.3555583212
 20
362.1332132274
 30
0.0
 10
911.3047831761
 20
362.3785016433
 30
0.0
  0
SPLINE
  5
4F0
100
AcDbEntity
  8
KONSTRUKTIONSELEMENTE
100
AcDbSpline
 62
7
  6
CONTINUOUS
 70
0
 71
3
 72
13
 73
9
 74
0
 42
0.0000001
 43
0.0000001
 44
0.0000000001
 40
0.0
 40
0.0
 40
0.0
 40
0.0
 40
0.2622429925
 40
0.5139423583
 40
0.6369453389
 40
0.7586282612
 40
0.8794111013
 40
1.0
 40
1.0
 40
1.0
 40
1.0
 10
917.7142591628
 20
362.3781173133
 30
0.0
 10
918.6633532973
 20
362.1327264276
 30
0.0
 10
920.4756374097
 20
361.4267601335
 30
0.0
 10
922.4025574873
 20
359.9615558293
 30
0.0
 10
923.562423028
 20
358.5022504623
 30
0.0
 10
924.2115826963
 20
357.2909802558
 30
0.0
 10
924.6169291493
 20
355.9871409473
 30
0.0
 10
924.7088223487
 20
355.0822201548
 30
0.0
 10
924.7088223487
 20
354.6314404979
 30
0.0
  0
SPLINE
  5
4F1
100
AcDbEntity
  8
KONSTRUKTIONSELEMENTE
100
AcDbSpline
 62
7
  6
CONTINUOUS
 70
0
 71
3
 72
13
 73
9
 74
0
 42
0.0000001
 43
0.0000001
 44
0.0000000001
 40
0.0
 40
0.0
 40
0.0
 40
0.0
 40
0.1208023438
 40
0.2417405165
 40
0.3635818662
 40
0.4866533049
 40
0.7381983824
 40
1.0
 40
1.0
 40
1.0
 40
1.0
 10
924.7088223487
 20
347.2775299735
 30
0.0
 10
924.7088223487
 20
346.8382052415
 30
0.0
 10
924.6216672501
 20
345.9566064677
 30
0.0
 10
924.2364066
 20
344.6837438391
 30
0.0
 10
923.6185958218
 20
343.4968885105
 30
0.0
 10
922.5125631056
 20
342.059749898
 30
0.0
 10
920.6689166241
 20
340.5993907082
 30
0.0
 10
918.9249502375
 20
339.8725922883
 30
0.0
 10
918.009457186
 20
339.6111212519
 30
0.0
  0
SPLINE
  5
4F2
100
AcDbEntity
  8
KONSTRUKTIONSELEMENTE
100
AcDbSpline
 62
7
  6
CONTINUOUS
 70
0
 71
3
 72
13
 73
9
 74
0
 42
0.0000001
 43
0.0000001
 44
0.0000000001
 40
0.0
 40
0.0
 40
0.0
 40
0.0
 40
0.2618007603
 40
0.5133270374
 40
0.6363939503
 40
0.7582240297
 40
0.8791948111
 40
1.0
 40
1.0
 40
1.0
 40
1.0
 10
911.003386567
 20
339.6125138026
 30
0.0
 10
910.0884121035
 20
339.8742100791
 30
0.0
 10
908.3455823118
 20
340.6013217297
 30
0.0
 10
906.5033835297
 20
342.0615917007
 30
0.0
 10
905.3982435082
 20
343.4981967643
 30
0.0
 10
904.7808061427
 20
344.6846333138
 30
0.0
 10
904.3959889257
 20
345.9570853027
 30
0.0
 10
904.3088223487
 20
346.8383949777
 30
0.0
 10
904.3088223487
 20
347.2775299735
 30
0.0
  0
SPLINE
  5
4F3
100
AcDbEntity
  8
KONSTRUKTIONSELEMENTE
100
AcDbSpline
 62
7
  6
CONTINUOUS
 70
0
 71
3
 72
9
 73
5
 74
0
 42
0.0000001
 43
0.0000001
 44
0.0000000001
 40
0.0
 40
0.0
 40
0.0
 40
0.0
 40
0.2752644152
 40
1.0
 40
1.0
 40
1.0
 40
1.0
 10
918.3088223487
 20
347.2775299735
 30
0.0
 10
918.3088223487
 20
347.2206321107
 30
0.0
 10
918.2484941836
 20
347.0168416271
 30
0.0
 10
918.1188351197
 20
346.8498381994
 30
0.0
 10
918.016734972
 20
346.7402160713
 30
0.0
  0
SPLINE
  5
4F4
100
AcDbEntity
  8
KONSTRUKTIONSELEMENTE
100
AcDbSpline
 62
7
  6
CONTINUOUS
 70
0
 71
3
 72
9
 73
5
 74
0
 42
0.0000001
 43
0.0000001
 44
0.0000000001
 40
0.0
 40
0.0
 40
0.0
 40
0.0
 40
0.7247302759
 40
1.0
 40
1.0
 40
1.0
 40
1.0
 10
911.0008823111
 20
346.7402459743
 30
0.0
 10
910.8988000296
 20
346.8498699371
 30
0.0
 10
910.7691431973
 20
347.0168557777
 30
0.0
 10
910.7088223487
 20
347.2206347114
 30
0.0
 10
910.7088223487
 20
347.2775299735
 30
0.0
  0
SPLINE
  5
4F5
100
AcDbEntity
  8
KONSTRUKTIONSELEMENTE
100
AcDbSpline
 62
7
  6
CONTINUOUS
 70
0
 71
3
 72
14
 73
10
 74
0
 42
0.0000001
 43
0.0000001
 44
0.0000000001
 40
0.0
 40
0.0
 40
0.0
 40
0.0
 40
0.0963199674
 40
0.1978463473
 40
0.308296781
 40
0.4292866879
 40
0.5606993066
 40
0.701215345
 40
1.0
 40
1.0
 40
1.0
 40
1.0
 10
949.5088223487
 20
422.5136914918
 30
0.0
 10
949.5088223487
 20
421.1396266084
 30
0.0
 10
949.1249383037
 20
418.3043446361
 30
0.0
 10
947.4200900931
 20
414.2040535461
 30
0.0
 10
944.6126033009
 20
410.3253380972
 30
0.0
 10
940.7707137678
 20
406.8108480601
 30
0.0
 10
936.0103801544
 20
403.8006524472
 30
0.0
 10
928.5136570729
 20
400.5660852122
 30
0.0
 10
922.2628640867
 20
399.349253891
 30
0.0
 10
918.0105659521
 20
399.0566860099
 30
0.0
  0
SPLINE
  5
4F6
100
AcDbEntity
  8
KONSTRUKTIONSELEMENTE
100
AcDbSpline
 62
7
  6
CONTINUOUS
 70
0
 71
3
 72
14
 73
10
 74
0
 42
0.0000001
 43
0.0000001
 44
0.0000000001
 40
0.0
 40
0.0
 40
0.0
 40
0.0
 40
0.2987838295
 40
0.4393002433
 40
0.5707133431
 40
0.6917038315
 40
0.8021544458
 40
0.9036804848
 40
1.0
 40
1.0
 40
1.0
 40
1.0
 10
911.007256668
 20
399.0566771621
 30
0.0
 10
906.7549510759
 20
399.3492210618
 30
0.0
 10
900.5041392114
 20
400.5660535365
 30
0.0
 10
893.0073642934
 20
403.8005881912
 30
0.0
 10
888.2469941739
 20
406.8108079863
 30
0.0
 10
884.4050587886
 20
410.3253068094
 30
0.0
 10
881.597562496
 20
414.2040478808
 30
0.0
 10
879.8927027427
 20
418.3043441054
 30
0.0
 10
879.5088223487
 20
421.1396273961
 30
0.0
 10
879.5088223487
 20
422.5136914918
 30
0.0
  0
SPLINE
  5
4F7
100
AcDbEntity
  8
KONSTRUKTIONSELEMENTE
100
AcDbSpline
 62
7
  6
CONTINUOUS
 70
0
 71
3
 72
11
 73
7
 74
0
 42
0.0000001
 43
0.0000001
 44
0.0000000001
 40
0.0
 40
0.0
 40
0.0
 40
0.0
 40
0.2227768247
 40
0.4586029478
 40
0.7164986515
 40
1.0
 40
1.0
 40
1.0
 40
1.0
 10
879.5088223487
 20
422.5136914918
 30
0.0
 10
879.5088223487
 20
423.9501152602
 30
0.0
 10
879.9301160499
 20
426.9216086299
 30
0.0
 10
881.7968897464
 20
431.2004422802
 30
0.0
 10
884.8604642634
 20
435.2183314134
 30
0.0
 10
887.5251784485
 20
437.5125613429
 30
0.0
 10
889.0080976454
 20
438.5813943622
 30
0.0
  0
SPLINE
  5
4F8
100
AcDbEntity
  8
KONSTRUKTIONSELEMENTE
100
AcDbSpline
 62
7
  6
CONTINUOUS
 70
0
 71
3
 72
11
 73
7
 74
0
 42
0.0000001
 43
0.0000001
 44
0.0000000001
 40
0.0
 40
0.0
 40
0.0
 40
0.0
 40
0.2834952401
 40
0.5413886526
 40
0.7772169757
 40
1.0
 40
1.0
 40
1.0
 40
1.0
 10
940.0131121716
 20
438.5788232339
 30
0.0
 10
941.4955066203
 20
437.5100361995
 30
0.0
 10
944.1592816565
 20
435.216026343
 30
0.0
 10
947.2216757095
 20
431.1987342183
 30
0.0
 10
949.0877075413
 20
426.9207029071
 30
0.0
 10
949.5088223487
 20
423.9498305399
 30
0.0
 10
949.5088223487
 20
422.5136914918
 30
0.0
  0
SPLINE
  5
4F9
100
AcDbEntity
  8
KONSTRUKTIONSELEMENTE
100
AcDbSpline
 62
7
  6
CONTINUOUS
 70
0
 71
3
 72
13
 73
9
 74
0
 42
0.0000001
 43
0.0000001
 44
0.0000000001
 40
0.0
 40
0.0
 40
0.0
 40
0.0
 40
0.1167709681
 40
0.2344590387
 40
0.3539444649
 40
0.4760307469
 40
0.7300042786
 40
1.0
 40
1.0
 40
1.0
 40
1.0
 10
871.5088223487
 20
422.5136914918
 30
0.0
 10
871.5088223487
 20
423.7751603268
 30
0.0
 10
871.7142235487
 20
426.3126550185
 30
0.0
 10
872.6286667507
 20
430.0407423569
 30
0.0
 10
874.1264758438
 20
433.6374373545
 30
0.0
 10
876.8888575168
 20
438.2421314111
 30
0.0
 10
881.6861995326
 20
443.4220949684
 30
0.0
 10
886.4286778259
 20
446.6003084483
 30
0.0
 10
888.9972153862
 20
447.9823427242
 30
0.0
  0
SPLINE
  5
4FA
100
AcDbEntity
  8
KONSTRUKTIONSELEMENTE
100
AcDbSpline
 62
7
  6
CONTINUOUS
 70
0
 71
3
 72
13
 73
9
 74
0
 42
0.0000001
 43
0.0000001
 44
0.0000000001
 40
0.0
 40
0.0
 40
0.0
 40
0.0
 40
0.2699956703
 40
0.5239686517
 40
0.6460546881
 40
0.7655399983
 40
0.8832283121
 40
1.0
 40
1.0
 40
1.0
 40
1.0
 10
940.019789453
 20
447.9826903612
 30
0.0
 10
942.5884066044
 20
446.6006671283
 30
0.0
 10
947.3310351216
 20
443.4224585579
 30
0.0
 10
952.1285520773
 20
438.2424517885
 30
0.0
 10
954.8910430705
 20
433.6376939153
 30
0.0
 10
956.3889201647
 20
430.0409334575
 30
0.0
 10
957.3034095215
 20
426.3127586305
 30
0.0
 10
957.5088223487
 20
423.7751963923
 30
0.0
 10
957.5088223487
 20
422.5136914918
 30
0.0
  0
SPLINE
  5
4FB
100
AcDbEntity
  8
KONSTRUKTIONSELEMENTE
100
AcDbSpline
 62
7
  6
CONTINUOUS
 70
0
 71
3
 72
14
 73
10
 74
0
 42
0.0000001
 43
0.0000001
 44
0.0000000001
 40
0.0
 40
0.0
 40
0.0
 40
0.0
 40
0.1097711693
 40
0.2217446557
 40
0.33786671
 40
0.4595304416
 40
0.5873221171
 40
0.720940402
 40
1.0
 40
1.0
 40
1.0
 40
1.0
 10
957.5088223487
 20
422.5136914918
 30
0.0
 10
957.5088223487
 20
420.4889871858
 30
0.0
 10
956.9703604882
 20
416.3804352435
 30
0.0
 10
954.6169582554
 20
410.546769114
 30
0.0
 10
950.8662540519
 20
405.233904896
 30
0.0
 10
945.905650883
 20
400.6062157065
 30
0.0
 10
939.9266568319
 20
396.7745319496
 30
0.0
 10
930.7538018497
 20
392.7958151926
 30
0.0
 10
923.148518063
 20
391.3454844113
 30
0.0
 10
918.0103796147
 20
391.0403483359
 30
0.0
  0
SPLINE
  5
4FC
100
AcDbEntity
  8
KONSTRUKTIONSELEMENTE
100
AcDbSpline
 62
7
  6
CONTINUOUS
 70
0
 71
3
 72
14
 73
10
 74
0
 42
0.0000001
 43
0.0000001
 44
0.0000000001
 40
0.0
 40
0.0
 40
0.0
 40
0.0
 40
0.2790606332
 40
0.4126788533
 40
0.540470131
 40
0.662133315
 40
0.7782549324
 40
0.8902282314
 40
1.0
 40
1.0
 40
1.0
 40
1.0
 10
911.0076064255
 20
391.0403313182
 30
0.0
 10
905.8694164393
 20
391.345454416
 30
0.0
 10
898.2640607657
 20
392.7957499133
 30
0.0
 10
889.0911194189
 20
396.7744536275
 30
0.0
 10
883.1120983296
 20
400.6061402854
 30
0.0
 10
878.1514613331
 20
405.2338165986
 30
0.0
 10
874.4007339902
 20
410.5466866339
 30
0.0
 10
872.0472911548
 20
416.3803775361
 30
0.0
 10
871.5088223487
 20
420.488963707
 30
0.0
 10
871.5088223487
 20
422.5136914918
 30
0.0
  0
SPLINE
  5
4FD
100
AcDbEntity
  8
BEZUGSACHSEN
100
AcDbSpline
 62
7
  6
CONTINUOUS
 70
0
 71
3
 72
9
 73
5
 74
0
 42
0.0000001
 43
0.0000001
 44
0.0000000001
 40
0.0
 40
0.0
 40
0.0
 40
0.0
 40
0.2374595829
 40
1.0
 40
1.0
 40
1.0
 40
1.0
 10
909.6124936751
 20
327.4115056747
 30
0.0
 10
909.698811931
 20
327.5308079945
 30
0.0
 10
910.0927763233
 20
328.0111070027
 30
0.0
 10
910.5943511572
 20
328.3975580786
 30
0.0
 10
911.0025099406
 20
328.6363307605
 30
0.0
  0
SPLINE
  5
4FE
100
AcDbEntity
  8
BEZUGSACHSEN
100
AcDbSpline
 62
7
  6
CONTINUOUS
 70
0
 71
3
 72
9
 73
5
 74
0
 42
0.0000001
 43
0.0000001
 44
0.0000000001
 40
0.0
 40
0.0
 40
0.0
 40
0.0
 40
0.263957614
 40
1.0
 40
1.0
 40
1.0
 40
1.0
 10
918.0151347569
 20
328.6363307605
 30
0.0
 10
918.156381974
 20
328.5537012099
 30
0.0
 10
918.6770617458
 20
328.2176097216
 30
0.0
 10
919.1376686249
 20
327.7811988551
 30
0.0
 10
919.4051510224
 20
327.4115056747
 30
0.0
  0
SPLINE
  5
4FF
100
AcDbEntity
  8
KONSTRUKTIONSELEMENTE
100
AcDbSpline
 62
7
  6
CONTINUOUS
 70
0
 71
3
 72
11
 73
7
 74
0
 42
0.0000001
 43
0.0000001
 44
0.0000000001
 40
0.0
 40
0.0
 40
0.0
 40
0.0
 40
0.2773556544
 40
0.5416273378
 40
0.7832845041
 40
1.0
 40
1.0
 40
1.0
 40
1.0
 10
956.4955883103
 20
228.0593266655
 30
0.0
 10
957.5321347233
 20
228.0593266655
 30
0.0
 10
959.5639703653
 20
228.280635974
 30
0.0
 10
962.3526268935
 20
229.2595280365
 30
0.0
 10
964.6128731099
 20
230.8012506205
 30
0.0
 10
965.6679838839
 20
232.209372482
 30
0.0
 10
966.0061534732
 20
232.9453143551
 30
0.0
  0
SPLINE
  5
500
100
AcDbEntity
  8
KONSTRUKTIONSELEMENTE
100
AcDbSpline
 62
7
  6
CONTINUOUS
 70
0
 71
3
 72
8
 73
4
 74
0
 42
0.0000001
 43
0.0000001
 44
0.0000000001
 40
0.0
 40
0.0
 40
0.0
 40
0.0
 40
1.0
 40
1.0
 40
1.0
 40
1.0
 10
966.468060371
 20
233.9505396568
 30
0.0
 10
966.4992313404
 20
234.0183755071
 30
0.0
 10
966.5170097952
 20
234.0944358952
 30
0.0
 10
966.5170037284
 20
234.1690906465
 30
0.0
  0
SPLINE
  5
501
100
AcDbEntity
  8
KONSTRUKTIONSELEMENTE
100
AcDbSpline
 62
7
  6
CONTINUOUS
 70
0
 71
3
 72
9
 73
5
 74
0
 42
0.0000001
 43
0.0000001
 44
0.0000000001
 40
0.0
 40
0.0
 40
0.0
 40
0.0
 40
0.5421687125
 40
1.0
 40
1.0
 40
1.0
 40
1.0
 10
997.9637882641
 20
304.7813914252
 30
0.0
 10
998.2120494789
 20
304.7243526861
 30
0.0
 10
998.7029968022
 20
304.7379274245
 30
0.0
 10
999.134048014
 20
305.0399246473
 30
0.0
 10
999.2238617747
 20
305.235381925
 30
0.0
  0
SPLINE
  5
502
100
AcDbEntity
  8
KONSTRUKTIONSELEMENTE
100
AcDbSpline
 62
7
  6
CONTINUOUS
 70
0
 71
3
 72
9
 73
5
 74
0
 42
0.0000001
 43
0.0000001
 44
0.0000000001
 40
0.0
 40
0.0
 40
0.0
 40
0.0
 40
0.2557501717
 40
1.0
 40
1.0
 40
1.0
 40
1.0
 10
999.8418957635
 20
306.5803789489
 30
0.0
 10
999.921934271
 20
306.7545628228
 30
0.0
 10
1000.2009662055
 20
307.4505801554
 30
0.0
 10
1000.3313054054
 20
308.207239336
 30
0.0
 10
1000.3313223498
 20
308.7650784152
 30
0.0
  0
SPLINE
  5
503
100
AcDbEntity
  8
KONSTRUKTIONSELEMENTE
100
AcDbSpline
 62
7
  6
CONTINUOUS
 70
0
 71
3
 72
11
 73
7
 74
0
 42
0.0000001
 43
0.0000001
 44
0.0000000001
 40
0.0
 40
0.0
 40
0.0
 40
0.0
 40
0.2165107186
 40
0.451460212
 40
0.7134365312
 40
1.0
 40
1.0
 40
1.0
 40
1.0
 10
859.1299575121
 20
294.8976896323
 30
0.0
 10
859.1298764374
 20
295.1216349834
 30
0.0
 10
859.2405090501
 20
295.5934634053
 30
0.0
 10
859.6944663297
 20
296.1956944257
 30
0.0
 10
860.3723100045
 20
296.6597791415
 30
0.0
 10
860.9140383222
 20
296.8494257136
 30
0.0
 10
861.2029155912
 20
296.9157961098
 30
0.0
  0
SPLINE
  5
504
100
AcDbEntity
  8
BEZUGSACHSEN
100
AcDbSpline
 62
7
  6
CONTINUOUS
 70
0
 71
3
 72
17
 73
13
 74
0
 42
0.0000001
 43
0.0000001
 44
0.0000000001
 40
0.0
 40
0.0
 40
0.0
 40
0.0
 40
0.0517809237
 40
0.1054811646
 40
0.2228479209
 40
0.3562855052
 40
0.5
 40
0.6437144948
 40
0.7771520791
 40
0.8945188354
 40
0.9482190763
 40
1.0
 40
1.0
 40
1.0
 40
1.0
 10
920.0088223487
 20
329.1755963751
 30
0.0
 10
920.0088223487
 20
328.9203260962
 30
0.0
 10
919.9344990173
 20
328.3977021443
 30
0.0
 10
919.4903736659
 20
327.3804113063
 30
0.0
 10
918.3928728021
 20
326.2822220655
 30
0.0
 10
916.5910554924
 20
325.4729453205
 30
0.0
 10
914.5088223487
 20
325.1898343922
 30
0.0
 10
912.4265892051
 20
325.4729453205
 30
0.0
 10
910.6247718954
 20
326.2822220655
 30
0.0
 10
909.5272710316
 20
327.3804113063
 30
0.0
 10
909.0831456802
 20
328.3977021443
 30
0.0
 10
909.0088223487
 20
328.9203260962
 30
0.0
 10
909.0088223487
 20
329.1755963751
 30
0.0
  0
SPLINE
  5
505
100
AcDbEntity
  8
KONSTRUKTIONSELEMENTE
100
AcDbSpline
 62
7
  6
CONTINUOUS
 70
0
 71
3
 72
11
 73
7
 74
0
 42
0.0000001
 43
0.0000001
 44
0.0000000001
 40
0.0
 40
0.0
 40
0.0
 40
0.0
 40
0.2865634688
 40
0.548539788
 40
0.7834892814
 40
1.0
 40
1.0
 40
1.0
 40
1.0
 10
872.4250769898
 20
297.2272429715
 30
0.0
 10
872.7139542588
 20
297.2936133677
 30
0.0
 10
873.2556825765
 20
297.4832599398
 30
0.0
 10
873.9335262513
 20
297.9473446556
 30
0.0
 10
874.3874835308
 20
298.549575676
 30
0.0
 10
874.4981161435
 20
299.021404098
 30
0.0
 10
874.4980350689
 20
299.245349449
 30
0.0
  0
SPLINE
  5
506
100
AcDbEntity
  8
KONSTRUKTIONSELEMENTE
100
AcDbSpline
 62
7
  6
CONTINUOUS
 70
0
 71
3
 72
11
 73
7
 74
0
 42
0.0000001
 43
0.0000001
 44
0.0000000001
 40
0.0
 40
0.0
 40
0.0
 40
0.0
 40
0.2094829334
 40
0.4446557434
 40
0.7120095299
 40
1.0
 40
1.0
 40
1.0
 40
1.0
 10
901.4088223487
 20
202.6034825428
 30
0.0
 10
901.4088223487
 20
202.322360368
 30
0.0
 10
901.5913972074
 20
201.7185730791
 30
0.0
 10
902.2904416499
 20
201.0271705585
 30
0.0
 10
903.2723907703
 20
200.5832085347
 30
0.0
 10
904.0223445294
 20
200.4821621992
 30
0.0
 10
904.4088223487
 20
200.4821621992
 30
0.0
  0
SPLINE
  5
507
100
AcDbEntity
  8
KONSTRUKTIONSELEMENTE
100
AcDbSpline
 62
7
  6
CONTINUOUS
 70
0
 71
3
 72
10
 73
6
 74
0
 42
0.0000001
 43
0.0000001
 44
0.0000000001
 40
0.0
 40
0.0
 40
0.0
 40
0.0
 40
0.2176045202
 40
0.4537200981
 40
1.0
 40
1.0
 40
1.0
 40
1.0
 10
966.5170037284
 20
237.7046245524
 30
0.0
 10
966.5169976631
 20
237.77926049
 30
0.0
 10
966.4800025513
 20
237.936558508
 30
0.0
 10
966.269450711
 20
238.2159194335
 30
0.0
 10
966.0086311075
 20
238.3351248467
 30
0.0
 10
965.8260208491
 20
238.3770800869
 30
0.0
  0
SPLINE
  5
508
100
AcDbEntity
  8
KONSTRUKTIONSELEMENTE
100
AcDbSpline
 62
7
  6
CONTINUOUS
 70
0
 71
3
 72
11
 73
7
 74
0
 42
0.0000001
 43
0.0000001
 44
0.0000000001
 40
0.0
 40
0.0
 40
0.0
 40
0.0
 40
0.2165288812
 40
0.4514682898
 40
0.7134745045
 40
1.0
 40
1.0
 40
1.0
 40
1.0
 10
1000.3313223498
 20
312.3006123211
 30
0.0
 10
1000.3313450227
 20
313.0470478147
 30
0.0
 10
999.9623809013
 20
314.6195151024
 30
0.0
 10
998.4489234055
 20
316.6264725527
 30
0.0
 10
996.1895790682
 20
318.1727242056
 30
0.0
 10
994.3841531457
 20
318.8048058501
 30
0.0
 10
993.4215005443
 20
319.0259780967
 30
0.0
  0
SPLINE
  5
509
100
AcDbEntity
  8
KONSTRUKTIONSELEMENTE
100
AcDbSpline
 62
7
  6
CONTINUOUS
 70
0
 71
3
 72
11
 73
7
 74
0
 42
0.0000001
 43
0.0000001
 44
0.0000000001
 40
0.0
 40
0.0
 40
0.0
 40
0.0
 40
0.286535685
 40
0.5485338619
 40
0.7834775224
 40
1.0
 40
1.0
 40
1.0
 40
1.0
 10
955.3643991698
 20
240.7806682214
 30
0.0
 10
954.4018264336
 20
241.0018221188
 30
0.0
 10
952.5966047089
 20
241.6338099371
 30
0.0
 10
950.3374501684
 20
243.179789552
 30
0.0
 10
948.8240083374
 20
245.1862890688
 30
0.0
 10
948.4546985515
 20
246.7584582857
 30
0.0
 10
948.454574195
 20
247.5047832279
 30
0.0
  0
SPLINE
  5
50A
100
AcDbEntity
  8
KONSTRUKTIONSELEMENTE
100
AcDbSpline
 62
7
  6
CONTINUOUS
 70
0
 71
3
 72
12
 73
8
 74
0
 42
0.0000001
 43
0.0000001
 44
0.0000000001
 40
0.0
 40
0.0
 40
0.0
 40
0.0
 40
0.2717314124
 40
0.539336237
 40
0.6659891651
 40
0.7854040085
 40
1.0
 40
1.0
 40
1.0
 40
1.0
 10
987.5021665848
 20
307.1849795597
 30
0.0
 10
986.238974488
 20
307.4752016332
 30
0.0
 10
983.6373288807
 20
307.685794165
 30
0.0
 10
980.4732876227
 20
307.0792555816
 30
0.0
 10
978.2264610131
 20
306.0726344226
 30
0.0
 10
976.396866664
 20
304.8487887503
 30
0.0
 10
975.3288114324
 20
303.5751605722
 30
0.0
 10
974.9014314781
 20
302.6450745623
 30
0.0
  0
SPLINE
  5
50B
100
AcDbEntity
  8
KONSTRUKTIONSELEMENTE
100
AcDbSpline
 62
7
  6
CONTINUOUS
 70
0
 71
3
 72
11
 73
7
 74
0
 42
0.0000001
 43
0.0000001
 44
0.0000000001
 40
0.0
 40
0.0
 40
0.0
 40
0.0
 40
0.2778037877
 40
0.5405607997
 40
0.781569943
 40
1.0
 40
1.0
 40
1.0
 40
1.0
 10
894.4067792251
 20
228.1145595933
 30
0.0
 10
893.4869969127
 20
228.1963302502
 30
0.0
 10
891.7068840788
 20
228.5324743771
 30
0.0
 10
889.2942583833
 20
229.554032259
 30
0.0
 10
887.3555561078
 20
231.0157392833
 30
0.0
 10
886.4468129988
 20
232.2855777114
 30
0.0
 10
886.1436601575
 20
232.9453143551
 30
0.0
  0
SPLINE
  5
50C
100
AcDbEntity
  8
KONSTRUKTIONSELEMENTE
100
AcDbSpline
 62
7
  6
CONTINUOUS
 70
0
 71
3
 72
11
 73
7
 74
0
 42
0.0000001
 43
0.0000001
 44
0.0000000001
 40
0.0
 40
0.0
 40
0.0
 40
0.0
 40
0.2865336694
 40
0.5485304647
 40
0.7834780293
 40
1.0
 40
1.0
 40
1.0
 40
1.0
 10
856.5193875117
 20
323.8331543657
 30
0.0
 10
855.5568102695
 20
323.611999433
 30
0.0
 10
853.7515787465
 20
322.9800071243
 30
0.0
 10
851.4923989917
 20
321.4340031954
 30
0.0
 10
849.9789537896
 20
319.4274553562
 30
0.0
 10
849.6096681566
 20
317.8552465341
 30
0.0
 10
849.6095629067
 20
317.1089145927
 30
0.0
  0
SPLINE
  5
50D
100
AcDbEntity
  8
KONSTRUKTIONSELEMENTE
100
AcDbSpline
 62
7
  6
CONTINUOUS
 70
0
 71
3
 72
9
 73
5
 74
0
 42
0.0000001
 43
0.0000001
 44
0.0000000001
 40
0.0
 40
0.0
 40
0.0
 40
0.0
 40
0.2556232295
 40
1.0
 40
1.0
 40
1.0
 40
1.0
 10
850.0989922925
 20
311.3875552178
 30
0.0
 10
850.0189543583
 20
311.5617378441
 30
0.0
 10
849.7399006777
 20
312.2581404202
 30
0.0
 10
849.6094841867
 20
313.0151733945
 30
0.0
 10
849.6095629067
 20
313.5733806868
 30
0.0
  0
SPLINE
  5
50E
100
AcDbEntity
  8
KONSTRUKTIONSELEMENTE
100
AcDbSpline
 62
7
  6
CONTINUOUS
 70
0
 71
3
 72
9
 73
5
 74
0
 42
0.0000001
 43
0.0000001
 44
0.0000000001
 40
0.0
 40
0.0
 40
0.0
 40
0.0
 40
0.2614877998
 40
1.0
 40
1.0
 40
1.0
 40
1.0
 10
852.1162697598
 20
307.390054194
 30
0.0
 10
852.0653915639
 20
307.4369882374
 30
0.0
 10
851.8786858528
 20
307.6245991087
 30
0.0
 10
851.7257035618
 20
307.8474233548
 30
0.0
 10
851.6440772644
 20
308.025062658
 30
0.0
  0
SPLINE
  5
50F
100
AcDbEntity
  8
KONSTRUKTIONSELEMENTE
100
AcDbSpline
 62
7
  6
CONTINUOUS
 70
0
 71
3
 72
11
 73
7
 74
0
 42
0.0000001
 43
0.0000001
 44
0.0000000001
 40
0.0
 40
0.0
 40
0.0
 40
0.0
 40
0.2865634688
 40
0.548539788
 40
0.7834892814
 40
1.0
 40
1.0
 40
1.0
 40
1.0
 10
871.1890090123
 20
299.2101302382
 30
0.0
 10
871.4778862813
 20
299.2765006344
 30
0.0
 10
872.019614599
 20
299.4661472065
 30
0.0
 10
872.6974582738
 20
299.9302319222
 30
0.0
 10
873.1514155533
 20
300.5324629427
 30
0.0
 10
873.262048166
 20
301.0042913646
 30
0.0
 10
873.2619670914
 20
301.2282367157
 30
0.0
  0
SPLINE
  5
510
100
AcDbEntity
  8
KONSTRUKTIONSELEMENTE
100
AcDbSpline
 62
7
  6
CONTINUOUS
 70
0
 71
3
 72
9
 73
5
 74
0
 42
0.0000001
 43
0.0000001
 44
0.0000000001
 40
0.0
 40
0.0
 40
0.0
 40
0.0
 40
0.255719081
 40
1.0
 40
1.0
 40
1.0
 40
1.0
 10
935.6088223487
 20
228.7664334467
 30
0.0
 10
935.2619383734
 20
228.7664334467
 30
0.0
 10
933.9066705016
 20
228.7041042672
 30
0.0
 10
932.5587045989
 20
228.3945145223
 30
0.0
 10
931.6233618289
 20
228.0144268387
 30
0.0
  0
SPLINE
  5
511
100
AcDbEntity
  8
KONSTRUKTIONSELEMENTE
100
AcDbSpline
 62
7
  6
CONTINUOUS
 70
0
 71
3
 72
11
 73
7
 74
0
 42
0.0000001
 43
0.0000001
 44
0.0000000001
 40
0.0
 40
0.0
 40
0.0
 40
0.0
 40
0.2809363762
 40
0.5390132064
 40
0.7759685789
 40
1.0
 40
1.0
 40
1.0
 40
1.0
 10
931.3526076162
 20
227.8993274569
 30
0.0
 10
930.8042211788
 20
227.6556814732
 30
0.0
 10
929.793796978
 20
227.0813783245
 30
0.0
 10
928.5755365673
 20
225.9301220167
 30
0.0
 10
927.7922769523
 20
224.5804035926
 30
0.0
 10
927.6088223487
 20
223.58810694
 30
0.0
 10
927.6088223487
 20
223.1095791972
 30
0.0
  0
SPLINE
  5
512
100
AcDbEntity
  8
KONSTRUKTIONSELEMENTE
100
AcDbSpline
 62
7
  6
CONTINUOUS
 70
0
 71
3
 72
11
 73
7
 74
0
 42
0.0000001
 43
0.0000001
 44
0.0000000001
 40
0.0
 40
0.0
 40
0.0
 40
0.0
 40
0.2879904701
 40
0.5553442566
 40
0.7905170666
 40
1.0
 40
1.0
 40
1.0
 40
1.0
 10
924.6088223487
 20
200.4821621992
 30
0.0
 10
924.9953001681
 20
200.4821621992
 30
0.0
 10
925.7452539272
 20
200.5832085347
 30
0.0
 10
926.7272030476
 20
201.0271705585
 30
0.0
 10
927.4262474901
 20
201.7185730791
 30
0.0
 10
927.6088223487
 20
202.322360368
 30
0.0
 10
927.6088223487
 20
202.6034825428
 30
0.0
  0
SPLINE
  5
513
100
AcDbEntity
  8
KONSTRUKTIONSELEMENTE
100
AcDbSpline
 62
7
  6
CONTINUOUS
 70
0
 71
3
 72
9
 73
5
 74
0
 42
0.0000001
 43
0.0000001
 44
0.0000000001
 40
0.0
 40
0.0
 40
0.0
 40
0.0
 40
0.2552169367
 40
1.0
 40
1.0
 40
1.0
 40
1.0
 10
894.9020848511
 20
228.7664334467
 30
0.0
 10
895.1226932421
 20
228.7367951118
 30
0.0
 10
895.9832348649
 20
228.5944445043
 30
0.0
 10
896.827384347
 20
228.3469054592
 30
0.0
 10
897.4282155422
 20
228.1000358235
 30
0.0
  0
SPLINE
  5
514
100
AcDbEntity
  8
KONSTRUKTIONSELEMENTE
100
AcDbSpline
 62
7
  6
CONTINUOUS
 70
0
 71
3
 72
9
 73
5
 74
0
 42
0.0000001
 43
0.0000001
 44
0.0000000001
 40
0.0
 40
0.0
 40
0.0
 40
0.0
 40
0.5300999907
 40
1.0
 40
1.0
 40
1.0
 40
1.0
 10
897.4282155422
 20
228.1000358235
 30
0.0
 10
898.1970944049
 20
227.7841187303
 30
0.0
 10
899.5810282289
 20
226.9922449195
 30
0.0
 10
900.6216047068
 20
225.7539244518
 30
0.0
 10
900.9511646435
 20
225.0948795999
 30
0.0
  0
SPLINE
  5
515
100
AcDbEntity
  8
KONSTRUKTIONSELEMENTE
100
AcDbSpline
 62
7
  6
CONTINUOUS
 70
0
 71
3
 72
9
 73
5
 74
0
 42
0.0000001
 43
0.0000001
 44
0.0000000001
 40
0.0
 40
0.0
 40
0.0
 40
0.0
 40
0.256710126
 40
1.0
 40
1.0
 40
1.0
 40
1.0
 10
900.9511646435
 20
225.0948795999
 30
0.0
 10
901.0258102685
 20
224.9456053422
 30
0.0
 10
901.2858645127
 20
224.3494080143
 30
0.0
 10
901.4088223487
 20
223.6922408655
 30
0.0
 10
901.4088223487
 20
223.2089984673
 30
0.0
  0
SPLINE
  5
516
100
AcDbEntity
  8
KONSTRUKTIONSELEMENTE
100
AcDbSpline
 62
7
  6
CONTINUOUS
 70
0
 71
3
 72
9
 73
5
 74
0
 42
0.0000001
 43
0.0000001
 44
0.0000000001
 40
0.0
 40
0.0
 40
0.0
 40
0.0
 40
0.2553805419
 40
1.0
 40
1.0
 40
1.0
 40
1.0
 10
859.2767970254
 20
292.1214561937
 30
0.0
 10
859.2528380242
 20
292.1735969917
 30
0.0
 10
859.1692832879
 20
292.3822797419
 30
0.0
 10
859.1300180831
 20
292.6090590948
 30
0.0
 10
859.1299575121
 20
292.7763692888
 30
0.0
  0
SPLINE
  5
517
100
AcDbEntity
  8
KONSTRUKTIONSELEMENTE
100
AcDbSpline
 62
7
  6
CONTINUOUS
 70
0
 71
3
 72
9
 73
5
 74
0
 42
0.0000001
 43
0.0000001
 44
0.0000000001
 40
0.0
 40
0.0
 40
0.0
 40
0.0
 40
0.7446194581
 40
1.0
 40
1.0
 40
1.0
 40
1.0
 10
873.2619670914
 20
301.2282367157
 30
0.0
 10
873.2619065203
 20
301.3955469096
 30
0.0
 10
873.2226413156
 20
301.6223262625
 30
0.0
 10
873.1390865793
 20
301.8310090128
 30
0.0
 10
873.1151275781
 20
301.8831498107
 30
0.0
  0
SPLINE
  5
518
100
AcDbEntity
  8
KONSTRUKTIONSELEMENTE
100
AcDbSpline
 62
7
  6
CONTINUOUS
 70
0
 71
3
 72
11
 73
7
 74
0
 42
0.0000001
 43
0.0000001
 44
0.0000000001
 40
0.0
 40
0.0
 40
0.0
 40
0.0
 40
0.2773556544
 40
0.5416273378
 40
0.7832845041
 40
1.0
 40
1.0
 40
1.0
 40
1.0
 10
956.4955883103
 20
231.5948605714
 30
0.0
 10
957.5321347233
 20
231.5948605714
 30
0.0
 10
959.5639703653
 20
231.8161698799
 30
0.0
 10
962.3526268935
 20
232.7950619424
 30
0.0
 10
964.6128731099
 20
234.3367845264
 30
0.0
 10
965.6679838839
 20
235.744906388
 30
0.0
 10
966.0061534732
 20
236.480848261
 30
0.0
  0
SPLINE
  5
519
100
AcDbEntity
  8
KONSTRUKTIONSELEMENTE
100
AcDbSpline
 62
7
  6
CONTINUOUS
 70
0
 71
3
 72
12
 73
8
 74
0
 42
0.0000001
 43
0.0000001
 44
0.0000000001
 40
0.0
 40
0.0
 40
0.0
 40
0.0
 40
0.2874378001
 40
0.5543027143
 40
0.7890463209
 40
0.896415877
 40
1.0
 40
1.0
 40
1.0
 40
1.0
 10
931.6088223487
 20
231.5948605714
 30
0.0
 10
930.5782621967
 20
231.5948605714
 30
0.0
 10
928.5784560324
 20
231.3238220152
 30
0.0
 10
925.9596124503
 20
230.1464588804
 30
0.0
 10
924.3630215207
 20
228.5491736927
 30
0.0
 10
923.7167622042
 20
227.0695791091
 30
0.0
 10
923.6088223487
 20
226.3093898681
 30
0.0
 10
923.6088223487
 20
225.9380063219
 30
0.0
  0
SPLINE
  5
51A
100
AcDbEntity
  8
KONSTRUKTIONSELEMENTE
100
AcDbSpline
 62
7
  6
CONTINUOUS
 70
0
 71
3
 72
12
 73
8
 74
0
 42
0.0000001
 43
0.0000001
 44
0.0000000001
 40
0.0
 40
0.0
 40
0.0
 40
0.0
 40
0.103584123
 40
0.2109536791
 40
0.4456972857
 40
0.7125621999
 40
1.0
 40
1.0
 40
1.0
 40
1.0
 10
905.4088223487
 20
225.9380063219
 30
0.0
 10
905.4088223487
 20
226.3093898681
 30
0.0
 10
905.3008824933
 20
227.0695791091
 30
0.0
 10
904.6546231768
 20
228.5491736927
 30
0.0
 10
903.0580322472
 20
230.1464588804
 30
0.0
 10
900.4391886651
 20
231.3238220152
 30
0.0
 10
898.4393825008
 20
231.5948605714
 30
0.0
 10
897.4088223487
 20
231.5948605714
 30
0.0
  0
SPLINE
  5
51B
100
AcDbEntity
  8
KONSTRUKTIONSELEMENTE
100
AcDbSpline
 62
7
  6
CONTINUOUS
 70
0
 71
3
 72
9
 73
5
 74
0
 42
0.0000001
 43
0.0000001
 44
0.0000000001
 40
0.0
 40
0.0
 40
0.0
 40
0.0
 40
0.247037646
 40
1.0
 40
1.0
 40
1.0
 40
1.0
 10
948.454574195
 20
247.5047832279
 30
0.0
 10
948.4545433219
 20
247.6900676163
 30
0.0
 10
948.4956443583
 20
248.4398633665
 30
0.0
 10
948.7082050301
 20
249.1775758504
 30
0.0
 10
948.9440039506
 20
249.6907334633
 30
0.0
  0
SPLINE
  5
51C
100
AcDbEntity
  8
KONSTRUKTIONSELEMENTE
100
AcDbSpline
 62
7
  6
CONTINUOUS
 70
0
 71
3
 72
11
 73
7
 74
0
 42
0.0000001
 43
0.0000001
 44
0.0000000001
 40
0.0
 40
0.0
 40
0.0
 40
0.0
 40
0.2094829334
 40
0.4446557434
 40
0.7120095299
 40
1.0
 40
1.0
 40
1.0
 40
1.0
 10
901.4088223487
 20
204.7248028863
 30
0.0
 10
901.4088223487
 20
204.4436807116
 30
0.0
 10
901.5913972074
 20
203.8398934226
 30
0.0
 10
902.2904416499
 20
203.148490902
 30
0.0
 10
903.2723907703
 20
202.7045288782
 30
0.0
 10
904.0223445294
 20
202.6034825428
 30
0.0
 10
904.4088223487
 20
202.6034825428
 30
0.0
  0
SPLINE
  5
51D
100
AcDbEntity
  8
KONSTRUKTIONSELEMENTE
100
AcDbSpline
 62
7
  6
CONTINUOUS
 70
0
 71
3
 72
9
 73
5
 74
0
 42
0.0000001
 43
0.0000001
 44
0.0000000001
 40
0.0
 40
0.0
 40
0.0
 40
0.0
 40
0.24703719
 40
1.0
 40
1.0
 40
1.0
 40
1.0
 10
849.6095629067
 20
317.1089145927
 30
0.0
 10
849.6095367789
 20
316.9236407214
 30
0.0
 10
849.6506516418
 20
316.1738871783
 30
0.0
 10
849.8632061793
 20
315.4362188647
 30
0.0
 10
850.0989922925
 20
314.9230891238
 30
0.0
  0
SPLINE
  5
51E
100
AcDbEntity
  8
KONSTRUKTIONSELEMENTE
100
AcDbSpline
 62
7
  6
CONTINUOUS
 70
0
 71
3
 72
12
 73
8
 74
0
 42
0.0000001
 43
0.0000001
 44
0.0000000001
 40
0.0
 40
0.0
 40
0.0
 40
0.0
 40
0.214597601
 40
0.3340131511
 40
0.4606650373
 40
0.7282666641
 40
1.0
 40
1.0
 40
1.0
 40
1.0
 10
974.9014314781
 20
306.1806084682
 30
0.0
 10
975.3288146335
 20
307.1107014445
 30
0.0
 10
976.3968799185
 20
308.3843374147
 30
0.0
 10
978.2264834958
 20
309.6081801437
 30
0.0
 10
980.4732965383
 20
310.6147894819
 30
0.0
 10
983.6373251647
 20
311.2213274706
 30
0.0
 10
986.2389655594
 20
311.0107375905
 30
0.0
 10
987.5021665848
 20
310.7205134656
 30
0.0
  0
SPLINE
  5
51F
100
AcDbEntity
  8
KONSTRUKTIONSELEMENTE
100
AcDbSpline
 62
7
  6
CONTINUOUS
 70
0
 71
3
 72
9
 73
5
 74
0
 42
0.0000001
 43
0.0000001
 44
0.0000000001
 40
0.0
 40
0.0
 40
0.0
 40
0.0
 40
0.7446194581
 40
1.0
 40
1.0
 40
1.0
 40
1.0
 10
874.4980350689
 20
299.245349449
 30
0.0
 10
874.4979744978
 20
299.4126596429
 30
0.0
 10
874.4587092931
 20
299.6394389958
 30
0.0
 10
874.3751545568
 20
299.8481217461
 30
0.0
 10
874.3511955556
 20
299.9002625441
 30
0.0
  0
SPLINE
  5
520
100
AcDbEntity
  8
KONSTRUKTIONSELEMENTE
100
AcDbSpline
 62
7
  6
CONTINUOUS
 70
0
 71
3
 72
11
 73
7
 74
0
 42
0.0000001
 43
0.0000001
 44
0.0000000001
 40
0.0
 40
0.0
 40
0.0
 40
0.0
 40
0.218430057
 40
0.4594392003
 40
0.7221962123
 40
1.0
 40
1.0
 40
1.0
 40
1.0
 10
886.1436601575
 20
236.480848261
 30
0.0
 10
886.4468129988
 20
235.8211116173
 30
0.0
 10
887.3555561078
 20
234.5512731892
 30
0.0
 10
889.2942583833
 20
233.0895661649
 30
0.0
 10
891.7068840788
 20
232.068008283
 30
0.0
 10
893.4869969127
 20
231.7318641562
 30
0.0
 10
894.4067792251
 20
231.6500934993
 30
0.0
  0
SPLINE
  5
521
100
AcDbEntity
  8
KONSTRUKTIONSELEMENTE
100
AcDbSpline
 62
7
  6
CONTINUOUS
 70
0
 71
3
 72
12
 73
8
 74
0
 42
0.0000001
 43
0.0000001
 44
0.0000000001
 40
0.0
 40
0.0
 40
0.0
 40
0.0
 40
0.1038893022
 40
0.2127454956
 40
0.450602775
 40
0.7166673289
 40
1.0
 40
1.0
 40
1.0
 40
1.0
 10
905.3389955999
 20
225.9754828187
 30
0.0
 10
905.2749333769
 20
226.3165228399
 30
0.0
 10
905.0536273846
 20
227.0006428605
 30
0.0
 10
904.2639023373
 20
228.2950651031
 30
0.0
 10
902.664728807
 20
229.6548903817
 30
0.0
 10
900.1999236302
 20
230.6580582507
 30
0.0
 10
898.3551928366
 20
230.8877537902
 30
0.0
 10
897.4088223487
 20
230.8877537902
 30
0.0
  0
SPLINE
  5
522
100
AcDbEntity
  8
KONSTRUKTIONSELEMENTE
100
AcDbSpline
 62
7
  6
CONTINUOUS
 70
0
 71
3
 72
9
 73
5
 74
0
 42
0.0000001
 43
0.0000001
 44
0.0000000001
 40
0.0
 40
0.0
 40
0.0
 40
0.0
 40
0.2557501717
 40
1.0
 40
1.0
 40
1.0
 40
1.0
 10
999.8418957635
 20
310.1159128548
 30
0.0
 10
999.921934271
 20
310.2900967287
 30
0.0
 10
1000.2009662055
 20
310.9861140613
 30
0.0
 10
1000.3313054054
 20
311.7427732419
 30
0.0
 10
1000.3313223498
 20
312.3006123211
 30
0.0
  0
SPLINE
  5
523
100
AcDbEntity
  8
KONSTRUKTIONSELEMENTE
100
AcDbSpline
 62
7
  6
CONTINUOUS
 70
0
 71
3
 72
9
 73
5
 74
0
 42
0.0000001
 43
0.0000001
 44
0.0000000001
 40
0.0
 40
0.0
 40
0.0
 40
0.0
 40
0.5421687125
 40
1.0
 40
1.0
 40
1.0
 40
1.0
 10
997.9637882641
 20
308.3169253312
 30
0.0
 10
998.2120494789
 20
308.259886592
 30
0.0
 10
998.7029968022
 20
308.2734613304
 30
0.0
 10
999.134048014
 20
308.5754585532
 30
0.0
 10
999.2238617747
 20
308.7709158309
 30
0.0
  0
SPLINE
  5
524
100
AcDbEntity
  8
KONSTRUKTIONSELEMENTE
100
AcDbSpline
 62
7
  6
CONTINUOUS
 70
0
 71
3
 72
9
 73
5
 74
0
 42
0.0000001
 43
0.0000001
 44
0.0000000001
 40
0.0
 40
0.0
 40
0.0
 40
0.0
 40
0.2401439602
 40
1.0
 40
1.0
 40
1.0
 40
1.0
 10
851.6440772644
 20
311.5605965639
 30
0.0
 10
851.6706254558
 20
311.5028210384
 30
0.0
 10
851.7944798596
 20
311.2683820083
 30
0.0
 10
851.9683921434
 20
311.0620020264
 30
0.0
 10
852.1162697598
 20
310.9255880999
 30
0.0
  0
SPLINE
  5
525
100
AcDbEntity
  8
BEZUGSACHSEN
100
AcDbSpline
 62
7
  6
CONTINUOUS
 70
0
 71
3
 72
10
 73
6
 74
0
 42
0.0000001
 43
0.0000001
 44
0.0000000001
 40
0.0
 40
0.0
 40
0.0
 40
0.0
 40
0.229188989
 40
0.4687580135
 40
1.0
 40
1.0
 40
1.0
 40
1.0
 10
909.0088223487
 20
329.1755963751
 30
0.0
 10
909.0088223487
 20
329.4617273618
 30
0.0
 10
909.1031560999
 20
330.0507323424
 30
0.0
 10
909.6631164426
 20
331.1825053727
 30
0.0
 10
910.4300422649
 20
331.8369713655
 30
0.0
 10
911.0025099406
 20
332.1718646664
 30
0.0
  0
SPLINE
  5
526
100
AcDbEntity
  8
BEZUGSACHSEN
100
AcDbSpline
 62
7
  6
CONTINUOUS
 70
0
 71
3
 72
10
 73
6
 74
0
 42
0.0000001
 43
0.0000001
 44
0.0000000001
 40
0.0
 40
0.0
 40
0.0
 40
0.0
 40
0.5312419865
 40
0.770811011
 40
1.0
 40
1.0
 40
1.0
 40
1.0
 10
918.0151347569
 20
332.1718646664
 30
0.0
 10
918.5876024326
 20
331.8369713655
 30
0.0
 10
919.3545282549
 20
331.1825053727
 30
0.0
 10
919.9144885976
 20
330.0507323424
 30
0.0
 10
920.0088223487
 20
329.4617273618
 30
0.0
 10
920.0088223487
 20
329.1755963751
 30
0.0
  0
SPLINE
  5
527
100
AcDbEntity
  8
KONSTRUKTIONSELEMENTE
100
AcDbSpline
 62
7
  6
CONTINUOUS
 70
0
 71
3
 72
9
 73
5
 74
0
 42
0.0000001
 43
0.0000001
 44
0.0000000001
 40
0.0
 40
0.0
 40
0.0
 40
0.0
 40
0.4951786411
 40
1.0
 40
1.0
 40
1.0
 40
1.0
 10
868.494678643
 20
310.2446273823
 30
0.0
 10
868.3948603545
 20
310.4299889119
 30
0.0
 10
868.0804626946
 20
310.7525229025
 30
0.0
 10
867.6344885595
 20
310.8505299317
 30
0.0
 10
867.4211538264
 20
310.8269950095
 30
0.0
  0
SPLINE
  5
528
100
AcDbEntity
  8
KONSTRUKTIONSELEMENTE
100
AcDbSpline
 62
7
  6
CONTINUOUS
 70
0
 71
3
 72
10
 73
6
 74
0
 42
0.0000001
 43
0.0000001
 44
0.0000000001
 40
0.0
 40
0.0
 40
0.0
 40
0.0
 40
0.1683895585
 40
0.402954735
 40
1.0
 40
1.0
 40
1.0
 40
1.0
 10
868.5725777607
 20
311.3546643742
 30
0.0
 10
868.5261654035
 20
311.4116786382
 30
0.0
 10
868.3668407735
 20
311.5042492991
 30
0.0
 10
867.9403481347
 20
311.5995525169
 30
0.0
 10
867.5665483402
 20
311.5741290268
 30
0.0
 10
867.3125042501
 20
311.5157616552
 30
0.0
  0
SPLINE
  5
529
100
AcDbEntity
  8
KONSTRUKTIONSELEMENTE
100
AcDbSpline
 62
7
  6
CONTINUOUS
 70
0
 71
3
 72
9
 73
5
 74
0
 42
0.0000001
 43
0.0000001
 44
0.0000000001
 40
0.0
 40
0.0
 40
0.0
 40
0.0
 40
0.2553805419
 40
1.0
 40
1.0
 40
1.0
 40
1.0
 10
859.2767970254
 20
294.2427765373
 30
0.0
 10
859.2528380242
 20
294.2949173352
 30
0.0
 10
859.1692832879
 20
294.5036000855
 30
0.0
 10
859.1300180831
 20
294.7303794384
 30
0.0
 10
859.1299575121
 20
294.8976896323
 30
0.0
  0
SPLINE
  5
52A
100
AcDbEntity
  8
KONSTRUKTIONSELEMENTE
100
AcDbSpline
 62
7
  6
CONTINUOUS
 70
0
 71
3
 72
8
 73
4
 74
0
 42
0.0000001
 43
0.0000001
 44
0.0000000001
 40
0.0
 40
0.0
 40
0.0
 40
0.0
 40
1.0
 40
1.0
 40
1.0
 40
1.0
 10
966.468060371
 20
237.4860735627
 30
0.0
 10
966.4992313404
 20
237.553909413
 30
0.0
 10
966.5170097952
 20
237.6299698011
 30
0.0
 10
966.5170037284
 20
237.7046245524
 30
0.0
  0
SPLINE
  5
52B
100
AcDbEntity
  8
KONSTRUKTIONSELEMENTE
100
AcDbSpline
 62
7
  6
CONTINUOUS
 70
0
 71
3
 72
12
 73
8
 74
0
 42
0.0000001
 43
0.0000001
 44
0.0000000001
 40
0.0
 40
0.0
 40
0.0
 40
0.0
 40
0.2874750951
 40
0.5512136352
 40
0.785496575
 40
0.894266026
 40
1.0
 40
1.0
 40
1.0
 40
1.0
 10
894.9020848511
 20
230.8877537902
 30
0.0
 10
895.7826071147
 20
230.7694572304
 30
0.0
 10
897.4533940205
 20
230.3375627549
 30
0.0
 10
899.5830642015
 20
229.1039955761
 30
0.0
 10
900.8289646711
 20
227.6297163237
 30
0.0
 10
901.3259835821
 20
226.3226989016
 30
0.0
 10
901.4088223487
 20
225.6570864974
 30
0.0
 10
901.4088223487
 20
225.3303188109
 30
0.0
  0
SPLINE
  5
52C
100
AcDbEntity
  8
KONSTRUKTIONSELEMENTE
100
AcDbSpline
 62
7
  6
CONTINUOUS
 70
0
 71
3
 72
12
 73
8
 74
0
 42
0.0000001
 43
0.0000001
 44
0.0000000001
 40
0.0
 40
0.0
 40
0.0
 40
0.0
 40
0.2833326711
 40
0.549397225
 40
0.7872545044
 40
0.8961106978
 40
1.0
 40
1.0
 40
1.0
 40
1.0
 10
931.6088223487
 20
230.8877537902
 30
0.0
 10
930.6624518608
 20
230.8877537902
 30
0.0
 10
928.8177210673
 20
230.6580582507
 30
0.0
 10
926.3529158905
 20
229.6548903817
 30
0.0
 10
924.7537423602
 20
228.2950651031
 30
0.0
 10
923.9640173129
 20
227.0006428605
 30
0.0
 10
923.7427113206
 20
226.3165228399
 30
0.0
 10
923.6786490976
 20
225.9754828187
 30
0.0
  0
SPLINE
  5
52D
100
AcDbEntity
  8
KONSTRUKTIONSELEMENTE
100
AcDbSpline
 62
7
  6
CONTINUOUS
 70
0
 71
3
 72
12
 73
8
 74
0
 42
0.0000001
 43
0.0000001
 44
0.0000000001
 40
0.0
 40
0.0
 40
0.0
 40
0.0
 40
0.2874378001
 40
0.5543027143
 40
0.7890463209
 40
0.896415877
 40
1.0
 40
1.0
 40
1.0
 40
1.0
 10
935.6088223487
 20
230.8877537902
 30
0.0
 10
934.5782621967
 20
230.8877537902
 30
0.0
 10
932.5784560324
 20
230.616715234
 30
0.0
 10
929.9596124503
 20
229.4393520992
 30
0.0
 10
928.3630215207
 20
227.8420669115
 30
0.0
 10
927.7167622042
 20
226.3624723279
 30
0.0
 10
927.6088223487
 20
225.6022830869
 30
0.0
 10
927.6088223487
 20
225.2308995407
 30
0.0
  0
SPLINE
  5
52E
100
AcDbEntity
  8
KONSTRUKTIONSELEMENTE
100
AcDbSpline
 62
7
  6
CONTINUOUS
 70
0
 71
3
 72
11
 73
7
 74
0
 42
0.0000001
 43
0.0000001
 44
0.0000000001
 40
0.0
 40
0.0
 40
0.0
 40
0.0
 40
0.2879904701
 40
0.5553442566
 40
0.7905170666
 40
1.0
 40
1.0
 40
1.0
 40
1.0
 10
924.6088223487
 20
202.6034825428
 30
0.0
 10
924.9953001681
 20
202.6034825428
 30
0.0
 10
925.7452539272
 20
202.7045288782
 30
0.0
 10
926.7272030476
 20
203.148490902
 30
0.0
 10
927.4262474901
 20
203.8398934226
 30
0.0
 10
927.6088223487
 20
204.4436807116
 30
0.0
 10
927.6088223487
 20
204.7248028863
 30
0.0
  0
SPLINE
  5
52F
100
AcDbEntity
  8
BEZUGSACHSEN
100
AcDbSpline
 62
7
  6
CONTINUOUS
 70
0
 71
3
 72
11
 73
7
 74
0
 42
0.0000001
 43
0.0000001
 44
0.0000000001
 40
0.0
 40
0.0
 40
0.0
 40
0.0
 40
0.2500159253
 40
0.5000245538
 40
0.7500190856
 40
1.0
 40
1.0
 40
1.0
 40
1.0
 10
975.8258764666
 20
140.5660411522
 30
0.0
 10
976.1500919077
 20
140.6081425565
 30
0.0
 10
976.7890107108
 20
140.814818051
 30
0.0
 10
977.5659894847
 20
141.448729502
 30
0.0
 10
978.060997865
 20
142.3210547747
 30
0.0
 10
978.1549784057
 20
142.9864511004
 30
0.0
 10
978.1397606669
 20
143.3129884902
 30
0.0
  0
SPLINE
  5
530
100
AcDbEntity
  8
BEZUGSACHSEN
100
AcDbSpline
 62
7
  6
CONTINUOUS
 70
0
 71
3
 72
8
 73
4
 74
0
 42
0.0000001
 43
0.0000001
 44
0.0000000001
 40
0.0
 40
0.0
 40
0.0
 40
0.0
 40
1.0
 40
1.0
 40
1.0
 40
1.0
 10
944.6341229065
 20
131.8532644084
 30
0.0
 10
944.5691510657
 20
132.1460531201
 30
0.0
 10
944.5388222495
 20
132.448024882
 30
0.0
 10
944.5388223487
 20
132.7479358184
 30
0.0
  0
SPLINE
  5
531
100
AcDbEntity
  8
BEZUGSACHSEN
100
AcDbSpline
 62
7
  6
CONTINUOUS
 70
0
 71
3
 72
11
 73
7
 74
0
 42
0.0000001
 43
0.0000001
 44
0.0000000001
 40
0.0
 40
0.0
 40
0.0
 40
0.0
 40
0.2500346324
 40
0.5000539346
 40
0.7500425606
 40
1.0
 40
1.0
 40
1.0
 40
1.0
 10
897.7282415087
 20
83.9275764879
 30
0.0
 10
898.0743672053
 20
83.9275760679
 30
0.0
 10
898.7739852925
 20
84.0637991706
 30
0.0
 10
899.6627530141
 20
84.6488729486
 30
0.0
 10
900.2624881009
 20
85.5284483028
 30
0.0
 10
900.403822314
 20
86.2282602776
 30
0.0
 10
900.4038223487
 20
86.574279115
 30
0.0
  0
SPLINE
  5
532
100
AcDbEntity
  8
RUNDUNGEN
100
AcDbSpline
 62
7
  6
CONTINUOUS
 70
0
 71
3
 72
11
 73
7
 74
0
 42
0.0000001
 43
0.0000001
 44
0.0000000001
 40
0.0
 40
0.0
 40
0.0
 40
0.0
 40
0.2500159253
 40
0.5000245538
 40
0.7500190856
 40
1.0
 40
1.0
 40
1.0
 40
1.0
 10
853.1917682309
 20
74.6091049399
 30
0.0
 10
852.8675527898
 20
74.5670035355
 30
0.0
 10
852.2286339867
 20
74.3603280411
 30
0.0
 10
851.4516552128
 20
73.7264165901
 30
0.0
 10
850.9566468325
 20
72.8540913174
 30
0.0
 10
850.8626662918
 20
72.1886949917
 30
0.0
 10
850.8778840306
 20
71.8621576019
 30
0.0
  0
SPLINE
  5
533
100
AcDbEntity
  8
RUNDUNGEN
100
AcDbSpline
 62
7
  6
CONTINUOUS
 70
0
 71
3
 72
11
 73
7
 74
0
 42
0.0000001
 43
0.0000001
 44
0.0000000001
 40
0.0
 40
0.0
 40
0.0
 40
0.0
 40
0.2500346324
 40
0.5000539346
 40
0.7500425606
 40
1.0
 40
1.0
 40
1.0
 40
1.0
 10
931.2894031888
 20
131.2475696041
 30
0.0
 10
930.9432774921
 20
131.2475700242
 30
0.0
 10
930.243659405
 20
131.1113469214
 30
0.0
 10
929.3548916834
 20
130.5262731435
 30
0.0
 10
928.7551565966
 20
129.6466977892
 30
0.0
 10
928.6138223835
 20
128.9468858145
 30
0.0
 10
928.6138223487
 20
128.600866977
 30
0.0
  0
SPLINE
  5
534
100
AcDbEntity
  8
RUNDUNGEN
100
AcDbSpline
 62
7
  6
CONTINUOUS
 70
0
 71
3
 72
8
 73
4
 74
0
 42
0.0000001
 43
0.0000001
 44
0.0000000001
 40
0.0
 40
0.0
 40
0.0
 40
0.0
 40
1.0
 40
1.0
 40
1.0
 40
1.0
 10
884.383521791
 20
83.3218816836
 30
0.0
 10
884.4484936318
 20
83.0290929719
 30
0.0
 10
884.478822448
 20
82.72712121
 30
0.0
 10
884.4788223487
 20
82.4272102736
 30
0.0
  0
SPLINE
  5
535
100
AcDbEntity
  8
BEZUGSACHSEN
100
AcDbSpline
 62
7
  6
CONTINUOUS
 70
0
 71
3
 72
11
 73
7
 74
0
 42
0.0000001
 43
0.0000001
 44
0.0000000001
 40
0.0
 40
0.0
 40
0.0
 40
0.0
 40
0.2189870668
 40
0.4642744121
 40
0.7275440279
 40
1.0
 40
1.0
 40
1.0
 40
1.0
 10
969.1998223487
 20
102.0578588898
 30
0.0
 10
969.1998223487
 20
102.4617638541
 30
0.0
 10
969.1681120104
 20
103.3178700539
 30
0.0
 10
969.0947149128
 20
104.6576294351
 30
0.0
 10
969.0317298139
 20
106.0968890606
 30
0.0
 10
969.0155832818
 20
107.0850487587
 30
0.0
 10
969.0155832818
 20
107.587573046
 30
0.0
  0
SPLINE
  5
536
100
AcDbEntity
  8
BEZUGSACHSEN
100
AcDbSpline
 62
7
  6
CONTINUOUS
 70
0
 71
3
 72
30
 73
26
 74
0
 42
0.0000001
 43
0.0000001
 44
0.0000000001
 40
0.0
 40
0.0
 40
0.0
 40
0.0
 40
0.0125480428
 40
0.0248977535
 40
0.0388708593
 40
0.0556717905
 40
0.0758742338
 40
0.0996633815
 40
0.1577207518
 40
0.2282833688
 40
0.3087261201
 40
0.3958710984
 40
0.4862231663
 40
0.5761520817
 40
0.6620675849
 40
0.7406367777
 40
0.8091129919
 40
0.8390305357
 40
0.8660099607
 40
0.8902691713
 40
0.912330136
 40
0.9330873334
 40
0.9537623976
 40
0.9756852277
 40
1.0
 40
1.0
 40
1.0
 40
1.0
 10
969.1998223487
 20
120.4646083066
 30
0.0
 10
969.1998223487
 20
120.3500658916
 30
0.0
 10
969.1647934502
 20
120.1192313317
 30
0.0
 10
968.9723040421
 20
119.8109224204
 30
0.0
 10
968.6592010736
 20
119.5637387897
 30
0.0
 10
968.2374457449
 20
119.3620747184
 30
0.0
 10
967.7070068528
 20
119.1950346509
 30
0.0
 10
966.7956638986
 20
118.9982247622
 30
0.0
 10
965.4119541779
 20
118.8337204785
 30
0.0
 10
963.5071032216
 20
118.7153217356
 30
0.0
 10
961.3336549679
 20
118.6543036237
 30
0.0
 10
958.9790260314
 20
118.6413825141
 30
0.0
 10
956.5379332748
 20
118.675281522
 30
0.0
 10
954.1093371681
 20
118.7611756104
 30
0.0
 10
951.7911858674
 20
118.9109668908
 30
0.0
 10
949.6767919941
 20
119.1438409474
 30
0.0
 10
948.0850075919
 20
119.4386675531
 30
0.0
 10
946.9865448089
 20
119.7640262985
 30
0.0
 10
946.2976601021
 20
120.0403755784
 30
0.0
 10
945.7108824235
 20
120.3667580166
 30
0.0
 10
945.2303526279
 20
120.7521840755
 30
0.0
 10
944.8615665948
 20
121.2057900781
 30
0.0
 10
944.609503594
 20
121.7321053917
 30
0.0
 10
944.4711571544
 20
122.3310247462
 30
0.0
 10
944.4478223487
 20
122.7541018215
 30
0.0
 10
944.4478223487
 20
122.9760545826
 30
0.0
  0
SPLINE
  5
537
100
AcDbEntity
  8
BEZUGSACHSEN
100
AcDbSpline
 62
7
  6
CONTINUOUS
 70
0
 71
3
 72
11
 73
7
 74
0
 42
0.0000001
 43
0.0000001
 44
0.0000000001
 40
0.0
 40
0.0
 40
0.0
 40
0.0
 40
0.218987076
 40
0.4642744541
 40
0.7275441178
 40
1.0
 40
1.0
 40
1.0
 40
1.0
 10
859.8178223487
 20
102.0578588898
 30
0.0
 10
859.8178223487
 20
102.4617638711
 30
0.0
 10
859.8495326915
 20
103.3178701483
 30
0.0
 10
859.9229297974
 20
104.657629695
 30
0.0
 10
859.9859148943
 20
106.0968893037
 30
0.0
 10
860.0020614157
 20
107.0850489243
 30
0.0
 10
860.0020614157
 20
107.587573046
 30
0.0
  0
SPLINE
  5
538
100
AcDbEntity
  8
BEZUGSACHSEN
100
AcDbSpline
 62
7
  6
CONTINUOUS
 70
0
 71
3
 72
30
 73
26
 74
0
 42
0.0000001
 43
0.0000001
 44
0.0000000001
 40
0.0
 40
0.0
 40
0.0
 40
0.0
 40
0.0125480428
 40
0.0248977535
 40
0.0388708593
 40
0.0556717905
 40
0.0758742338
 40
0.0996633815
 40
0.1577207518
 40
0.2282833688
 40
0.3087261201
 40
0.3958710984
 40
0.4862231663
 40
0.5761520817
 40
0.6620675849
 40
0.7406367777
 40
0.8091129919
 40
0.8390305357
 40
0.8660099607
 40
0.8902691713
 40
0.912330136
 40
0.9330873334
 40
0.9537623976
 40
0.9756852277
 40
1.0
 40
1.0
 40
1.0
 40
1.0
 10
859.8178223487
 20
94.7105377855
 30
0.0
 10
859.8178223487
 20
94.8250802004
 30
0.0
 10
859.8528512473
 20
95.0559147603
 30
0.0
 10
860.0453406554
 20
95.3642236716
 30
0.0
 10
860.3584436239
 20
95.6114073023
 30
0.0
 10
860.7801989526
 20
95.8130713736
 30
0.0
 10
861.3106378447
 20
95.9801114411
 30
0.0
 10
862.2219807988
 20
96.1769213298
 30
0.0
 10
863.6056905195
 20
96.3414256135
 30
0.0
 10
865.5105414759
 20
96.4598243565
 30
0.0
 10
867.6839897296
 20
96.5208424683
 30
0.0
 10
870.0386186661
 20
96.533763578
 30
0.0
 10
872.4797114227
 20
96.4998645701
 30
0.0
 10
874.9083075294
 20
96.4139704817
 30
0.0
 10
877.2264588301
 20
96.2641792012
 30
0.0
 10
879.3408527034
 20
96.0313051446
 30
0.0
 10
880.9326371056
 20
95.736478539
 30
0.0
 10
882.0310998886
 20
95.4111197936
 30
0.0
 10
882.7199845954
 20
95.1347705137
 30
0.0
 10
883.3067622739
 20
94.8083880755
 30
0.0
 10
883.7872920695
 20
94.4229620165
 30
0.0
 10
884.1560781027
 20
93.9693560139
 30
0.0
 10
884.4081411035
 20
93.4430407003
 30
0.0
 10
884.5464875431
 20
92.8441213458
 30
0.0
 10
884.5698223487
 20
92.4210442706
 30
0.0
 10
884.5698223487
 20
92.1990915095
 30
0.0
  0
SPLINE
  5
539
100
AcDbEntity
  8
BEZUGSACHSEN
100
AcDbSpline
 62
7
  6
CONTINUOUS
 70
0
 71
3
 72
11
 73
7
 74
0
 42
0.0000001
 43
0.0000001
 44
0.0000000001
 40
0.0
 40
0.0
 40
0.0
 40
0.0
 40
0.272464572
 40
0.5357324717
 40
0.7810160247
 40
1.0
 40
1.0
 40
1.0
 40
1.0
 10
944.6320614157
 20
107.587573046
 30
0.0
 10
944.6320614157
 20
107.0850328994
 30
0.0
 10
944.6159119932
 20
106.0968605546
 30
0.0
 10
944.55292882
 20
104.6575951763
 30
0.0
 10
944.4795317906
 20
103.3178516644
 30
0.0
 10
944.4478223487
 20
102.4617581499
 30
0.0
 10
944.4478223487
 20
102.0578588898
 30
0.0
  0
SPLINE
  5
53A
100
AcDbEntity
  8
BEZUGSACHSEN
100
AcDbSpline
 62
7
  6
CONTINUOUS
 70
0
 71
3
 72
11
 73
7
 74
0
 42
0.0000001
 43
0.0000001
 44
0.0000000001
 40
0.0
 40
0.0
 40
0.0
 40
0.0
 40
0.2724642148
 40
0.5357319258
 40
0.7810156999
 40
1.0
 40
1.0
 40
1.0
 40
1.0
 10
860.0020614157
 20
107.587573046
 30
0.0
 10
860.0020614157
 20
108.0901125339
 30
0.0
 10
859.9859121125
 20
109.0782838737
 30
0.0
 10
859.9229288944
 20
110.5175486515
 30
0.0
 10
859.8495318771
 20
111.8572928231
 30
0.0
 10
859.8178223487
 20
112.7133873429
 30
0.0
 10
859.8178223487
 20
113.1172872022
 30
0.0
  0
SPLINE
  5
53B
100
AcDbEntity
  8
BEZUGSACHSEN
100
AcDbSpline
 62
7
  6
CONTINUOUS
 70
0
 71
3
 72
11
 73
7
 74
0
 42
0.0000001
 43
0.0000001
 44
0.0000000001
 40
0.0
 40
0.0
 40
0.0
 40
0.0
 40
0.2189841755
 40
0.464267831
 40
0.727535533
 40
1.0
 40
1.0
 40
1.0
 40
1.0
 10
884.5698223487
 20
113.1172872022
 30
0.0
 10
884.5698223487
 20
112.7133875727
 30
0.0
 10
884.538112857
 20
111.857293501
 30
0.0
 10
884.4647158437
 20
110.5175497948
 30
0.0
 10
884.4017326518
 20
109.0782847866
 30
0.0
 10
884.3855832818
 20
108.0901129991
 30
0.0
 10
884.3855832818
 20
107.587573046
 30
0.0
  0
SPLINE
  5
53C
100
AcDbEntity
  8
BEZUGSACHSEN
100
AcDbSpline
 62
7
  6
CONTINUOUS
 70
0
 71
3
 72
11
 73
7
 74
0
 42
0.0000001
 43
0.0000001
 44
0.0000000001
 40
0.0
 40
0.0
 40
0.0
 40
0.0
 40
0.2724560962
 40
0.5357257555
 40
0.781013033
 40
1.0
 40
1.0
 40
1.0
 40
1.0
 10
884.3855832818
 20
107.587573046
 30
0.0
 10
884.3855832818
 20
107.0850485297
 30
0.0
 10
884.4017298332
 20
106.0968885225
 30
0.0
 10
884.4647149529
 20
104.657628714
 30
0.0
 10
884.5381120362
 20
103.3178695611
 30
0.0
 10
884.5698223487
 20
102.4617636701
 30
0.0
 10
884.5698223487
 20
102.0578588898
 30
0.0
  0
SPLINE
  5
53D
100
AcDbEntity
  8
BEZUGSACHSEN
100
AcDbSpline
 62
7
  6
CONTINUOUS
 70
0
 71
3
 72
11
 73
7
 74
0
 42
0.0000001
 43
0.0000001
 44
0.0000000001
 40
0.0
 40
0.0
 40
0.0
 40
0.0
 40
0.2724656273
 40
0.5357334327
 40
0.7810165067
 40
1.0
 40
1.0
 40
1.0
 40
1.0
 10
969.0155832818
 20
107.587573046
 30
0.0
 10
969.0155832818
 20
108.0901151389
 30
0.0
 10
969.0317329776
 20
109.0782892522
 30
0.0
 10
969.094716044
 20
110.5175555214
 30
0.0
 10
969.1681130514
 20
111.8572970869
 30
0.0
 10
969.1998223487
 20
112.7133888311
 30
0.0
 10
969.1998223487
 20
113.1172872022
 30
0.0
  0
SPLINE
  5
53E
100
AcDbEntity
  8
BEZUGSACHSEN
100
AcDbSpline
 62
7
  6
CONTINUOUS
 70
0
 71
3
 72
11
 73
7
 74
0
 42
0.0000001
 43
0.0000001
 44
0.0000000001
 40
0.0
 40
0.0
 40
0.0
 40
0.0
 40
0.2189841566
 40
0.4642678577
 40
0.727535716
 40
1.0
 40
1.0
 40
1.0
 40
1.0
 10
944.4478223487
 20
113.1172872022
 30
0.0
 10
944.4478223487
 20
112.7133876075
 30
0.0
 10
944.4795318416
 20
111.8572934865
 30
0.0
 10
944.5529288704
 20
110.5175494431
 30
0.0
 10
944.6159120774
 20
109.0782844002
 30
0.0
 10
944.6320614157
 20
108.0901126616
 30
0.0
 10
944.6320614157
 20
107.587573046
 30
0.0
  0
ELLIPSE
  5
53F
100
AcDbEntity
  8
KONSTRUKTIONSELEMENTE
100
AcDbEllipse
 62
7
  6
CONTINUOUS
 10
425.52926149
 20
372.0688245499
 30
0.0
 11
16.5
 21
-0.0
 31
0.0
 40
0.1958324999
 41
0.1065846569
 42
0.1782473677
  0
ELLIPSE
  5
540
100
AcDbEntity
  8
KONSTRUKTIONSELEMENTE
100
AcDbEllipse
 62
7
  6
CONTINUOUS
 10
425.52926149
 20
371.2094441189
 30
0.0
 11
16.5
 21
-0.0
 31
0.0
 40
0.4895843255
 41
0.1782473677
 42
0.2362336651
  0
ELLIPSE
  5
541
100
AcDbEntity
  8
KONSTRUKTIONSELEMENTE
100
AcDbEllipse
 62
7
  6
CONTINUOUS
 10
425.52926149
 20
369.3188260101
 30
0.0
 11
16.5
 21
-0.0
 31
0.0
 40
0.9791658496
 41
0.2362336651
 42
0.2950421164
  0
ELLIPSE
  5
542
100
AcDbEntity
  8
KONSTRUKTIONSELEMENTE
100
AcDbEllipse
 62
7
  6
CONTINUOUS
 10
425.52926149
 20
364.6208863
 30
0.0
 11
-0.0
 21
32.3125654832
 31
0.0
 40
0.510637263
 41
-1.2757542104
 42
-1.2459650002
  0
ELLIPSE
  5
543
100
AcDbEntity
  8
KONSTRUKTIONSELEMENTE
100
AcDbEllipse
 62
7
  6
CONTINUOUS
 10
425.52926149
 20
349.1521933827
 30
0.0
 11
0.0
 21
80.7811363675
 31
0.0
 40
0.2042556065
 41
-1.2459650002
 42
-1.2309594173
  0
ELLIPSE
  5
544
100
AcDbEntity
  8
KONSTRUKTIONSELEMENTE
100
AcDbEllipse
 62
7
  6
CONTINUOUS
 10
425.52926149
 20
405.0688459255
 30
0.0
 11
-0.0
 21
80.7813212611
 31
0.0
 40
0.204255139
 41
-1.9106332362
 42
-1.8956276534
  0
ELLIPSE
  5
545
100
AcDbEntity
  8
KONSTRUKTIONSELEMENTE
100
AcDbEllipse
 62
7
  6
CONTINUOUS
 10
425.52926149
 20
389.6000939995
 30
0.0
 11
0.0
 21
32.3125654832
 31
0.0
 40
0.510637263
 41
-1.8956276534
 42
-1.8658384432
  0
ELLIPSE
  5
546
100
AcDbEntity
  8
KONSTRUKTIONSELEMENTE
100
AcDbEllipse
 62
7
  6
CONTINUOUS
 10
425.52926149
 20
384.9021408486
 30
0.0
 11
16.5
 21
-0.0
 31
0.0
 40
0.9791630482
 41
-0.2950421164
 42
-0.2362336651
  0
ELLIPSE
  5
547
100
AcDbEntity
  8
KONSTRUKTIONSELEMENTE
100
AcDbEllipse
 62
7
  6
CONTINUOUS
 10
425.52926149
 20
381.8771601054
 30
0.0
 11
16.5
 21
0.0
 31
0.0
 40
0.195834741
 41
-0.2362336651
 42
-0.1638527432
  0
ELLIPSE
  5
548
100
AcDbEntity
  8
KONSTRUKTIONSELEMENTE
100
AcDbEllipse
 62
7
  6
CONTINUOUS
 10
425.52926149
 20
362.0714297841
 30
0.0
 11
16.5
 21
-0.0
 31
0.0
 40
0.244790762
 41
0.1782473677
 42
0.2362336651
  0
ELLIPSE
  5
549
100
AcDbEntity
  8
KONSTRUKTIONSELEMENTE
100
AcDbEllipse
 62
7
  6
CONTINUOUS
 10
425.52926149
 20
359.2354809843
 30
0.0
 11
16.5
 21
0.0
 31
0.0
 40
0.979168651
 41
0.2362336651
 42
0.2950421164
  0
ELLIPSE
  5
54A
100
AcDbEntity
  8
KONSTRUKTIONSELEMENTE
100
AcDbEllipse
 62
7
  6
CONTINUOUS
 10
425.52926149
 20
354.5375815968
 30
0.0
 11
0.0
 21
32.3124730363
 31
0.0
 40
0.510638724
 41
-1.2757542104
 42
-1.2459650002
  0
ELLIPSE
  5
54B
100
AcDbEntity
  8
KONSTRUKTIONSELEMENTE
100
AcDbEllipse
 62
7
  6
CONTINUOUS
 10
425.52926149
 20
338.5014957469
 30
0.0
 11
16.5
 21
0.0
 31
0.0
 40
0.334349582
 41
-0.3398369095
 42
0.0000224353
  0
ELLIPSE
  5
54C
100
AcDbEntity
  8
KONSTRUKTIONSELEMENTE
100
AcDbEllipse
 62
7
  6
CONTINUOUS
 10
425.52926149
 20
344.2250901476
 30
0.0
 11
0.0
 21
64.6249460727
 31
0.0
 40
0.255319362
 41
-1.2459650002
 42
-1.2309594173
  0
ELLIPSE
  5
54D
100
AcDbEntity
  8
KONSTRUKTIONSELEMENTE
100
AcDbEllipse
 62
7
  6
CONTINUOUS
 10
425.52926149
 20
393.839680133
 30
0.0
 11
0.0
 21
80.7813212611
 31
0.0
 40
0.204255139
 41
-1.9106332362
 42
-1.8956276534
  0
ELLIPSE
  5
54E
100
AcDbEntity
  8
KONSTRUKTIONSELEMENTE
100
AcDbEllipse
 62
7
  6
CONTINUOUS
 10
425.52926149
 20
374.933401553
 30
0.0
 11
-0.0
 21
21.5416486909
 31
0.0
 40
0.765958086
 41
-1.8956276534
 42
-1.8510461683
  0
ELLIPSE
  5
54F
100
AcDbEntity
  8
KONSTRUKTIONSELEMENTE
100
AcDbEllipse
 62
7
  6
CONTINUOUS
 10
425.52926149
 20
372.3266360275
 30
0.0
 11
16.5
 21
0.0
 31
0.0
 40
0.7343750875
 41
-0.2802498415
 42
-0.2216690803
  0
ELLIPSE
  5
550
100
AcDbEntity
  8
KONSTRUKTIONSELEMENTE
100
AcDbEllipse
 62
7
  6
CONTINUOUS
 10
425.52926149
 20
370.8465965211
 30
0.0
 11
16.5
 21
0.0
 31
0.0
 40
0.3263876827
 41
-0.2216690803
 42
-0.1782473677
  0
ELLIPSE
  5
551
100
AcDbEntity
  8
KONSTRUKTIONSELEMENTE
100
AcDbEllipse
 62
7
  6
CONTINUOUS
 10
425.52926149
 20
345.943822583
 30
0.0
 11
16.5
 21
-0.0
 31
0.0
 40
0.1958336205
 41
0.1065846569
 42
0.1782473677
  0
ELLIPSE
  5
552
100
AcDbEntity
  8
KONSTRUKTIONSELEMENTE
100
AcDbEllipse
 62
7
  6
CONTINUOUS
 10
425.52926149
 20
345.0844495281
 30
0.0
 11
16.5
 21
-0.0
 31
0.0
 40
0.4895829248
 41
0.1782473677
 42
0.2362336651
  0
ELLIPSE
  5
553
100
AcDbEntity
  8
KONSTRUKTIONSELEMENTE
100
AcDbEllipse
 62
7
  6
CONTINUOUS
 10
425.52926149
 20
343.193820601
 30
0.0
 11
16.5
 21
-0.0
 31
0.0
 40
0.9791672503
 41
0.2362336651
 42
0.2950421164
  0
ELLIPSE
  5
554
100
AcDbEntity
  8
KONSTRUKTIONSELEMENTE
100
AcDbEllipse
 62
7
  6
CONTINUOUS
 10
425.52926149
 20
338.495914493
 30
0.0
 11
-0.0
 21
32.3124730363
 31
0.0
 40
0.510638724
 41
-1.2757542104
 42
-1.2459650002
  0
ELLIPSE
  5
555
100
AcDbEntity
  8
KONSTRUKTIONSELEMENTE
100
AcDbEllipse
 62
7
  6
CONTINUOUS
 10
425.52926149
 20
323.0271330628
 30
0.0
 11
-0.0
 21
80.7813212611
 31
0.0
 40
0.204255139
 41
-1.2459650002
 42
-1.2309594173
  0
ELLIPSE
  5
556
100
AcDbEntity
  8
KONSTRUKTIONSELEMENTE
100
AcDbEllipse
 62
7
  6
CONTINUOUS
 10
425.52926149
 20
341.2403167932
 30
0.0
 11
16.5
 21
0.0
 31
0.0
 40
0.334349582
 41
-0.0000224353
 42
0.3398369095
  0
ELLIPSE
  5
557
100
AcDbEntity
  8
KONSTRUKTIONSELEMENTE
100
AcDbEllipse
 62
7
  6
CONTINUOUS
 10
425.52926149
 20
378.9438164212
 30
0.0
 11
-0.0
 21
80.7812288143
 31
0.0
 40
0.2042553727
 41
-1.9106332362
 42
-1.8956276534
  0
ELLIPSE
  5
558
100
AcDbEntity
  8
KONSTRUKTIONSELEMENTE
100
AcDbEllipse
 62
7
  6
CONTINUOUS
 10
425.52926149
 20
363.4750792474
 30
0.0
 11
-0.0
 21
32.3125192598
 31
0.0
 40
0.5106379935
 41
-1.8956276534
 42
-1.8658384432
  0
ELLIPSE
  5
559
100
AcDbEntity
  8
KONSTRUKTIONSELEMENTE
100
AcDbEllipse
 62
7
  6
CONTINUOUS
 10
425.52926149
 20
358.7771529782
 30
0.0
 11
16.5
 21
0.0
 31
0.0
 40
0.9791658496
 41
-0.2950421164
 42
-0.2362336651
  0
ELLIPSE
  5
55A
100
AcDbEntity
  8
KONSTRUKTIONSELEMENTE
100
AcDbEllipse
 62
7
  6
CONTINUOUS
 10
425.52926149
 20
355.7521570894
 30
0.0
 11
16.5
 21
0.0
 31
0.0
 40
0.1958336205
 41
-0.2362336651
 42
-0.1638527432
  0
ELLIPSE
  5
55B
100
AcDbEntity
  8
KONSTRUKTIONSELEMENTE
100
AcDbEllipse
 62
7
  6
CONTINUOUS
 10
854.4972468133
 20
307.9734799135
 30
0.0
 11
2.9999216922
 21
0.656257088
 31
0.0
 40
0.0330294486
 41
-2.4948218116
 42
-1.2638623942
  0
ELLIPSE
  5
55C
100
AcDbEntity
  8
KONSTRUKTIONSELEMENTE
100
AcDbEllipse
 62
7
  6
CONTINUOUS
 10
867.1314862858
 20
309.7883818192
 30
0.0
 11
-0.9079926458
 21
0.6474800987
 31
0.0
 40
0.8040646284
 41
4.0929319743
 42
5.2901026123
  0
ELLIPSE
  5
55D
100
AcDbEntity
  8
KONSTRUKTIONSELEMENTE
100
AcDbEllipse
 62
7
  6
CONTINUOUS
 10
854.4972468133
 20
312.9232273818
 30
0.0
 11
-0.9064118645
 21
4.1434441837
 31
0.0
 40
0.690197126
 41
-4.3653267381
 42
-3.1343673208
  0
ELLIPSE
  5
55E
100
AcDbEntity
  8
KONSTRUKTIONSELEMENTE
100
AcDbEllipse
 62
7
  6
CONTINUOUS
 10
867.1314862858
 20
313.3239157252
 30
0.0
 11
-0.9079926458
 21
0.6474800987
 31
0.0
 40
0.8040646284
 41
-2.1902533329
 42
-0.6194570061
  0
ELLIPSE
  5
55F
100
AcDbEntity
  8
BEZUGSACHSEN
100
AcDbEllipse
 62
7
  6
CONTINUOUS
 10
837.5088223487
 20
107.587573046
 30
0.0
 11
0.0
 21
7.92792
 31
0.0
 40
0.1051042353
 41
-3.1415926536
 42
-0.0
  0
ELLIPSE
  5
560
100
AcDbEntity
  8
0
100
AcDbEllipse
 62
7
  6
CONTINUOUS
 10
991.5088223487
 20
107.587573046
 30
0.0
 11
0.0
 21
7.92792
 31
0.0
 40
0.1051042353
 41
0.0
 42
3.1415926536
  0
ELLIPSE
  5
561
100
AcDbEntity
  8
BEZUGSACHSEN
100
AcDbEllipse
 62
7
  6
CONTINUOUS
 10
900.4038223487
 20
107.587573046
 30
0.0
 11
0.0
 21
8.25
 31
0.0
 40
0.1583844403
 41
0.0
 42
3.1415926536
  0
ELLIPSE
  5
562
100
AcDbEntity
  8
0
100
AcDbEllipse
 62
7
  6
CONTINUOUS
 10
928.6138223487
 20
107.587573046
 30
0.0
 11
-0.0
 21
8.25
 31
0.0
 40
0.1583844403
 41
-3.1415926536
 42
0.0
  0
ENDSEC
  0
SECTION
  2
OBJECTS
  0
DICTIONARY
  5
C
100
AcDbDictionary
280
0
281
1
  3
ACAD_GROUP
350
D
  3
ACAD_MLINESTYLE
350
17
  3
ACAD_LAYOUT
350
1A
  3
ACAD_PLOTSETTINGS
350
19
  3
ACAD_PLOTSTYLENAME
350
E
  0
DICTIONARY
  5
D
102
{ACAD_REACTORS
330
C
102
}
100
AcDbDictionary
280
0
281
1
  0
ACDBDICTIONARYWDFLT
  5
E
102
{ACAD_REACTORS
330
C
102
}
100
AcDbDictionary
281
1
  3
Normal
350
F
100
AcDbDictionaryWithDefault
340
F
  0
DICTIONARY
  5
17
102
{ACAD_REACTORS
330
C
102
}
100
AcDbDictionary
280
0
281
1
  3
Standard
350
18
  0
DICTIONARY
  5
19
102
{ACAD_REACTORS
330
C
102
}
100
AcDbDictionary
281
1
  0
DICTIONARY
  5
1A
102
{ACAD_REACTORS
330
C
102
}
100
AcDbDictionary
281
1
  3
Model
350
563
  3
Layout1
350
564
  0
ACDBPLACEHOLDER
  5
F
102
{ACAD_REACTORS
330
E
102
}
  0
MLINESTYLE
  5
18
102
{ACAD_REACTORS
330
17
102
}
100
AcDbMlineStyle
  2
STANDARD
 70
0
  3

 62
256
 51
90.0
 52
90.0
 71
2
 49
0.5
 62
256
  6
BYLAYER
 49
-0.5
 62
256
  6
BYLAYER
  0
LAYOUT
  5
563
102
{ACAD_REACTORS
330
1A
102
}
100
AcDbPlotSettings
  1

  2
none_device
  4
ISO_A0_(1189.00_x_841.00_MM)
  6

 40
0.0
 41
0.0
 42
0.0
 43
0.0
 44
1189.0
 45
841.0
 46
0.0
 47
0.0
 48
0.0
 49
0.0
140
0.0
141
0.0
142
1.0
143
1.0
 70
1024
 72
1
 73
0
 74
0
  7

 75
0
147
1.0
148
0.0
149
0.0
100
AcDbLayout
  1
Model
 70
0
 71
0
 10
0.0
 20
0.0
 11
1189.0
 21
841.0
 12
0.0
 22
0.0
 32
0.0
 14
0.0
 24
0.0
 34
0.0
 15
0.0
 25
0.0
 35
0.0
146
0.0
 13
0.0
 23
0.0
 33
0.0
 16
1.0
 26
0.0
 36
0.0
 17
0.0
 27
1.0
 37
0.0
 76
0
330
20E
345
0
346
0
  0
LAYOUT
  5
564
102
{ACAD_REACTORS
330
1A
102
}
100
AcDbPlotSettings
  1

  2
none_device
  4
ISO_A0_(1189.00_x_841.00_MM)
  6

 40
0.0
 41
0.0
 42
0.0
 43
0.0
 44
1189.0
 45
841.0
 46
0.0
 47
0.0
 48
0.0
 49
0.0
140
0.0
141
0.0
142
1.0
143
1.0
 70
0
 72
1
 73
0
 74
0
  7

 75
0
147
1.0
148
0.0
149
0.0
100
AcDbLayout
  1
Layout1
 70
0
 71
1
 10
0.0
 20
0.0
 11
1189.0
 21
841.0
 12
0.0
 22
0.0
 32
0.0
 14
0.0
 24
0.0
 34
0.0
 15
0.0
 25
0.0
 35
0.0
146
0.0
 13
0.0
 23
0.0
 33
0.0
 16
1.0
 26
0.0
 36
0.0
 17
0.0
 27
1.0
 37
0.0
 76
0
330
20F
345
0
346
0
  0
ENDSEC
  0
EOF
