999
DXF file: 001-m34927-p-5.dxf
999
Pro/ENGINEER 2011490 by Parametric Technology Corporation
  0
SECTION
  2
HEADER
  9
$ACADVER
  1
AC1015
  9
$DWGCODEPAGE
  3
ANSI_1252
  9
$EXTMAX
 10
1189.0
 20
841.0
 30
0.0
  9
$EXTMIN
 10
0.0
 20
0.0
 30
0.0
  9
$LIMMIN
 10
0.0
 20
0.0
  9
$LIMMAX
 10
1189.0
 20
841.0
  9
$VIEWCTR
 10
594.5
 20
420.5
  9
$VIEWSIZE
 40
841.0
  9
$CLAYER
  8
0
  9
$LTSCALE
 40
65.395
  9
$CELTYPE
  6
BYLAYER
  9
$DIMSCALE
 40
1.0
  9
$DIMASZ
 40
3.5
  9
$DIMEXO
 40
7.43125
  9
$DIMDLI
 40
45.182
  9
$DIMEXE
 40
21.402
  9
$DIMCEN
 40
10.701
  9
$DIMLFAC
 40
1.0
  9
$DIMBLK
  1
_FILLED
  9
$DIMTXT
 40
3.5
  9
$DIMTOL
 70
1
  9
$DIMLIM
 70
0
  9
$DIMTFAC
 40
1.0
  9
$DIMTP
 40
0.005
  9
$DIMTM
 40
0.005
  9
$PDMODE
 70
3
  9
$PDSIZE
 40
0.3125
  9
$HANDSEED
  5
5AE
  9
$TILEMODE
 70
1
  9
$MEASUREMENT
 70
1
  9
$INSUNITS
 70
4
  0
ENDSEC
  0
SECTION
  2
CLASSES
  0
CLASS
  1
ACDBDICTIONARYWDFLT
  2
AcDbDictionaryWithDefault
  3
AutoCAD 2000
 90
0
280
0
281
0
  0
CLASS
  1
ACDBPLACEHOLDER
  2
AcDbPlaceHolder
  3
AutoCAD 2000
 90
0
280
0
281
0
  0
CLASS
  1
LAYOUT
  2
AcDbLayout
  3
AutoCAD 2000
 90
0
280
0
281
0
  0
ENDSEC
  0
SECTION
  2
TABLES
  0
TABLE
  2
VPORT
  5
8
100
AcDbSymbolTable
 70
2
  0
VPORT
  5
1F4
100
AcDbSymbolTableRecord
100
AcDbViewportTableRecord
  2
*ACTIVE
 70
0
 10
0.0
 20
0.0
 11
1.0
 21
1.0
 12
594.5
 22
420.5
 13
0.0
 23
0.0
 14
1.0
 24
1.0
 15
0.0
 25
0.0
 16
0.0
 26
0.0
 36
1.0
 17
0.0
 27
0.0
 37
0.0
 40
841.0
 41
1.4137931034
 42
50.0
 43
0.0
 44
0.0
 50
0.0
 51
0.0
 71
0
 72
100
 73
1
 74
1
 75
0
 76
0
 77
0
 78
0
  0
ENDTAB
  0
TABLE
  2
LTYPE
  5
5
100
AcDbSymbolTable
 70
6
  0
LTYPE
  5
14
100
AcDbSymbolTableRecord
100
AcDbLinetypeTableRecord
  2
BYBLOCK
 70
0
  3

 72
65
 73
0
 40
0.0
  0
LTYPE
  5
15
100
AcDbSymbolTableRecord
100
AcDbLinetypeTableRecord
  2
BYLAYER
 70
0
  3

 72
65
 73
0
 40
0.0
  0
LTYPE
  5
16
100
AcDbSymbolTableRecord
100
AcDbLinetypeTableRecord
  2
CONTINUOUS
 70
64
  3
Solid line
 72
65
 73
0
 40
0.0
  0
LTYPE
  5
1F5
100
AcDbSymbolTableRecord
100
AcDbLinetypeTableRecord
  2
CENTER
 70
64
  3
____ _ ____ _ ____ _ ____ _ ____ _ ____ _ ____
 72
65
 73
4
 40
0.6
 49
0.375
 74
0
 49
-0.075
 74
0
 49
0.075
 74
0
 49
-0.075
 74
0
  0
LTYPE
  5
1F6
100
AcDbSymbolTableRecord
100
AcDbLinetypeTableRecord
  2
HIDDEN
 70
64
  3
- - - - - - - - - - - - - - - - - - - -
 72
65
 73
2
 40
0.2
 49
0.1
 74
0
 49
-0.1
 74
0
  0
LTYPE
  5
1F7
100
AcDbSymbolTableRecord
100
AcDbLinetypeTableRecord
  2
PHANTOM
 70
64
  3
_____ _ _ _____ _ _ _____ _ _ _____
 72
65
 73
6
 40
0.8
 49
0.45
 74
0
 49
-0.05
 74
0
 49
0.1
 74
0
 49
-0.05
 74
0
 49
0.1
 74
0
 49
-0.05
 74
0
  0
LTYPE
  5
1F8
100
AcDbSymbolTableRecord
100
AcDbLinetypeTableRecord
  2
DOT
 70
64
  3
. . . . . . . . . . . . . . . . . . . .
 72
65
 73
2
 40
0.2
 49
0.1
 74
0
 49
-0.1
 74
0
  0
LTYPE
  5
1F9
100
AcDbSymbolTableRecord
100
AcDbLinetypeTableRecord
  2
DASHED
 70
64
  3
- - - - - - - - - - - - - - - - - - - -
 72
65
 73
2
 40
0.2
 49
0.1
 74
0
 49
-0.1
 74
0
  0
ENDTAB
  0
TABLE
  2
LAYER
  5
2
100
AcDbSymbolTable
 70
36
  0
LAYER
  5
10
100
AcDbSymbolTableRecord
100
AcDbLayerTableRecord
  2
0
 70
0
 62
7
  6
CONTINUOUS
370
-3
390
F
  0
LAYER
  5
1FA
100
AcDbSymbolTableRecord
100
AcDbLayerTableRecord
  2
DEFAULT_1
 70
0
 62
7
  6
CENTER
370
-3
390
F
  0
LAYER
  5
1FB
100
AcDbSymbolTableRecord
100
AcDbLayerTableRecord
  2
DEFAULT_2
 70
0
 62
8
  6
HIDDEN
370
-3
390
F
  0
LAYER
  5
1FC
100
AcDbSymbolTableRecord
100
AcDbLayerTableRecord
  2
DEFAULT_3
 70
0
 62
7
  6
PHANTOM
370
-3
390
F
  0
LAYER
  5
1FD
100
AcDbSymbolTableRecord
100
AcDbLayerTableRecord
  2
AUSFORMSCHRAEGEN
 70
0
 62
7
  6
CONTINUOUS
370
-3
390
F
  0
LAYER
  5
1FE
100
AcDbSymbolTableRecord
100
AcDbLayerTableRecord
  2
BEZUGSACHSEN
 70
0
 62
7
  6
CONTINUOUS
370
-3
390
F
  0
LAYER
  5
1FF
100
AcDbSymbolTableRecord
100
AcDbLayerTableRecord
  2
BEZUGSEBENEN
 70
0
 62
7
  6
CONTINUOUS
370
-3
390
F
  0
LAYER
  5
200
100
AcDbSymbolTableRecord
100
AcDbLayerTableRecord
  2
BG_STARTBEZUEGE
 70
0
 62
7
  6
CONTINUOUS
370
-3
390
F
  0
LAYER
  5
201
100
AcDbSymbolTableRecord
100
AcDbLayerTableRecord
  2
BOHRUNGEN
 70
0
 62
7
  6
CONTINUOUS
370
-3
390
F
  0
LAYER
  5
202
100
AcDbSymbolTableRecord
100
AcDbLayerTableRecord
  2
FASEN
 70
0
 62
7
  6
CONTINUOUS
370
-3
390
F
  0
LAYER
  5
203
100
AcDbSymbolTableRecord
100
AcDbLayerTableRecord
  2
HILFEN
 70
0
 62
7
  6
CONTINUOUS
370
-3
390
F
  0
LAYER
  5
204
100
AcDbSymbolTableRecord
100
AcDbLayerTableRecord
  2
KONSTRUKTIONSELEMENTE
 70
0
 62
7
  6
CONTINUOUS
370
-3
390
F
  0
LAYER
  5
205
100
AcDbSymbolTableRecord
100
AcDbLayerTableRecord
  2
KURVEN
 70
0
 62
7
  6
CONTINUOUS
370
-3
390
F
  0
LAYER
  5
206
100
AcDbSymbolTableRecord
100
AcDbLayerTableRecord
  2
NORM
 70
0
 62
7
  6
CONTINUOUS
370
-3
390
F
  0
LAYER
  5
207
100
AcDbSymbolTableRecord
100
AcDbLayerTableRecord
  2
PLATZIERUNG
 70
0
 62
7
  6
CONTINUOUS
370
-3
390
F
  0
LAYER
  5
208
100
AcDbSymbolTableRecord
100
AcDbLayerTableRecord
  2
RUNDUNGEN
 70
0
 62
7
  6
CONTINUOUS
370
-3
390
F
  0
LAYER
  5
209
100
AcDbSymbolTableRecord
100
AcDbLayerTableRecord
  2
TEIL_STARTBEZUEGE
 70
0
 62
7
  6
CONTINUOUS
370
-3
390
F
  0
LAYER
  5
20A
100
AcDbSymbolTableRecord
100
AcDbLayerTableRecord
  2
T_STARTBEZUEGE
 70
0
 62
7
  6
CONTINUOUS
370
-3
390
F
  0
LAYER
  5
20B
100
AcDbSymbolTableRecord
100
AcDbLayerTableRecord
  2
ZEICHNUNGSBEMASSUNGEN
 70
0
 62
7
  6
CONTINUOUS
370
-3
390
F
  0
ENDTAB
  0
TABLE
  2
STYLE
  5
3
100
AcDbSymbolTable
 70
1
  0
STYLE
  5
11
100
AcDbSymbolTableRecord
100
AcDbTextStyleTableRecord
  2
STANDARD
 70
0
 40
0.0
 41
0.7
 50
0.0
 71
0
 42
0.2
  3
txt
  4

  0
STYLE
  5
20C
100
AcDbSymbolTableRecord
100
AcDbTextStyleTableRecord
  2
TEXTSTYLE_1
 70
0
 40
0.0
 41
0.8
 50
0.0
 71
0
 42
0.2
  3
gdt
  4

  0
ENDTAB
  0
TABLE
  2
VIEW
  5
6
100
AcDbSymbolTable
 70
0
  0
ENDTAB
  0
TABLE
  2
UCS
  5
7
100
AcDbSymbolTable
 70
0
  0
ENDTAB
  0
TABLE
  2
APPID
  5
9
100
AcDbSymbolTable
 70
1
  0
APPID
  5
20D
100
AcDbSymbolTableRecord
100
AcDbRegAppTableRecord
  2
ACAD
 70
0
  0
ENDTAB
  0
TABLE
  2
BLOCK_RECORD
  5
1
100
AcDbSymbolTable
 70
0
  0
BLOCK_RECORD
  5
20E
100
AcDbSymbolTableRecord
100
AcDbBlockTableRecord
  2
*Model_Space
  0
BLOCK_RECORD
  5
20F
100
AcDbSymbolTableRecord
100
AcDbBlockTableRecord
  2
*Paper_Space
  0
ENDTAB
  0
TABLE
  2
DIMSTYLE
  5
A
100
AcDbSymbolTable
 70
1
100
AcDbDimStyleTable
 71
0
  0
DIMSTYLE
105
210
100
AcDbSymbolTableRecord
100
AcDbDimStyleTableRecord
  2
STANDARD
 70
0
  3

  4

 40
1.0
 41
3.5
 42
0.0625
 43
0.38
 44
0.18
 45
0.0
 46
0.0
 47
0.005
 48
0.005
140
3.5
141
0.09
142
0.0
143
25.4
144
1.0
145
0.0
146
1.0
147
0.09
 71
1.0
 72
0.0
 73
0
 74
0
 75
0
 76
0
 77
1
 78
8
170
0
171
2
172
0
173
0
174
0
175
0
176
0
177
0
178
5
270
2
271
3
272
3
273
2
274
2
275
0
280
0
281
0
282
0
283
1
284
8
285
0
286
0
287
3
288
0
340
11
  0
ENDTAB
  0
ENDSEC
  0
SECTION
  2
BLOCKS
  0
BLOCK
  5
20
100
AcDbEntity
  8
0
100
AcDbBlockBegin
  2
*Model_Space
 70
0
 10
0.0
 20
0.0
 30
0.0
  3
*Model_Space
  1

  0
ENDBLK
  5
21
100
AcDbEntity
  8
0
100
AcDbBlockEnd
  0
BLOCK
  5
1C
100
AcDbEntity
  8
0
100
AcDbBlockBegin
  2
*Paper_Space
 70
0
 10
0.0
 20
0.0
 30
0.0
  3
*Paper_Space
  1

  0
ENDBLK
  5
1D
100
AcDbEntity
  8
0
100
AcDbBlockEnd
  0
ENDSEC
  0
SECTION
  2
ENTITIES
  0
MTEXT
  5
211
100
AcDbEntity
  8
0
100
AcDbMText
 62
5
  6
CONTINUOUS
  7
STANDARD
 71
1
 72
1
 10
395.2077335279
 20
471.8854869063
 30
0.0
 11
1.0
 21
0.0
 31
0.0
 44
0.9
  1
VWK-2S-16
 40
10.0
 41
75.2380952381
  0
MTEXT
  5
212
100
AcDbEntity
  8
0
100
AcDbMText
 62
5
  6
CONTINUOUS
  7
STANDARD
 71
1
 72
1
 10
801.7509927423
 20
574.9602916827
 30
0.0
 11
0.0
 21
1.0
 31
0.0
 44
0.9
  1
VWK-2S-16
 40
10.0
 41
75.2380952381
  0
LINE
  5
213
100
AcDbEntity
  8
0
100
AcDbLine
 62
7
  6
CONTINUOUS
 10
0.0
 20
0.0
 11
0.0
 21
841.0
  0
LINE
  5
214
100
AcDbEntity
  8
0
100
AcDbLine
 62
7
  6
CONTINUOUS
 10
0.0
 20
0.0
 11
1189.0
 21
0.0
  0
LINE
  5
215
100
AcDbEntity
  8
0
100
AcDbLine
 62
7
  6
CONTINUOUS
 10
0.0
 20
841.0
 11
1189.0
 21
841.0
  0
LINE
  5
216
100
AcDbEntity
  8
0
100
AcDbLine
 62
7
  6
CONTINUOUS
 10
1189.0
 20
0.0
 11
1189.0
 21
841.0
  0
LINE
  5
217
100
AcDbEntity
  8
RUNDUNGEN
100
AcDbLine
 62
7
  6
CONTINUOUS
 10
590.9830457846
 20
114.2952636125
 11
597.9074978741
 21
115.023052854
  0
LINE
  5
218
100
AcDbEntity
  8
AUSFORMSCHRAEGEN
100
AcDbLine
 62
7
  6
CONTINUOUS
 10
590.8577663695
 20
114.2820962154
 11
597.9074978741
 21
115.023052854
  0
LINE
  5
219
100
AcDbEntity
  8
BEZUGSACHSEN
100
AcDbLine
 62
7
  6
CONTINUOUS
 10
590.8577663695
 20
114.2820962154
 11
590.9830457846
 21
114.2952636125
  0
LINE
  5
21A
100
AcDbEntity
  8
RUNDUNGEN
100
AcDbLine
 62
7
  6
CONTINUOUS
 10
290.9830457846
 20
114.2952636125
 11
297.9074978741
 21
115.023052854
  0
LINE
  5
21B
100
AcDbEntity
  8
AUSFORMSCHRAEGEN
100
AcDbLine
 62
7
  6
CONTINUOUS
 10
290.8577663695
 20
114.2820962154
 11
297.9074978741
 21
115.023052854
  0
LINE
  5
21C
100
AcDbEntity
  8
BEZUGSACHSEN
100
AcDbLine
 62
7
  6
CONTINUOUS
 10
290.8577663695
 20
114.2820962154
 11
290.9830457846
 21
114.2952636125
  0
LINE
  5
21D
100
AcDbEntity
  8
BEZUGSACHSEN
100
AcDbLine
 62
7
  6
CONTINUOUS
 10
290.8577663695
 20
114.2820962154
 11
283.8080348649
 21
115.023052854
  0
LINE
  5
21E
100
AcDbEntity
  8
BEZUGSACHSEN
100
AcDbLine
 62
7
  6
CONTINUOUS
 10
590.8577663695
 20
114.2820962154
 11
583.8080348649
 21
115.023052854
  0
LINE
  5
21F
100
AcDbEntity
  8
BEZUGSACHSEN
100
AcDbLine
 62
7
  6
CONTINUOUS
 10
275.6554028916
 20
172.7706794091
 11
276.5460406687
 21
171.880041632
  0
LINE
  5
220
100
AcDbEntity
  8
KONSTRUKTIONSELEMENTE
100
AcDbLine
 62
7
  6
CONTINUOUS
 10
185.9457717517
 20
291.5296229723
 11
182.4102378458
 21
295.0651568783
  0
LINE
  5
221
100
AcDbEntity
  8
KONSTRUKTIONSELEMENTE
100
AcDbLine
 62
7
  6
CONTINUOUS
 10
208.5731887497
 20
314.1570399703
 11
205.0376548438
 21
317.6925738762
  0
LINE
  5
222
100
AcDbEntity
  8
RUNDUNGEN
100
AcDbLine
 62
7
  6
CONTINUOUS
 10
305.1694832293
 20
218.0742702009
 11
306.060177707
 21
217.1835757233
  0
LINE
  5
223
100
AcDbEntity
  8
BEZUGSACHSEN
100
AcDbLine
 62
7
  6
CONTINUOUS
 10
305.1694832293
 20
218.0742702009
 11
306.060177707
 21
217.1835757233
  0
LINE
  5
224
100
AcDbEntity
  8
RUNDUNGEN
100
AcDbLine
 62
7
  6
CONTINUOUS
 10
306.503999893
 20
216.664416175
 11
306.4967706303
 21
216.6743350989
  0
LINE
  5
225
100
AcDbEntity
  8
RUNDUNGEN
100
AcDbLine
 62
7
  6
CONTINUOUS
 10
281.0544786425
 20
217.3650534467
 11
281.1014564807
 21
217.2658161015
  0
LINE
  5
226
100
AcDbEntity
  8
BEZUGSACHSEN
100
AcDbLine
 62
7
  6
CONTINUOUS
 10
281.0544786278
 20
217.3650534799
 11
281.1014564807
 21
217.2658161015
  0
LINE
  5
227
100
AcDbEntity
  8
0
100
AcDbLine
 62
7
  6
CONTINUOUS
 10
457.4827651774
 20
256.6711940064
 11
456.2327663695
 21
256.3520451083
  0
LINE
  5
228
100
AcDbEntity
  8
0
100
AcDbLine
 62
7
  6
CONTINUOUS
 10
442.4827669655
 20
256.6711940064
 11
441.2327663695
 21
256.3520451083
  0
LINE
  5
229
100
AcDbEntity
  8
0
100
AcDbLine
 62
7
  6
CONTINUOUS
 10
456.2327663695
 20
254.437151496
 11
457.7952675616
 21
254.7563004221
  0
LINE
  5
22A
100
AcDbEntity
  8
0
100
AcDbLine
 62
7
  6
CONTINUOUS
 10
441.2327663695
 20
254.437151496
 11
442.7952657734
 21
254.7563004221
  0
LINE
  5
22B
100
AcDbEntity
  8
BEZUGSACHSEN
100
AcDbLine
 62
7
  6
CONTINUOUS
 10
300.848747813
 20
226.6217666128
 11
440.8577663695
 21
251.3091341268
  0
LINE
  5
22C
100
AcDbEntity
  8
0
100
AcDbLine
 62
7
  6
CONTINUOUS
 10
333.4839204558
 20
240.4996409649
 11
334.7969973815
 21
240.7311718547
  0
LINE
  5
22D
100
AcDbEntity
  8
0
100
AcDbLine
 62
7
  6
CONTINUOUS
 10
340.0493050845
 20
241.6572954137
 11
341.3623827147
 21
241.8888264276
  0
LINE
  5
22E
100
AcDbEntity
  8
0
100
AcDbLine
 62
7
  6
CONTINUOUS
 10
343.9885360966
 20
242.3518881244
 11
345.3016137267
 21
242.5834191383
  0
LINE
  5
22F
100
AcDbEntity
  8
0
100
AcDbLine
 62
7
  6
CONTINUOUS
 10
352.5235369358
 20
243.8568390527
 11
353.5083446888
 21
244.0304872303
  0
LINE
  5
230
100
AcDbEntity
  8
0
100
AcDbLine
 62
7
  6
CONTINUOUS
 10
357.4475757008
 20
244.725079941
 11
358.2682494545
 21
244.8697868661
  0
LINE
  5
231
100
AcDbEntity
  8
0
100
AcDbLine
 62
7
  6
CONTINUOUS
 10
372.5479599948
 20
247.3876851111
 11
373.8610395033
 21
247.6192164563
  0
LINE
  5
232
100
AcDbEntity
  8
0
100
AcDbLine
 62
7
  6
CONTINUOUS
 10
377.8002705153
 20
248.3138091669
 11
378.7850782683
 21
248.4874573446
  0
LINE
  5
233
100
AcDbEntity
  8
0
100
AcDbLine
 62
7
  6
CONTINUOUS
 10
380.0981540201
 20
248.7189880273
 11
381.0829617731
 21
248.892636205
  0
LINE
  5
234
100
AcDbEntity
  8
0
100
AcDbLine
 62
7
  6
CONTINUOUS
 10
358.2845977676
 20
245.736862394
 11
357.1356560152
 21
245.5342729638
  0
LINE
  5
235
100
AcDbEntity
  8
0
100
AcDbLine
 62
7
  6
CONTINUOUS
 10
347.4252967437
 20
245.8961373725
 11
349.7231802485
 21
246.3013162329
  0
LINE
  5
236
100
AcDbEntity
  8
0
100
AcDbLine
 62
7
  6
CONTINUOUS
 10
380.4622618952
 20
252.4128001381
 11
383.4166851542
 21
252.9337446711
  0
LINE
  5
237
100
AcDbEntity
  8
0
100
AcDbLine
 62
7
  6
CONTINUOUS
 10
349.5753945416
 20
247.1394506257
 11
347.2775110368
 21
246.7342717653
  0
LINE
  5
238
100
AcDbEntity
  8
0
100
AcDbLine
 62
7
  6
CONTINUOUS
 10
356.5445132911
 20
248.8868099479
 11
357.6934550435
 21
249.0893993781
  0
LINE
  5
239
100
AcDbEntity
  8
0
100
AcDbLine
 62
7
  6
CONTINUOUS
 10
383.4034782334
 20
253.9684472444
 11
380.2849190966
 21
253.4185611276
  0
LINE
  5
23A
100
AcDbEntity
  8
0
100
AcDbLine
 62
7
  6
CONTINUOUS
 10
357.3815353786
 20
249.8985922835
 11
356.560861625
 21
249.7538853584
  0
LINE
  5
23B
100
AcDbEntity
  8
BEZUGSACHSEN
100
AcDbLine
 62
7
  6
CONTINUOUS
 10
590.8577663695
 20
275.6722067766
 11
583.8080348649
 21
274.931250138
  0
LINE
  5
23C
100
AcDbEntity
  8
0
100
AcDbLine
 62
7
  6
CONTINUOUS
 10
420.6077663695
 20
254.437151496
 11
422.4827663695
 21
254.437151496
  0
LINE
  5
23D
100
AcDbEntity
  8
0
100
AcDbLine
 62
7
  6
CONTINUOUS
 10
430.2952660715
 20
254.437151496
 11
432.4827666675
 21
254.437151496
  0
LINE
  5
23E
100
AcDbEntity
  8
0
100
AcDbLine
 62
7
  6
CONTINUOUS
 10
439.9827657734
 20
254.437151496
 11
441.2327663695
 21
254.437151496
  0
LINE
  5
23F
100
AcDbEntity
  8
0
100
AcDbLine
 62
7
  6
CONTINUOUS
 10
448.7327663695
 20
254.437151496
 11
456.2327663695
 21
254.437151496
  0
LINE
  5
240
100
AcDbEntity
  8
0
100
AcDbLine
 62
7
  6
CONTINUOUS
 10
456.2327663695
 20
256.3520451083
 11
450.6077663695
 21
256.3520451083
  0
LINE
  5
241
100
AcDbEntity
  8
0
100
AcDbLine
 62
7
  6
CONTINUOUS
 10
441.2327663695
 20
256.3520451083
 11
439.9827657734
 21
256.3520451083
  0
LINE
  5
242
100
AcDbEntity
  8
0
100
AcDbLine
 62
7
  6
CONTINUOUS
 10
422.4827663695
 20
261.1392792507
 11
427.7952662205
 21
261.1392792507
  0
LINE
  5
243
100
AcDbEntity
  8
0
100
AcDbLine
 62
7
  6
CONTINUOUS
 10
356.5973448115
 20
244.7479998621
 11
357.4475757008
 21
244.725079941
  0
LINE
  5
244
100
AcDbEntity
  8
0
100
AcDbLine
 62
7
  6
CONTINUOUS
 10
358.231764387
 20
249.8756720459
 11
357.3815353786
 21
249.8985922835
  0
LINE
  5
245
100
AcDbEntity
  8
0
100
AcDbLine
 62
7
  6
CONTINUOUS
 10
357.5651590421
 20
252.6963874
 11
356.7149281554
 21
252.7193073065
  0
LINE
  5
246
100
AcDbEntity
  8
0
100
AcDbLine
 62
7
  6
CONTINUOUS
 10
383.4984286192
 20
257.2691225244
 11
382.6481996108
 21
257.2920427621
  0
LINE
  5
247
100
AcDbEntity
  8
0
100
AcDbLine
 62
7
  6
CONTINUOUS
 10
357.1356560152
 20
245.5342729638
 11
356.6136950056
 21
245.6150757066
  0
LINE
  5
248
100
AcDbEntity
  8
0
100
AcDbLine
 62
7
  6
CONTINUOUS
 10
357.6934550435
 20
249.0893993781
 11
358.2154160531
 21
249.0085966354
  0
LINE
  5
249
100
AcDbEntity
  8
0
100
AcDbLine
 62
7
  6
CONTINUOUS
 10
357.0268496986
 20
251.9101147323
 11
357.5488107082
 21
251.8293119895
  0
LINE
  5
24A
100
AcDbEntity
  8
0
100
AcDbLine
 62
7
  6
CONTINUOUS
 10
382.9601211541
 20
256.4828501879
 11
383.4820821637
 21
256.4020474451
  0
LINE
  5
24B
100
AcDbEntity
  8
BEZUGSACHSEN
100
AcDbLine
 62
7
  6
CONTINUOUS
 10
580.866784926
 20
226.6217666128
 11
440.8577663695
 21
251.3091341268
  0
LINE
  5
24C
100
AcDbEntity
  8
0
100
AcDbLine
 62
7
  6
CONTINUOUS
 10
355.6880015292
 20
245.106173807
 11
356.5973448115
 21
244.7479998621
  0
LINE
  5
24D
100
AcDbEntity
  8
0
100
AcDbLine
 62
7
  6
CONTINUOUS
 10
359.1411095399
 20
249.5174984762
 11
358.231764387
 21
249.8756720459
  0
LINE
  5
24E
100
AcDbEntity
  8
0
100
AcDbLine
 62
7
  6
CONTINUOUS
 10
358.474504195
 20
252.3382138304
 11
357.5651590421
 21
252.6963874
  0
LINE
  5
24F
100
AcDbEntity
  8
0
100
AcDbLine
 62
7
  6
CONTINUOUS
 10
356.6136950056
 20
245.6150757066
 11
356.0621768629
 21
245.8635052809
  0
LINE
  5
250
100
AcDbEntity
  8
0
100
AcDbLine
 62
7
  6
CONTINUOUS
 10
358.2154160531
 20
249.0085966354
 11
358.7669341958
 21
248.760167061
  0
LINE
  5
251
100
AcDbEntity
  8
0
100
AcDbLine
 62
7
  6
CONTINUOUS
 10
357.5488107082
 20
251.8293119895
 11
358.1003288509
 21
251.5808824151
  0
LINE
  5
252
100
AcDbEntity
  8
0
100
AcDbLine
 62
7
  6
CONTINUOUS
 10
358.7669341958
 20
248.760167061
 11
359.1543183392
 21
248.4827962341
  0
LINE
  5
253
100
AcDbEntity
  8
0
100
AcDbLine
 62
7
  6
CONTINUOUS
 10
359.7221848157
 20
249.1014420703
 11
359.1411095399
 21
249.5174984762
  0
LINE
  5
254
100
AcDbEntity
  8
RUNDUNGEN
100
AcDbLine
 62
7
  6
CONTINUOUS
 10
280.9875388543
 20
217.5349362697
 11
281.0544786425
 21
217.3650534467
  0
LINE
  5
255
100
AcDbEntity
  8
0
100
AcDbLine
 62
7
  6
CONTINUOUS
 10
358.517268249
 20
251.1358844254
 11
359.3379420026
 21
251.2805913506
  0
LINE
  5
256
100
AcDbEntity
  8
0
100
AcDbLine
 62
7
  6
CONTINUOUS
 10
356.0420419456
 20
251.7364665546
 11
357.0268496986
 21
251.9101147323
  0
LINE
  5
257
100
AcDbEntity
  8
0
100
AcDbLine
 62
7
  6
CONTINUOUS
 10
379.8415620173
 20
255.9329640711
 11
382.9601211541
 21
256.4828501879
  0
LINE
  5
258
100
AcDbEntity
  8
0
100
AcDbLine
 62
7
  6
CONTINUOUS
 10
382.6481996108
 20
257.2920427621
 11
378.7089685988
 21
256.5974500514
  0
LINE
  5
259
100
AcDbEntity
  8
0
100
AcDbLine
 62
7
  6
CONTINUOUS
 10
377.395892847
 20
256.3659193687
 11
376.411085094
 21
256.192271191
  0
LINE
  5
25A
100
AcDbEntity
  8
0
100
AcDbLine
 62
7
  6
CONTINUOUS
 10
375.0980055855
 20
255.9607398459
 11
374.1131978325
 21
255.7870916682
  0
LINE
  5
25B
100
AcDbEntity
  8
0
100
AcDbLine
 62
7
  6
CONTINUOUS
 10
369.5174308229
 20
254.9767339474
 11
368.5326230699
 21
254.8030857697
  0
LINE
  5
25C
100
AcDbEntity
  8
0
100
AcDbLine
 62
7
  6
CONTINUOUS
 10
356.7149281554
 20
252.7193073065
 11
356.0583902795
 21
252.6035419651
  0
LINE
  5
25D
100
AcDbEntity
  8
0
100
AcDbLine
 62
7
  6
CONTINUOUS
 10
352.1191592674
 20
251.9089492544
 11
351.1343515144
 21
251.7353010768
  0
LINE
  5
25E
100
AcDbEntity
  8
0
100
AcDbLine
 62
7
  6
CONTINUOUS
 10
345.2255049963
 20
250.6934120108
 11
344.2406972433
 21
250.5197638331
  0
LINE
  5
25F
100
AcDbEntity
  8
0
100
AcDbLine
 62
7
  6
CONTINUOUS
 10
341.9428127994
 20
250.1145848071
 11
340.6297351692
 21
249.8830537931
  0
LINE
  5
260
100
AcDbEntity
  8
0
100
AcDbLine
 62
7
  6
CONTINUOUS
 10
338.3318507253
 20
249.4778747671
 11
337.3470429723
 21
249.3042265894
  0
LINE
  5
261
100
AcDbEntity
  8
0
100
AcDbLine
 62
7
  6
CONTINUOUS
 10
336.0339658117
 20
249.0726956583
 11
335.0491580587
 21
248.8990474806
  0
LINE
  5
262
100
AcDbEntity
  8
0
100
AcDbLine
 62
7
  6
CONTINUOUS
 10
330.4533887012
 20
248.0886893458
 11
329.4685809482
 21
247.9150411681
  0
LINE
  5
263
100
AcDbEntity
  8
BEZUGSACHSEN
100
AcDbLine
 62
7
  6
CONTINUOUS
 10
290.8577663695
 20
275.6722067766
 11
283.8080348649
 21
274.931250138
  0
LINE
  5
264
100
AcDbEntity
  8
0
100
AcDbLine
 62
7
  6
CONTINUOUS
 10
428.4202660715
 20
263.0541726394
 11
422.4827663695
 21
263.0541726394
  0
LINE
  5
265
100
AcDbEntity
  8
0
100
AcDbLine
 62
7
  6
CONTINUOUS
 10
450.6077663695
 20
267.5222581073
 11
456.2327663695
 21
267.5222581073
  0
LINE
  5
266
100
AcDbEntity
  8
0
100
AcDbLine
 62
7
  6
CONTINUOUS
 10
422.4827663695
 20
267.8414070054
 11
428.4202660715
 21
267.8414070054
  0
LINE
  5
267
100
AcDbEntity
  8
0
100
AcDbLine
 62
7
  6
CONTINUOUS
 10
456.2327663695
 20
269.437151496
 11
448.7327663695
 21
269.437151496
  0
LINE
  5
268
100
AcDbEntity
  8
0
100
AcDbLine
 62
7
  6
CONTINUOUS
 10
446.2327669655
 20
269.437151496
 11
444.3577669655
 21
269.437151496
  0
LINE
  5
269
100
AcDbEntity
  8
0
100
AcDbLine
 62
7
  6
CONTINUOUS
 10
436.8577669655
 20
269.437151496
 11
434.9827660715
 21
269.437151496
  0
LINE
  5
26A
100
AcDbEntity
  8
0
100
AcDbLine
 62
7
  6
CONTINUOUS
 10
428.1077663695
 20
269.437151496
 11
420.6077663695
 21
269.437151496
  0
LINE
  5
26B
100
AcDbEntity
  8
RUNDUNGEN
100
AcDbLine
 62
7
  6
CONTINUOUS
 10
290.9830457846
 20
275.6590393795
 11
297.9074978741
 21
274.931250138
  0
LINE
  5
26C
100
AcDbEntity
  8
AUSFORMSCHRAEGEN
100
AcDbLine
 62
7
  6
CONTINUOUS
 10
290.8577663695
 20
275.6722067766
 11
297.9074978741
 21
274.931250138
  0
LINE
  5
26D
100
AcDbEntity
  8
BEZUGSACHSEN
100
AcDbLine
 62
7
  6
CONTINUOUS
 10
290.8577663695
 20
275.6722067766
 11
297.9074978741
 21
274.931250138
  0
LINE
  5
26E
100
AcDbEntity
  8
0
100
AcDbLine
 62
7
  6
CONTINUOUS
 10
438.4202663695
 20
254.7563004221
 11
439.9827657734
 21
254.437151496
  0
LINE
  5
26F
100
AcDbEntity
  8
0
100
AcDbLine
 62
7
  6
CONTINUOUS
 10
429.6702666675
 20
269.1180025979
 11
428.1077663695
 21
269.437151496
  0
LINE
  5
270
100
AcDbEntity
  8
0
100
AcDbLine
 62
7
  6
CONTINUOUS
 10
457.7952675616
 20
269.1180025979
 11
456.2327663695
 21
269.437151496
  0
LINE
  5
271
100
AcDbEntity
  8
0
100
AcDbLine
 62
7
  6
CONTINUOUS
 10
439.9827657734
 20
256.3520451083
 11
438.7327669655
 21
256.6711940064
  0
LINE
  5
272
100
AcDbEntity
  8
0
100
AcDbLine
 62
7
  6
CONTINUOUS
 10
456.2327663695
 20
267.5222581073
 11
457.4827651774
 21
267.2031092091
  0
LINE
  5
273
100
AcDbEntity
  8
0
100
AcDbLine
 62
7
  6
CONTINUOUS
 10
428.4202660715
 20
267.8414070054
 11
429.3577660715
 21
267.5222581073
  0
LINE
  5
274
100
AcDbEntity
  8
0
100
AcDbLine
 62
7
  6
CONTINUOUS
 10
384.2436397727
 20
256.8820077022
 11
383.4984286192
 21
257.2691225244
  0
LINE
  5
275
100
AcDbEntity
  8
0
100
AcDbLine
 62
7
  6
CONTINUOUS
 10
383.4820821637
 20
256.4020474451
 11
383.8694644286
 21
256.124676287
  0
LINE
  5
276
100
AcDbEntity
  8
0
100
AcDbLine
 62
7
  6
CONTINUOUS
 10
355.0773691099
 20
245.6898571033
 11
355.6880015292
 21
245.106173807
  0
LINE
  5
277
100
AcDbEntity
  8
0
100
AcDbLine
 62
7
  6
CONTINUOUS
 10
359.0851366039
 20
251.7545305928
 11
358.474504195
 21
252.3382138304
  0
LINE
  5
278
100
AcDbEntity
  8
0
100
AcDbLine
 62
7
  6
CONTINUOUS
 10
356.0621768629
 20
245.8635052809
 11
355.6452355658
 21
246.3085030568
  0
LINE
  5
279
100
AcDbEntity
  8
0
100
AcDbLine
 62
7
  6
CONTINUOUS
 10
358.1003288509
 20
251.5808824151
 11
358.517268249
 21
251.1358844254
  0
LINE
  5
27A
100
AcDbEntity
  8
0
100
AcDbLine
 62
7
  6
CONTINUOUS
 10
333.963115982
 20
241.621167496
 11
330.4533887012
 21
248.0886893458
  0
LINE
  5
27B
100
AcDbEntity
  8
0
100
AcDbLine
 62
7
  6
CONTINUOUS
 10
329.4685809482
 20
247.9150411681
 11
333.4839204558
 21
240.4996409649
  0
LWPOLYLINE
  5
27C
100
AcDbEntity
  8
BEZUGSACHSEN
100
AcDbPolyline
 62
7
  6
CONTINUOUS
 90
4
 70
0
 10
280.8971844173
 20
217.888445222
 10
280.9349856388
 20
217.7098055126
 10
280.9875388505
 20
217.5349362806
 10
281.0544786278
 20
217.3650534799
  0
LINE
  5
27D
100
AcDbEntity
  8
BEZUGSACHSEN
100
AcDbLine
 62
7
  6
CONTINUOUS
 10
277.7861389613
 20
169.3927973908
 11
280.7602333259
 21
148.2310163977
  0
LWPOLYLINE
  5
27E
100
AcDbEntity
  8
RUNDUNGEN
100
AcDbPolyline
 62
7
  6
CONTINUOUS
 90
5
 70
0
 10
280.866784926
 20
218.2520498112
 10
280.8743980313
 20
218.0696132545
 10
280.8971844141
 20
217.8884452409
 10
280.9349856368
 20
217.7098055204
 10
280.9875388543
 20
217.5349362697
  0
LWPOLYLINE
  5
27F
100
AcDbEntity
  8
BEZUGSACHSEN
100
AcDbPolyline
 62
7
  6
CONTINUOUS
 90
3
 70
0
 10
280.866784926
 20
218.2520498112
 10
280.8743980326
 20
218.0696132388
 10
280.8971844173
 20
217.888445222
  0
LINE
  5
280
100
AcDbEntity
  8
BEZUGSACHSEN
100
AcDbLine
 62
7
  6
CONTINUOUS
 10
274.3726463695
 20
214.0868415994
 11
274.3726463695
 21
204.9235871086
  0
LINE
  5
281
100
AcDbEntity
  8
RUNDUNGEN
100
AcDbLine
 62
7
  6
CONTINUOUS
 10
274.3726463695
 20
210.8405108872
 11
274.3726463695
 21
203.8120222442
  0
LINE
  5
282
100
AcDbEntity
  8
BEZUGSACHSEN
100
AcDbLine
 62
7
  6
CONTINUOUS
 10
274.3726463695
 20
203.8120222442
 11
274.3726463695
 21
175.8674606323
  0
LINE
  5
283
100
AcDbEntity
  8
RUNDUNGEN
100
AcDbLine
 62
7
  6
CONTINUOUS
 10
590.9830457846
 20
275.6590393795
 11
597.9074978741
 21
274.931250138
  0
LINE
  5
284
100
AcDbEntity
  8
AUSFORMSCHRAEGEN
100
AcDbLine
 62
7
  6
CONTINUOUS
 10
590.8577663695
 20
275.6722067766
 11
597.9074978741
 21
274.931250138
  0
LINE
  5
285
100
AcDbEntity
  8
BEZUGSACHSEN
100
AcDbLine
 62
7
  6
CONTINUOUS
 10
590.8577663695
 20
275.6722067766
 11
597.9074978741
 21
274.931250138
  0
LINE
  5
286
100
AcDbEntity
  8
0
100
AcDbLine
 62
7
  6
CONTINUOUS
 10
437.1702657734
 20
255.3945983021
 11
438.4202663695
 21
254.7563004221
  0
LINE
  5
287
100
AcDbEntity
  8
0
100
AcDbLine
 62
7
  6
CONTINUOUS
 10
459.0452663695
 20
268.4797048016
 11
457.7952675616
 21
269.1180025979
  0
LINE
  5
288
100
AcDbEntity
  8
0
100
AcDbLine
 62
7
  6
CONTINUOUS
 10
438.7327669655
 20
256.6711940064
 11
437.7952669655
 21
257.3094920262
  0
LINE
  5
289
100
AcDbEntity
  8
0
100
AcDbLine
 62
7
  6
CONTINUOUS
 10
384.8542721816
 20
256.2983244647
 11
384.2436397727
 21
256.8820077022
  0
LINE
  5
28A
100
AcDbEntity
  8
KONSTRUKTIONSELEMENTE
100
AcDbLine
 62
7
  6
CONTINUOUS
 10
266.4729354491
 20
372.0567866696
 11
262.9374015431
 21
375.5923205756
  0
LINE
  5
28B
100
AcDbEntity
  8
0
100
AcDbLine
 62
7
  6
CONTINUOUS
 10
354.6013135466
 20
246.4701085424
 11
355.0773691099
 21
245.6898571033
  0
LINE
  5
28C
100
AcDbEntity
  8
0
100
AcDbLine
 62
7
  6
CONTINUOUS
 10
360.1982403584
 20
248.3211907486
 11
359.7221848157
 21
249.1014420703
  0
LINE
  5
28D
100
AcDbEntity
  8
RUNDUNGEN
100
AcDbLine
 62
7
  6
CONTINUOUS
 10
319.4065473852
 20
291.1974022075
 11
334.6617764656
 21
264.7745703591
  0
LINE
  5
28E
100
AcDbEntity
  8
0
100
AcDbLine
 62
7
  6
CONTINUOUS
 10
355.6452355658
 20
246.3085030568
 11
355.3924301671
 21
246.7824422991
  0
LINE
  5
28F
100
AcDbEntity
  8
0
100
AcDbLine
 62
7
  6
CONTINUOUS
 10
359.1543183392
 20
248.4827962341
 11
359.4071237792
 21
248.0088567571
  0
LINE
  5
290
100
AcDbEntity
  8
0
100
AcDbLine
 62
7
  6
CONTINUOUS
 10
359.3379420026
 20
251.2805913506
 11
359.0851366039
 21
251.7545305928
  0
LINE
  5
291
100
AcDbEntity
  8
0
100
AcDbLine
 62
7
  6
CONTINUOUS
 10
344.3199464062
 20
244.3115490137
 11
341.9428127994
 21
250.1145848071
  0
LINE
  5
292
100
AcDbEntity
  8
0
100
AcDbLine
 62
7
  6
CONTINUOUS
 10
341.5522881822
 20
248.4901778158
 11
343.9885360966
 21
242.3518881244
  0
LINE
  5
293
100
AcDbEntity
  8
0
100
AcDbLine
 62
7
  6
CONTINUOUS
 10
337.3470429723
 20
249.3042265894
 11
340.0493050845
 21
241.6572954137
  0
LINE
  5
294
100
AcDbEntity
  8
RUNDUNGEN
100
AcDbLine
 62
7
  6
CONTINUOUS
 10
303.0237798606
 20
227.0052834467
 11
303.9293946175
 21
220.5614996256
  0
LINE
  5
295
100
AcDbEntity
  8
BEZUGSACHSEN
100
AcDbLine
 62
7
  6
CONTINUOUS
 10
303.0237798606
 20
227.0052834467
 11
303.9293946175
 21
220.5614996256
  0
LINE
  5
296
100
AcDbEntity
  8
BEZUGSACHSEN
100
AcDbLine
 62
7
  6
CONTINUOUS
 10
280.866784926
 20
146.7072581851
 11
280.866784926
 21
118.2896418454
  0
LINE
  5
297
100
AcDbEntity
  8
RUNDUNGEN
100
AcDbLine
 62
7
  6
CONTINUOUS
 10
280.866784926
 20
218.252243408
 11
280.866784926
 21
271.6646611466
  0
LINE
  5
298
100
AcDbEntity
  8
BEZUGSACHSEN
100
AcDbLine
 62
7
  6
CONTINUOUS
 10
280.866784926
 20
218.2522434056
 11
280.866784926
 21
271.6646611466
  0
LINE
  5
299
100
AcDbEntity
  8
RUNDUNGEN
100
AcDbLine
 62
7
  6
CONTINUOUS
 10
300.848747813
 20
271.6646611466
 11
300.848747813
 21
218.2520539504
  0
LINE
  5
29A
100
AcDbEntity
  8
BEZUGSACHSEN
100
AcDbLine
 62
7
  6
CONTINUOUS
 10
300.848747813
 20
271.6646611466
 11
300.848747813
 21
218.2520539498
  0
LINE
  5
29B
100
AcDbEntity
  8
RUNDUNGEN
100
AcDbLine
 62
7
  6
CONTINUOUS
 10
300.848747813
 20
146.7072581851
 11
300.848747813
 21
118.2896418454
  0
LINE
  5
29C
100
AcDbEntity
  8
0
100
AcDbLine
 62
7
  6
CONTINUOUS
 10
425.4018642218
 20
318.977151496
 11
402.9936102401
 21
318.977151496
  0
LINE
  5
29D
100
AcDbEntity
  8
BEZUGSACHSEN
100
AcDbLine
 62
7
  6
CONTINUOUS
 10
456.3138425172
 20
318.977151496
 11
478.7219224989
 21
318.977151496
  0
LINE
  5
29E
100
AcDbEntity
  8
0
100
AcDbLine
 62
7
  6
CONTINUOUS
 10
457.4827651774
 20
267.2031092091
 11
458.4202651774
 21
266.5648114129
  0
LINE
  5
29F
100
AcDbEntity
  8
0
100
AcDbLine
 62
7
  6
CONTINUOUS
 10
430.9202663695
 20
268.1605559035
 11
429.6702666675
 21
269.1180025979
  0
LINE
  5
2A0
100
AcDbEntity
  8
BEZUGSACHSEN
100
AcDbLine
 62
7
  6
CONTINUOUS
 10
294.8402160545
 20
400.424067275
 11
291.3046821485
 21
403.959601181
  0
LINE
  5
2A1
100
AcDbEntity
  8
KONSTRUKTIONSELEMENTE
100
AcDbLine
 62
7
  6
CONTINUOUS
 10
295.9008762262
 20
400.424067275
 11
299.4364101322
 21
396.8885333691
  0
LINE
  5
2A2
100
AcDbEntity
  8
KONSTRUKTIONSELEMENTE
100
AcDbLine
 62
7
  6
CONTINUOUS
 10
296.2544296168
 20
400.7776206656
 11
299.7899635228
 21
397.2420867597
  0
LINE
  5
2A3
100
AcDbEntity
  8
0
100
AcDbLine
 62
7
  6
CONTINUOUS
 10
435.9202669655
 20
256.6711940064
 11
437.1702657734
 21
255.3945983021
  0
LINE
  5
2A4
100
AcDbEntity
  8
0
100
AcDbLine
 62
7
  6
CONTINUOUS
 10
429.3577660715
 20
267.5222581073
 11
429.9827663695
 21
266.883960311
  0
LINE
  5
2A5
100
AcDbEntity
  8
0
100
AcDbLine
 62
7
  6
CONTINUOUS
 10
373.0271569297
 20
248.5092118906
 11
369.5174308229
 21
254.9767339474
  0
LINE
  5
2A6
100
AcDbEntity
  8
0
100
AcDbLine
 62
7
  6
CONTINUOUS
 10
368.5326230699
 20
254.8030857697
 11
372.5479599948
 21
247.3876851111
  0
LINE
  5
2A7
100
AcDbEntity
  8
0
100
AcDbLine
 62
7
  6
CONTINUOUS
 10
383.8694644286
 20
256.124676287
 11
384.1222717057
 21
255.650737376
  0
LINE
  5
2A8
100
AcDbEntity
  8
0
100
AcDbLine
 62
7
  6
CONTINUOUS
 10
385.1070794587
 20
255.8243855537
 11
384.8542721816
 21
256.2983244647
  0
LINE
  5
2A9
100
AcDbEntity
  8
0
100
AcDbLine
 62
7
  6
CONTINUOUS
 10
340.3807153941
 20
243.616956303
 11
338.3318507253
 21
249.4778747671
  0
LINE
  5
2AA
100
AcDbEntity
  8
0
100
AcDbLine
 62
7
  6
CONTINUOUS
 10
354.2302795741
 20
247.6145553458
 11
354.6013135466
 21
246.4701085424
  0
LINE
  5
2AB
100
AcDbEntity
  8
BEZUGSACHSEN
100
AcDbLine
 62
7
  6
CONTINUOUS
 10
307.3428863695
 20
214.0868415994
 11
307.3428863695
 21
204.9235871086
  0
LINE
  5
2AC
100
AcDbEntity
  8
RUNDUNGEN
100
AcDbLine
 62
7
  6
CONTINUOUS
 10
307.3428863695
 20
214.0868415994
 11
307.3428863695
 21
175.8674606323
  0
LWPOLYLINE
  5
2AD
100
AcDbEntity
  8
BEZUGSACHSEN
100
AcDbPolyline
 62
7
  6
CONTINUOUS
 90
3
 70
0
 10
300.8183485912
 20
217.8884565424
 10
300.8411347768
 20
218.0696223347
 10
300.848747813
 20
218.2520565872
  0
LINE
  5
2AE
100
AcDbEntity
  8
BEZUGSACHSEN
100
AcDbLine
 62
7
  6
CONTINUOUS
 10
278.7412793017
 20
227.3576822601
 11
277.7861381215
 21
220.5614996256
  0
LINE
  5
2AF
100
AcDbEntity
  8
0
100
AcDbLine
 62
7
  6
CONTINUOUS
 10
460.2952651774
 20
267.2031092091
 11
459.0452663695
 21
268.4797048016
  0
LINE
  5
2B0
100
AcDbEntity
  8
0
100
AcDbLine
 62
7
  6
CONTINUOUS
 10
431.8577663695
 20
266.883960311
 11
430.9202663695
 21
268.1605559035
  0
LINE
  5
2B1
100
AcDbEntity
  8
0
100
AcDbLine
 62
7
  6
CONTINUOUS
 10
437.7952669655
 20
257.3094920262
 11
437.1702657734
 21
258.2669387205
  0
LINE
  5
2B2
100
AcDbEntity
  8
0
100
AcDbLine
 62
7
  6
CONTINUOUS
 10
347.2775110368
 20
246.7342717653
 11
347.4252967437
 21
245.8961373725
  0
LINE
  5
2B3
100
AcDbEntity
  8
0
100
AcDbLine
 62
7
  6
CONTINUOUS
 10
349.7231802485
 20
246.3013162329
 11
349.5753945416
 21
247.1394506257
  0
LINE
  5
2B4
100
AcDbEntity
  8
0
100
AcDbLine
 62
7
  6
CONTINUOUS
 10
350.3564436931
 20
250.3882650779
 11
350.5929008407
 21
249.0472499556
  0
LINE
  5
2B5
100
AcDbEntity
  8
0
100
AcDbLine
 62
7
  6
CONTINUOUS
 10
351.3708085792
 20
250.394286424
 11
352.5235369358
 21
243.8568390527
  0
LINE
  5
2B6
100
AcDbEntity
  8
0
100
AcDbLine
 62
7
  6
CONTINUOUS
 10
353.5083446888
 20
244.0304872303
 11
352.1191592674
 21
251.9089492544
  0
LINE
  5
2B7
100
AcDbEntity
  8
0
100
AcDbLine
 62
7
  6
CONTINUOUS
 10
354.0233796424
 20
248.7879431669
 11
354.2302795741
 21
247.6145553458
  0
LINE
  5
2B8
100
AcDbEntity
  8
0
100
AcDbLine
 62
7
  6
CONTINUOUS
 10
354.9031657839
 20
248.5973960977
 11
354.8440515177
 21
248.9326497608
  0
LINE
  5
2B9
100
AcDbEntity
  8
0
100
AcDbLine
 62
7
  6
CONTINUOUS
 10
355.3924301671
 20
246.7824422991
 11
355.3037587678
 21
247.2853227939
  0
LINE
  5
2BA
100
AcDbEntity
  8
0
100
AcDbLine
 62
7
  6
CONTINUOUS
 10
359.4071237792
 20
248.0088567571
 11
359.4957951785
 21
247.5059762623
  0
LINE
  5
2BB
100
AcDbEntity
  8
0
100
AcDbLine
 62
7
  6
CONTINUOUS
 10
360.3460260653
 20
247.4830563558
 11
360.1982403584
 21
248.3211907486
  0
LINE
  5
2BC
100
AcDbEntity
  8
0
100
AcDbLine
 62
7
  6
CONTINUOUS
 10
353.9806137101
 20
249.9902722406
 11
354.0233796424
 21
248.7879431669
  0
LINE
  5
2BD
100
AcDbEntity
  8
0
100
AcDbLine
 62
7
  6
CONTINUOUS
 10
344.2406972433
 20
250.5197638331
 11
344.3199464062
 21
244.3115490137
  0
LINE
  5
2BE
100
AcDbEntity
  8
0
100
AcDbLine
 62
7
  6
CONTINUOUS
 10
354.8440515177
 20
248.9326497608
 11
354.8308445968
 21
249.9673523342
  0
LINE
  5
2BF
100
AcDbEntity
  8
0
100
AcDbLine
 62
7
  6
CONTINUOUS
 10
345.3016137267
 20
242.5834191383
 11
345.2255049963
 21
250.6934120108
  0
LINE
  5
2C0
100
AcDbEntity
  8
0
100
AcDbLine
 62
7
  6
CONTINUOUS
 10
334.8577663695
 20
549.977151496
 11
334.8577663695
 21
669.977151496
  0
LINE
  5
2C1
100
AcDbEntity
  8
0
100
AcDbLine
 62
7
  6
CONTINUOUS
 10
341.3623827147
 20
241.8888264276
 11
341.5522881822
 21
248.4901778158
  0
LINE
  5
2C2
100
AcDbEntity
  8
0
100
AcDbLine
 62
7
  6
CONTINUOUS
 10
340.6297351692
 20
249.8830537931
 11
340.3807153941
 21
243.616956303
  0
LINE
  5
2C3
100
AcDbEntity
  8
RUNDUNGEN
100
AcDbLine
 62
7
  6
CONTINUOUS
 10
303.9293937777
 20
169.3927973908
 11
300.9552994131
 21
148.2310163977
  0
LINE
  5
2C4
100
AcDbEntity
  8
KONSTRUKTIONSELEMENTE
100
AcDbLine
 62
7
  6
CONTINUOUS
 10
348.2267780341
 20
469.0134250501
 11
342.216370394
 21
463.0030174101
  0
LINE
  5
2C5
100
AcDbEntity
  8
KONSTRUKTIONSELEMENTE
100
AcDbLine
 62
7
  6
CONTINUOUS
 10
290.9511287579
 20
411.737775774
 11
284.9407211179
 21
405.7273681339
  0
LINE
  5
2C6
100
AcDbEntity
  8
KONSTRUKTIONSELEMENTE
100
AcDbLine
 62
7
  6
CONTINUOUS
 10
322.0638271301
 20
442.4969207556
 11
311.4572254124
 21
431.8903190378
  0
LINE
  5
2C7
100
AcDbEntity
  8
KONSTRUKTIONSELEMENTE
100
AcDbLine
 62
7
  6
CONTINUOUS
 10
391.3602916864
 20
506.1365310624
 11
350.3959028219
 21
465.1721421979
  0
LINE
  5
2C8
100
AcDbEntity
  8
KONSTRUKTIONSELEMENTE
100
AcDbLine
 62
7
  6
CONTINUOUS
 10
325.2458076455
 20
439.3149402403
 11
314.6392059277
 21
428.7083385225
  0
LINE
  5
2C9
100
AcDbEntity
  8
KONSTRUKTIONSELEMENTE
100
AcDbLine
 62
7
  6
CONTINUOUS
 10
349.2338496578
 20
462.949428862
 11
345.7519042999
 21
459.4674835041
  0
LINE
  5
2CA
100
AcDbEntity
  8
KONSTRUKTIONSELEMENTE
100
AcDbLine
 62
7
  6
CONTINUOUS
 10
294.4866626639
 20
408.2022418681
 11
288.4762550238
 21
402.191834228
  0
LINE
  5
2CB
100
AcDbEntity
  8
KONSTRUKTIONSELEMENTE
100
AcDbLine
 62
7
  6
CONTINUOUS
 10
182.4102378458
 20
295.0651568783
 11
290.4434773686
 21
403.098396401
  0
LINE
  5
2CC
100
AcDbEntity
  8
BEZUGSACHSEN
100
AcDbLine
 62
7
  6
CONTINUOUS
 10
290.4434773686
 20
403.098396401
 11
291.3046821485
 21
403.959601181
  0
LINE
  5
2CD
100
AcDbEntity
  8
KONSTRUKTIONSELEMENTE
100
AcDbLine
 62
7
  6
CONTINUOUS
 10
295.9008762262
 20
408.2022418681
 11
314.6095612014
 21
426.9109268433
  0
LINE
  5
2CE
100
AcDbEntity
  8
KONSTRUKTIONSELEMENTE
100
AcDbLine
 62
7
  6
CONTINUOUS
 10
327.0135745985
 20
439.3149402403
 11
345.7222595736
 21
458.0236252155
  0
LINE
  5
2CF
100
AcDbEntity
  8
KONSTRUKTIONSELEMENTE
100
AcDbLine
 62
7
  6
CONTINUOUS
 10
182.9759232708
 20
294.4994714533
 11
205.6033402687
 21
317.1268884513
  0
LINE
  5
2D0
100
AcDbEntity
  8
BEZUGSACHSEN
100
AcDbLine
 62
7
  6
CONTINUOUS
 10
575.6554028916
 20
172.7706794091
 11
576.5460406687
 21
171.880041632
  0
LINE
  5
2D1
100
AcDbEntity
  8
0
100
AcDbLine
 62
7
  6
CONTINUOUS
 10
458.4202651774
 20
266.5648114129
 11
459.0452663695
 21
265.6073638244
  0
LINE
  5
2D2
100
AcDbEntity
  8
0
100
AcDbLine
 62
7
  6
CONTINUOUS
 10
435.2952666675
 20
257.9477898224
 11
435.9202669655
 21
256.6711940064
  0
LINE
  5
2D3
100
AcDbEntity
  8
0
100
AcDbLine
 62
7
  6
CONTINUOUS
 10
376.411085094
 20
256.192271191
 11
377.8002705153
 21
248.3138091669
  0
LINE
  5
2D4
100
AcDbEntity
  8
0
100
AcDbLine
 62
7
  6
CONTINUOUS
 10
378.7850782683
 20
248.4874573446
 11
377.395892847
 21
256.3659193687
  0
LINE
  5
2D5
100
AcDbEntity
  8
0
100
AcDbLine
 62
7
  6
CONTINUOUS
 10
378.7089685988
 20
256.5974500514
 11
380.0981540201
 21
248.7189880273
  0
LINE
  5
2D6
100
AcDbEntity
  8
0
100
AcDbLine
 62
7
  6
CONTINUOUS
 10
381.0829617731
 20
248.892636205
 11
380.4622618952
 21
252.4128001381
  0
LINE
  5
2D7
100
AcDbEntity
  8
0
100
AcDbLine
 62
7
  6
CONTINUOUS
 10
380.2849190966
 20
253.4185611276
 11
379.8415620173
 21
255.9329640711
  0
LINE
  5
2D8
100
AcDbEntity
  8
0
100
AcDbLine
 62
7
  6
CONTINUOUS
 10
384.1222717057
 20
255.650737376
 11
384.2109431878
 21
255.1478564116
  0
LINE
  5
2D9
100
AcDbEntity
  8
0
100
AcDbLine
 62
7
  6
CONTINUOUS
 10
385.2253080739
 20
255.1538777577
 11
385.1070794587
 21
255.8243855537
  0
LINE
  5
2DA
100
AcDbEntity
  8
0
100
AcDbLine
 62
7
  6
CONTINUOUS
 10
370.8577663695
 20
549.977151496
 11
370.8577663695
 21
669.977151496
  0
LINE
  5
2DB
100
AcDbEntity
  8
0
100
AcDbLine
 62
7
  6
CONTINUOUS
 10
354.8308445968
 20
249.9673523342
 11
354.9063071141
 21
250.4991745511
  0
LINE
  5
2DC
100
AcDbEntity
  8
0
100
AcDbLine
 62
7
  6
CONTINUOUS
 10
334.7969973815
 20
240.7311718547
 11
336.0339658117
 21
249.0726956583
  0
LINE
  5
2DD
100
AcDbEntity
  8
0
100
AcDbLine
 62
7
  6
CONTINUOUS
 10
335.0491580587
 20
248.8990474806
 11
333.963115982
 21
241.621167496
  0
LINE
  5
2DE
100
AcDbEntity
  8
KONSTRUKTIONSELEMENTE
100
AcDbLine
 62
7
  6
CONTINUOUS
 10
185.3800863268
 20
292.0953083973
 11
208.0075033248
 21
314.7227253952
  0
LINE
  5
2DF
100
AcDbEntity
  8
KONSTRUKTIONSELEMENTE
100
AcDbLine
 62
7
  6
CONTINUOUS
 10
299.0828567416
 20
405.0202613528
 11
317.7915417168
 21
423.7289463279
  0
LINE
  5
2E0
100
AcDbEntity
  8
KONSTRUKTIONSELEMENTE
100
AcDbLine
 62
7
  6
CONTINUOUS
 10
330.1955551138
 20
436.132959725
 11
348.904240089
 21
454.8416447001
  0
LINE
  5
2E1
100
AcDbEntity
  8
KONSTRUKTIONSELEMENTE
100
AcDbLine
 62
7
  6
CONTINUOUS
 10
185.9457717517
 20
291.5296229723
 11
293.9790112745
 21
399.5628624951
  0
LINE
  5
2E2
100
AcDbEntity
  8
BEZUGSACHSEN
100
AcDbLine
 62
7
  6
CONTINUOUS
 10
293.9790112745
 20
399.5628624951
 11
294.8402160545
 21
400.424067275
  0
LINE
  5
2E3
100
AcDbEntity
  8
KONSTRUKTIONSELEMENTE
100
AcDbLine
 62
7
  6
CONTINUOUS
 10
293.0724491015
 20
397.5956401503
 11
295.9008762262
 21
400.424067275
  0
LINE
  5
2E4
100
AcDbEntity
  8
KONSTRUKTIONSELEMENTE
100
AcDbLine
 62
7
  6
CONTINUOUS
 10
296.2544296168
 20
400.7776206656
 11
299.0828567416
 21
403.6060477904
  0
LINE
  5
2E5
100
AcDbEntity
  8
KONSTRUKTIONSELEMENTE
100
AcDbLine
 62
7
  6
CONTINUOUS
 10
350.3480983776
 20
454.8712894264
 11
353.1765255024
 21
457.6997165512
  0
LINE
  5
2E6
100
AcDbEntity
  8
KONSTRUKTIONSELEMENTE
100
AcDbLine
 62
7
  6
CONTINUOUS
 10
353.530078893
 20
458.0532699418
 11
353.8300437355
 21
458.3532347843
  0
LINE
  5
2E7
100
AcDbEntity
  8
KONSTRUKTIONSELEMENTE
100
AcDbLine
 62
7
  6
CONTINUOUS
 10
319.588953396
 20
423.7585910542
 11
330.1955551138
 21
434.365192772
  0
LINE
  5
2E8
100
AcDbEntity
  8
KONSTRUKTIONSELEMENTE
100
AcDbLine
 62
7
  6
CONTINUOUS
 10
397.0171459359
 20
500.4796768129
 11
356.0527570714
 21
459.5152879484
  0
LINE
  5
2E9
100
AcDbEntity
  8
KONSTRUKTIONSELEMENTE
100
AcDbLine
 62
7
  6
CONTINUOUS
 10
322.7709339113
 20
420.5766105389
 11
333.3775356291
 21
431.1832122567
  0
LINE
  5
2EA
100
AcDbEntity
  8
KONSTRUKTIONSELEMENTE
100
AcDbLine
 62
7
  6
CONTINUOUS
 10
296.6079830074
 20
394.0601062444
 11
299.4364101322
 21
396.8885333691
  0
LINE
  5
2EB
100
AcDbEntity
  8
KONSTRUKTIONSELEMENTE
100
AcDbLine
 62
7
  6
CONTINUOUS
 10
299.7899635228
 20
397.2420867597
 11
302.6183906475
 21
400.0705138845
  0
LINE
  5
2EC
100
AcDbEntity
  8
KONSTRUKTIONSELEMENTE
100
AcDbLine
 62
7
  6
CONTINUOUS
 10
353.8836322835
 20
451.3357555205
 11
356.7120594083
 21
454.1641826452
  0
LINE
  5
2ED
100
AcDbEntity
  8
KONSTRUKTIONSELEMENTE
100
AcDbLine
 62
7
  6
CONTINUOUS
 10
357.0656127989
 20
454.5177360358
 11
359.8940399236
 21
457.3461631606
  0
LINE
  5
2EE
100
AcDbEntity
  8
KONSTRUKTIONSELEMENTE
100
AcDbLine
 62
7
  6
CONTINUOUS
 10
456.3577663695
 20
403.477151496
 11
454.9999019932
 21
403.477151496
  0
LINE
  5
2EF
100
AcDbEntity
  8
KONSTRUKTIONSELEMENTE
100
AcDbLine
 62
7
  6
CONTINUOUS
 10
456.3577663695
 20
404.727151496
 11
454.9999019932
 21
404.727151496
  0
LINE
  5
2F0
100
AcDbEntity
  8
KONSTRUKTIONSELEMENTE
100
AcDbLine
 62
7
  6
CONTINUOUS
 10
456.3577663695
 20
407.6438180633
 11
455.8577663695
 21
407.6438180633
  0
LINE
  5
2F1
100
AcDbEntity
  8
KONSTRUKTIONSELEMENTE
100
AcDbLine
 62
7
  6
CONTINUOUS
 10
456.3577663695
 20
410.5604846307
 11
454.9999019932
 21
410.5604846307
  0
LINE
  5
2F2
100
AcDbEntity
  8
KONSTRUKTIONSELEMENTE
100
AcDbLine
 62
7
  6
CONTINUOUS
 10
456.3577663695
 20
411.8104846307
 11
454.9999019932
 21
411.8104846307
  0
LINE
  5
2F3
100
AcDbEntity
  8
KONSTRUKTIONSELEMENTE
100
AcDbLine
 62
7
  6
CONTINUOUS
 10
456.3577663695
 20
412.6438183614
 11
455.8577663695
 21
412.6438183614
  0
LINE
  5
2F4
100
AcDbEntity
  8
KONSTRUKTIONSELEMENTE
100
AcDbLine
 62
7
  6
CONTINUOUS
 10
456.3577663695
 20
413.477151496
 11
455.772644831
 21
413.477151496
  0
LINE
  5
2F5
100
AcDbEntity
  8
KONSTRUKTIONSELEMENTE
100
AcDbLine
 62
7
  6
CONTINUOUS
 10
456.3577663695
 20
413.6854852267
 11
455.6201056883
 21
413.6854852267
  0
LINE
  5
2F6
100
AcDbEntity
  8
KONSTRUKTIONSELEMENTE
100
AcDbLine
 62
7
  6
CONTINUOUS
 10
456.3577663695
 20
414.102151496
 11
455.4411616359
 21
414.102151496
  0
LINE
  5
2F7
100
AcDbEntity
  8
KONSTRUKTIONSELEMENTE
100
AcDbLine
 62
7
  6
CONTINUOUS
 10
456.3577663695
 20
414.9354852267
 11
455.2096148179
 21
414.9354852267
  0
LINE
  5
2F8
100
AcDbEntity
  8
KONSTRUKTIONSELEMENTE
100
AcDbLine
 62
7
  6
CONTINUOUS
 10
456.3577663695
 20
415.7688177653
 11
455.0733349469
 21
415.7688177653
  0
LINE
  5
2F9
100
AcDbEntity
  8
KONSTRUKTIONSELEMENTE
100
AcDbLine
 62
7
  6
CONTINUOUS
 10
456.3577663695
 20
416.8104852267
 11
454.9999019932
 21
416.8104852267
  0
LINE
  5
2FA
100
AcDbEntity
  8
KONSTRUKTIONSELEMENTE
100
AcDbLine
 62
7
  6
CONTINUOUS
 10
456.3577663695
 20
418.6854852267
 11
454.9999019932
 21
418.6854852267
  0
LINE
  5
2FB
100
AcDbEntity
  8
KONSTRUKTIONSELEMENTE
100
AcDbLine
 62
7
  6
CONTINUOUS
 10
456.3577663695
 20
419.727151496
 11
455.0733349469
 21
419.727151496
  0
LINE
  5
2FC
100
AcDbEntity
  8
KONSTRUKTIONSELEMENTE
100
AcDbLine
 62
7
  6
CONTINUOUS
 10
456.3577663695
 20
420.5604852267
 11
455.2096148179
 21
420.5604852267
  0
LINE
  5
2FD
100
AcDbEntity
  8
KONSTRUKTIONSELEMENTE
100
AcDbLine
 62
7
  6
CONTINUOUS
 10
456.3577663695
 20
421.3938177653
 11
455.4411616359
 21
421.3938177653
  0
LINE
  5
2FE
100
AcDbEntity
  8
KONSTRUKTIONSELEMENTE
100
AcDbLine
 62
7
  6
CONTINUOUS
 10
456.3577663695
 20
421.602151496
 11
455.6568585558
 21
421.602151496
  0
LINE
  5
2FF
100
AcDbEntity
  8
KONSTRUKTIONSELEMENTE
100
AcDbLine
 62
7
  6
CONTINUOUS
 10
456.3577663695
 20
422.0188177653
 11
455.8577663695
 21
422.0188177653
  0
LINE
  5
300
100
AcDbEntity
  8
BEZUGSACHSEN
100
AcDbLine
 62
7
  6
CONTINUOUS
 10
519.0942124482
 20
326.5397678229
 11
559.0147567197
 21
303.4916308416
  0
LINE
  5
301
100
AcDbEntity
  8
BEZUGSACHSEN
100
AcDbLine
 62
7
  6
CONTINUOUS
 10
494.9139369951
 20
367.0583687476
 11
610.8577663695
 21
300.1181676474
  0
LINE
  5
302
100
AcDbEntity
  8
KONSTRUKTIONSELEMENTE
100
AcDbLine
 62
7
  6
CONTINUOUS
 10
353.1765255024
 20
457.6997165512
 11
356.7120594083
 21
454.1641826452
  0
LINE
  5
303
100
AcDbEntity
  8
KONSTRUKTIONSELEMENTE
100
AcDbLine
 62
7
  6
CONTINUOUS
 10
353.530078893
 20
458.0532699418
 11
357.0656127989
 21
454.5177360358
  0
LINE
  5
304
100
AcDbEntity
  8
0
100
AcDbLine
 62
7
  6
CONTINUOUS
 10
460.9202663695
 20
265.9265136166
 11
460.2952651774
 21
267.2031092091
  0
LINE
  5
305
100
AcDbEntity
  8
0
100
AcDbLine
 62
7
  6
CONTINUOUS
 10
432.4827666675
 20
254.437151496
 11
429.6702666675
 21
261.7775770469
  0
LINE
  5
306
100
AcDbEntity
  8
0
100
AcDbLine
 62
7
  6
CONTINUOUS
 10
427.7952662205
 20
261.1392792507
 11
430.2952660715
 21
254.437151496
  0
LINE
  5
307
100
AcDbEntity
  8
0
100
AcDbLine
 62
7
  6
CONTINUOUS
 10
429.9827663695
 20
266.883960311
 11
430.2952660715
 21
265.9265136166
  0
LINE
  5
308
100
AcDbEntity
  8
0
100
AcDbLine
 62
7
  6
CONTINUOUS
 10
432.1702660715
 20
265.9265136166
 11
431.8577663695
 21
266.883960311
  0
LINE
  5
309
100
AcDbEntity
  8
0
100
AcDbLine
 62
7
  6
CONTINUOUS
 10
355.3037587678
 20
247.2853227939
 11
355.3792213265
 21
247.817144776
  0
LINE
  5
30A
100
AcDbEntity
  8
0
100
AcDbLine
 62
7
  6
CONTINUOUS
 10
359.4957951785
 20
247.5059762623
 11
359.4203325785
 21
246.974154515
  0
LINE
  5
30B
100
AcDbEntity
  8
0
100
AcDbLine
 62
7
  6
CONTINUOUS
 10
373.8610395033
 20
247.6192164563
 11
375.0980055855
 21
255.9607398459
  0
LINE
  5
30C
100
AcDbEntity
  8
0
100
AcDbLine
 62
7
  6
CONTINUOUS
 10
374.1131978325
 20
255.7870916682
 11
373.0271569297
 21
248.5092118906
  0
LINE
  5
30D
100
AcDbEntity
  8
0
100
AcDbLine
 62
7
  6
CONTINUOUS
 10
354.1610978389
 20
250.8862897045
 11
353.9806137101
 21
249.9902722406
  0
LINE
  5
30E
100
AcDbEntity
  8
0
100
AcDbLine
 62
7
  6
CONTINUOUS
 10
360.1655418744
 20
246.5870392442
 11
360.3460260653
 21
247.4830563558
  0
LWPOLYLINE
  5
30F
100
AcDbEntity
  8
BEZUGSACHSEN
100
AcDbPolyline
 62
7
  6
CONTINUOUS
 90
5
 70
0
 10
300.6140777141
 20
217.2658337459
 10
300.6610555411
 20
217.3650706631
 10
300.727994862
 20
217.5349516708
 10
300.7805476786
 20
217.7098189416
 10
300.8183485912
 20
217.8884565424
  0
LWPOLYLINE
  5
310
100
AcDbEntity
  8
RUNDUNGEN
100
AcDbPolyline
 62
7
  6
CONTINUOUS
 90
7
 70
0
 10
300.6140777141
 20
217.2658337459
 10
300.6610554676
 20
217.3650704972
 10
300.7279948566
 20
217.5349516549
 10
300.7805477056
 20
217.7098190474
 10
300.8183486197
 20
217.8884567118
 10
300.8411347877
 20
218.0696224652
 10
300.848747813
 20
218.2520565872
  0
LINE
  5
311
100
AcDbEntity
  8
KONSTRUKTIONSELEMENTE
100
AcDbLine
 62
7
  6
CONTINUOUS
 10
456.3577663695
 20
422.4354852267
 11
455.8577663695
 21
422.4354852267
  0
LINE
  5
312
100
AcDbEntity
  8
KONSTRUKTIONSELEMENTE
100
AcDbLine
 62
7
  6
CONTINUOUS
 10
456.3577663695
 20
422.6438177653
 11
455.8577663695
 21
422.6438177653
  0
LINE
  5
313
100
AcDbEntity
  8
KONSTRUKTIONSELEMENTE
100
AcDbLine
 62
7
  6
CONTINUOUS
 10
456.3577663695
 20
422.852151496
 11
455.8577663695
 21
422.852151496
  0
LINE
  5
314
100
AcDbEntity
  8
KONSTRUKTIONSELEMENTE
100
AcDbLine
 62
7
  6
CONTINUOUS
 10
456.3577663695
 20
423.2688177653
 11
455.8543707845
 21
423.2688177653
  0
LINE
  5
315
100
AcDbEntity
  8
KONSTRUKTIONSELEMENTE
100
AcDbLine
 62
7
  6
CONTINUOUS
 10
456.3577663695
 20
426.1854840346
 11
455.8543707845
 21
426.1854840346
  0
LINE
  5
316
100
AcDbEntity
  8
KONSTRUKTIONSELEMENTE
100
AcDbLine
 62
7
  6
CONTINUOUS
 10
456.3577663695
 20
427.227151496
 11
455.8577663695
 21
427.227151496
  0
LINE
  5
317
100
AcDbEntity
  8
KONSTRUKTIONSELEMENTE
100
AcDbLine
 62
7
  6
CONTINUOUS
 10
456.3577663695
 20
427.852151496
 11
455.8577663695
 21
427.852151496
  0
LINE
  5
318
100
AcDbEntity
  8
KONSTRUKTIONSELEMENTE
100
AcDbLine
 62
7
  6
CONTINUOUS
 10
456.3577663695
 20
428.477151496
 11
455.6201056883
 21
428.477151496
  0
LINE
  5
319
100
AcDbEntity
  8
KONSTRUKTIONSELEMENTE
100
AcDbLine
 62
7
  6
CONTINUOUS
 10
456.3577663695
 20
428.6854840346
 11
455.4411616359
 21
428.6854840346
  0
LINE
  5
31A
100
AcDbEntity
  8
KONSTRUKTIONSELEMENTE
100
AcDbLine
 62
7
  6
CONTINUOUS
 10
456.3577663695
 20
429.5188189574
 11
455.2096148179
 21
429.5188189574
  0
LINE
  5
31B
100
AcDbEntity
  8
KONSTRUKTIONSELEMENTE
100
AcDbLine
 62
7
  6
CONTINUOUS
 10
456.3577663695
 20
430.352151496
 11
455.0733349469
 21
430.352151496
  0
LINE
  5
31C
100
AcDbEntity
  8
KONSTRUKTIONSELEMENTE
100
AcDbLine
 62
7
  6
CONTINUOUS
 10
456.3577663695
 20
431.1854840346
 11
454.9999019932
 21
431.1854840346
  0
LINE
  5
31D
100
AcDbEntity
  8
KONSTRUKTIONSELEMENTE
100
AcDbLine
 62
7
  6
CONTINUOUS
 10
456.3577663695
 20
432.227151496
 11
454.9999019932
 21
432.227151496
  0
LINE
  5
31E
100
AcDbEntity
  8
KONSTRUKTIONSELEMENTE
100
AcDbLine
 62
7
  6
CONTINUOUS
 10
456.3577663695
 20
433.2688189574
 11
455.0733349469
 21
433.2688189574
  0
LINE
  5
31F
100
AcDbEntity
  8
KONSTRUKTIONSELEMENTE
100
AcDbLine
 62
7
  6
CONTINUOUS
 10
456.3577663695
 20
434.102151496
 11
455.2725618177
 21
434.102151496
  0
LINE
  5
320
100
AcDbEntity
  8
KONSTRUKTIONSELEMENTE
100
AcDbLine
 62
7
  6
CONTINUOUS
 10
456.3577663695
 20
434.727151496
 11
455.4907440804
 21
434.727151496
  0
LINE
  5
321
100
AcDbEntity
  8
KONSTRUKTIONSELEMENTE
100
AcDbLine
 62
7
  6
CONTINUOUS
 10
456.3577663695
 20
434.9354840346
 11
455.6201056883
 21
434.9354840346
  0
LINE
  5
322
100
AcDbEntity
  8
KONSTRUKTIONSELEMENTE
100
AcDbLine
 62
7
  6
CONTINUOUS
 10
456.3577663695
 20
435.1438189574
 11
455.8577663695
 21
435.1438189574
  0
LINE
  5
323
100
AcDbEntity
  8
KONSTRUKTIONSELEMENTE
100
AcDbLine
 62
7
  6
CONTINUOUS
 10
456.3577663695
 20
435.5604840346
 11
455.8577663695
 21
435.5604840346
  0
LINE
  5
324
100
AcDbEntity
  8
KONSTRUKTIONSELEMENTE
100
AcDbLine
 62
7
  6
CONTINUOUS
 10
456.3577663695
 20
436.602151496
 11
455.8577663695
 21
436.602151496
  0
LINE
  5
325
100
AcDbEntity
  8
KONSTRUKTIONSELEMENTE
100
AcDbLine
 62
7
  6
CONTINUOUS
 10
456.3577663695
 20
437.227151496
 11
455.772644831
 21
437.227151496
  0
LINE
  5
326
100
AcDbEntity
  8
KONSTRUKTIONSELEMENTE
100
AcDbLine
 62
7
  6
CONTINUOUS
 10
456.3577663695
 20
437.4354840346
 11
455.6201056883
 21
437.4354840346
  0
LINE
  5
327
100
AcDbEntity
  8
KONSTRUKTIONSELEMENTE
100
AcDbLine
 62
7
  6
CONTINUOUS
 10
456.3577663695
 20
437.852151496
 11
455.4411616359
 21
437.852151496
  0
LINE
  5
328
100
AcDbEntity
  8
KONSTRUKTIONSELEMENTE
100
AcDbLine
 62
7
  6
CONTINUOUS
 10
456.3577663695
 20
438.6854840346
 11
455.2096148179
 21
438.6854840346
  0
LINE
  5
329
100
AcDbEntity
  8
KONSTRUKTIONSELEMENTE
100
AcDbLine
 62
7
  6
CONTINUOUS
 10
456.3577663695
 20
439.5188189574
 11
455.0733349469
 21
439.5188189574
  0
LINE
  5
32A
100
AcDbEntity
  8
KONSTRUKTIONSELEMENTE
100
AcDbLine
 62
7
  6
CONTINUOUS
 10
456.3577663695
 20
440.5604840346
 11
454.9999019932
 21
440.5604840346
  0
LINE
  5
32B
100
AcDbEntity
  8
KONSTRUKTIONSELEMENTE
100
AcDbLine
 62
7
  6
CONTINUOUS
 10
456.3577663695
 20
442.4354840346
 11
454.9999019932
 21
442.4354840346
  0
LINE
  5
32C
100
AcDbEntity
  8
KONSTRUKTIONSELEMENTE
100
AcDbLine
 62
7
  6
CONTINUOUS
 10
456.3577663695
 20
443.477151496
 11
455.0733349469
 21
443.477151496
  0
LINE
  5
32D
100
AcDbEntity
  8
KONSTRUKTIONSELEMENTE
100
AcDbLine
 62
7
  6
CONTINUOUS
 10
456.3577663695
 20
444.3104864188
 11
455.2096148179
 21
444.3104864188
  0
LINE
  5
32E
100
AcDbEntity
  8
KONSTRUKTIONSELEMENTE
100
AcDbLine
 62
7
  6
CONTINUOUS
 10
456.3577663695
 20
445.1438165732
 11
455.4411616359
 21
445.1438165732
  0
LINE
  5
32F
100
AcDbEntity
  8
KONSTRUKTIONSELEMENTE
100
AcDbLine
 62
7
  6
CONTINUOUS
 10
456.3577663695
 20
445.352151496
 11
455.6568585558
 21
445.352151496
  0
LINE
  5
330
100
AcDbEntity
  8
KONSTRUKTIONSELEMENTE
100
AcDbLine
 62
7
  6
CONTINUOUS
 10
456.3577663695
 20
447.0188165732
 11
454.9999019932
 21
447.0188165732
  0
LINE
  5
331
100
AcDbEntity
  8
KONSTRUKTIONSELEMENTE
100
AcDbLine
 62
7
  6
CONTINUOUS
 10
456.3577663695
 20
448.2688165732
 11
454.9999019932
 21
448.2688165732
  0
LWPOLYLINE
  5
332
100
AcDbEntity
  8
KONSTRUKTIONSELEMENTE
100
AcDbPolyline
 62
7
  6
CONTINUOUS
 90
17
 70
0
 10
463.3577608648
 20
379.5797072466
 10
462.5351985433
 20
380.2754537186
 10
461.7127700255
 20
381.0529185798
 10
460.9355574306
 20
381.8757461037
 10
460.2060769025
 20
382.7412989148
 10
459.5266852235
 20
383.6468044122
 10
458.899578407
 20
384.589357326
 10
458.3267826037
 20
385.5659311884
 10
457.810147346
 20
386.5733885363
 10
457.3513397697
 20
387.608490712
 10
456.9518389641
 20
388.6679087064
 10
456.6129310464
 20
389.7482341875
 10
456.33570489
 20
390.8459908039
 10
456.1210485233
 20
391.9576457225
 10
455.9696462132
 20
393.0796213501
 10
455.8819765914
 20
394.2083001157
 10
455.8577624083
 20
395.1921576648
  0
LINE
  5
333
100
AcDbEntity
  8
RUNDUNGEN
100
AcDbLine
 62
7
  6
CONTINUOUS
 10
605.1694832293
 20
218.0742702009
 11
606.060177707
 21
217.1835757233
  0
LINE
  5
334
100
AcDbEntity
  8
BEZUGSACHSEN
100
AcDbLine
 62
7
  6
CONTINUOUS
 10
605.1694832293
 20
218.0742702009
 11
606.060177707
 21
217.1835757233
  0
LINE
  5
335
100
AcDbEntity
  8
0
100
AcDbLine
 62
7
  6
CONTINUOUS
 10
437.1702657734
 20
258.2669387205
 11
436.8577669655
 21
259.543534313
  0
LINE
  5
336
100
AcDbEntity
  8
0
100
AcDbLine
 62
7
  6
CONTINUOUS
 10
434.9827660715
 20
259.543534313
 11
435.2952666675
 21
257.9477898224
  0
LINE
  5
337
100
AcDbEntity
  8
0
100
AcDbLine
 62
7
  6
CONTINUOUS
 10
420.6077663695
 20
269.437151496
 11
420.6077663695
 21
254.437151496
  0
LINE
  5
338
100
AcDbEntity
  8
0
100
AcDbLine
 62
7
  6
CONTINUOUS
 10
422.4827663695
 20
254.437151496
 11
422.4827663695
 21
261.1392792507
  0
LINE
  5
339
100
AcDbEntity
  8
0
100
AcDbLine
 62
7
  6
CONTINUOUS
 10
422.4827663695
 20
263.0541726394
 11
422.4827663695
 21
267.8414070054
  0
LINE
  5
33A
100
AcDbEntity
  8
BEZUGSACHSEN
100
AcDbLine
 62
7
  6
CONTINUOUS
 10
425.8577663695
 20
456.977151496
 11
425.8577663695
 21
395.2119460689
  0
LINE
  5
33B
100
AcDbEntity
  8
KONSTRUKTIONSELEMENTE
100
AcDbLine
 62
7
  6
CONTINUOUS
 10
425.8577663695
 20
456.977151496
 11
425.8577663695
 21
498.4770777649
  0
LINE
  5
33C
100
AcDbEntity
  8
0
100
AcDbLine
 62
7
  6
CONTINUOUS
 10
430.2952660715
 20
265.9265136166
 11
430.2952660715
 21
264.9690660282
  0
LINE
  5
33D
100
AcDbEntity
  8
0
100
AcDbLine
 62
7
  6
CONTINUOUS
 10
432.1702660715
 20
264.6499171301
 11
432.1702660715
 21
265.9265136166
  0
LINE
  5
33E
100
AcDbEntity
  8
0
100
AcDbLine
 62
7
  6
CONTINUOUS
 10
434.9827660715
 20
269.437151496
 11
434.9827660715
 21
259.543534313
  0
LINE
  5
33F
100
AcDbEntity
  8
KONSTRUKTIONSELEMENTE
100
AcDbLine
 62
7
  6
CONTINUOUS
 10
435.8577663695
 20
373.9270958166
 11
435.8577663695
 21
329.0272071754
  0
LINE
  5
340
100
AcDbEntity
  8
0
100
AcDbLine
 62
7
  6
CONTINUOUS
 10
384.2109431878
 20
255.1478564116
 11
384.1354787093
 21
254.6160343331
  0
LINE
  5
341
100
AcDbEntity
  8
0
100
AcDbLine
 62
7
  6
CONTINUOUS
 10
385.1498435955
 20
254.6220556792
 11
385.2253080739
 21
255.1538777577
  0
LINE
  5
342
100
AcDbEntity
  8
0
100
AcDbLine
 62
7
  6
CONTINUOUS
 10
354.9063071141
 20
250.4991745511
 11
355.1459055919
 21
251.0599378821
  0
LINE
  5
343
100
AcDbEntity
  8
RUNDUNGEN
100
AcDbLine
 62
7
  6
CONTINUOUS
 10
350.5104143541
 20
265.2587900411
 11
375.1757295452
 21
314.7297588709
  0
LINE
  5
344
100
AcDbEntity
  8
BEZUGSACHSEN
100
AcDbLine
 62
7
  6
CONTINUOUS
 10
275.2187688672
 20
216.674344491
 11
275.2155280949
 21
216.6699132843
  0
LINE
  5
345
100
AcDbEntity
  8
KONSTRUKTIONSELEMENTE
100
AcDbLine
 62
7
  6
CONTINUOUS
 10
456.3577663695
 20
454.102151496
 11
454.9999019932
 21
454.102151496
  0
LINE
  5
346
100
AcDbEntity
  8
KONSTRUKTIONSELEMENTE
100
AcDbLine
 62
7
  6
CONTINUOUS
 10
456.3577663695
 20
455.352151496
 11
454.9999019932
 21
455.352151496
  0
LINE
  5
347
100
AcDbEntity
  8
RUNDUNGEN
100
AcDbLine
 62
7
  6
CONTINUOUS
 10
606.503999893
 20
216.664416175
 11
606.4967706303
 21
216.6743350989
  0
LINE
  5
348
100
AcDbEntity
  8
BEZUGSACHSEN
100
AcDbLine
 62
7
  6
CONTINUOUS
 10
491.8580107999
 20
292.6302343839
 11
478.7219224989
 21
318.977151496
  0
LINE
  5
349
100
AcDbEntity
  8
0
100
AcDbLine
 62
7
  6
CONTINUOUS
 10
459.0452663695
 20
265.6073638244
 11
459.3577651774
 21
264.3307682319
  0
LINE
  5
34A
100
AcDbEntity
  8
0
100
AcDbLine
 62
7
  6
CONTINUOUS
 10
461.2327651774
 20
264.3307682319
 11
460.9202663695
 21
265.9265136166
  0
LINE
  5
34B
100
AcDbEntity
  8
BEZUGSACHSEN
100
AcDbLine
 62
7
  6
CONTINUOUS
 10
454.0550278722
 20
274.1317622671
 11
451.9712497402
 21
285.9494553032
  0
LINE
  5
34C
100
AcDbEntity
  8
0
100
AcDbLine
 62
7
  6
CONTINUOUS
 10
436.8577669655
 20
259.543534313
 11
436.8577669655
 21
269.437151496
  0
LINE
  5
34D
100
AcDbEntity
  8
0
100
AcDbLine
 62
7
  6
CONTINUOUS
 10
444.3577669655
 20
269.437151496
 11
444.3577669655
 21
259.543534313
  0
LINE
  5
34E
100
AcDbEntity
  8
KONSTRUKTIONSELEMENTE
100
AcDbLine
 62
7
  6
CONTINUOUS
 10
445.8577663695
 20
329.0272071754
 11
445.8577663695
 21
373.9270958166
  0
LINE
  5
34F
100
AcDbEntity
  8
0
100
AcDbLine
 62
7
  6
CONTINUOUS
 10
446.2327669655
 20
259.543534313
 11
446.2327669655
 21
269.437151496
  0
LINE
  5
350
100
AcDbEntity
  8
0
100
AcDbLine
 62
7
  6
CONTINUOUS
 10
448.7327663695
 20
269.437151496
 11
448.7327663695
 21
254.437151496
  0
LINE
  5
351
100
AcDbEntity
  8
0
100
AcDbLine
 62
7
  6
CONTINUOUS
 10
450.6077663695
 20
256.3520451083
 11
450.6077663695
 21
267.5222581073
  0
LINE
  5
352
100
AcDbEntity
  8
KONSTRUKTIONSELEMENTE
100
AcDbLine
 62
7
  6
CONTINUOUS
 10
454.9999019932
 20
455.352151496
 11
454.9999019932
 21
454.102151496
  0
LINE
  5
353
100
AcDbEntity
  8
KONSTRUKTIONSELEMENTE
100
AcDbLine
 62
7
  6
CONTINUOUS
 10
454.9999019932
 20
448.2688165732
 11
454.9999019932
 21
447.0188165732
  0
LINE
  5
354
100
AcDbEntity
  8
KONSTRUKTIONSELEMENTE
100
AcDbLine
 62
7
  6
CONTINUOUS
 10
454.9999019932
 20
442.4354840346
 11
454.9999019932
 21
440.5604840346
  0
LINE
  5
355
100
AcDbEntity
  8
KONSTRUKTIONSELEMENTE
100
AcDbLine
 62
7
  6
CONTINUOUS
 10
454.9999019932
 20
432.227151496
 11
454.9999019932
 21
431.1854840346
  0
LINE
  5
356
100
AcDbEntity
  8
KONSTRUKTIONSELEMENTE
100
AcDbLine
 62
7
  6
CONTINUOUS
 10
454.9999019932
 20
418.6854852267
 11
454.9999019932
 21
416.8104852267
  0
LINE
  5
357
100
AcDbEntity
  8
KONSTRUKTIONSELEMENTE
100
AcDbLine
 62
7
  6
CONTINUOUS
 10
454.9999019932
 20
411.8104846307
 11
454.9999019932
 21
410.5604846307
  0
LINE
  5
358
100
AcDbEntity
  8
KONSTRUKTIONSELEMENTE
100
AcDbLine
 62
7
  6
CONTINUOUS
 10
454.9999019932
 20
404.727151496
 11
454.9999019932
 21
403.477151496
  0
LINE
  5
359
100
AcDbEntity
  8
KONSTRUKTIONSELEMENTE
100
AcDbLine
 62
7
  6
CONTINUOUS
 10
455.8271783762
 20
454.102151496
 11
455.8271783762
 21
448.2688165732
  0
LINE
  5
35A
100
AcDbEntity
  8
KONSTRUKTIONSELEMENTE
100
AcDbLine
 62
7
  6
CONTINUOUS
 10
455.8577663695
 20
498.4770777649
 11
455.8577663695
 21
456.977151496
  0
LINE
  5
35B
100
AcDbEntity
  8
BEZUGSACHSEN
100
AcDbLine
 62
7
  6
CONTINUOUS
 10
455.8577663695
 20
456.977151496
 11
455.8577663695
 21
455.352151496
  0
LINE
  5
35C
100
AcDbEntity
  8
BEZUGSACHSEN
100
AcDbLine
 62
7
  6
CONTINUOUS
 10
455.8577663695
 20
447.0188165732
 11
455.8577663695
 21
445.352151496
  0
LINE
  5
35D
100
AcDbEntity
  8
BEZUGSACHSEN
100
AcDbLine
 62
7
  6
CONTINUOUS
 10
455.8577663695
 20
437.227151496
 11
455.8577663695
 21
434.9354840346
  0
LINE
  5
35E
100
AcDbEntity
  8
BEZUGSACHSEN
100
AcDbLine
 62
7
  6
CONTINUOUS
 10
455.8577663695
 20
428.477151496
 11
455.8577663695
 21
421.602151496
  0
LINE
  5
35F
100
AcDbEntity
  8
BEZUGSACHSEN
100
AcDbLine
 62
7
  6
CONTINUOUS
 10
455.8577663695
 20
413.477151496
 11
455.8577663695
 21
411.8104846307
  0
LINE
  5
360
100
AcDbEntity
  8
BEZUGSACHSEN
100
AcDbLine
 62
7
  6
CONTINUOUS
 10
455.8577663695
 20
408.8886243828
 11
455.8577663695
 21
406.3990117439
  0
LINE
  5
361
100
AcDbEntity
  8
BEZUGSACHSEN
100
AcDbLine
 62
7
  6
CONTINUOUS
 10
455.8577663695
 20
403.477151496
 11
455.8577663695
 21
395.2116678551
  0
LINE
  5
362
100
AcDbEntity
  8
KONSTRUKTIONSELEMENTE
100
AcDbLine
 62
7
  6
CONTINUOUS
 10
456.3577663695
 20
403.477151496
 11
456.3577663695
 21
411.8104846307
  0
LINE
  5
363
100
AcDbEntity
  8
KONSTRUKTIONSELEMENTE
100
AcDbLine
 62
7
  6
CONTINUOUS
 10
456.3577663695
 20
412.6438183614
 11
456.3577663695
 21
422.852151496
  0
LINE
  5
364
100
AcDbEntity
  8
KONSTRUKTIONSELEMENTE
100
AcDbLine
 62
7
  6
CONTINUOUS
 10
456.3577663695
 20
423.2688177653
 11
456.3577663695
 21
445.352151496
  0
LINE
  5
365
100
AcDbEntity
  8
KONSTRUKTIONSELEMENTE
100
AcDbLine
 62
7
  6
CONTINUOUS
 10
456.3577663695
 20
447.0188165732
 11
456.3577663695
 21
455.352151496
  0
LINE
  5
366
100
AcDbEntity
  8
0
100
AcDbLine
 62
7
  6
CONTINUOUS
 10
459.3577651774
 20
264.3307682319
 11
459.3577651774
 21
259.543534313
  0
LINE
  5
367
100
AcDbEntity
  8
0
100
AcDbLine
 62
7
  6
CONTINUOUS
 10
461.2327651774
 20
259.543534313
 11
461.2327651774
 21
264.3307682319
  0
LINE
  5
368
100
AcDbEntity
  8
0
100
AcDbLine
 62
7
  6
CONTINUOUS
 10
427.6605048668
 20
274.1317622671
 11
429.7442829988
 21
285.9494553032
  0
LINE
  5
369
100
AcDbEntity
  8
0
100
AcDbLine
 62
7
  6
CONTINUOUS
 10
359.4203325785
 20
246.974154515
 11
359.1807341213
 21
246.4133910665
  0
LINE
  5
36A
100
AcDbEntity
  8
0
100
AcDbLine
 62
7
  6
CONTINUOUS
 10
354.535273183
 20
251.6436211197
 11
354.1610978389
 21
250.8862897045
  0
LINE
  5
36B
100
AcDbEntity
  8
0
100
AcDbLine
 62
7
  6
CONTINUOUS
 10
359.7913665406
 20
245.8297077702
 11
360.1655418744
 21
246.5870392442
  0
LINE
  5
36C
100
AcDbEntity
  8
0
100
AcDbLine
 62
7
  6
CONTINUOUS
 10
389.8575219391
 20
292.6302343839
 11
402.9936102401
 21
318.977151496
  0
LINE
  5
36D
100
AcDbEntity
  8
0
100
AcDbLine
 62
7
  6
CONTINUOUS
 10
351.1343515144
 20
251.7353010768
 11
350.3564436931
 21
250.3882650779
  0
LINE
  5
36E
100
AcDbEntity
  8
0
100
AcDbLine
 62
7
  6
CONTINUOUS
 10
350.5929008407
 20
249.0472499556
 11
351.3708085792
 21
250.394286424
  0
LINE
  5
36F
100
AcDbEntity
  8
BEZUGSACHSEN
100
AcDbLine
 62
7
  6
CONTINUOUS
 10
531.2051183849
 20
265.2587900411
 11
506.5398031938
 21
314.7297588709
  0
LINE
  5
370
100
AcDbEntity
  8
0
100
AcDbLine
 62
7
  6
CONTINUOUS
 10
445.9202663695
 20
257.9477898224
 11
446.2327669655
 21
259.543534313
  0
LINE
  5
371
100
AcDbEntity
  8
0
100
AcDbLine
 62
7
  6
CONTINUOUS
 10
444.3577669655
 20
259.543534313
 11
444.0452663695
 21
258.2669387205
  0
LINE
  5
372
100
AcDbEntity
  8
0
100
AcDbLine
 62
7
  6
CONTINUOUS
 10
430.2952660715
 20
264.9690660282
 11
429.9827663695
 21
264.0116193338
  0
LINE
  5
373
100
AcDbEntity
  8
0
100
AcDbLine
 62
7
  6
CONTINUOUS
 10
431.8577663695
 20
263.6924704357
 11
432.1702660715
 21
264.6499171301
  0
LINE
  5
374
100
AcDbEntity
  8
0
100
AcDbLine
 62
7
  6
CONTINUOUS
 10
384.7756682513
 20
253.864724264
 11
385.1498435955
 21
254.6220556792
  0
LINE
  5
375
100
AcDbEntity
  8
0
100
AcDbLine
 62
7
  6
CONTINUOUS
 10
355.3792213265
 20
247.817144776
 11
355.6483769374
 21
248.2102812755
  0
LINE
  5
376
100
AcDbEntity
  8
BEZUGSACHSEN
100
AcDbLine
 62
7
  6
CONTINUOUS
 10
276.5460495096
 20
218.0742702009
 11
275.655355032
 21
217.1835757233
  0
LINE
  5
377
100
AcDbEntity
  8
BEZUGSACHSEN
100
AcDbLine
 62
7
  6
CONTINUOUS
 10
386.8015957439
 20
367.0583687476
 11
270.8577663695
 21
300.1181676474
  0
LINE
  5
378
100
AcDbEntity
  8
RUNDUNGEN
100
AcDbLine
 62
7
  6
CONTINUOUS
 10
362.6213202908
 20
326.5397678229
 11
322.7007760193
 21
303.4916308416
  0
LINE
  5
379
100
AcDbEntity
  8
RUNDUNGEN
100
AcDbLine
 62
7
  6
CONTINUOUS
 10
581.0544786425
 20
217.3650534467
 11
581.1014564807
 21
217.2658161015
  0
LINE
  5
37A
100
AcDbEntity
  8
BEZUGSACHSEN
100
AcDbLine
 62
7
  6
CONTINUOUS
 10
581.0544786278
 20
217.3650534799
 11
581.1014564807
 21
217.2658161015
  0
LINE
  5
37B
100
AcDbEntity
  8
RUNDUNGEN
100
AcDbLine
 62
7
  6
CONTINUOUS
 10
580.9875388543
 20
217.5349362697
 11
581.0544786425
 21
217.3650534467
  0
LINE
  5
37C
100
AcDbEntity
  8
0
100
AcDbLine
 62
7
  6
CONTINUOUS
 10
510.8577663695
 20
669.977151496
 11
510.8577663695
 21
549.977151496
  0
LINE
  5
37D
100
AcDbEntity
  8
0
100
AcDbLine
 62
7
  6
CONTINUOUS
 10
460.9202663695
 20
257.9477898224
 11
461.2327651774
 21
259.543534313
  0
LINE
  5
37E
100
AcDbEntity
  8
0
100
AcDbLine
 62
7
  6
CONTINUOUS
 10
459.3577651774
 20
259.543534313
 11
459.0452663695
 21
258.2669387205
  0
LINE
  5
37F
100
AcDbEntity
  8
0
100
AcDbLine
 62
7
  6
CONTINUOUS
 10
384.1354787093
 20
254.6160343331
 11
383.8663249768
 21
254.2228981648
  0
LINE
  5
380
100
AcDbEntity
  8
0
100
AcDbLine
 62
7
  6
CONTINUOUS
 10
355.1459055919
 20
251.0599378821
 11
355.5791952022
 21
251.4820156342
  0
LINE
  5
381
100
AcDbEntity
  8
0
100
AcDbLine
 62
7
  6
CONTINUOUS
 10
355.7697450045
 20
249.4415516017
 11
354.9031657839
 21
248.5973960977
  0
LINE
  5
382
100
AcDbEntity
  8
0
100
AcDbLine
 62
7
  6
CONTINUOUS
 10
355.6483769374
 20
248.2102812755
 11
356.0816665477
 21
248.6323590275
  0
LINE
  5
383
100
AcDbEntity
  8
0
100
AcDbLine
 62
7
  6
CONTINUOUS
 10
359.1807341213
 20
246.4133910665
 11
358.747444511
 21
245.9913133145
  0
LINE
  5
384
100
AcDbEntity
  8
0
100
AcDbLine
 62
7
  6
CONTINUOUS
 10
445.2952669655
 20
256.6711940064
 11
445.9202663695
 21
257.9477898224
  0
LINE
  5
385
100
AcDbEntity
  8
0
100
AcDbLine
 62
7
  6
CONTINUOUS
 10
460.2952651774
 20
256.6711940064
 11
460.9202663695
 21
257.9477898224
  0
LINE
  5
386
100
AcDbEntity
  8
0
100
AcDbLine
 62
7
  6
CONTINUOUS
 10
444.0452663695
 20
258.2669387205
 11
443.4202669655
 21
257.3094920262
  0
LINE
  5
387
100
AcDbEntity
  8
0
100
AcDbLine
 62
7
  6
CONTINUOUS
 10
430.9202663695
 20
262.4158748432
 11
431.8577663695
 21
263.6924704357
  0
LINE
  5
388
100
AcDbEntity
  8
0
100
AcDbLine
 62
7
  6
CONTINUOUS
 10
384.2077998964
 20
253.2460780966
 11
384.7756682513
 21
253.864724264
  0
LINE
  5
389
100
AcDbEntity
  8
RUNDUNGEN
100
AcDbLine
 62
7
  6
CONTINUOUS
 10
306.0601298474
 20
172.7706794091
 11
305.1694920702
 21
171.880041632
  0
LINE
  5
38A
100
AcDbEntity
  8
0
100
AcDbLine
 62
7
  6
CONTINUOUS
 10
355.267273659
 20
252.2912082084
 11
354.535273183
 21
251.6436211197
  0
LINE
  5
38B
100
AcDbEntity
  8
0
100
AcDbLine
 62
7
  6
CONTINUOUS
 10
359.059364194
 20
245.1821203063
 11
359.7913665406
 21
245.8297077702
  0
LWPOLYLINE
  5
38C
100
AcDbEntity
  8
BEZUGSACHSEN
100
AcDbPolyline
 62
7
  6
CONTINUOUS
 90
4
 70
0
 10
580.8971844173
 20
217.888445222
 10
580.9349856388
 20
217.7098055126
 10
580.9875388505
 20
217.5349362806
 10
581.0544786278
 20
217.3650534799
  0
LINE
  5
38D
100
AcDbEntity
  8
BEZUGSACHSEN
100
AcDbLine
 62
7
  6
CONTINUOUS
 10
577.7861389613
 20
169.3927973908
 11
580.7602333259
 21
148.2310163977
  0
LINE
  5
38E
100
AcDbEntity
  8
0
100
AcDbLine
 62
7
  6
CONTINUOUS
 10
546.8577663695
 20
669.977151496
 11
546.8577663695
 21
549.977151496
  0
LINE
  5
38F
100
AcDbEntity
  8
0
100
AcDbLine
 62
7
  6
CONTINUOUS
 10
459.0452663695
 20
258.2669387205
 11
458.4202651774
 21
257.3094920262
  0
LINE
  5
390
100
AcDbEntity
  8
0
100
AcDbLine
 62
7
  6
CONTINUOUS
 10
429.9827663695
 20
264.0116193338
 11
429.3577660715
 21
263.3733215376
  0
LINE
  5
391
100
AcDbEntity
  8
0
100
AcDbLine
 62
7
  6
CONTINUOUS
 10
444.0452663695
 20
255.3945983021
 11
445.2952669655
 21
256.6711940064
  0
LINE
  5
392
100
AcDbEntity
  8
0
100
AcDbLine
 62
7
  6
CONTINUOUS
 10
355.5791952022
 20
251.4820156342
 11
356.0420419456
 21
251.7364665546
  0
LINE
  5
393
100
AcDbEntity
  8
0
100
AcDbLine
 62
7
  6
CONTINUOUS
 10
356.0816665477
 20
248.6323590275
 11
356.5445132911
 21
248.8868099479
  0
LINE
  5
394
100
AcDbEntity
  8
0
100
AcDbLine
 62
7
  6
CONTINUOUS
 10
358.747444511
 20
245.9913133145
 11
358.2845977676
 21
245.736862394
  0
LINE
  5
395
100
AcDbEntity
  8
0
100
AcDbLine
 62
7
  6
CONTINUOUS
 10
383.8663249768
 20
254.2228981648
 11
383.4034782334
 21
253.9684472444
  0
LINE
  5
396
100
AcDbEntity
  8
0
100
AcDbLine
 62
7
  6
CONTINUOUS
 10
356.0583902795
 20
252.6035419651
 11
355.267273659
 21
252.2912082084
  0
LINE
  5
397
100
AcDbEntity
  8
0
100
AcDbLine
 62
7
  6
CONTINUOUS
 10
356.560861625
 20
249.7538853584
 11
355.7697450045
 21
249.4415516017
  0
LWPOLYLINE
  5
398
100
AcDbEntity
  8
RUNDUNGEN
100
AcDbPolyline
 62
7
  6
CONTINUOUS
 90
5
 70
0
 10
580.866784926
 20
218.2520498112
 10
580.8743980313
 20
218.0696132545
 10
580.8971844141
 20
217.8884452409
 10
580.9349856368
 20
217.7098055204
 10
580.9875388543
 20
217.5349362697
  0
LWPOLYLINE
  5
399
100
AcDbEntity
  8
BEZUGSACHSEN
100
AcDbPolyline
 62
7
  6
CONTINUOUS
 90
3
 70
0
 10
580.866784926
 20
218.2520498112
 10
580.8743980326
 20
218.0696132388
 10
580.8971844173
 20
217.888445222
  0
LINE
  5
39A
100
AcDbEntity
  8
BEZUGSACHSEN
100
AcDbLine
 62
7
  6
CONTINUOUS
 10
574.3726463695
 20
214.0868415994
 11
574.3726463695
 21
204.9235871086
  0
LINE
  5
39B
100
AcDbEntity
  8
RUNDUNGEN
100
AcDbLine
 62
7
  6
CONTINUOUS
 10
574.3726463695
 20
210.8405108872
 11
574.3726463695
 21
203.8120222442
  0
LINE
  5
39C
100
AcDbEntity
  8
BEZUGSACHSEN
100
AcDbLine
 62
7
  6
CONTINUOUS
 10
574.3726463695
 20
203.8120222442
 11
574.3726463695
 21
175.8674606323
  0
LINE
  5
39D
100
AcDbEntity
  8
BEZUGSACHSEN
100
AcDbLine
 62
7
  6
CONTINUOUS
 10
580.866784926
 20
146.7072581851
 11
580.866784926
 21
118.2896418454
  0
LINE
  5
39E
100
AcDbEntity
  8
RUNDUNGEN
100
AcDbLine
 62
7
  6
CONTINUOUS
 10
580.866784926
 20
218.252243408
 11
580.866784926
 21
271.6646611466
  0
LINE
  5
39F
100
AcDbEntity
  8
BEZUGSACHSEN
100
AcDbLine
 62
7
  6
CONTINUOUS
 10
580.866784926
 20
218.2522434056
 11
580.866784926
 21
271.6646611466
  0
LINE
  5
3A0
100
AcDbEntity
  8
0
100
AcDbLine
 62
7
  6
CONTINUOUS
 10
459.0452663695
 20
255.3945983021
 11
460.2952651774
 21
256.6711940064
  0
LINE
  5
3A1
100
AcDbEntity
  8
0
100
AcDbLine
 62
7
  6
CONTINUOUS
 10
443.4202669655
 20
257.3094920262
 11
442.4827669655
 21
256.6711940064
  0
LINE
  5
3A2
100
AcDbEntity
  8
0
100
AcDbLine
 62
7
  6
CONTINUOUS
 10
458.4202651774
 20
257.3094920262
 11
457.4827651774
 21
256.6711940064
  0
LINE
  5
3A3
100
AcDbEntity
  8
0
100
AcDbLine
 62
7
  6
CONTINUOUS
 10
429.6702666675
 20
261.7775770469
 11
430.9202663695
 21
262.4158748432
  0
LINE
  5
3A4
100
AcDbEntity
  8
0
100
AcDbLine
 62
7
  6
CONTINUOUS
 10
442.7952657734
 20
254.7563004221
 11
444.0452663695
 21
255.3945983021
  0
LINE
  5
3A5
100
AcDbEntity
  8
0
100
AcDbLine
 62
7
  6
CONTINUOUS
 10
358.2682494545
 20
244.8697868661
 11
359.059364194
 21
245.1821203063
  0
LINE
  5
3A6
100
AcDbEntity
  8
0
100
AcDbLine
 62
7
  6
CONTINUOUS
 10
383.4166851542
 20
252.9337446711
 11
384.2077998964
 21
253.2460780966
  0
LINE
  5
3A7
100
AcDbEntity
  8
0
100
AcDbLine
 62
7
  6
CONTINUOUS
 10
429.3577660715
 20
263.3733215376
 11
428.4202660715
 21
263.0541726394
  0
LINE
  5
3A8
100
AcDbEntity
  8
RUNDUNGEN
100
AcDbLine
 62
7
  6
CONTINUOUS
 10
602.9742534373
 20
227.3576822601
 11
603.9293946175
 21
220.5614996256
  0
LINE
  5
3A9
100
AcDbEntity
  8
BEZUGSACHSEN
100
AcDbLine
 62
7
  6
CONTINUOUS
 10
602.9742534373
 20
227.3576822601
 11
603.9293946175
 21
220.5614996256
  0
LINE
  5
3AA
100
AcDbEntity
  8
RUNDUNGEN
100
AcDbLine
 62
7
  6
CONTINUOUS
 10
600.848747813
 20
271.6646611466
 11
600.848747813
 21
218.2520539504
  0
LINE
  5
3AB
100
AcDbEntity
  8
BEZUGSACHSEN
100
AcDbLine
 62
7
  6
CONTINUOUS
 10
600.848747813
 20
271.6646611466
 11
600.848747813
 21
218.2520539498
  0
LINE
  5
3AC
100
AcDbEntity
  8
RUNDUNGEN
100
AcDbLine
 62
7
  6
CONTINUOUS
 10
600.848747813
 20
146.7072581851
 11
600.848747813
 21
118.2896418454
  0
LINE
  5
3AD
100
AcDbEntity
  8
BEZUGSACHSEN
100
AcDbLine
 62
7
  6
CONTINUOUS
 10
607.3428863695
 20
214.0868415994
 11
607.3428863695
 21
204.9235871086
  0
LINE
  5
3AE
100
AcDbEntity
  8
RUNDUNGEN
100
AcDbLine
 62
7
  6
CONTINUOUS
 10
607.3428863695
 20
214.0868415994
 11
607.3428863695
 21
175.8674606323
  0
LINE
  5
3AF
100
AcDbEntity
  8
BEZUGSACHSEN
100
AcDbLine
 62
7
  6
CONTINUOUS
 10
578.6917528783
 20
227.0052834467
 11
577.7861381215
 21
220.5614996256
  0
LINE
  5
3B0
100
AcDbEntity
  8
BEZUGSACHSEN
100
AcDbLine
 62
7
  6
CONTINUOUS
 10
562.3089853538
 20
291.1974022075
 11
547.0537562733
 21
264.7745703591
  0
LINE
  5
3B1
100
AcDbEntity
  8
0
100
AcDbLine
 62
7
  6
CONTINUOUS
 10
457.7952675616
 20
254.7563004221
 11
459.0452663695
 21
255.3945983021
  0
LWPOLYLINE
  5
3B2
100
AcDbEntity
  8
BEZUGSACHSEN
100
AcDbPolyline
 62
7
  6
CONTINUOUS
 90
3
 70
0
 10
600.8183485912
 20
217.8884565424
 10
600.8411347768
 20
218.0696223347
 10
600.848747813
 20
218.2520565872
  0
LINE
  5
3B3
100
AcDbEntity
  8
RUNDUNGEN
100
AcDbLine
 62
7
  6
CONTINUOUS
 10
603.9293937777
 20
169.3927973908
 11
600.9552994131
 21
148.2310163977
  0
LWPOLYLINE
  5
3B4
100
AcDbEntity
  8
RUNDUNGEN
100
AcDbPolyline
 62
7
  6
CONTINUOUS
 90
7
 70
0
 10
600.6140777141
 20
217.2658337459
 10
600.6610554676
 20
217.3650704972
 10
600.7279948566
 20
217.5349516549
 10
600.7805477056
 20
217.7098190474
 10
600.8183486197
 20
217.8884567118
 10
600.8411347877
 20
218.0696224652
 10
600.848747813
 20
218.2520565872
  0
LWPOLYLINE
  5
3B5
100
AcDbEntity
  8
BEZUGSACHSEN
100
AcDbPolyline
 62
7
  6
CONTINUOUS
 90
5
 70
0
 10
600.6140777141
 20
217.2658337459
 10
600.6610555411
 20
217.3650706631
 10
600.727994862
 20
217.5349516708
 10
600.7805476786
 20
217.7098189416
 10
600.8183485912
 20
217.8884565424
  0
LINE
  5
3B6
100
AcDbEntity
  8
BEZUGSACHSEN
100
AcDbLine
 62
7
  6
CONTINUOUS
 10
575.2187688672
 20
216.674344491
 11
575.2155280949
 21
216.6699132843
  0
LINE
  5
3B7
100
AcDbEntity
  8
BEZUGSACHSEN
100
AcDbLine
 62
7
  6
CONTINUOUS
 10
576.5460495096
 20
218.0742702009
 11
575.655355032
 21
217.1835757233
  0
LINE
  5
3B8
100
AcDbEntity
  8
RUNDUNGEN
100
AcDbLine
 62
7
  6
CONTINUOUS
 10
606.0601298474
 20
172.7706794091
 11
605.1694920702
 21
171.880041632
  0
LINE
  5
3B9
100
AcDbEntity
  8
BEZUGSACHSEN
100
AcDbLine
 62
7
  6
CONTINUOUS
 10
792.810492458
 20
175.3722067766
 11
784.3232093133
 21
175.3722067766
  0
LINE
  5
3BA
100
AcDbEntity
  8
BEZUGSACHSEN
100
AcDbLine
 62
7
  6
CONTINUOUS
 10
758.8307488874
 20
175.3722067766
 11
749.9222366622
 21
175.3722067766
  0
LINE
  5
3BB
100
AcDbEntity
  8
BEZUGSACHSEN
100
AcDbLine
 62
7
  6
CONTINUOUS
 10
833.4863442378
 20
177.6343157827
 11
850.2199854279
 21
177.6343157827
  0
LINE
  5
3BC
100
AcDbEntity
  8
0
100
AcDbLine
 62
7
  6
CONTINUOUS
 10
849.8429345654
 20
179.1423884534
 11
833.7125892793
 21
179.1423884534
  0
LINE
  5
3BD
100
AcDbEntity
  8
BEZUGSACHSEN
100
AcDbLine
 62
7
  6
CONTINUOUS
 10
849.8429345654
 20
179.1423884534
 11
833.7125892793
 21
179.1423884534
  0
LINE
  5
3BE
100
AcDbEntity
  8
0
100
AcDbLine
 62
7
  6
CONTINUOUS
 10
852.4096742509
 20
188.627151496
 11
852.0326560832
 21
188.627151496
  0
LINE
  5
3BF
100
AcDbEntity
  8
0
100
AcDbLine
 62
7
  6
CONTINUOUS
 10
831.5228677614
 20
188.627151496
 11
831.2966568608
 21
188.627151496
  0
LINE
  5
3C0
100
AcDbEntity
  8
0
100
AcDbLine
 62
7
  6
CONTINUOUS
 10
818.4026355262
 20
188.627151496
 11
795.02750913
 21
188.627151496
  0
LINE
  5
3C1
100
AcDbEntity
  8
0
100
AcDbLine
 62
7
  6
CONTINUOUS
 10
782.1334877954
 20
188.627151496
 11
781.9072768948
 21
188.627151496
  0
LINE
  5
3C2
100
AcDbEntity
  8
0
100
AcDbLine
 62
7
  6
CONTINUOUS
 10
761.397488573
 20
188.627151496
 11
761.0204704053
 21
188.627151496
  0
LINE
  5
3C3
100
AcDbEntity
  8
0
100
AcDbLine
 62
7
  6
CONTINUOUS
 10
852.4096742509
 20
201.327151496
 11
852.0326560832
 21
201.327151496
  0
LINE
  5
3C4
100
AcDbEntity
  8
0
100
AcDbLine
 62
7
  6
CONTINUOUS
 10
831.5228677614
 20
201.327151496
 11
831.2966568608
 21
201.327151496
  0
LINE
  5
3C5
100
AcDbEntity
  8
0
100
AcDbLine
 62
7
  6
CONTINUOUS
 10
818.4026355262
 20
201.327151496
 11
795.02750913
 21
201.327151496
  0
LINE
  5
3C6
100
AcDbEntity
  8
0
100
AcDbLine
 62
7
  6
CONTINUOUS
 10
782.1334877954
 20
201.327151496
 11
781.9072768948
 21
201.327151496
  0
LINE
  5
3C7
100
AcDbEntity
  8
0
100
AcDbLine
 62
7
  6
CONTINUOUS
 10
761.397488573
 20
201.327151496
 11
761.0204704053
 21
201.327151496
  0
LINE
  5
3C8
100
AcDbEntity
  8
0
100
AcDbLine
 62
7
  6
CONTINUOUS
 10
763.5872100909
 20
210.8119145386
 11
779.7175553769
 21
210.8119145386
  0
LINE
  5
3C9
100
AcDbEntity
  8
BEZUGSACHSEN
100
AcDbLine
 62
7
  6
CONTINUOUS
 10
779.9438004184
 20
212.3199872093
 11
763.2101592283
 21
212.3199872093
  0
LINE
  5
3CA
100
AcDbEntity
  8
BEZUGSACHSEN
100
AcDbLine
 62
7
  6
CONTINUOUS
 10
820.6196521982
 20
214.5820962154
 11
829.106935343
 21
214.5820962154
  0
LINE
  5
3CB
100
AcDbEntity
  8
BEZUGSACHSEN
100
AcDbLine
 62
7
  6
CONTINUOUS
 10
854.5993957688
 20
214.5820962154
 11
863.507907994
 21
214.5820962154
  0
LINE
  5
3CC
100
AcDbEntity
  8
BEZUGSACHSEN
100
AcDbLine
 62
7
  6
CONTINUOUS
 10
789.2150723281
 20
225.477151496
 11
824.2150723281
 21
225.477151496
  0
LINE
  5
3CD
100
AcDbEntity
  8
RUNDUNGEN
100
AcDbLine
 62
7
  6
CONTINUOUS
 10
748.1079263844
 20
176.314340183
 11
742.8525407226
 21
183.8198087405
  0
LINE
  5
3CE
100
AcDbEntity
  8
BEZUGSACHSEN
100
AcDbLine
 62
7
  6
CONTINUOUS
 10
748.1079263844
 20
176.314340183
 11
742.8525407226
 21
183.8198087405
  0
LINE
  5
3CF
100
AcDbEntity
  8
KONSTRUKTIONSELEMENTE
100
AcDbLine
 62
7
  6
CONTINUOUS
 10
799.4350723281
 20
291.5296229723
 11
813.9950723281
 21
291.5296229723
  0
LINE
  5
3D0
100
AcDbEntity
  8
KONSTRUKTIONSELEMENTE
100
AcDbLine
 62
7
  6
CONTINUOUS
 10
798.6350723281
 20
292.0953083973
 11
799.4350723281
 21
292.0953083973
  0
LINE
  5
3D1
100
AcDbEntity
  8
KONSTRUKTIONSELEMENTE
100
AcDbLine
 62
7
  6
CONTINUOUS
 10
813.9950723281
 20
292.0953083973
 11
814.7950723281
 21
292.0953083973
  0
LINE
  5
3D2
100
AcDbEntity
  8
KONSTRUKTIONSELEMENTE
100
AcDbLine
 62
7
  6
CONTINUOUS
 10
798.6350723281
 20
294.4994714533
 11
799.4350723281
 21
294.4994714533
  0
LINE
  5
3D3
100
AcDbEntity
  8
KONSTRUKTIONSELEMENTE
100
AcDbLine
 62
7
  6
CONTINUOUS
 10
813.9950723281
 20
294.4994714533
 11
814.7950723281
 21
294.4994714533
  0
LINE
  5
3D4
100
AcDbEntity
  8
KONSTRUKTIONSELEMENTE
100
AcDbLine
 62
7
  6
CONTINUOUS
 10
799.4350723281
 20
295.0651568783
 11
813.9950723281
 21
295.0651568783
  0
LINE
  5
3D5
100
AcDbEntity
  8
KONSTRUKTIONSELEMENTE
100
AcDbLine
 62
7
  6
CONTINUOUS
 10
840.7729537677
 20
314.1570399703
 11
820.5178726926
 21
314.1570399703
  0
LINE
  5
3D6
100
AcDbEntity
  8
KONSTRUKTIONSELEMENTE
100
AcDbLine
 62
7
  6
CONTINUOUS
 10
793.0350723281
 20
314.1570399703
 11
792.5848935324
 21
314.1570399703
  0
LINE
  5
3D7
100
AcDbEntity
  8
BEZUGSACHSEN
100
AcDbLine
 62
7
  6
CONTINUOUS
 10
753.2150723281
 20
315.477151496
 11
783.2150723281
 21
315.477151496
  0
LINE
  5
3D8
100
AcDbEntity
  8
BEZUGSACHSEN
100
AcDbLine
 62
7
  6
CONTINUOUS
 10
845.122030292
 20
315.477151496
 11
860.2150723281
 21
315.477151496
  0
LINE
  5
3D9
100
AcDbEntity
  8
KONSTRUKTIONSELEMENTE
100
AcDbLine
 62
7
  6
CONTINUOUS
 10
823.5950723281
 20
317.1268884513
 11
820.3950723281
 21
317.1268884513
  0
LINE
  5
3DA
100
AcDbEntity
  8
KONSTRUKTIONSELEMENTE
100
AcDbLine
 62
7
  6
CONTINUOUS
 10
793.0350723281
 20
317.1268884513
 11
792.5848935324
 21
317.1268884513
  0
LINE
  5
3DB
100
AcDbEntity
  8
KONSTRUKTIONSELEMENTE
100
AcDbLine
 62
7
  6
CONTINUOUS
 10
793.0350723281
 20
317.6925738762
 11
792.5848935324
 21
317.6925738762
  0
LINE
  5
3DC
100
AcDbEntity
  8
KONSTRUKTIONSELEMENTE
100
AcDbLine
 62
7
  6
CONTINUOUS
 10
820.3950723281
 20
317.6925738762
 11
840.7729537677
 21
317.6925738762
  0
LINE
  5
3DD
100
AcDbEntity
  8
KONSTRUKTIONSELEMENTE
100
AcDbLine
 62
7
  6
CONTINUOUS
 10
753.2150723281
 20
323.977151496
 11
733.2150723281
 21
323.977151496
  0
LINE
  5
3DE
100
AcDbEntity
  8
BEZUGSACHSEN
100
AcDbLine
 62
7
  6
CONTINUOUS
 10
860.2150723281
 20
328.477151496
 11
867.2150723281
 21
328.477151496
  0
LINE
  5
3DF
100
AcDbEntity
  8
KONSTRUKTIONSELEMENTE
100
AcDbLine
 62
7
  6
CONTINUOUS
 10
866.2150723281
 20
329.0272071754
 11
872.2150723281
 21
329.0272071754
  0
LINE
  5
3E0
100
AcDbEntity
  8
KONSTRUKTIONSELEMENTE
100
AcDbLine
 62
7
  6
CONTINUOUS
 10
730.2150723281
 20
330.977151496
 11
726.2150723281
 21
330.977151496
  0
LINE
  5
3E1
100
AcDbEntity
  8
KONSTRUKTIONSELEMENTE
100
AcDbLine
 62
7
  6
CONTINUOUS
 10
721.2150723281
 20
333.477151496
 11
726.2150723281
 21
333.477151496
  0
LINE
  5
3E2
100
AcDbEntity
  8
KONSTRUKTIONSELEMENTE
100
AcDbLine
 62
7
  6
CONTINUOUS
 10
730.2150723281
 20
333.477151496
 11
733.2150723281
 21
333.477151496
  0
LINE
  5
3E3
100
AcDbEntity
  8
KONSTRUKTIONSELEMENTE
100
AcDbLine
 62
7
  6
CONTINUOUS
 10
730.2150723281
 20
350.2947843938
 11
726.2150723281
 21
350.2947843938
  0
LINE
  5
3E4
100
AcDbEntity
  8
KONSTRUKTIONSELEMENTE
100
AcDbLine
 62
7
  6
CONTINUOUS
 10
753.2150723281
 20
351.477151496
 11
733.2150723281
 21
351.477151496
  0
LINE
  5
3E5
100
AcDbEntity
  8
KONSTRUKTIONSELEMENTE
100
AcDbLine
 62
7
  6
CONTINUOUS
 10
730.2150723281
 20
351.477151496
 11
726.2150723281
 21
351.477151496
  0
LINE
  5
3E6
100
AcDbEntity
  8
KONSTRUKTIONSELEMENTE
100
AcDbLine
 62
7
  6
CONTINUOUS
 10
730.2150723281
 20
352.6595185982
 11
726.2150723281
 21
352.6595185982
  0
LINE
  5
3E7
100
AcDbEntity
  8
KONSTRUKTIONSELEMENTE
100
AcDbLine
 62
7
  6
CONTINUOUS
 10
846.5547175301
 20
322.1969555511
 11
837.5930860647
 21
324.8217566368
  0
LINE
  5
3E8
100
AcDbEntity
  8
KONSTRUKTIONSELEMENTE
100
AcDbLine
 62
7
  6
CONTINUOUS
 10
721.2150723281
 20
369.477151496
 11
721.2150723281
 21
333.477151496
  0
LINE
  5
3E9
100
AcDbEntity
  8
KONSTRUKTIONSELEMENTE
100
AcDbLine
 62
7
  6
CONTINUOUS
 10
726.2150723281
 20
330.977151496
 11
726.2150723281
 21
371.977151496
  0
LINE
  5
3EA
100
AcDbEntity
  8
KONSTRUKTIONSELEMENTE
100
AcDbLine
 62
7
  6
CONTINUOUS
 10
730.2150723281
 20
330.977151496
 11
730.2150723281
 21
371.977151496
  0
LINE
  5
3EB
100
AcDbEntity
  8
KONSTRUKTIONSELEMENTE
100
AcDbLine
 62
7
  6
CONTINUOUS
 10
733.2150723281
 20
323.977151496
 11
733.2150723281
 21
378.977151496
  0
LINE
  5
3EC
100
AcDbEntity
  8
KONSTRUKTIONSELEMENTE
100
AcDbLine
 62
7
  6
CONTINUOUS
 10
721.2150723281
 20
369.477151496
 11
726.2150723281
 21
369.477151496
  0
LINE
  5
3ED
100
AcDbEntity
  8
KONSTRUKTIONSELEMENTE
100
AcDbLine
 62
7
  6
CONTINUOUS
 10
730.2150723281
 20
369.477151496
 11
733.2150723281
 21
369.477151496
  0
LINE
  5
3EE
100
AcDbEntity
  8
KONSTRUKTIONSELEMENTE
100
AcDbLine
 62
7
  6
CONTINUOUS
 10
730.2150723281
 20
371.977151496
 11
726.2150723281
 21
371.977151496
  0
LINE
  5
3EF
100
AcDbEntity
  8
KONSTRUKTIONSELEMENTE
100
AcDbLine
 62
7
  6
CONTINUOUS
 10
866.2150723281
 20
373.9270958166
 11
871.619604294
 21
373.9270958166
  0
LINE
  5
3F0
100
AcDbEntity
  8
BEZUGSACHSEN
100
AcDbLine
 62
7
  6
CONTINUOUS
 10
862.0406219483
 20
374.477151496
 11
867.2150723281
 21
374.477151496
  0
LINE
  5
3F1
100
AcDbEntity
  8
KONSTRUKTIONSELEMENTE
100
AcDbLine
 62
7
  6
CONTINUOUS
 10
750.7117745641
 20
378.977151496
 11
733.2150723281
 21
378.977151496
  0
LINE
  5
3F2
100
AcDbEntity
  8
RUNDUNGEN
100
AcDbLine
 62
7
  6
CONTINUOUS
 10
865.3222182718
 20
213.6399628091
 11
870.5776039336
 21
206.1344942515
  0
LINE
  5
3F3
100
AcDbEntity
  8
KONSTRUKTIONSELEMENTE
100
AcDbLine
 62
7
  6
CONTINUOUS
 10
750.776539787
 20
378.8492768422
 11
752.3072735165
 21
376.2361509125
  0
LINE
  5
3F4
100
AcDbEntity
  8
KONSTRUKTIONSELEMENTE
100
AcDbLine
 62
7
  6
CONTINUOUS
 10
760.2364742351
 20
362.7001585964
 11
786.6267676096
 21
317.6491098192
  0
LINE
  5
3F5
100
AcDbEntity
  8
KONSTRUKTIONSELEMENTE
100
AcDbLine
 62
7
  6
CONTINUOUS
 10
760.2364742351
 20
363.2658440213
 11
759.9303274892
 21
363.7884692073
  0
LINE
  5
3F6
100
AcDbEntity
  8
KONSTRUKTIONSELEMENTE
100
AcDbLine
 62
7
  6
CONTINUOUS
 10
760.2364742351
 20
365.6700070774
 11
759.9303274892
 21
366.1926322633
  0
LINE
  5
3F7
100
AcDbEntity
  8
KONSTRUKTIONSELEMENTE
100
AcDbLine
 62
7
  6
CONTINUOUS
 10
750.776539787
 20
382.3848107482
 11
752.3072735165
 21
379.7716848184
  0
LINE
  5
3F8
100
AcDbEntity
  8
KONSTRUKTIONSELEMENTE
100
AcDbLine
 62
7
  6
CONTINUOUS
 10
760.2364742351
 20
366.2356925023
 11
786.6267676096
 21
321.1846437251
  0
LINE
  5
3F9
100
AcDbEntity
  8
KONSTRUKTIONSELEMENTE
100
AcDbLine
 62
7
  6
CONTINUOUS
 10
769.2989780157
 20
370.8808129702
 11
765.5848755459
 21
377.2211824824
  0
LINE
  5
3FA
100
AcDbEntity
  8
KONSTRUKTIONSELEMENTE
100
AcDbLine
 62
7
  6
CONTINUOUS
 10
771.1436920136
 20
370.7015376761
 11
769.91910503
 21
372.7920384199
  0
LINE
  5
3FB
100
AcDbEntity
  8
KONSTRUKTIONSELEMENTE
100
AcDbLine
 62
7
  6
CONTINUOUS
 10
765.5848755459
 20
380.7567163884
 11
771.1436920136
 21
371.2672231011
  0
LINE
  5
3FC
100
AcDbEntity
  8
0
100
AcDbLine
 62
7
  6
CONTINUOUS
 10
741.8679474871
 20
208.843791008
 11
741.8679474871
 21
201.5463160497
  0
LINE
  5
3FD
100
AcDbEntity
  8
BEZUGSACHSEN
100
AcDbLine
 62
7
  6
CONTINUOUS
 10
741.8679474871
 20
208.843791008
 11
741.8679474871
 21
201.5463160497
  0
LINE
  5
3FE
100
AcDbEntity
  8
0
100
AcDbLine
 62
7
  6
CONTINUOUS
 10
741.8679474871
 20
188.4079869423
 11
741.8679474871
 21
186.9425395284
  0
LINE
  5
3FF
100
AcDbEntity
  8
BEZUGSACHSEN
100
AcDbLine
 62
7
  6
CONTINUOUS
 10
741.8679474871
 20
188.4079869423
 11
741.8679474871
 21
186.9425395284
  0
LINE
  5
400
100
AcDbEntity
  8
KONSTRUKTIONSELEMENTE
100
AcDbLine
 62
7
  6
CONTINUOUS
 10
750.1675760471
 20
384.5495951488
 11
750.1675760471
 21
381.0140612428
  0
LINE
  5
401
100
AcDbEntity
  8
BEZUGSACHSEN
100
AcDbLine
 62
7
  6
CONTINUOUS
 10
753.2150723281
 20
459.977151496
 11
753.2150723281
 21
456.977151496
  0
LINE
  5
402
100
AcDbEntity
  8
KONSTRUKTIONSELEMENTE
100
AcDbLine
 62
7
  6
CONTINUOUS
 10
753.2150723281
 20
315.4771515002
 11
753.2150723281
 21
376.1403799994
  0
LINE
  5
403
100
AcDbEntity
  8
KONSTRUKTIONSELEMENTE
100
AcDbLine
 62
7
  6
CONTINUOUS
 10
753.2150723281
 20
388.986188993
 11
753.2150723281
 21
456.977151496
  0
LINE
  5
404
100
AcDbEntity
  8
KONSTRUKTIONSELEMENTE
100
AcDbLine
 62
7
  6
CONTINUOUS
 10
759.7476383672
 20
366.8420675835
 11
759.7476383672
 21
364.4379045274
  0
LINE
  5
405
100
AcDbEntity
  8
KONSTRUKTIONSELEMENTE
100
AcDbLine
 62
7
  6
CONTINUOUS
 10
760.2364742351
 20
366.2356925023
 11
760.2364742351
 21
365.6700070774
  0
LINE
  5
406
100
AcDbEntity
  8
KONSTRUKTIONSELEMENTE
100
AcDbLine
 62
7
  6
CONTINUOUS
 10
760.2364742351
 20
362.7001585964
 11
760.2364742351
 21
363.2658440213
  0
LINE
  5
407
100
AcDbEntity
  8
RUNDUNGEN
100
AcDbLine
 62
7
  6
CONTINUOUS
 10
761.0204704053
 20
210.1302656914
 11
761.0204704053
 21
177.5619818553
  0
LINE
  5
408
100
AcDbEntity
  8
BEZUGSACHSEN
100
AcDbLine
 62
7
  6
CONTINUOUS
 10
761.0204704053
 20
210.1302656914
 11
761.0204704053
 21
177.5619818553
  0
LINE
  5
409
100
AcDbEntity
  8
0
100
AcDbLine
 62
7
  6
CONTINUOUS
 10
761.397488573
 20
184.3070938277
 11
761.397488573
 21
191.1580438137
  0
LINE
  5
40A
100
AcDbEntity
  8
BEZUGSACHSEN
100
AcDbLine
 62
7
  6
CONTINUOUS
 10
761.397488573
 20
183.351560396
 11
761.397488573
 21
191.1580438137
  0
LINE
  5
40B
100
AcDbEntity
  8
0
100
AcDbLine
 62
7
  6
CONTINUOUS
 10
761.397488573
 20
198.7962591783
 11
761.397488573
 21
207.6440469996
  0
LINE
  5
40C
100
AcDbEntity
  8
BEZUGSACHSEN
100
AcDbLine
 62
7
  6
CONTINUOUS
 10
761.397488573
 20
198.7962591783
 11
761.397488573
 21
207.6440981163
  0
LINE
  5
40D
100
AcDbEntity
  8
RUNDUNGEN
100
AcDbLine
 62
7
  6
CONTINUOUS
 10
761.397488573
 20
207.6440469996
 11
761.397488573
 21
208.6221436195
  0
LINE
  5
40E
100
AcDbEntity
  8
KONSTRUKTIONSELEMENTE
100
AcDbLine
 62
7
  6
CONTINUOUS
 10
763.1534052587
 20
378.964854388
 11
762.8340608923
 21
378.8967086378
  0
LINE
  5
40F
100
AcDbEntity
  8
KONSTRUKTIONSELEMENTE
100
AcDbLine
 62
7
  6
CONTINUOUS
 10
868.8965908322
 20
374.7246479943
 11
877.8582222975
 21
372.0998469086
  0
LINE
  5
410
100
AcDbEntity
  8
KONSTRUKTIONSELEMENTE
100
AcDbLine
 62
7
  6
CONTINUOUS
 10
868.8965908322
 20
378.2601819003
 11
877.8582222975
 21
375.6353808146
  0
LINE
  5
411
100
AcDbEntity
  8
RUNDUNGEN
100
AcDbLine
 62
7
  6
CONTINUOUS
 10
781.8318732612
 20
174.128989143
 11
781.8318732612
 21
165.7652952822
  0
LINE
  5
412
100
AcDbEntity
  8
RUNDUNGEN
100
AcDbLine
 62
7
  6
CONTINUOUS
 10
781.9072768948
 20
208.6221436388
 11
781.9072768948
 21
207.6440951446
  0
LINE
  5
413
100
AcDbEntity
  8
BEZUGSACHSEN
100
AcDbLine
 62
7
  6
CONTINUOUS
 10
781.9072768948
 20
179.4921297124
 11
781.9072768948
 21
191.1580438137
  0
LINE
  5
414
100
AcDbEntity
  8
BEZUGSACHSEN
100
AcDbLine
 62
7
  6
CONTINUOUS
 10
781.9072768948
 20
198.7962591783
 11
781.9072768948
 21
207.6440951446
  0
LINE
  5
415
100
AcDbEntity
  8
RUNDUNGEN
100
AcDbLine
 62
7
  6
CONTINUOUS
 10
782.1334877954
 20
177.5619818553
 11
782.1334877954
 21
210.1302656914
  0
LINE
  5
416
100
AcDbEntity
  8
BEZUGSACHSEN
100
AcDbLine
 62
7
  6
CONTINUOUS
 10
782.1334877954
 20
177.5619818553
 11
782.1334877954
 21
210.1302656914
  0
LINE
  5
417
100
AcDbEntity
  8
BEZUGSACHSEN
100
AcDbLine
 62
7
  6
CONTINUOUS
 10
783.2150723281
 20
456.977151496
 11
783.2150723281
 21
407.477275329
  0
LINE
  5
418
100
AcDbEntity
  8
KONSTRUKTIONSELEMENTE
100
AcDbLine
 62
7
  6
CONTINUOUS
 10
783.2150723281
 20
456.977151496
 11
783.2150723281
 21
398.0087718756
  0
LINE
  5
419
100
AcDbEntity
  8
KONSTRUKTIONSELEMENTE
100
AcDbLine
 62
7
  6
CONTINUOUS
 10
783.2150723281
 20
323.4732379696
 11
783.2150723281
 21
315.4771514961
  0
LINE
  5
41A
100
AcDbEntity
  8
BEZUGSACHSEN
100
AcDbLine
 62
7
  6
CONTINUOUS
 10
789.2150723281
 20
405.977151496
 11
801.3419105436
 21
405.977151496
  0
LINE
  5
41B
100
AcDbEntity
  8
BEZUGSACHSEN
100
AcDbLine
 62
7
  6
CONTINUOUS
 10
812.088449747
 20
405.977151496
 11
824.2150723281
 21
405.977151496
  0
LINE
  5
41C
100
AcDbEntity
  8
KONSTRUKTIONSELEMENTE
100
AcDbLine
 62
7
  6
CONTINUOUS
 10
812.8380072459
 20
403.098396401
 11
875.4158074195
 21
384.7697830819
  0
LINE
  5
41D
100
AcDbEntity
  8
0
100
AcDbLine
 62
7
  6
CONTINUOUS
 10
788.7150723281
 20
461.977151496
 11
788.7150723281
 21
462.2239289712
  0
LINE
  5
41E
100
AcDbEntity
  8
0
100
AcDbLine
 62
7
  6
CONTINUOUS
 10
788.7150723281
 20
471.4388396152
 11
788.7150723281
 21
757.977151496
  0
LINE
  5
41F
100
AcDbEntity
  8
BEZUGSACHSEN
100
AcDbLine
 62
7
  6
CONTINUOUS
 10
789.2150723281
 20
315.291027177
 11
789.2150723281
 21
225.4772610373
  0
LINE
  5
420
100
AcDbEntity
  8
BEZUGSACHSEN
100
AcDbLine
 62
7
  6
CONTINUOUS
 10
789.2150723281
 20
399.7661311884
 11
789.2150723281
 21
405.977151496
  0
LINE
  5
421
100
AcDbEntity
  8
KONSTRUKTIONSELEMENTE
100
AcDbLine
 62
7
  6
CONTINUOUS
 10
792.5848935324
 20
317.6925738762
 11
792.5848935324
 21
317.1268884513
  0
LINE
  5
422
100
AcDbEntity
  8
KONSTRUKTIONSELEMENTE
100
AcDbLine
 62
7
  6
CONTINUOUS
 10
792.5848935324
 20
314.7227253952
 11
792.5848935324
 21
314.1570399703
  0
LINE
  5
423
100
AcDbEntity
  8
0
100
AcDbLine
 62
7
  6
CONTINUOUS
 10
795.02750913
 20
177.5652974855
 11
795.02750913
 21
188.627151496
  0
LINE
  5
424
100
AcDbEntity
  8
BEZUGSACHSEN
100
AcDbLine
 62
7
  6
CONTINUOUS
 10
795.02750913
 20
177.5652974855
 11
795.02750913
 21
188.627151496
  0
LINE
  5
425
100
AcDbEntity
  8
0
100
AcDbLine
 62
7
  6
CONTINUOUS
 10
795.02750913
 20
201.327151496
 11
795.02750913
 21
210.8405108872
  0
LINE
  5
426
100
AcDbEntity
  8
BEZUGSACHSEN
100
AcDbLine
 62
7
  6
CONTINUOUS
 10
795.02750913
 20
201.327151496
 11
795.02750913
 21
210.8405108872
  0
LINE
  5
427
100
AcDbEntity
  8
KONSTRUKTIONSELEMENTE
100
AcDbLine
 62
7
  6
CONTINUOUS
 10
796.2350723281
 20
293.7923646721
 11
796.2350723281
 21
313.0404178871
  0
LINE
  5
428
100
AcDbEntity
  8
KONSTRUKTIONSELEMENTE
100
AcDbLine
 62
7
  6
CONTINUOUS
 10
798.7150723281
 20
452.3964156923
 11
798.7150723281
 21
441.7898139745
  0
LINE
  5
429
100
AcDbEntity
  8
KONSTRUKTIONSELEMENTE
100
AcDbLine
 62
7
  6
CONTINUOUS
 10
798.7150723281
 20
421.2837173201
 11
798.7150723281
 21
410.6771156023
  0
LINE
  5
42A
100
AcDbEntity
  8
KONSTRUKTIONSELEMENTE
100
AcDbLine
 62
7
  6
CONTINUOUS
 10
799.4350723281
 20
291.5296229723
 11
799.4350723281
 21
292.0953083973
  0
LINE
  5
42B
100
AcDbEntity
  8
KONSTRUKTIONSELEMENTE
100
AcDbLine
 62
7
  6
CONTINUOUS
 10
799.4350723281
 20
294.4994714533
 11
799.4350723281
 21
313.1670904766
  0
LINE
  5
42C
100
AcDbEntity
  8
KONSTRUKTIONSELEMENTE
100
AcDbLine
 62
7
  6
CONTINUOUS
 10
803.2150723281
 20
452.3964156923
 11
803.2150723281
 21
441.7898139745
  0
LINE
  5
42D
100
AcDbEntity
  8
KONSTRUKTIONSELEMENTE
100
AcDbLine
 62
7
  6
CONTINUOUS
 10
803.2150723281
 20
421.2837173201
 11
803.2150723281
 21
410.6771156023
  0
LINE
  5
42E
100
AcDbEntity
  8
KONSTRUKTIONSELEMENTE
100
AcDbLine
 62
7
  6
CONTINUOUS
 10
804.2150723281
 20
468.9151437644
 11
804.2150723281
 21
451.4340368063
  0
LINE
  5
42F
100
AcDbEntity
  8
KONSTRUKTIONSELEMENTE
100
AcDbLine
 62
7
  6
CONTINUOUS
 10
804.2150723281
 20
411.6394944883
 11
804.2150723281
 21
394.1583875301
  0
LINE
  5
430
100
AcDbEntity
  8
KONSTRUKTIONSELEMENTE
100
AcDbLine
 62
7
  6
CONTINUOUS
 10
804.4650723281
 20
442.5900665062
 11
804.4650723281
 21
420.4834647884
  0
LINE
  5
431
100
AcDbEntity
  8
0
100
AcDbLine
 62
7
  6
CONTINUOUS
 10
806.7150723281
 20
201.327151496
 11
806.7150723281
 21
188.627151496
  0
LINE
  5
432
100
AcDbEntity
  8
KONSTRUKTIONSELEMENTE
100
AcDbLine
 62
7
  6
CONTINUOUS
 10
808.9650723281
 20
442.5900665062
 11
808.9650723281
 21
420.4834647884
  0
LINE
  5
433
100
AcDbEntity
  8
KONSTRUKTIONSELEMENTE
100
AcDbLine
 62
7
  6
CONTINUOUS
 10
809.2150723281
 20
468.9151437644
 11
809.2150723281
 21
451.4340368063
  0
LINE
  5
434
100
AcDbEntity
  8
KONSTRUKTIONSELEMENTE
100
AcDbLine
 62
7
  6
CONTINUOUS
 10
809.2150723281
 20
411.6394944883
 11
809.2150723281
 21
394.1583875301
  0
LINE
  5
435
100
AcDbEntity
  8
KONSTRUKTIONSELEMENTE
100
AcDbLine
 62
7
  6
CONTINUOUS
 10
810.2150723281
 20
410.6771156023
 11
810.2150723281
 21
421.2837173201
  0
LINE
  5
436
100
AcDbEntity
  8
KONSTRUKTIONSELEMENTE
100
AcDbLine
 62
7
  6
CONTINUOUS
 10
810.2150723281
 20
441.7898139745
 11
810.2150723281
 21
452.3964156923
  0
LINE
  5
437
100
AcDbEntity
  8
KONSTRUKTIONSELEMENTE
100
AcDbLine
 62
7
  6
CONTINUOUS
 10
813.9950723281
 20
291.5296229723
 11
813.9950723281
 21
292.0953083973
  0
LINE
  5
438
100
AcDbEntity
  8
KONSTRUKTIONSELEMENTE
100
AcDbLine
 62
7
  6
CONTINUOUS
 10
813.9950723281
 20
294.4994714533
 11
813.9950723281
 21
313.1670904766
  0
LINE
  5
439
100
AcDbEntity
  8
KONSTRUKTIONSELEMENTE
100
AcDbLine
 62
7
  6
CONTINUOUS
 10
814.7150723281
 20
410.6771156023
 11
814.7150723281
 21
421.2837173201
  0
LINE
  5
43A
100
AcDbEntity
  8
KONSTRUKTIONSELEMENTE
100
AcDbLine
 62
7
  6
CONTINUOUS
 10
814.7150723281
 20
441.7898139745
 11
814.7150723281
 21
452.3964156923
  0
LINE
  5
43B
100
AcDbEntity
  8
KONSTRUKTIONSELEMENTE
100
AcDbLine
 62
7
  6
CONTINUOUS
 10
817.1950723281
 20
293.7923646721
 11
817.1950723281
 21
312.6014050517
  0
LINE
  5
43C
100
AcDbEntity
  8
0
100
AcDbLine
 62
7
  6
CONTINUOUS
 10
818.4026355262
 20
212.3890055065
 11
818.4026355262
 21
201.327151496
  0
LINE
  5
43D
100
AcDbEntity
  8
0
100
AcDbLine
 62
7
  6
CONTINUOUS
 10
818.4026355262
 20
188.627151496
 11
818.4026355262
 21
179.1137921048
  0
LINE
  5
43E
100
AcDbEntity
  8
BEZUGSACHSEN
100
AcDbLine
 62
7
  6
CONTINUOUS
 10
824.2150723281
 20
405.977151496
 11
824.2150723281
 21
399.7661311884
  0
LINE
  5
43F
100
AcDbEntity
  8
BEZUGSACHSEN
100
AcDbLine
 62
7
  6
CONTINUOUS
 10
824.2150723281
 20
314.1570399703
 11
824.2150723281
 21
225.4772610373
  0
LINE
  5
440
100
AcDbEntity
  8
0
100
AcDbLine
 62
7
  6
CONTINUOUS
 10
824.7150723281
 20
461.977151496
 11
824.7150723281
 21
462.2282814073
  0
LINE
  5
441
100
AcDbEntity
  8
0
100
AcDbLine
 62
7
  6
CONTINUOUS
 10
824.7150723281
 20
471.4416514961
 11
824.7150723281
 21
757.977151496
  0
LINE
  5
442
100
AcDbEntity
  8
BEZUGSACHSEN
100
AcDbLine
 62
7
  6
CONTINUOUS
 10
830.2150723281
 20
456.977151496
 11
830.2150723281
 21
407.4773175801
  0
LINE
  5
443
100
AcDbEntity
  8
KONSTRUKTIONSELEMENTE
100
AcDbLine
 62
7
  6
CONTINUOUS
 10
830.2150723281
 20
398.0087718756
 11
830.2150723281
 21
456.977151496
  0
LINE
  5
444
100
AcDbEntity
  8
RUNDUNGEN
100
AcDbLine
 62
7
  6
CONTINUOUS
 10
831.2966568608
 20
212.3923211367
 11
831.2966568608
 21
179.8240373006
  0
LINE
  5
445
100
AcDbEntity
  8
KONSTRUKTIONSELEMENTE
100
AcDbLine
 62
7
  6
CONTINUOUS
 10
845.2150723281
 20
456.977151496
 11
830.215738903
 21
456.977151496
  0
LINE
  5
446
100
AcDbEntity
  8
KONSTRUKTIONSELEMENTE
100
AcDbLine
 62
7
  6
CONTINUOUS
 10
783.2144057533
 20
456.977151496
 11
768.2150723281
 21
456.977151496
  0
LINE
  5
447
100
AcDbEntity
  8
RUNDUNGEN
100
AcDbLine
 62
7
  6
CONTINUOUS
 10
831.5228677614
 20
207.7282220725
 11
831.5228677614
 21
198.7962591783
  0
LINE
  5
448
100
AcDbEntity
  8
RUNDUNGEN
100
AcDbLine
 62
7
  6
CONTINUOUS
 10
831.5228677614
 20
181.3321593532
 11
831.5228677614
 21
191.1580438137
  0
LINE
  5
449
100
AcDbEntity
  8
BEZUGSACHSEN
100
AcDbLine
 62
7
  6
CONTINUOUS
 10
831.5228677614
 20
181.3321593532
 11
831.5228677614
 21
191.1580438137
  0
LINE
  5
44A
100
AcDbEntity
  8
BEZUGSACHSEN
100
AcDbLine
 62
7
  6
CONTINUOUS
 10
831.5228677614
 20
198.7962591783
 11
831.5228677614
 21
210.4621732796
  0
LINE
  5
44B
100
AcDbEntity
  8
RUNDUNGEN
100
AcDbLine
 62
7
  6
CONTINUOUS
 10
831.598271395
 20
215.825313849
 11
831.598271395
 21
224.1890077098
  0
LINE
  5
44C
100
AcDbEntity
  8
BEZUGSACHSEN
100
AcDbLine
 62
7
  6
CONTINUOUS
 10
831.598271395
 20
215.825313849
 11
831.598271395
 21
224.1890077098
  0
LINE
  5
44D
100
AcDbEntity
  8
KONSTRUKTIONSELEMENTE
100
AcDbLine
 62
7
  6
CONTINUOUS
 10
847.0485707842
 20
318.1387964592
 11
847.0485707842
 21
321.6743303652
  0
LINE
  5
44E
100
AcDbEntity
  8
0
100
AcDbLine
 62
7
  6
CONTINUOUS
 10
852.0326560832
 20
205.6472091643
 11
852.0326560832
 21
198.7962591783
  0
LINE
  5
44F
100
AcDbEntity
  8
RUNDUNGEN
100
AcDbLine
 62
7
  6
CONTINUOUS
 10
852.0326560832
 20
205.6472091643
 11
852.0326560832
 21
198.7962591783
  0
LINE
  5
450
100
AcDbEntity
  8
BEZUGSACHSEN
100
AcDbLine
 62
7
  6
CONTINUOUS
 10
852.0326560832
 20
206.602742596
 11
852.0326560832
 21
198.7962591783
  0
LINE
  5
451
100
AcDbEntity
  8
0
100
AcDbLine
 62
7
  6
CONTINUOUS
 10
852.0326560832
 20
191.1580438137
 11
852.0326560832
 21
182.3102559924
  0
LINE
  5
452
100
AcDbEntity
  8
RUNDUNGEN
100
AcDbLine
 62
7
  6
CONTINUOUS
 10
852.0326560832
 20
191.1580438137
 11
852.0326560832
 21
181.3321593725
  0
LINE
  5
453
100
AcDbEntity
  8
BEZUGSACHSEN
100
AcDbLine
 62
7
  6
CONTINUOUS
 10
852.0326560832
 20
191.1580438137
 11
852.0326560832
 21
181.3321593725
  0
LINE
  5
454
100
AcDbEntity
  8
RUNDUNGEN
100
AcDbLine
 62
7
  6
CONTINUOUS
 10
852.4096742509
 20
179.8240373006
 11
852.4096742509
 21
212.3923211367
  0
LINE
  5
455
100
AcDbEntity
  8
KONSTRUKTIONSELEMENTE
100
AcDbLine
 62
7
  6
CONTINUOUS
 10
800.5921374103
 20
403.098396401
 11
755.1061085882
 21
389.7758470083
  0
LINE
  5
456
100
AcDbEntity
  8
KONSTRUKTIONSELEMENTE
100
AcDbLine
 62
7
  6
CONTINUOUS
 10
762.0686940275
 20
382.3245919462
 11
752.4913597577
 21
379.5194556843
  0
LINE
  5
457
100
AcDbEntity
  8
BEZUGSACHSEN
100
AcDbLine
 62
7
  6
CONTINUOUS
 10
860.2150723281
 20
459.977151496
 11
860.2150723281
 21
407.477275329
  0
LINE
  5
458
100
AcDbEntity
  8
KONSTRUKTIONSELEMENTE
100
AcDbLine
 62
7
  6
CONTINUOUS
 10
860.2150723281
 20
456.977151496
 11
860.2150723281
 21
389.2219753112
  0
LINE
  5
459
100
AcDbEntity
  8
KONSTRUKTIONSELEMENTE
100
AcDbLine
 62
7
  6
CONTINUOUS
 10
860.2150723281
 20
373.521997719
 11
860.2150723281
 21
315.4771515003
  0
LINE
  5
45A
100
AcDbEntity
  8
KONSTRUKTIONSELEMENTE
100
AcDbLine
 62
7
  6
CONTINUOUS
 10
866.2150723281
 20
373.9270958166
 11
866.2150723281
 21
329.0272071754
  0
LINE
  5
45B
100
AcDbEntity
  8
0
100
AcDbLine
 62
7
  6
CONTINUOUS
 10
871.5621971691
 20
181.110511984
 11
871.5621971691
 21
188.4079869423
  0
LINE
  5
45C
100
AcDbEntity
  8
0
100
AcDbLine
 62
7
  6
CONTINUOUS
 10
871.5621971691
 20
201.5463160497
 11
871.5621971691
 21
203.0117634636
  0
LINE
  5
45D
100
AcDbEntity
  8
BEZUGSACHSEN
100
AcDbLine
 62
7
  6
CONTINUOUS
 10
768.1075929674
 20
254.205618486
 11
743.5164518098
 21
214.6213412999
  0
LINE
  5
45E
100
AcDbEntity
  8
KONSTRUKTIONSELEMENTE
100
AcDbLine
 62
7
  6
CONTINUOUS
 10
755.4430246322
 20
377.4390310184
 11
762.8340608923
 21
379.603815419
  0
LINE
  5
45F
100
AcDbEntity
  8
KONSTRUKTIONSELEMENTE
100
AcDbLine
 62
7
  6
CONTINUOUS
 10
762.8340608923
 20
378.8967086378
 11
755.4430246322
 21
376.7319242372
  0
LINE
  5
460
100
AcDbEntity
  8
KONSTRUKTIONSELEMENTE
100
AcDbLine
 62
7
  6
CONTINUOUS
 10
761.2291981296
 20
368.4099431413
 11
768.6202343896
 21
370.5747275419
  0
LINE
  5
461
100
AcDbEntity
  8
KONSTRUKTIONSELEMENTE
100
AcDbLine
 62
7
  6
CONTINUOUS
 10
760.2364742351
 20
366.2356925023
 11
769.8448213732
 21
369.0499122231
  0
LINE
  5
462
100
AcDbEntity
  8
KONSTRUKTIONSELEMENTE
100
AcDbLine
 62
7
  6
CONTINUOUS
 10
880.3543399606
 20
376.0079973165
 11
880.3543399606
 21
379.5435312224
  0
LINE
  5
463
100
AcDbEntity
  8
KONSTRUKTIONSELEMENTE
100
AcDbLine
 62
7
  6
CONTINUOUS
 10
833.2635172635
 20
332.2127928969
 11
858.4440871132
 21
375.1987144414
  0
LINE
  5
464
100
AcDbEntity
  8
KONSTRUKTIONSELEMENTE
100
AcDbLine
 62
7
  6
CONTINUOUS
 10
833.2635172635
 20
328.677258991
 11
858.4440871132
 21
371.6631805354
  0
LINE
  5
465
100
AcDbEntity
  8
KONSTRUKTIONSELEMENTE
100
AcDbLine
 62
7
  6
CONTINUOUS
 10
846.3162309628
 20
320.3116262629
 11
846.9876744102
 21
321.4578519251
  0
LINE
  5
466
100
AcDbEntity
  8
KONSTRUKTIONSELEMENTE
100
AcDbLine
 62
7
  6
CONTINUOUS
 10
878.9034726694
 20
375.9415275605
 11
879.7453762206
 21
377.3787468218
  0
LINE
  5
467
100
AcDbEntity
  8
KONSTRUKTIONSELEMENTE
100
AcDbLine
 62
7
  6
CONTINUOUS
 10
846.3162309628
 20
316.776092357
 11
846.9876744102
 21
317.9223180192
  0
LINE
  5
468
100
AcDbEntity
  8
KONSTRUKTIONSELEMENTE
100
AcDbLine
 62
7
  6
CONTINUOUS
 10
878.9034726694
 20
372.4059936545
 11
879.7453762206
 21
373.8432129159
  0
LINE
  5
469
100
AcDbEntity
  8
BEZUGSACHSEN
100
AcDbLine
 62
7
  6
CONTINUOUS
 10
845.3225516889
 20
135.748684506
 11
869.9136928464
 21
175.3329616921
  0
ARC
  5
46A
100
AcDbEntity
  8
BEZUGSACHSEN
100
AcDbCircle
 62
7
  6
CONTINUOUS
 10
269.9181773365
 20
146.7072611444
 40
10.9486075894
100
AcDbArc
 50
359.9999845135
 51
8.0000189394
  0
ARC
  5
46B
100
AcDbEntity
  8
BEZUGSACHSEN
100
AcDbCircle
 62
7
  6
CONTINUOUS
 10
284.1513672028
 20
118.2896418454
 40
3.2845822768
100
AcDbArc
 50
180.0
 51
264.0
  0
ARC
  5
46C
100
AcDbEntity
  8
BEZUGSACHSEN
100
AcDbCircle
 62
7
  6
CONTINUOUS
 10
273.4493161226
 20
168.7832984412
 40
4.3794430358
100
AcDbArc
 50
7.9999773001
 51
45.0001724812
  0
ARC
  5
46D
100
AcDbEntity
  8
BEZUGSACHSEN
100
AcDbCircle
 62
7
  6
CONTINUOUS
 10
272.7919261853
 20
213.0740235446
 40
9.3069541127
100
AcDbArc
 50
356.5012655482
 51
26.8195688436
  0
ARC
  5
46E
100
AcDbEntity
  8
BEZUGSACHSEN
100
AcDbCircle
 62
7
  6
CONTINUOUS
 10
278.7520894053
 20
175.8674606323
 40
4.3794430358
100
AcDbArc
 50
180.0
 51
224.9999906585
  0
ARC
  5
46F
100
AcDbEntity
  8
RUNDUNGEN
100
AcDbCircle
 62
7
  6
CONTINUOUS
 10
276.5623678874
 20
204.9235871086
 40
2.1897215179
100
AcDbArc
 50
145.1706208901
 51
180.0
  0
ARC
  5
470
100
AcDbEntity
  8
BEZUGSACHSEN
100
AcDbCircle
 62
7
  6
CONTINUOUS
 10
278.7520894053
 20
214.0868423598
 40
4.3794430358
100
AcDbArc
 50
135.0000093415
 51
180.0000099481
  0
ARC
  5
471
100
AcDbEntity
  8
RUNDUNGEN
100
AcDbCircle
 62
7
  6
CONTINUOUS
 10
311.7973554024
 20
146.7072611444
 40
10.9486075894
100
AcDbArc
 50
171.9999810606
 51
180.0000154865
  0
ARC
  5
472
100
AcDbEntity
  8
RUNDUNGEN
100
AcDbCircle
 62
7
  6
CONTINUOUS
 10
297.5641655362
 20
118.2896418454
 40
3.2845822768
100
AcDbArc
 50
276.0
 51
360.0
  0
ARC
  5
473
100
AcDbEntity
  8
RUNDUNGEN
100
AcDbCircle
 62
7
  6
CONTINUOUS
 10
290.8577663695
 20
194.977151496
 40
19.6049447194
100
AcDbArc
 50
34.8293791099
 51
145.1706208901
  0
CIRCLE
  5
474
100
AcDbEntity
  8
0
100
AcDbCircle
 62
7
  6
CONTINUOUS
 10
290.8577663695
 20
194.977151496
 40
6.5691645537
  0
ARC
  5
475
100
AcDbEntity
  8
RUNDUNGEN
100
AcDbCircle
 62
7
  6
CONTINUOUS
 10
308.2662166164
 20
168.7832984412
 40
4.3794430358
100
AcDbArc
 50
134.9998275188
 51
172.0000226999
  0
ARC
  5
476
100
AcDbEntity
  8
RUNDUNGEN
100
AcDbCircle
 62
7
  6
CONTINUOUS
 10
302.9634433337
 20
175.8674606323
 40
4.3794430358
100
AcDbArc
 50
315.0000093415
 51
360.0
  0
ARC
  5
477
100
AcDbEntity
  8
RUNDUNGEN
100
AcDbCircle
 62
7
  6
CONTINUOUS
 10
305.153162959
 20
204.9235902063
 40
2.189721545
100
AcDbArc
 50
359.9999189446
 51
34.8292842921
  0
ARC
  5
478
100
AcDbEntity
  8
RUNDUNGEN
100
AcDbCircle
 62
7
  6
CONTINUOUS
 10
302.9634433337
 20
214.0868423598
 40
4.3794430358
100
AcDbArc
 50
359.9999900519
 51
44.9999906585
  0
ARC
  5
479
100
AcDbEntity
  8
BEZUGSACHSEN
100
AcDbCircle
 62
7
  6
CONTINUOUS
 10
302.9634433337
 20
214.0868423598
 40
4.3794430358
100
AcDbArc
 50
359.9999900519
 51
44.9999906585
  0
ARC
  5
47A
100
AcDbEntity
  8
RUNDUNGEN
100
AcDbCircle
 62
7
  6
CONTINUOUS
 10
304.2884506568
 20
215.0571391066
 40
2.7371518974
100
AcDbArc
 50
36.099923444
 51
36.2151458399
  0
ARC
  5
47B
100
AcDbEntity
  8
BEZUGSACHSEN
100
AcDbCircle
 62
7
  6
CONTINUOUS
 10
304.2884506568
 20
215.0571391066
 40
2.7371518974
100
AcDbArc
 50
36.099923444
 51
36.2151458399
  0
ARC
  5
47C
100
AcDbEntity
  8
BEZUGSACHSEN
100
AcDbCircle
 62
7
  6
CONTINUOUS
 10
308.9236065537
 20
213.0740235446
 40
9.3069541127
100
AcDbArc
 50
153.226178041
 51
183.5056530348
  0
ARC
  5
47D
100
AcDbEntity
  8
BEZUGSACHSEN
100
AcDbCircle
 62
7
  6
CONTINUOUS
 10
273.4493161226
 20
221.1710045508
 40
4.3794430358
100
AcDbArc
 50
314.9999910932
 51
351.9999437536
  0
ARC
  5
47E
100
AcDbEntity
  8
BEZUGSACHSEN
100
AcDbCircle
 62
7
  6
CONTINUOUS
 10
284.1513672028
 20
271.6646611466
 40
3.2845822768
100
AcDbArc
 50
96.0
 51
180.0
  0
ARC
  5
47F
100
AcDbEntity
  8
RUNDUNGEN
100
AcDbCircle
 62
7
  6
CONTINUOUS
 10
308.2662166164
 20
221.1710045508
 40
4.3794430358
100
AcDbArc
 50
188.0000562464
 51
225.0000089068
  0
ARC
  5
480
100
AcDbEntity
  8
BEZUGSACHSEN
100
AcDbCircle
 62
7
  6
CONTINUOUS
 10
308.2662166164
 20
221.1710045508
 40
4.3794430358
100
AcDbArc
 50
188.0000562464
 51
225.0000089068
  0
ARC
  5
481
100
AcDbEntity
  8
BEZUGSACHSEN
100
AcDbCircle
 62
7
  6
CONTINUOUS
 10
290.8577663695
 20
265.477151496
 40
40.0
100
AcDbArc
 50
120.0
 51
255.5346314508
  0
ARC
  5
482
100
AcDbEntity
  8
RUNDUNGEN
100
AcDbCircle
 62
7
  6
CONTINUOUS
 10
290.8577663695
 20
265.477151496
 40
16.0
100
AcDbArc
 50
308.6620363764
 51
231.3379635965
  0
ARC
  5
483
100
AcDbEntity
  8
RUNDUNGEN
100
AcDbCircle
 62
7
  6
CONTINUOUS
 10
297.5641655362
 20
271.6646611466
 40
3.2845822768
100
AcDbArc
 50
0.0
 51
84.0
  0
ARC
  5
484
100
AcDbEntity
  8
BEZUGSACHSEN
100
AcDbCircle
 62
7
  6
CONTINUOUS
 10
297.5641655362
 20
271.6646611466
 40
3.2845822768
100
AcDbArc
 50
0.0
 51
84.0
  0
ARC
  5
485
100
AcDbEntity
  8
RUNDUNGEN
100
AcDbCircle
 62
7
  6
CONTINUOUS
 10
342.4560050997
 20
269.2745703591
 40
9.0
100
AcDbArc
 50
210.0
 51
333.5
  0
ARC
  5
486
100
AcDbEntity
  8
RUNDUNGEN
100
AcDbCircle
 62
7
  6
CONTINUOUS
 10
327.2007760193
 20
295.6974022075
 40
9.0
100
AcDbArc
 50
120.0
 51
210.0
  0
ARC
  5
487
100
AcDbEntity
  8
RUNDUNGEN
100
AcDbCircle
 62
7
  6
CONTINUOUS
 10
367.1213202908
 20
318.7455391889
 40
9.0
100
AcDbArc
 50
333.5
 51
120.0
  0
ARC
  5
488
100
AcDbEntity
  8
KONSTRUKTIONSELEMENTE
100
AcDbCircle
 62
7
  6
CONTINUOUS
 10
296.7847597027
 20
405.9041448292
 40
8.25
100
AcDbArc
 50
315.0
 51
29.1578555427
  0
ARC
  5
489
100
AcDbEntity
  8
KONSTRUKTIONSELEMENTE
100
AcDbCircle
 62
7
  6
CONTINUOUS
 10
296.7847597027
 20
405.9041448292
 40
8.25
100
AcDbArc
 50
60.8421444573
 51
135.0
  0
ARC
  5
48A
100
AcDbEntity
  8
KONSTRUKTIONSELEMENTE
100
AcDbCircle
 62
7
  6
CONTINUOUS
 10
290.7743520626
 20
399.8937371892
 40
8.25
100
AcDbArc
 50
135.0
 51
207.3230042808
  0
ARC
  5
48B
100
AcDbEntity
  8
KONSTRUKTIONSELEMENTE
100
AcDbCircle
 62
7
  6
CONTINUOUS
 10
290.7743520626
 20
399.8937371892
 40
8.25
100
AcDbArc
 50
242.6769957192
 51
315.0
  0
ARC
  5
48C
100
AcDbEntity
  8
KONSTRUKTIONSELEMENTE
100
AcDbCircle
 62
7
  6
CONTINUOUS
 10
296.7847597027
 20
405.9041448292
 40
3.25
100
AcDbArc
 50
315.0
 51
1.1162428201
  0
ARC
  5
48D
100
AcDbEntity
  8
KONSTRUKTIONSELEMENTE
100
AcDbCircle
 62
7
  6
CONTINUOUS
 10
296.7847597027
 20
405.9041448292
 40
3.25
100
AcDbArc
 50
88.8837571799
 51
135.0
  0
ARC
  5
48E
100
AcDbEntity
  8
KONSTRUKTIONSELEMENTE
100
AcDbCircle
 62
7
  6
CONTINUOUS
 10
290.7743520626
 20
399.8937371892
 40
3.25
100
AcDbArc
 50
135.0
 51
174.5945904425
  0
ARC
  5
48F
100
AcDbEntity
  8
KONSTRUKTIONSELEMENTE
100
AcDbCircle
 62
7
  6
CONTINUOUS
 10
290.7743520626
 20
399.8937371892
 40
3.25
100
AcDbArc
 50
275.4054095575
 51
315.0
  0
ARC
  5
490
100
AcDbEntity
  8
KONSTRUKTIONSELEMENTE
100
AcDbCircle
 62
7
  6
CONTINUOUS
 10
297.4918664839
 20
406.6112516104
 40
2.25
100
AcDbArc
 50
135.0
 51
315.0
  0
ARC
  5
491
100
AcDbEntity
  8
KONSTRUKTIONSELEMENTE
100
AcDbCircle
 62
7
  6
CONTINUOUS
 10
317.1140796618
 20
426.2334647884
 40
8.0
100
AcDbArc
 50
135.0
 51
208.6357041722
  0
ARC
  5
492
100
AcDbEntity
  8
KONSTRUKTIONSELEMENTE
100
AcDbCircle
 62
7
  6
CONTINUOUS
 10
317.1140796618
 20
426.2334647884
 40
8.0
100
AcDbArc
 50
241.3642958278
 51
315.0
  0
ARC
  5
493
100
AcDbEntity
  8
KONSTRUKTIONSELEMENTE
100
AcDbCircle
 62
7
  6
CONTINUOUS
 10
327.7206813796
 20
436.8400665062
 40
8.0
100
AcDbArc
 50
315.0
 51
28.6357041722
  0
ARC
  5
494
100
AcDbEntity
  8
KONSTRUKTIONSELEMENTE
100
AcDbCircle
 62
7
  6
CONTINUOUS
 10
327.7206813796
 20
436.8400665062
 40
8.0
100
AcDbArc
 50
61.3642958278
 51
135.0
  0
ARC
  5
495
100
AcDbEntity
  8
KONSTRUKTIONSELEMENTE
100
AcDbCircle
 62
7
  6
CONTINUOUS
 10
317.1140796618
 20
426.2334647884
 40
3.5
100
AcDbArc
 50
135.0
 51
184.8461224921
  0
ARC
  5
496
100
AcDbEntity
  8
KONSTRUKTIONSELEMENTE
100
AcDbCircle
 62
7
  6
CONTINUOUS
 10
317.1140796618
 20
426.2334647884
 40
3.5
100
AcDbArc
 50
265.1538775079
 51
315.0
  0
ARC
  5
497
100
AcDbEntity
  8
KONSTRUKTIONSELEMENTE
100
AcDbCircle
 62
7
  6
CONTINUOUS
 10
327.7206813796
 20
436.8400665062
 40
3.5
100
AcDbArc
 50
315.0
 51
4.8461224921
  0
ARC
  5
498
100
AcDbEntity
  8
KONSTRUKTIONSELEMENTE
100
AcDbCircle
 62
7
  6
CONTINUOUS
 10
327.7206813796
 20
436.8400665062
 40
3.5
100
AcDbArc
 50
85.1538775079
 51
135.0
  0
ARC
  5
499
100
AcDbEntity
  8
KONSTRUKTIONSELEMENTE
100
AcDbCircle
 62
7
  6
CONTINUOUS
 10
316.2301961854
 20
425.3495813119
 40
2.25
100
AcDbArc
 50
315.0
 51
135.0
  0
ARC
  5
49A
100
AcDbEntity
  8
KONSTRUKTIONSELEMENTE
100
AcDbCircle
 62
7
  6
CONTINUOUS
 10
328.6045648561
 20
437.7239499826
 40
2.25
100
AcDbArc
 50
135.0
 51
315.0
  0
ARC
  5
49B
100
AcDbEntity
  8
KONSTRUKTIONSELEMENTE
100
AcDbCircle
 62
7
  6
CONTINUOUS
 10
348.0500013388
 20
457.1693864653
 40
8.25
100
AcDbArc
 50
135.0
 51
209.1578555427
  0
ARC
  5
49C
100
AcDbEntity
  8
KONSTRUKTIONSELEMENTE
100
AcDbCircle
 62
7
  6
CONTINUOUS
 10
348.0500013388
 20
457.1693864653
 40
8.25
100
AcDbArc
 50
240.8421444573
 51
315.0
  0
ARC
  5
49D
100
AcDbEntity
  8
KONSTRUKTIONSELEMENTE
100
AcDbCircle
 62
7
  6
CONTINUOUS
 10
348.0500013388
 20
457.1693864653
 40
3.25
100
AcDbArc
 50
135.0
 51
181.1162428201
  0
ARC
  5
49E
100
AcDbEntity
  8
KONSTRUKTIONSELEMENTE
100
AcDbCircle
 62
7
  6
CONTINUOUS
 10
348.0500013388
 20
457.1693864653
 40
3.25
100
AcDbArc
 50
268.8837571799
 51
315.0
  0
ARC
  5
49F
100
AcDbEntity
  8
KONSTRUKTIONSELEMENTE
100
AcDbCircle
 62
7
  6
CONTINUOUS
 10
347.3428945576
 20
456.4622796841
 40
2.25
100
AcDbArc
 50
315.0
 51
135.0
  0
ARC
  5
4A0
100
AcDbEntity
  8
KONSTRUKTIONSELEMENTE
100
AcDbCircle
 62
7
  6
CONTINUOUS
 10
405.8577750625
 20
395.1921565423
 40
19.9999950344
100
AcDbArc
 50
308.682256462
 51
359.9999999868
  0
ARC
  5
4A1
100
AcDbEntity
  8
KONSTRUKTIONSELEMENTE
100
AcDbCircle
 62
7
  6
CONTINUOUS
 10
354.0604089788
 20
463.1797941054
 40
8.25
100
AcDbArc
 50
315.0
 51
15.9686301426
  0
ARC
  5
4A2
100
AcDbEntity
  8
KONSTRUKTIONSELEMENTE
100
AcDbCircle
 62
7
  6
CONTINUOUS
 10
354.0604089788
 20
463.1797941054
 40
8.25
100
AcDbArc
 50
74.0313698574
 51
135.0
  0
ARC
  5
4A3
100
AcDbEntity
  8
KONSTRUKTIONSELEMENTE
100
AcDbCircle
 62
7
  6
CONTINUOUS
 10
394.1887188112
 20
503.3081039377
 40
4.0
100
AcDbArc
 50
315.0
 51
135.0
  0
ARC
  5
4A4
100
AcDbEntity
  8
KONSTRUKTIONSELEMENTE
100
AcDbCircle
 62
7
  6
CONTINUOUS
 10
353.1765255024
 20
462.2959106289
 40
4.0
100
AcDbArc
 50
170.5899726581
 51
279.4100273419
  0
ARC
  5
4A5
100
AcDbEntity
  8
BEZUGSACHSEN
100
AcDbCircle
 62
7
  6
CONTINUOUS
 10
440.8577663695
 20
348.977151496
 40
76.0
100
AcDbArc
 50
280.0
 51
312.1486080286
  0
ARC
  5
4A6
100
AcDbEntity
  8
0
100
AcDbCircle
 62
7
  6
CONTINUOUS
 10
440.8577663695
 20
348.977151496
 40
76.0
100
AcDbArc
 50
227.8513919714
 51
260.0
  0
ARC
  5
4A7
100
AcDbEntity
  8
BEZUGSACHSEN
100
AcDbCircle
 62
7
  6
CONTINUOUS
 10
440.8577663695
 20
348.977151496
 40
64.0
100
AcDbArc
 50
260.0
 51
280.0
  0
ARC
  5
4A8
100
AcDbEntity
  8
BEZUGSACHSEN
100
AcDbCircle
 62
7
  6
CONTINUOUS
 10
440.8577663695
 20
348.977151496
 40
57.0
100
AcDbArc
 50
18.494543218
 51
74.2166453409
  0
ARC
  5
4A9
100
AcDbEntity
  8
BEZUGSACHSEN
100
AcDbCircle
 62
7
  6
CONTINUOUS
 10
440.8577663695
 20
348.977151496
 40
57.0
100
AcDbArc
 50
105.2627789912
 51
161.505456782
  0
ARC
  5
4AA
100
AcDbEntity
  8
KONSTRUKTIONSELEMENTE
100
AcDbCircle
 62
7
  6
CONTINUOUS
 10
440.8577663695
 20
351.477151496
 40
36.0
100
AcDbArc
 50
124.3813799852
 51
55.6189282114
  0
CIRCLE
  5
4AB
100
AcDbEntity
  8
KONSTRUKTIONSELEMENTE
100
AcDbCircle
 62
7
  6
CONTINUOUS
 10
440.8577663695
 20
351.477151496
 40
23.0
  0
ARC
  5
4AC
100
AcDbEntity
  8
BEZUGSACHSEN
100
AcDbCircle
 62
7
  6
CONTINUOUS
 10
514.5942124482
 20
318.7455391889
 40
9.0
100
AcDbArc
 50
60.0
 51
206.5
  0
ARC
  5
4AD
100
AcDbEntity
  8
BEZUGSACHSEN
100
AcDbCircle
 62
7
  6
CONTINUOUS
 10
569.9181773365
 20
146.7072611444
 40
10.9486075894
100
AcDbArc
 50
359.9999845135
 51
8.0000189394
  0
ARC
  5
4AE
100
AcDbEntity
  8
BEZUGSACHSEN
100
AcDbCircle
 62
7
  6
CONTINUOUS
 10
573.4493161226
 20
168.7832984412
 40
4.3794430358
100
AcDbArc
 50
7.9999773001
 51
45.0001724812
  0
ARC
  5
4AF
100
AcDbEntity
  8
BEZUGSACHSEN
100
AcDbCircle
 62
7
  6
CONTINUOUS
 10
584.1513672028
 20
118.2896418454
 40
3.2845822768
100
AcDbArc
 50
180.0
 51
264.0
  0
ARC
  5
4B0
100
AcDbEntity
  8
BEZUGSACHSEN
100
AcDbCircle
 62
7
  6
CONTINUOUS
 10
572.7919261853
 20
213.0740235446
 40
9.3069541127
100
AcDbArc
 50
356.5012655482
 51
26.8195688436
  0
ARC
  5
4B1
100
AcDbEntity
  8
BEZUGSACHSEN
100
AcDbCircle
 62
7
  6
CONTINUOUS
 10
573.4493161226
 20
221.1710045508
 40
4.3794430358
100
AcDbArc
 50
314.9999910932
 51
351.9999437536
  0
ARC
  5
4B2
100
AcDbEntity
  8
BEZUGSACHSEN
100
AcDbCircle
 62
7
  6
CONTINUOUS
 10
578.7520894053
 20
175.8674606323
 40
4.3794430358
100
AcDbArc
 50
180.0
 51
224.9999906585
  0
ARC
  5
4B3
100
AcDbEntity
  8
RUNDUNGEN
100
AcDbCircle
 62
7
  6
CONTINUOUS
 10
576.5623678874
 20
204.9235871086
 40
2.1897215179
100
AcDbArc
 50
145.1706208901
 51
180.0
  0
ARC
  5
4B4
100
AcDbEntity
  8
BEZUGSACHSEN
100
AcDbCircle
 62
7
  6
CONTINUOUS
 10
578.7520894053
 20
214.0868423598
 40
4.3794430358
100
AcDbArc
 50
135.0000093415
 51
180.0000099481
  0
ARC
  5
4B5
100
AcDbEntity
  8
RUNDUNGEN
100
AcDbCircle
 62
7
  6
CONTINUOUS
 10
611.7973554024
 20
146.7072611444
 40
10.9486075894
100
AcDbArc
 50
171.9999810606
 51
180.0000154865
  0
ARC
  5
4B6
100
AcDbEntity
  8
RUNDUNGEN
100
AcDbCircle
 62
7
  6
CONTINUOUS
 10
608.2662166164
 20
168.7832984412
 40
4.3794430358
100
AcDbArc
 50
134.9998275188
 51
172.0000226999
  0
ARC
  5
4B7
100
AcDbEntity
  8
RUNDUNGEN
100
AcDbCircle
 62
7
  6
CONTINUOUS
 10
597.5641655362
 20
118.2896418454
 40
3.2845822768
100
AcDbArc
 50
276.0
 51
360.0
  0
ARC
  5
4B8
100
AcDbEntity
  8
RUNDUNGEN
100
AcDbCircle
 62
7
  6
CONTINUOUS
 10
590.8577663695
 20
194.977151496
 40
19.6049447194
100
AcDbArc
 50
34.8293791099
 51
145.1706208901
  0
CIRCLE
  5
4B9
100
AcDbEntity
  8
0
100
AcDbCircle
 62
7
  6
CONTINUOUS
 10
590.8577663695
 20
194.977151496
 40
6.5691645537
  0
ARC
  5
4BA
100
AcDbEntity
  8
RUNDUNGEN
100
AcDbCircle
 62
7
  6
CONTINUOUS
 10
602.9634433337
 20
175.8674606323
 40
4.3794430358
100
AcDbArc
 50
315.0000093415
 51
360.0
  0
ARC
  5
4BB
100
AcDbEntity
  8
RUNDUNGEN
100
AcDbCircle
 62
7
  6
CONTINUOUS
 10
605.153162959
 20
204.9235902063
 40
2.189721545
100
AcDbArc
 50
359.9999189446
 51
34.8292842921
  0
ARC
  5
4BC
100
AcDbEntity
  8
RUNDUNGEN
100
AcDbCircle
 62
7
  6
CONTINUOUS
 10
602.9634433337
 20
214.0868423598
 40
4.3794430358
100
AcDbArc
 50
359.9999900519
 51
44.9999906585
  0
ARC
  5
4BD
100
AcDbEntity
  8
BEZUGSACHSEN
100
AcDbCircle
 62
7
  6
CONTINUOUS
 10
602.9634433337
 20
214.0868423598
 40
4.3794430358
100
AcDbArc
 50
359.9999900519
 51
44.9999906585
  0
ARC
  5
4BE
100
AcDbEntity
  8
RUNDUNGEN
100
AcDbCircle
 62
7
  6
CONTINUOUS
 10
604.2884506568
 20
215.0571391066
 40
2.7371518974
100
AcDbArc
 50
36.099923444
 51
36.2151458399
  0
ARC
  5
4BF
100
AcDbEntity
  8
BEZUGSACHSEN
100
AcDbCircle
 62
7
  6
CONTINUOUS
 10
604.2884506568
 20
215.0571391066
 40
2.7371518974
100
AcDbArc
 50
36.099923444
 51
36.2151458399
  0
ARC
  5
4C0
100
AcDbEntity
  8
BEZUGSACHSEN
100
AcDbCircle
 62
7
  6
CONTINUOUS
 10
608.9236065537
 20
213.0740235446
 40
9.3069541127
100
AcDbArc
 50
153.226178041
 51
183.5056530348
  0
ARC
  5
4C1
100
AcDbEntity
  8
RUNDUNGEN
100
AcDbCircle
 62
7
  6
CONTINUOUS
 10
608.2662166164
 20
221.1710045508
 40
4.3794430358
100
AcDbArc
 50
188.0000562464
 51
225.0000089068
  0
ARC
  5
4C2
100
AcDbEntity
  8
BEZUGSACHSEN
100
AcDbCircle
 62
7
  6
CONTINUOUS
 10
608.2662166164
 20
221.1710045508
 40
4.3794430358
100
AcDbArc
 50
188.0000562464
 51
225.0000089068
  0
ARC
  5
4C3
100
AcDbEntity
  8
BEZUGSACHSEN
100
AcDbCircle
 62
7
  6
CONTINUOUS
 10
539.2595276393
 20
269.2745703591
 40
9.0
100
AcDbArc
 50
206.5
 51
330.0
  0
ARC
  5
4C4
100
AcDbEntity
  8
BEZUGSACHSEN
100
AcDbCircle
 62
7
  6
CONTINUOUS
 10
554.5147567197
 20
295.6974022075
 40
9.0
100
AcDbArc
 50
330.0
 51
60.0
  0
ARC
  5
4C5
100
AcDbEntity
  8
BEZUGSACHSEN
100
AcDbCircle
 62
7
  6
CONTINUOUS
 10
584.1513672028
 20
271.6646611466
 40
3.2845822768
100
AcDbArc
 50
96.0
 51
180.0
  0
ARC
  5
4C6
100
AcDbEntity
  8
BEZUGSACHSEN
100
AcDbCircle
 62
7
  6
CONTINUOUS
 10
590.8577663695
 20
265.477151496
 40
40.0
100
AcDbArc
 50
284.4653685492
 51
60.0
  0
ARC
  5
4C7
100
AcDbEntity
  8
BEZUGSACHSEN
100
AcDbCircle
 62
7
  6
CONTINUOUS
 10
590.8577663695
 20
265.477151496
 40
16.0
100
AcDbArc
 50
308.6620364035
 51
231.3379636236
  0
ARC
  5
4C8
100
AcDbEntity
  8
RUNDUNGEN
100
AcDbCircle
 62
7
  6
CONTINUOUS
 10
597.5641655362
 20
271.6646611466
 40
3.2845822768
100
AcDbArc
 50
0.0
 51
84.0
  0
ARC
  5
4C9
100
AcDbEntity
  8
BEZUGSACHSEN
100
AcDbCircle
 62
7
  6
CONTINUOUS
 10
597.5641655362
 20
271.6646611466
 40
3.2845822768
100
AcDbArc
 50
0.0
 51
84.0
  0
ARC
  5
4CA
100
AcDbEntity
  8
0
100
AcDbCircle
 62
7
  6
CONTINUOUS
 10
440.8577663695
 20
549.977151496
 40
106.0
100
AcDbArc
 50
278.4098379835
 51
360.0
  0
ARC
  5
4CB
100
AcDbEntity
  8
0
100
AcDbCircle
 62
7
  6
CONTINUOUS
 10
440.8577663695
 20
549.977151496
 40
106.0
100
AcDbArc
 50
227.1630695185
 51
261.8631513609
  0
ARC
  5
4CC
100
AcDbEntity
  8
0
100
AcDbCircle
 62
7
  6
CONTINUOUS
 10
440.8577663695
 20
549.977151496
 40
106.0
100
AcDbArc
 50
180.0
 51
222.8369304815
  0
ARC
  5
4CD
100
AcDbEntity
  8
0
100
AcDbCircle
 62
7
  6
CONTINUOUS
 10
440.8577663695
 20
669.977151496
 40
106.0
100
AcDbArc
 50
0.0
 51
180.0
  0
ARC
  5
4CE
100
AcDbEntity
  8
0
100
AcDbCircle
 62
7
  6
CONTINUOUS
 10
440.8577663695
 20
549.977151496
 40
70.0
100
AcDbArc
 50
282.3760223513
 51
360.0
  0
ARC
  5
4CF
100
AcDbEntity
  8
0
100
AcDbCircle
 62
7
  6
CONTINUOUS
 10
440.8577663695
 20
549.977151496
 40
70.0
100
AcDbArc
 50
228.2759869154
 51
257.6239776487
  0
ARC
  5
4D0
100
AcDbEntity
  8
0
100
AcDbCircle
 62
7
  6
CONTINUOUS
 10
440.8577663695
 20
549.977151496
 40
70.0
100
AcDbArc
 50
180.0
 51
221.7240130846
  0
ARC
  5
4D1
100
AcDbEntity
  8
0
100
AcDbCircle
 62
7
  6
CONTINUOUS
 10
440.8577663695
 20
669.977151496
 40
70.0
100
AcDbArc
 50
0.0
 51
180.0
  0
ARC
  5
4D2
100
AcDbEntity
  8
KONSTRUKTIONSELEMENTE
100
AcDbCircle
 62
7
  6
CONTINUOUS
 10
440.8577663695
 20
498.477151496
 40
15.0
100
AcDbArc
 50
0.0
 51
180.0000000206
  0
ARC
  5
4D3
100
AcDbEntity
  8
BEZUGSACHSEN
100
AcDbCircle
 62
7
  6
CONTINUOUS
 10
752.8165550766
 20
208.843791008
 40
10.9486075894
100
AcDbArc
 50
148.15
 51
180.0
  0
ARC
  5
4D4
100
AcDbEntity
  8
BEZUGSACHSEN
100
AcDbCircle
 62
7
  6
CONTINUOUS
 10
754.7085486167
 20
176.8802794474
 40
9.3069541127
100
AcDbArc
 50
283.7117268775
 51
44.0524622899
  0
ARC
  5
4D5
100
AcDbEntity
  8
BEZUGSACHSEN
100
AcDbCircle
 62
7
  6
CONTINUOUS
 10
747.3109459819
 20
186.9421244404
 40
5.4429985106
100
AcDbArc
 50
179.9956305717
 51
215.0043694283
  0
CIRCLE
  5
4D6
100
AcDbEntity
  8
BEZUGSACHSEN
100
AcDbCircle
 62
7
  6
CONTINUOUS
 10
754.0426181579
 20
194.977151496
 40
2.7381713883
  0
ARC
  5
4D7
100
AcDbEntity
  8
RUNDUNGEN
100
AcDbCircle
 62
7
  6
CONTINUOUS
 10
749.9207152717
 20
177.587295326
 40
2.2150887897
100
AcDbArc
 50
215.0768435916
 51
270.0393524921
  0
ARC
  5
4D8
100
AcDbEntity
  8
BEZUGSACHSEN
100
AcDbCircle
 62
7
  6
CONTINUOUS
 10
749.9207152717
 20
177.587295326
 40
2.2150887897
100
AcDbArc
 50
215.0768435916
 51
270.0393524921
  0
ARC
  5
4D9
100
AcDbEntity
  8
RUNDUNGEN
100
AcDbCircle
 62
7
  6
CONTINUOUS
 10
758.8307488874
 20
177.5619282945
 40
2.1897215179
100
AcDbArc
 50
270.0
 51
360.0
  0
ARC
  5
4DA
100
AcDbEntity
  8
RUNDUNGEN
100
AcDbCircle
 62
7
  6
CONTINUOUS
 10
763.2101919232
 20
210.1302656914
 40
2.1897215179
100
AcDbArc
 50
90.0008554875
 51
126.5766543165
  0
ARC
  5
4DB
100
AcDbEntity
  8
BEZUGSACHSEN
100
AcDbCircle
 62
7
  6
CONTINUOUS
 10
758.8307488874
 20
177.5619282945
 40
2.1897215179
100
AcDbArc
 50
270.0
 51
360.0
  0
ARC
  5
4DC
100
AcDbEntity
  8
RUNDUNGEN
100
AcDbCircle
 62
7
  6
CONTINUOUS
 10
763.5872100909
 20
208.6221930207
 40
2.1897215179
100
AcDbArc
 50
90.0
 51
180.0
  0
ARC
  5
4DD
100
AcDbEntity
  8
BEZUGSACHSEN
100
AcDbCircle
 62
7
  6
CONTINUOUS
 10
763.2101919232
 20
210.1302656914
 40
2.1897215179
100
AcDbArc
 50
90.0008554875
 51
180.0
  0
ARC
  5
4DE
100
AcDbEntity
  8
KONSTRUKTIONSELEMENTE
100
AcDbCircle
 62
7
  6
CONTINUOUS
 10
763.5429041577
 20
376.2935569969
 40
2.6179666704
100
AcDbArc
 50
22.0250252617
 51
24.5428858298
  0
ARC
  5
4DF
100
AcDbEntity
  8
KONSTRUKTIONSELEMENTE
100
AcDbCircle
 62
7
  6
CONTINUOUS
 10
770.0460346621
 20
370.0357809698
 40
1.2820593046
100
AcDbArc
 50
13.2458541249
 51
18.618085226
  0
ARC
  5
4E0
100
AcDbEntity
  8
RUNDUNGEN
100
AcDbCircle
 62
7
  6
CONTINUOUS
 10
784.3232093133
 20
177.5619282945
 40
2.1897215179
100
AcDbArc
 50
180.0
 51
270.0
  0
ARC
  5
4E1
100
AcDbEntity
  8
BEZUGSACHSEN
100
AcDbCircle
 62
7
  6
CONTINUOUS
 10
784.3232093133
 20
177.5619282945
 40
2.1897215179
100
AcDbArc
 50
180.0
 51
270.0
  0
ARC
  5
4E2
100
AcDbEntity
  8
RUNDUNGEN
100
AcDbCircle
 62
7
  6
CONTINUOUS
 10
779.7175553769
 20
208.6221930207
 40
2.1897215179
100
AcDbArc
 50
0.0
 51
90.0
  0
ARC
  5
4E3
100
AcDbEntity
  8
RUNDUNGEN
100
AcDbCircle
 62
7
  6
CONTINUOUS
 10
779.9437662775
 20
210.1302656914
 40
2.1897215179
100
AcDbArc
 50
53.4233456835
 51
89.9991066749
  0
ARC
  5
4E4
100
AcDbEntity
  8
BEZUGSACHSEN
100
AcDbCircle
 62
7
  6
CONTINUOUS
 10
779.9437662775
 20
210.1302656914
 40
2.1897215179
100
AcDbArc
 50
0.0
 51
89.9991066749
  0
ARC
  5
4E5
100
AcDbEntity
  8
BEZUGSACHSEN
100
AcDbCircle
 62
7
  6
CONTINUOUS
 10
784.0789015406
 20
210.8405108872
 40
10.9486075894
100
AcDbArc
 50
0.0
 51
40.5696972304
  0
ARC
  5
4E6
100
AcDbEntity
  8
BEZUGSACHSEN
100
AcDbCircle
 62
7
  6
CONTINUOUS
 10
790.8402289851
 20
176.8802794474
 40
9.3069541127
100
AcDbArc
 50
163.7019364916
 51
192.4720186323
  0
ARC
  5
4E7
100
AcDbEntity
  8
RUNDUNGEN
100
AcDbCircle
 62
7
  6
CONTINUOUS
 10
790.8402289851
 20
176.8802794474
 40
9.3069541127
100
AcDbArc
 50
163.7019364916
 51
192.4720186323
  0
ARC
  5
4E8
100
AcDbEntity
  8
KONSTRUKTIONSELEMENTE
100
AcDbCircle
 62
7
  6
CONTINUOUS
 10
793.0349814489
 20
305.1396069493
 40
9.0174330215
100
AcDbArc
 50
84.2791267327
 51
89.9994225635
  0
ARC
  5
4E9
100
AcDbEntity
  8
KONSTRUKTIONSELEMENTE
100
AcDbCircle
 62
7
  6
CONTINUOUS
 10
789.998800147
 20
306.4601661509
 40
8.1197133933
100
AcDbArc
 50
71.4280275254
 51
77.9489152737
  0
ARC
  5
4EA
100
AcDbEntity
  8
KONSTRUKTIONSELEMENTE
100
AcDbCircle
 62
7
  6
CONTINUOUS
 10
790.1505170217
 20
307.4830486403
 40
7.6380042231
100
AcDbArc
 50
68.2456318006
 51
71.4145312938
  0
ARC
  5
4EB
100
AcDbEntity
  8
KONSTRUKTIONSELEMENTE
100
AcDbCircle
 62
7
  6
CONTINUOUS
 10
790.2326390655
 20
307.6920792461
 40
7.4134238532
100
AcDbArc
 50
67.113106063
 51
68.2363633777
  0
ARC
  5
4EC
100
AcDbEntity
  8
KONSTRUKTIONSELEMENTE
100
AcDbCircle
 62
7
  6
CONTINUOUS
 10
790.2727443043
 20
307.787430735
 40
7.3099815119
100
AcDbArc
 50
66.4665111939
 51
67.1120438117
  0
ARC
  5
4ED
100
AcDbEntity
  8
RUNDUNGEN
100
AcDbCircle
 62
7
  6
CONTINUOUS
 10
806.7150723281
 20
224.1890077098
 40
51.4831990669
100
AcDbArc
 50
0.0700672439
 51
70.1239315379
  0
ARC
  5
4EE
100
AcDbEntity
  8
RUNDUNGEN
100
AcDbCircle
 62
7
  6
CONTINUOUS
 10
806.7150723281
 20
165.7652952822
 40
51.4831990669
100
AcDbArc
 50
180.0700672439
 51
270.0
  0
ARC
  5
4EF
100
AcDbEntity
  8
BEZUGSACHSEN
100
AcDbCircle
 62
7
  6
CONTINUOUS
 10
806.7150723281
 20
224.1890077098
 40
51.4831990669
100
AcDbArc
 50
0.0700672439
 51
70.1239315379
  0
ARC
  5
4F0
100
AcDbEntity
  8
BEZUGSACHSEN
100
AcDbCircle
 62
7
  6
CONTINUOUS
 10
806.7150723281
 20
159.7330045994
 40
45.450908384
100
AcDbArc
 50
270.0
 51
328.15
  0
ARC
  5
4F1
100
AcDbEntity
  8
BEZUGSACHSEN
100
AcDbCircle
 62
7
  6
CONTINUOUS
 10
806.7150723281
 20
230.2212983926
 40
45.450908384
100
AcDbArc
 50
112.6505558917
 51
148.15
  0
ARC
  5
4F2
100
AcDbEntity
  8
BEZUGSACHSEN
100
AcDbCircle
 62
7
  6
CONTINUOUS
 10
806.7150723281
 20
165.7652952822
 40
24.8831990669
100
AcDbArc
 50
180.0
 51
270.0
  0
ARC
  5
4F3
100
AcDbEntity
  8
BEZUGSACHSEN
100
AcDbCircle
 62
7
  6
CONTINUOUS
 10
806.7150723281
 20
224.1890077098
 40
24.8831990669
100
AcDbArc
 50
0.0
 51
45.3023130878
  0
ARC
  5
4F4
100
AcDbEntity
  8
BEZUGSACHSEN
100
AcDbCircle
 62
7
  6
CONTINUOUS
 10
806.7150723281
 20
159.7330045994
 40
18.850908384
100
AcDbArc
 50
270.0
 51
40.5696972304
  0
ARC
  5
4F5
100
AcDbEntity
  8
BEZUGSACHSEN
100
AcDbCircle
 62
7
  6
CONTINUOUS
 10
806.7150723281
 20
230.2212983926
 40
18.850908384
100
AcDbArc
 50
158.1815255082
 51
220.5696972304
  0
ARC
  5
4F6
100
AcDbEntity
  8
KONSTRUKTIONSELEMENTE
100
AcDbCircle
 62
7
  6
CONTINUOUS
 10
806.7150723281
 20
456.977151496
 40
23.5
100
AcDbArc
 50
160.9824158863
 51
180.0
  0
ARC
  5
4F7
100
AcDbEntity
  8
KONSTRUKTIONSELEMENTE
100
AcDbCircle
 62
7
  6
CONTINUOUS
 10
806.7150723281
 20
456.977151496
 40
23.5
100
AcDbArc
 50
139.99250112
 51
141.2871081711
  0
ARC
  5
4F8
100
AcDbEntity
  8
KONSTRUKTIONSELEMENTE
100
AcDbCircle
 62
7
  6
CONTINUOUS
 10
806.7150723281
 20
456.977151496
 40
23.5
100
AcDbArc
 50
38.704223558
 51
40.00749888
  0
ARC
  5
4F9
100
AcDbEntity
  8
KONSTRUKTIONSELEMENTE
100
AcDbCircle
 62
7
  6
CONTINUOUS
 10
806.7150723281
 20
456.977151496
 40
23.5
100
AcDbArc
 50
0.0
 51
19.0291676846
  0
ARC
  5
4FA
100
AcDbEntity
  8
KONSTRUKTIONSELEMENTE
100
AcDbCircle
 62
7
  6
CONTINUOUS
 10
789.9697365259
 20
309.8895452765
 40
8.2295991092
100
AcDbArc
 50
71.4716087129
 51
77.9053340862
  0
ARC
  5
4FB
100
AcDbEntity
  8
KONSTRUKTIONSELEMENTE
100
AcDbCircle
 62
7
  6
CONTINUOUS
 10
796.1384611856
 20
312.5883082551
 40
3.297431091
100
AcDbArc
 50
10.0260878617
 51
10.6388314794
  0
ARC
  5
4FC
100
AcDbEntity
  8
KONSTRUKTIONSELEMENTE
100
AcDbCircle
 62
7
  6
CONTINUOUS
 10
796.2065021762
 20
312.5989827777
 40
3.2285710605
100
AcDbArc
 50
0.0429868459
 51
10.0497651297
  0
ARC
  5
4FD
100
AcDbEntity
  8
KONSTRUKTIONSELEMENTE
100
AcDbCircle
 62
7
  6
CONTINUOUS
 10
806.7150723281
 20
451.4193864653
 40
2.5
100
AcDbArc
 50
180.0
 51
360.0
  0
ARC
  5
4FE
100
AcDbEntity
  8
KONSTRUKTIONSELEMENTE
100
AcDbCircle
 62
7
  6
CONTINUOUS
 10
806.7150723281
 20
411.6541448292
 40
2.5
100
AcDbArc
 50
0.0
 51
180.0
  0
ARC
  5
4FF
100
AcDbEntity
  8
KONSTRUKTIONSELEMENTE
100
AcDbCircle
 62
7
  6
CONTINUOUS
 10
806.7150723281
 20
394.1437371892
 40
2.5
100
AcDbArc
 50
180.0
 51
197.6450692851
  0
ARC
  5
500
100
AcDbEntity
  8
KONSTRUKTIONSELEMENTE
100
AcDbCircle
 62
7
  6
CONTINUOUS
 10
806.7150723281
 20
394.1437371892
 40
2.5
100
AcDbArc
 50
342.3549307149
 51
360.0
  0
ARC
  5
501
100
AcDbEntity
  8
KONSTRUKTIONSELEMENTE
100
AcDbCircle
 62
7
  6
CONTINUOUS
 10
806.7150723281
 20
420.4834647884
 40
2.25
100
AcDbArc
 50
180.0
 51
360.0
  0
ARC
  5
502
100
AcDbEntity
  8
KONSTRUKTIONSELEMENTE
100
AcDbCircle
 62
7
  6
CONTINUOUS
 10
806.7150723281
 20
442.5900665062
 40
2.25
100
AcDbArc
 50
0.0
 51
180.0
  0
ARC
  5
503
100
AcDbEntity
  8
KONSTRUKTIONSELEMENTE
100
AcDbCircle
 62
7
  6
CONTINUOUS
 10
806.7150723281
 20
459.977151496
 40
53.5
100
AcDbArc
 50
109.6646021222
 51
180.0
  0
ARC
  5
504
100
AcDbEntity
  8
KONSTRUKTIONSELEMENTE
100
AcDbCircle
 62
7
  6
CONTINUOUS
 10
806.7150723281
 20
459.977151496
 40
53.5
100
AcDbArc
 50
0.0
 51
70.3353978778
  0
ARC
  5
505
100
AcDbEntity
  8
0
100
AcDbCircle
 62
7
  6
CONTINUOUS
 10
806.7150723281
 20
757.977151496
 40
18.0
100
AcDbArc
 50
0.0
 51
180.0
  0
ARC
  5
506
100
AcDbEntity
  8
0
100
AcDbCircle
 62
7
  6
CONTINUOUS
 10
806.7150723281
 20
461.977151496
 40
18.0
100
AcDbArc
 50
296.3954339728
 51
360.0
  0
ARC
  5
507
100
AcDbEntity
  8
0
100
AcDbCircle
 62
7
  6
CONTINUOUS
 10
806.7150723281
 20
461.977151496
 40
18.0
100
AcDbArc
 50
275.4098762124
 51
281.216747805
  0
ARC
  5
508
100
AcDbEntity
  8
0
100
AcDbCircle
 62
7
  6
CONTINUOUS
 10
806.7150723281
 20
461.977151496
 40
18.0
100
AcDbArc
 50
258.783252195
 51
264.5901237876
  0
ARC
  5
509
100
AcDbEntity
  8
0
100
AcDbCircle
 62
7
  6
CONTINUOUS
 10
806.7150723281
 20
461.977151496
 40
18.0
100
AcDbArc
 50
180.0
 51
243.6045660272
  0
ARC
  5
50A
100
AcDbEntity
  8
KONSTRUKTIONSELEMENTE
100
AcDbCircle
 62
7
  6
CONTINUOUS
 10
806.7150723281
 20
468.9297941054
 40
2.5
100
AcDbArc
 50
0.0
 51
180.0
  0
ARC
  5
50B
100
AcDbEntity
  8
RUNDUNGEN
100
AcDbCircle
 62
7
  6
CONTINUOUS
 10
822.5899156711
 20
213.0740235446
 40
9.3069541127
100
AcDbArc
 50
343.7019364916
 51
12.4720186323
  0
ARC
  5
50C
100
AcDbEntity
  8
BEZUGSACHSEN
100
AcDbCircle
 62
7
  6
CONTINUOUS
 10
822.5899156711
 20
213.0740235446
 40
9.3069541127
100
AcDbArc
 50
343.7019364916
 51
12.4720186323
  0
ARC
  5
50D
100
AcDbEntity
  8
BEZUGSACHSEN
100
AcDbCircle
 62
7
  6
CONTINUOUS
 10
829.3512431156
 20
179.1137921048
 40
10.9486075894
100
AcDbArc
 50
180.0
 51
220.5696972304
  0
ARC
  5
50E
100
AcDbEntity
  8
RUNDUNGEN
100
AcDbCircle
 62
7
  6
CONTINUOUS
 10
833.7125892793
 20
181.3321099713
 40
2.1897215179
100
AcDbArc
 50
180.0
 51
270.0
  0
ARC
  5
50F
100
AcDbEntity
  8
BEZUGSACHSEN
100
AcDbCircle
 62
7
  6
CONTINUOUS
 10
833.7125892793
 20
181.3321099713
 40
2.1897215179
100
AcDbArc
 50
180.0
 51
270.0
  0
ARC
  5
510
100
AcDbEntity
  8
RUNDUNGEN
100
AcDbCircle
 62
7
  6
CONTINUOUS
 10
833.4863783787
 20
179.8240373006
 40
2.1897215179
100
AcDbArc
 50
233.4233456835
 51
269.9991066749
  0
ARC
  5
511
100
AcDbEntity
  8
BEZUGSACHSEN
100
AcDbCircle
 62
7
  6
CONTINUOUS
 10
833.4863783787
 20
179.8240373006
 40
2.1897215179
100
AcDbArc
 50
180.0
 51
269.9991066749
  0
ARC
  5
512
100
AcDbEntity
  8
RUNDUNGEN
100
AcDbCircle
 62
7
  6
CONTINUOUS
 10
829.106935343
 20
212.3923746975
 40
2.1897215179
100
AcDbArc
 50
0.0
 51
90.0
  0
ARC
  5
513
100
AcDbEntity
  8
KONSTRUKTIONSELEMENTE
100
AcDbCircle
 62
7
  6
CONTINUOUS
 10
823.1649178739
 20
307.3320277456
 40
7.3279955906
100
AcDbArc
 50
112.1105000658
 51
113.9508226432
  0
ARC
  5
514
100
AcDbEntity
  8
KONSTRUKTIONSELEMENTE
100
AcDbCircle
 62
7
  6
CONTINUOUS
 10
837.3580810495
 20
326.2764297055
 40
4.746518077
100
AcDbArc
 50
149.6149615338
 51
155.0041353751
  0
ARC
  5
515
100
AcDbEntity
  8
KONSTRUKTIONSELEMENTE
100
AcDbCircle
 62
7
  6
CONTINUOUS
 10
817.2916834694
 20
312.5883082554
 40
3.2974310897
100
AcDbArc
 50
169.3611685204
 51
169.9739121384
  0
ARC
  5
516
100
AcDbEntity
  8
KONSTRUKTIONSELEMENTE
100
AcDbCircle
 62
7
  6
CONTINUOUS
 10
817.22364248
 20
312.5989827777
 40
3.2285710605
100
AcDbArc
 50
169.9502348703
 51
179.9570131541
  0
ARC
  5
517
100
AcDbEntity
  8
BEZUGSACHSEN
100
AcDbCircle
 62
7
  6
CONTINUOUS
 10
860.6135895796
 20
181.110511984
 40
10.9486075894
100
AcDbArc
 50
328.15
 51
360.0
  0
ARC
  5
518
100
AcDbEntity
  8
BEZUGSACHSEN
100
AcDbCircle
 62
7
  6
CONTINUOUS
 10
858.7215960395
 20
213.0740235446
 40
9.3069541127
100
AcDbArc
 50
103.7117268775
 51
224.0524622899
  0
ARC
  5
519
100
AcDbEntity
  8
BEZUGSACHSEN
100
AcDbCircle
 62
7
  6
CONTINUOUS
 10
866.1191986743
 20
203.0121785516
 40
5.4429985106
100
AcDbArc
 50
359.9956305717
 51
35.0043694283
  0
CIRCLE
  5
51A
100
AcDbEntity
  8
BEZUGSACHSEN
100
AcDbCircle
 62
7
  6
CONTINUOUS
 10
859.3875264983
 20
194.977151496
 40
2.7381713883
  0
ARC
  5
51B
100
AcDbEntity
  8
RUNDUNGEN
100
AcDbCircle
 62
7
  6
CONTINUOUS
 10
863.5094293845
 20
212.367007666
 40
2.2150887897
100
AcDbArc
 50
35.0768435916
 51
90.0393524921
  0
ARC
  5
51C
100
AcDbEntity
  8
RUNDUNGEN
100
AcDbCircle
 62
7
  6
CONTINUOUS
 10
849.8429345654
 20
181.3321099713
 40
2.1897215179
100
AcDbArc
 50
270.0
 51
360.0
  0
ARC
  5
51D
100
AcDbEntity
  8
BEZUGSACHSEN
100
AcDbCircle
 62
7
  6
CONTINUOUS
 10
849.8429345654
 20
181.3321099713
 40
2.1897215179
100
AcDbArc
 50
270.0
 51
360.0
  0
ARC
  5
51E
100
AcDbEntity
  8
RUNDUNGEN
100
AcDbCircle
 62
7
  6
CONTINUOUS
 10
854.5993957688
 20
212.3923746975
 40
2.1897215179
100
AcDbArc
 50
90.0
 51
180.0
  0
ARC
  5
51F
100
AcDbEntity
  8
RUNDUNGEN
100
AcDbCircle
 62
7
  6
CONTINUOUS
 10
850.219952733
 20
179.8240373006
 40
2.1897215179
100
AcDbArc
 50
270.0008554875
 51
306.5766543165
  0
ARC
  5
520
100
AcDbEntity
  8
BEZUGSACHSEN
100
AcDbCircle
 62
7
  6
CONTINUOUS
 10
850.219952733
 20
179.8240373006
 40
2.1897215179
100
AcDbArc
 50
270.0008554875
 51
360.0
  0
ARC
  5
521
100
AcDbEntity
  8
KONSTRUKTIONSELEMENTE
100
AcDbCircle
 62
7
  6
CONTINUOUS
 10
867.2150723281
 20
351.477151496
 40
23.0
100
AcDbArc
 50
81.4357224165
 51
90.0
  0
ARC
  5
522
100
AcDbEntity
  8
KONSTRUKTIONSELEMENTE
100
AcDbCircle
 62
7
  6
CONTINUOUS
 10
867.2150723281
 20
351.477151496
 40
23.0
100
AcDbArc
 50
270.0
 51
65.8959866879
  0
CIRCLE
  5
523
100
AcDbEntity
  8
BEZUGSACHSEN
100
AcDbCircle
 62
7
  6
CONTINUOUS
 10
877.2150723281
 20
351.4270958166
 40
5.0
  0
SPLINE
  5
524
100
AcDbEntity
  8
KONSTRUKTIONSELEMENTE
100
AcDbSpline
 62
7
  6
CONTINUOUS
 70
0
 71
3
 72
15
 73
11
 74
0
 42
0.0000001
 43
0.0000001
 44
0.0000000001
 40
0.0
 40
0.0
 40
0.0
 40
0.0
 40
0.1249790487
 40
0.249985446
 40
0.3750049236
 40
0.5000229572
 40
0.6250329648
 40
0.7500361888
 40
0.8750252883
 40
1.0
 40
1.0
 40
1.0
 40
1.0
 10
440.8579791449
 20
407.4768805203
 30
0.0
 10
439.9458641541
 20
406.4233760556
 30
0.0
 10
438.2425983775
 20
404.2097639788
 30
0.0
 10
435.9735841296
 20
400.6955579351
 30
0.0
 10
433.8280577163
 20
397.1062959022
 30
0.0
 10
431.6562276902
 20
393.5324395836
 30
0.0
 10
429.3348329696
 20
390.0518108635
 30
0.0
 10
426.7617886498
 20
386.7489841696
 30
0.0
 10
423.8610615276
 20
383.7261227321
 30
0.0
 10
421.6786274088
 20
381.9747047309
 30
0.0
 10
420.5286085707
 20
381.187845584
 30
0.0
  0
SPLINE
  5
525
100
AcDbEntity
  8
KONSTRUKTIONSELEMENTE
100
AcDbSpline
 62
7
  6
CONTINUOUS
 70
0
 71
3
 72
15
 73
11
 74
0
 42
0.0000001
 43
0.0000001
 44
0.0000000001
 40
0.0
 40
0.0
 40
0.0
 40
0.0
 40
0.1249694115
 40
0.249961413
 40
0.3749653693
 40
0.4999766524
 40
0.6249967302
 40
0.7500183286
 40
0.8750245807
 40
1.0
 40
1.0
 40
1.0
 40
1.0
 10
461.1867643528
 20
381.187954935
 30
0.0
 10
460.0367814855
 20
381.9747284991
 30
0.0
 10
457.854451628
 20
383.7261838212
 30
0.0
 10
454.95378014
 20
386.7489805705
 30
0.0
 10
452.3806718147
 20
390.0517589786
 30
0.0
 10
450.0593518955
 20
393.5324258396
 30
0.0
 10
447.887454504
 20
397.10623737
 30
0.0
 10
445.7420631867
 20
400.6955943558
 30
0.0
 10
443.4726670946
 20
404.2093813804
 30
0.0
 10
441.7705392082
 20
406.4238401407
 30
0.0
 10
440.8579791449
 20
407.4768805203
 30
0.0
  0
SPLINE
  5
526
100
AcDbEntity
  8
KONSTRUKTIONSELEMENTE
100
AcDbSpline
 62
7
  6
CONTINUOUS
 70
0
 71
3
 72
13
 73
9
 74
0
 42
0.0000001
 43
0.0000001
 44
0.0000000001
 40
0.0
 40
0.0
 40
0.0
 40
0.0
 40
0.1197290731
 40
0.2397365246
 40
0.3609040964
 40
0.4836831257
 40
0.7359942557
 40
1.0
 40
1.0
 40
1.0
 40
1.0
 10
814.7150723281
 20
452.3964156923
 30
0.0
 10
814.7150723281
 20
452.7456293944
 30
0.0
 10
814.6429687063
 20
453.4469704304
 30
0.0
 10
814.3246833716
 20
454.4571886785
 30
0.0
 10
813.8152998299
 20
455.3957668972
 30
0.0
 10
812.9034993013
 20
456.5285414039
 30
0.0
 10
811.3876080357
 20
457.66568482
 30
0.0
 10
809.9647211857
 20
458.2122305439
 30
0.0
 10
809.218496664
 20
458.4021990345
 30
0.0
  0
SPLINE
  5
527
100
AcDbEntity
  8
KONSTRUKTIONSELEMENTE
100
AcDbSpline
 62
7
  6
CONTINUOUS
 70
0
 71
3
 72
13
 73
9
 74
0
 42
0.0000001
 43
0.0000001
 44
0.0000000001
 40
0.0
 40
0.0
 40
0.0
 40
0.0
 40
0.2640112835
 40
0.5163080567
 40
0.6390830379
 40
0.7602378991
 40
0.8802701562
 40
1.0
 40
1.0
 40
1.0
 40
1.0
 10
804.2107445256
 20
458.4019518449
 30
0.0
 10
803.4646047033
 20
458.2119172436
 30
0.0
 10
802.0419282619
 20
457.6653506125
 30
0.0
 10
800.5263381948
 20
456.5282052715
 30
0.0
 10
799.6147479174
 20
455.3955897629
 30
0.0
 10
799.1053570015
 20
454.4571124763
 30
0.0
 10
798.7872202825
 20
453.4469243732
 30
0.0
 10
798.7150723281
 20
452.7455944897
 30
0.0
 10
798.7150723281
 20
452.3964156923
 30
0.0
  0
SPLINE
  5
528
100
AcDbEntity
  8
KONSTRUKTIONSELEMENTE
100
AcDbSpline
 62
7
  6
CONTINUOUS
 70
0
 71
3
 72
10
 73
6
 74
0
 42
0.0000001
 43
0.0000001
 44
0.0000000001
 40
0.0
 40
0.0
 40
0.0
 40
0.0
 40
0.3192646009
 40
0.6086079864
 40
1.0
 40
1.0
 40
1.0
 40
1.0
 10
810.2150723281
 20
452.3964156923
 30
0.0
 10
810.2150723281
 20
452.5681554675
 30
0.0
 10
810.0730565415
 20
452.8890066824
 30
0.0
 10
809.7072505269
 20
453.2823590218
 30
0.0
 10
809.4039626942
 20
453.4953989351
 30
0.0
 10
809.2214263931
 20
453.6003135315
 30
0.0
  0
SPLINE
  5
529
100
AcDbEntity
  8
KONSTRUKTIONSELEMENTE
100
AcDbSpline
 62
7
  6
CONTINUOUS
 70
0
 71
3
 72
10
 73
6
 74
0
 42
0.0000001
 43
0.0000001
 44
0.0000000001
 40
0.0
 40
0.0
 40
0.0
 40
0.0
 40
0.3914026107
 40
0.6807340322
 40
1.0
 40
1.0
 40
1.0
 40
1.0
 10
804.208626727
 20
453.6002610604
 30
0.0
 10
804.0260994836
 20
453.4953456509
 30
0.0
 10
803.7228599028
 20
453.2822865794
 30
0.0
 10
803.3570391982
 20
452.8889882188
 30
0.0
 10
803.2150723281
 20
452.5681454779
 30
0.0
 10
803.2150723281
 20
452.3964156923
 30
0.0
  0
SPLINE
  5
52A
100
AcDbEntity
  8
KONSTRUKTIONSELEMENTE
100
AcDbSpline
 62
7
  6
CONTINUOUS
 70
0
 71
3
 72
10
 73
6
 74
0
 42
0.0000001
 43
0.0000001
 44
0.0000000001
 40
0.0
 40
0.0
 40
0.0
 40
0.0
 40
0.3116645009
 40
0.6060899939
 40
1.0
 40
1.0
 40
1.0
 40
1.0
 10
803.2150723281
 20
441.7898139745
 30
0.0
 10
803.2150723281
 20
441.592659128
 30
0.0
 10
803.4026008846
 20
441.2213329333
 30
0.0
 10
803.8599201543
 20
440.7874598436
 30
0.0
 10
804.2383214665
 20
440.5600498101
 30
0.0
 10
804.4630804398
 20
440.4524616791
 30
0.0
  0
SPLINE
  5
52B
100
AcDbEntity
  8
KONSTRUKTIONSELEMENTE
100
AcDbSpline
 62
7
  6
CONTINUOUS
 70
0
 71
3
 72
10
 73
6
 74
0
 42
0.0000001
 43
0.0000001
 44
0.0000000001
 40
0.0
 40
0.0
 40
0.0
 40
0.0
 40
0.3939255147
 40
0.6883533687
 40
1.0
 40
1.0
 40
1.0
 40
1.0
 10
808.9668215636
 20
440.4523497511
 30
0.0
 10
809.1916294696
 20
440.5599396517
 30
0.0
 10
809.5700919912
 20
440.78738522
 30
0.0
 10
810.0275335089
 20
441.2212629634
 30
0.0
 10
810.2150723281
 20
441.5926426706
 30
0.0
 10
810.2150723281
 20
441.7898139745
 30
0.0
  0
SPLINE
  5
52C
100
AcDbEntity
  8
KONSTRUKTIONSELEMENTE
100
AcDbSpline
 62
7
  6
CONTINUOUS
 70
0
 71
3
 72
13
 73
9
 74
0
 42
0.0000001
 43
0.0000001
 44
0.0000000001
 40
0.0
 40
0.0
 40
0.0
 40
0.0
 40
0.1194785188
 40
0.2392741704
 40
0.3602835725
 40
0.4830059608
 40
0.7355440041
 40
1.0
 40
1.0
 40
1.0
 40
1.0
 10
798.7150723281
 20
441.7898139745
 30
0.0
 10
798.7150723281
 20
441.4311743632
 30
0.0
 10
798.7911678113
 20
440.7106677342
 30
0.0
 10
799.1267440389
 20
439.6751719785
 30
0.0
 10
799.6627285042
 20
438.7168522994
 30
0.0
 10
800.6204240699
 20
437.5664725385
 30
0.0
 10
802.2067427126
 20
436.4271300192
 30
0.0
 10
803.686796155
 20
435.8996039989
 30
0.0
 10
804.4609600076
 20
435.7240478538
 30
0.0
  0
SPLINE
  5
52D
100
AcDbEntity
  8
KONSTRUKTIONSELEMENTE
100
AcDbSpline
 62
7
  6
CONTINUOUS
 70
0
 71
3
 72
13
 73
9
 74
0
 42
0.0000001
 43
0.0000001
 44
0.0000000001
 40
0.0
 40
0.0
 40
0.0
 40
0.0
 40
0.2644681654
 40
0.5169944072
 40
0.6397129492
 40
0.760706397
 40
0.8805228501
 40
1.0
 40
1.0
 40
1.0
 40
1.0
 10
808.9672431069
 20
435.7236166415
 30
0.0
 10
809.7416404334
 20
435.8990967457
 30
0.0
 10
811.222131281
 20
436.4264174744
 30
0.0
 10
812.8089816881
 20
437.5657699378
 30
0.0
 10
813.7669536474
 20
438.7162124867
 30
0.0
 10
814.3032704051
 20
439.6746342732
 30
0.0
 10
814.6388847417
 20
440.7103876857
 30
0.0
 10
814.7150723281
 20
441.4310997041
 30
0.0
 10
814.7150723281
 20
441.7898139745
 30
0.0
  0
SPLINE
  5
52E
100
AcDbEntity
  8
KONSTRUKTIONSELEMENTE
100
AcDbSpline
 62
7
  6
CONTINUOUS
 70
0
 71
3
 72
13
 73
9
 74
0
 42
0.0000001
 43
0.0000001
 44
0.0000000001
 40
0.0
 40
0.0
 40
0.0
 40
0.0
 40
0.1194785188
 40
0.2392741704
 40
0.3602835725
 40
0.4830059608
 40
0.7355440041
 40
1.0
 40
1.0
 40
1.0
 40
1.0
 10
814.7150723281
 20
421.2837173201
 30
0.0
 10
814.7150723281
 20
421.6423569313
 30
0.0
 10
814.6389768449
 20
422.3628635603
 30
0.0
 10
814.3034006173
 20
423.398359316
 30
0.0
 10
813.7674161521
 20
424.3566789951
 30
0.0
 10
812.8097205863
 20
425.507058756
 30
0.0
 10
811.2234019436
 20
426.6464012753
 30
0.0
 10
809.7433485012
 20
427.1739272956
 30
0.0
 10
808.9691846486
 20
427.3494834407
 30
0.0
  0
SPLINE
  5
52F
100
AcDbEntity
  8
KONSTRUKTIONSELEMENTE
100
AcDbSpline
 62
7
  6
CONTINUOUS
 70
0
 71
3
 72
13
 73
9
 74
0
 42
0.0000001
 43
0.0000001
 44
0.0000000001
 40
0.0
 40
0.0
 40
0.0
 40
0.0
 40
0.2644681654
 40
0.5169944072
 40
0.6397129492
 40
0.760706397
 40
0.8805228501
 40
1.0
 40
1.0
 40
1.0
 40
1.0
 10
804.4629015493
 20
427.349914653
 30
0.0
 10
803.6885042228
 20
427.1744345488
 30
0.0
 10
802.2080133752
 20
426.6471138201
 30
0.0
 10
800.6211629681
 20
425.5077613567
 30
0.0
 10
799.6631910088
 20
424.3573188078
 30
0.0
 10
799.1268742511
 20
423.3988970213
 30
0.0
 10
798.7912599145
 20
422.3631436088
 30
0.0
 10
798.7150723281
 20
421.6424315904
 30
0.0
 10
798.7150723281
 20
421.2837173201
 30
0.0
  0
SPLINE
  5
530
100
AcDbEntity
  8
KONSTRUKTIONSELEMENTE
100
AcDbSpline
 62
7
  6
CONTINUOUS
 70
0
 71
3
 72
10
 73
6
 74
0
 42
0.0000001
 43
0.0000001
 44
0.0000000001
 40
0.0
 40
0.0
 40
0.0
 40
0.0
 40
0.3116645009
 40
0.6060899939
 40
1.0
 40
1.0
 40
1.0
 40
1.0
 10
810.2150723281
 20
421.2837173201
 30
0.0
 10
810.2150723281
 20
421.4808721665
 30
0.0
 10
810.0275437716
 20
421.8521983612
 30
0.0
 10
809.5702245019
 20
422.2860714509
 30
0.0
 10
809.1918231897
 20
422.5134814844
 30
0.0
 10
808.9670642164
 20
422.6210696154
 30
0.0
  0
SPLINE
  5
531
100
AcDbEntity
  8
KONSTRUKTIONSELEMENTE
100
AcDbSpline
 62
7
  6
CONTINUOUS
 70
0
 71
3
 72
10
 73
6
 74
0
 42
0.0000001
 43
0.0000001
 44
0.0000000001
 40
0.0
 40
0.0
 40
0.0
 40
0.0
 40
0.3939255147
 40
0.6883533687
 40
1.0
 40
1.0
 40
1.0
 40
1.0
 10
804.4633230926
 20
422.6211815434
 30
0.0
 10
804.2385151866
 20
422.5135916428
 30
0.0
 10
803.860052665
 20
422.2861460745
 30
0.0
 10
803.4026111473
 20
421.8522683311
 30
0.0
 10
803.2150723281
 20
421.4808886239
 30
0.0
 10
803.2150723281
 20
421.2837173201
 30
0.0
  0
SPLINE
  5
532
100
AcDbEntity
  8
KONSTRUKTIONSELEMENTE
100
AcDbSpline
 62
7
  6
CONTINUOUS
 70
0
 71
3
 72
10
 73
6
 74
0
 42
0.0000001
 43
0.0000001
 44
0.0000000001
 40
0.0
 40
0.0
 40
0.0
 40
0.0
 40
0.3192646009
 40
0.6086079864
 40
1.0
 40
1.0
 40
1.0
 40
1.0
 10
803.2150723281
 20
410.6771156023
 30
0.0
 10
803.2150723281
 20
410.5053758271
 30
0.0
 10
803.3570881147
 20
410.1845246121
 30
0.0
 10
803.7228941293
 20
409.7911722727
 30
0.0
 10
804.0261819621
 20
409.5781323594
 30
0.0
 10
804.2087182631
 20
409.473217763
 30
0.0
  0
SPLINE
  5
533
100
AcDbEntity
  8
KONSTRUKTIONSELEMENTE
100
AcDbSpline
 62
7
  6
CONTINUOUS
 70
0
 71
3
 72
10
 73
6
 74
0
 42
0.0000001
 43
0.0000001
 44
0.0000000001
 40
0.0
 40
0.0
 40
0.0
 40
0.0
 40
0.3914026107
 40
0.6807340322
 40
1.0
 40
1.0
 40
1.0
 40
1.0
 10
809.2215179292
 20
409.4732702341
 30
0.0
 10
809.4040451726
 20
409.5781856436
 30
0.0
 10
809.7072847534
 20
409.7912447151
 30
0.0
 10
810.073105458
 20
410.1845430757
 30
0.0
 10
810.2150723281
 20
410.5053858166
 30
0.0
 10
810.2150723281
 20
410.6771156023
 30
0.0
  0
SPLINE
  5
534
100
AcDbEntity
  8
KONSTRUKTIONSELEMENTE
100
AcDbSpline
 62
7
  6
CONTINUOUS
 70
0
 71
3
 72
13
 73
9
 74
0
 42
0.0000001
 43
0.0000001
 44
0.0000000001
 40
0.0
 40
0.0
 40
0.0
 40
0.0
 40
0.1197290731
 40
0.2397365246
 40
0.3609040964
 40
0.4836831257
 40
0.7359942557
 40
1.0
 40
1.0
 40
1.0
 40
1.0
 10
798.7150723281
 20
410.6771156023
 30
0.0
 10
798.7150723281
 20
410.3279019001
 30
0.0
 10
798.7871759499
 20
409.6265608641
 30
0.0
 10
799.1054612847
 20
408.616342616
 30
0.0
 10
799.6148448263
 20
407.6777643973
 30
0.0
 10
800.5266453549
 20
406.5449898906
 30
0.0
 10
802.0425366205
 20
405.4078464745
 30
0.0
 10
803.4654234705
 20
404.8613007506
 30
0.0
 10
804.2116479922
 20
404.67133226
 30
0.0
  0
SPLINE
  5
535
100
AcDbEntity
  8
KONSTRUKTIONSELEMENTE
100
AcDbSpline
 62
7
  6
CONTINUOUS
 70
0
 71
3
 72
13
 73
9
 74
0
 42
0.0000001
 43
0.0000001
 44
0.0000000001
 40
0.0
 40
0.0
 40
0.0
 40
0.0
 40
0.2640112835
 40
0.5163080567
 40
0.6390830379
 40
0.7602378991
 40
0.8802701562
 40
1.0
 40
1.0
 40
1.0
 40
1.0
 10
809.2194001306
 20
404.6715794496
 30
0.0
 10
809.9655399529
 20
404.8616140509
 30
0.0
 10
811.3882163943
 20
405.408180682
 30
0.0
 10
812.9038064614
 20
406.545326023
 30
0.0
 10
813.8153967388
 20
407.6779415316
 30
0.0
 10
814.3247876547
 20
408.6164188182
 30
0.0
 10
814.6429243737
 20
409.6266069213
 30
0.0
 10
814.7150723281
 20
410.3279368048
 30
0.0
 10
814.7150723281
 20
410.6771156023
 30
0.0
  0
SPLINE
  5
536
100
AcDbEntity
  8
KONSTRUKTIONSELEMENTE
100
AcDbSpline
 62
7
  6
CONTINUOUS
 70
0
 71
3
 72
14
 73
10
 74
0
 42
0.0000001
 43
0.0000001
 44
0.0000000001
 40
0.0
 40
0.0
 40
0.0
 40
0.0
 40
0.0926617876
 40
0.1913801651
 40
0.3003577316
 40
0.4212285543
 40
0.5536633428
 40
0.6960472196
 40
1.0
 40
1.0
 40
1.0
 40
1.0
 10
831.7150723281
 20
482.8020072833
 30
0.0
 10
831.7150723281
 20
481.8655630235
 30
0.0
 10
831.4501078419
 20
479.9226664938
 30
0.0
 10
830.2665292924
 20
477.0954271859
 30
0.0
 10
828.2965052318
 20
474.389342308
 30
0.0
 10
825.5724258542
 20
471.9108923446
 30
0.0
 10
822.1714313184
 20
469.7713098625
 30
0.0
 10
816.7811575025
 20
467.4580639892
 30
0.0
 10
812.2811531932
 20
466.5888304895
 30
0.0
 10
809.2164553473
 20
466.3806458778
 30
0.0
  0
SPLINE
  5
537
100
AcDbEntity
  8
KONSTRUKTIONSELEMENTE
100
AcDbSpline
 62
7
  6
CONTINUOUS
 70
0
 71
3
 72
14
 73
10
 74
0
 42
0.0000001
 43
0.0000001
 44
0.0000000001
 40
0.0
 40
0.0
 40
0.0
 40
0.0
 40
0.3039516839
 40
0.4463359797
 40
0.578771468
 40
0.6996430113
 40
0.8086209477
 40
0.9073389559
 40
1.0
 40
1.0
 40
1.0
 40
1.0
 10
804.2133427467
 20
466.3806752848
 30
0.0
 10
801.1486936275
 20
466.5888941487
 30
0.0
 10
796.6487528682
 20
467.4581276096
 30
0.0
 10
791.2585564137
 20
469.7713900836
 30
0.0
 10
787.8576077345
 20
471.91099176
 30
0.0
 10
785.133555009
 20
474.389435407
 30
0.0
 10
783.163572376
 20
477.0955126789
 30
0.0
 10
781.9800261468
 20
479.9227182823
 30
0.0
 10
781.7150723281
 20
481.8655812718
 30
0.0
 10
781.7150723281
 20
482.8020072833
 30
0.0
  0
SPLINE
  5
538
100
AcDbEntity
  8
KONSTRUKTIONSELEMENTE
100
AcDbSpline
 62
7
  6
CONTINUOUS
 70
0
 71
3
 72
13
 73
9
 74
0
 42
0.0000001
 43
0.0000001
 44
0.0000000001
 40
0.0
 40
0.0
 40
0.0
 40
0.0
 40
0.1170067165
 40
0.2348842161
 40
0.3545001851
 40
0.4766458578
 40
0.7305028574
 40
1.0
 40
1.0
 40
1.0
 40
1.0
 10
839.7150723281
 20
482.8020072833
 30
0.0
 10
839.7150723281
 20
481.7513498219
 30
0.0
 10
839.5340139564
 20
479.6378813475
 30
0.0
 10
838.7294184968
 20
476.5436732254
 30
0.0
 10
837.4167798178
 20
473.5779811548
 30
0.0
 10
835.0085474518
 20
469.8176914829
 30
0.0
 10
830.8592372328
 20
465.6671391356
 30
0.0
 10
826.8014100472
 20
463.212597508
 30
0.0
 10
824.6159771445
 20
462.1733715596
 30
0.0
  0
SPLINE
  5
539
100
AcDbEntity
  8
KONSTRUKTIONSELEMENTE
100
AcDbSpline
 62
7
  6
CONTINUOUS
 70
0
 71
3
 72
9
 73
5
 74
0
 42
0.0000001
 43
0.0000001
 44
0.0000000001
 40
0.0
 40
0.0
 40
0.0
 40
0.0
 40
0.2435487334
 40
1.0
 40
1.0
 40
1.0
 40
1.0
 10
824.6159771445
 20
462.1733715596
 30
0.0
 10
823.4535504383
 20
461.6206096812
 30
0.0
 10
818.5602956694
 20
459.6084099649
 30
0.0
 10
813.2730740631
 20
458.5974985383
 30
0.0
 10
809.2817354322
 20
458.3692236547
 30
0.0
  0
SPLINE
  5
53A
100
AcDbEntity
  8
KONSTRUKTIONSELEMENTE
100
AcDbSpline
 62
7
  6
CONTINUOUS
 70
0
 71
3
 72
9
 73
5
 74
0
 42
0.0000001
 43
0.0000001
 44
0.0000000001
 40
0.0
 40
0.0
 40
0.0
 40
0.0
 40
0.2562294448
 40
1.0
 40
1.0
 40
1.0
 40
1.0
 10
804.1359125356
 20
458.3699415505
 30
0.0
 10
802.7841925573
 20
458.4476386716
 30
0.0
 10
797.5273146314
 20
458.988332953
 30
0.0
 10
792.3519225518
 20
460.4896452647
 30
0.0
 10
788.8031557138
 20
462.1786107886
 30
0.0
  0
SPLINE
  5
53B
100
AcDbEntity
  8
KONSTRUKTIONSELEMENTE
100
AcDbSpline
 62
7
  6
CONTINUOUS
 70
0
 71
3
 72
13
 73
9
 74
0
 42
0.0000001
 43
0.0000001
 44
0.0000000001
 40
0.0
 40
0.0
 40
0.0
 40
0.0
 40
0.2694862515
 40
0.5233380848
 40
0.6454846367
 40
0.7651034786
 40
0.8829865227
 40
1.0
 40
1.0
 40
1.0
 40
1.0
 10
788.8031557138
 20
462.1786107886
 30
0.0
 10
786.6191405839
 20
463.2180496772
 30
0.0
 10
782.5640875926
 20
465.6727398115
 30
0.0
 10
778.4178906904
 20
469.8224107178
 30
0.0
 10
776.0115481624
 20
473.5814937457
 30
0.0
 10
774.6999367589
 20
476.546122647
 30
0.0
 10
773.8959893586
 20
479.6391405327
 30
0.0
 10
773.7150723281
 20
481.7517628389
 30
0.0
 10
773.7150723281
 20
482.8020072833
 30
0.0
  0
SPLINE
  5
53C
100
AcDbEntity
  8
KONSTRUKTIONSELEMENTE
100
AcDbSpline
 62
7
  6
CONTINUOUS
 70
0
 71
3
 72
11
 73
7
 74
0
 42
0.0000001
 43
0.0000001
 44
0.0000000001
 40
0.0
 40
0.0
 40
0.0
 40
0.0
 40
0.2172379297
 40
0.4504829781
 40
0.7102843532
 40
1.0
 40
1.0
 40
1.0
 40
1.0
 10
781.7150723281
 20
482.8020072833
 30
0.0
 10
781.7150723281
 20
483.8046132535
 30
0.0
 10
782.0209960847
 20
485.8942702837
 30
0.0
 10
783.3831029256
 20
488.9155399174
 30
0.0
 10
785.6392121316
 20
491.7761317132
 30
0.0
 10
787.6065890766
 20
493.4063823003
 30
0.0
 10
788.7060613755
 20
494.1673154435
 30
0.0
  0
SPLINE
  5
53D
100
AcDbEntity
  8
KONSTRUKTIONSELEMENTE
100
AcDbSpline
 62
7
  6
CONTINUOUS
 70
0
 71
3
 72
11
 73
7
 74
0
 42
0.0000001
 43
0.0000001
 44
0.0000000001
 40
0.0
 40
0.0
 40
0.0
 40
0.0
 40
0.2897240868
 40
0.5495296461
 40
0.7827706923
 40
1.0
 40
1.0
 40
1.0
 40
1.0
 10
824.7218158529
 20
494.1688880337
 30
0.0
 10
825.8216231538
 20
493.4079049422
 30
0.0
 10
827.7896284423
 20
491.7775237465
 30
0.0
 10
830.0464769464
 20
488.9165358136
 30
0.0
 10
831.4090490863
 20
485.8947885702
 30
0.0
 10
831.7150723281
 20
483.804772111
 30
0.0
 10
831.7150723281
 20
482.8020072833
 30
0.0
  0
SPLINE
  5
53E
100
AcDbEntity
  8
KONSTRUKTIONSELEMENTE
100
AcDbSpline
 62
7
  6
CONTINUOUS
 70
0
 71
3
 72
13
 73
9
 74
0
 42
0.0000001
 43
0.0000001
 44
0.0000000001
 40
0.0
 40
0.0
 40
0.0
 40
0.0
 40
0.1170547158
 40
0.2349734983
 40
0.3546186609
 40
0.4767761137
 40
0.7305994167
 40
1.0
 40
1.0
 40
1.0
 40
1.0
 10
773.7150723281
 20
482.8020072833
 30
0.0
 10
773.7150723281
 20
483.8486331912
 30
0.0
 10
773.8947269188
 20
485.9538965923
 30
0.0
 10
774.69317078
 20
489.0366723222
 30
0.0
 10
775.9959716769
 20
491.9923664594
 30
0.0
 10
778.3864618493
 20
495.7414657675
 30
0.0
 10
782.5064828655
 20
499.884046853
 30
0.0
 10
786.5385126581
 20
502.3397398334
 30
0.0
 10
788.7105522154
 20
503.3811672661
 30
0.0
  0
SPLINE
  5
53F
100
AcDbEntity
  8
KONSTRUKTIONSELEMENTE
100
AcDbSpline
 62
7
  6
CONTINUOUS
 70
0
 71
3
 72
13
 73
9
 74
0
 42
0.0000001
 43
0.0000001
 44
0.0000000001
 40
0.0
 40
0.0
 40
0.0
 40
0.0
 40
0.2694023097
 40
0.5232248784
 40
0.645381671
 40
0.7650258826
 40
0.8829448174
 40
1.0
 40
1.0
 40
1.0
 40
1.0
 10
824.717013565
 20
503.382404148
 30
0.0
 10
826.8893912789
 20
502.3410542808
 30
0.0
 10
830.9220289687
 20
499.8853660917
 30
0.0
 10
835.042779004
 20
495.7426250174
 30
0.0
 10
837.4337073513
 20
491.993266642
 30
0.0
 10
838.7367720221
 20
489.0373255236
 30
0.0
 10
839.5353748214
 20
485.9542414574
 30
0.0
 10
839.7150723281
 20
483.848748579
 30
0.0
 10
839.7150723281
 20
482.8020072833
 30
0.0
  0
SPLINE
  5
540
100
AcDbEntity
  8
RUNDUNGEN
100
AcDbSpline
 62
7
  6
CONTINUOUS
 70
0
 71
3
 72
8
 73
4
 74
0
 42
0.0000001
 43
0.0000001
 44
0.0000000001
 40
0.0
 40
0.0
 40
0.0
 40
0.0
 40
1.0
 40
1.0
 40
1.0
 40
1.0
 10
831.6772385194
 20
215.0839789574
 30
0.0
 10
831.6234021249
 20
215.3265870116
 30
0.0
 10
831.5982713128
 20
215.5768042408
 30
0.0
 10
831.598271395
 20
215.825313849
 30
0.0
  0
SPLINE
  5
541
100
AcDbEntity
  8
RUNDUNGEN
100
AcDbSpline
 62
7
  6
CONTINUOUS
 70
0
 71
3
 72
11
 73
7
 74
0
 42
0.0000001
 43
0.0000001
 44
0.0000000001
 40
0.0
 40
0.0
 40
0.0
 40
0.0
 40
0.250010631
 40
0.5000175033
 40
0.7500145996
 40
1.0
 40
1.0
 40
1.0
 40
1.0
 10
856.5155036449
 20
222.1157352855
 30
0.0
 10
856.7517430067
 20
222.1733741225
 30
0.0
 10
857.2085825467
 20
222.3687488702
 30
0.0
 10
857.7585988528
 20
222.8676387338
 30
0.0
 10
858.1162216402
 20
223.5185468319
 30
0.0
 10
858.1985302409
 20
224.0088222072
 30
0.0
 10
858.1982328986
 20
224.2519667095
 30
0.0
  0
SPLINE
  5
542
100
AcDbEntity
  8
RUNDUNGEN
100
AcDbSpline
 62
7
  6
CONTINUOUS
 70
0
 71
3
 72
11
 73
7
 74
0
 42
0.0000001
 43
0.0000001
 44
0.0000000001
 40
0.0
 40
0.0
 40
0.0
 40
0.0
 40
0.2500346324
 40
0.500053935
 40
0.750042561
 40
1.0
 40
1.0
 40
1.0
 40
1.0
 10
792.810492458
 20
175.3722097737
 30
0.0
 10
793.0972961238
 20
175.37220947
 30
0.0
 10
793.6770075634
 20
175.485085507
 30
0.0
 10
794.4134505522
 20
175.9698842299
 30
0.0
 10
794.910397902
 20
176.6987102576
 30
0.0
 10
795.0275090778
 20
177.2785823648
 30
0.0
 10
795.02750913
 20
177.5652974855
 30
0.0
  0
SPLINE
  5
543
100
AcDbEntity
  8
BEZUGSACHSEN
100
AcDbSpline
 62
7
  6
CONTINUOUS
 70
0
 71
3
 72
9
 73
5
 74
0
 42
0.0000001
 43
0.0000001
 44
0.0000000001
 40
0.0
 40
0.0
 40
0.0
 40
0.0
 40
0.2319080918
 40
1.0
 40
1.0
 40
1.0
 40
1.0
 10
801.8168800906
 20
395.1218625225
 30
0.0
 10
801.9508955203
 20
395.3073962294
 30
0.0
 10
802.6042863556
 20
396.0530694191
 30
0.0
 10
803.5004273565
 20
396.5589447919
 30
0.0
 10
804.2133887598
 20
396.8164528751
 30
0.0
  0
SPLINE
  5
544
100
AcDbEntity
  8
BEZUGSACHSEN
100
AcDbSpline
 62
7
  6
CONTINUOUS
 70
0
 71
3
 72
9
 73
5
 74
0
 42
0.0000001
 43
0.0000001
 44
0.0000000001
 40
0.0
 40
0.0
 40
0.0
 40
0.0
 40
0.2702321592
 40
1.0
 40
1.0
 40
1.0
 40
1.0
 10
809.2167558964
 20
396.8164528751
 30
0.0
 10
809.4673788178
 20
396.7259326481
 30
0.0
 10
810.3719404296
 20
396.3375382877
 30
0.0
 10
811.1919033591
 20
395.7052036105
 30
0.0
 10
811.6132645656
 20
395.1218625225
 30
0.0
  0
SPLINE
  5
545
100
AcDbEntity
  8
KONSTRUKTIONSELEMENTE
100
AcDbSpline
 62
7
  6
CONTINUOUS
 70
0
 71
3
 72
11
 73
7
 74
0
 42
0.0000001
 43
0.0000001
 44
0.0000000001
 40
0.0
 40
0.0
 40
0.0
 40
0.0
 40
0.2745288198
 40
0.5376308219
 40
0.7805434542
 40
1.0
 40
1.0
 40
1.0
 40
1.0
 10
840.7729537677
 20
314.1570399703
 30
0.0
 10
841.3567080352
 20
314.1570399703
 30
0.0
 10
842.5036650071
 20
314.2744466997
 30
0.0
 10
844.0943362885
 20
314.7944897241
 30
0.0
 10
845.418426661
 20
315.6178410484
 30
0.0
 10
846.0803632988
 20
316.3734410683
 30
0.0
 10
846.3162309628
 20
316.776092357
 30
0.0
  0
SPLINE
  5
546
100
AcDbEntity
  8
KONSTRUKTIONSELEMENTE
100
AcDbSpline
 62
7
  6
CONTINUOUS
 70
0
 71
3
 72
9
 73
5
 74
0
 42
0.0000001
 43
0.0000001
 44
0.0000000001
 40
0.0
 40
0.0
 40
0.0
 40
0.0
 40
0.2586509047
 40
1.0
 40
1.0
 40
1.0
 40
1.0
 10
846.9876744102
 20
317.9223180192
 30
0.0
 10
846.9975388498
 20
317.939157671
 30
0.0
 10
847.0318326513
 20
318.0064064377
 30
0.0
 10
847.0485742134
 20
318.0828589097
 30
0.0
 10
847.0485707842
 20
318.1387964592
 30
0.0
  0
SPLINE
  5
547
100
AcDbEntity
  8
KONSTRUKTIONSELEMENTE
100
AcDbSpline
 62
7
  6
CONTINUOUS
 70
0
 71
3
 72
9
 73
5
 74
0
 42
0.0000001
 43
0.0000001
 44
0.0000000001
 40
0.0
 40
0.0
 40
0.0
 40
0.0
 40
0.5358983849
 40
1.0
 40
1.0
 40
1.0
 40
1.0
 10
877.8582222975
 20
372.0998469086
 30
0.0
 10
878.0540915123
 20
372.0424781439
 30
0.0
 10
878.452445589
 20
372.0359879466
 30
0.0
 10
878.8141325021
 20
372.2534804491
 30
0.0
 10
878.9034726694
 20
372.4059936545
 30
0.0
  0
SPLINE
  5
548
100
AcDbEntity
  8
KONSTRUKTIONSELEMENTE
100
AcDbSpline
 62
7
  6
CONTINUOUS
 70
0
 71
3
 72
9
 73
5
 74
0
 42
0.0000001
 43
0.0000001
 44
0.0000000001
 40
0.0
 40
0.0
 40
0.0
 40
0.0
 40
0.5089312496
 40
1.0
 40
1.0
 40
1.0
 40
1.0
 10
879.7453762206
 20
373.8432129159
 30
0.0
 10
879.9399589807
 20
374.1753864651
 30
0.0
 10
880.2468297171
 20
374.8769381919
 30
0.0
 10
880.3543461869
 20
375.6368599087
 30
0.0
 10
880.3543326798
 20
376.0083179785
 30
0.0
  0
SPLINE
  5
549
100
AcDbEntity
  8
KONSTRUKTIONSELEMENTE
100
AcDbSpline
 62
7
  6
CONTINUOUS
 70
0
 71
3
 72
11
 73
7
 74
0
 42
0.0000001
 43
0.0000001
 44
0.0000000001
 40
0.0
 40
0.0
 40
0.0
 40
0.0
 40
0.2187337062
 40
0.4541366386
 40
0.7148275965
 40
1.0
 40
1.0
 40
1.0
 40
1.0
 10
759.7476406775
 20
366.8420675883
 30
0.0
 10
759.7476469283
 20
367.0098353132
 30
0.0
 10
759.8245423423
 20
367.3614913976
 30
0.0
 10
760.1441977117
 20
367.8204345783
 30
0.0
 10
760.6280938594
 20
368.1869337479
 30
0.0
 10
761.0192906116
 20
368.3484626527
 30
0.0
 10
761.2291981296
 20
368.4099431413
 30
0.0
  0
SPLINE
  5
54A
100
AcDbEntity
  8
BEZUGSACHSEN
100
AcDbSpline
 62
7
  6
CONTINUOUS
 70
0
 71
3
 72
17
 73
13
 74
0
 42
0.0000001
 43
0.0000001
 44
0.0000000001
 40
0.0
 40
0.0
 40
0.0
 40
0.0
 40
0.0517876532
 40
0.1054789532
 40
0.2228486507
 40
0.3562851615
 40
0.5
 40
0.6437148385
 40
0.7771513493
 40
0.8945210468
 40
0.9482123468
 40
1.0
 40
1.0
 40
1.0
 40
1.0
 10
812.2150723281
 20
396.8885333691
 30
0.0
 10
812.2150723281
 20
396.6332294236
 30
0.0
 10
812.1408233323
 20
396.110599656
 30
0.0
 10
811.6965637176
 20
395.0933512382
 30
0.0
 10
810.5991279304
 20
393.9952014765
 30
0.0
 10
808.7973274073
 20
393.1857820866
 30
0.0
 10
806.7150723281
 20
392.9028764993
 30
0.0
 10
804.6328172489
 20
393.1857820866
 30
0.0
 10
802.8310167258
 20
393.9952014765
 30
0.0
 10
801.7335809386
 20
395.0933512382
 30
0.0
 10
801.289321324
 20
396.110599656
 30
0.0
 10
801.2150723281
 20
396.6332294236
 30
0.0
 10
801.2150723281
 20
396.8885333691
 30
0.0
  0
SPLINE
  5
54B
100
AcDbEntity
  8
KONSTRUKTIONSELEMENTE
100
AcDbSpline
 62
7
  6
CONTINUOUS
 70
0
 71
3
 72
11
 73
7
 74
0
 42
0.0000001
 43
0.0000001
 44
0.0000000001
 40
0.0
 40
0.0
 40
0.0
 40
0.0
 40
0.2851724035
 40
0.5458633614
 40
0.7812662938
 40
1.0
 40
1.0
 40
1.0
 40
1.0
 10
769.8448213732
 20
369.0499122231
 30
0.0
 10
770.0547288912
 20
369.1113927117
 30
0.0
 10
770.4459256434
 20
369.2729216165
 30
0.0
 10
770.9298217911
 20
369.6394207861
 30
0.0
 10
771.2494771605
 20
370.0983639668
 30
0.0
 10
771.3263725744
 20
370.4500200512
 30
0.0
 10
771.3263788253
 20
370.6177877761
 30
0.0
  0
SPLINE
  5
54C
100
AcDbEntity
  8
BEZUGSACHSEN
100
AcDbSpline
 62
7
  6
CONTINUOUS
 70
0
 71
3
 72
9
 73
5
 74
0
 42
0.0000001
 43
0.0000001
 44
0.0000000001
 40
0.0
 40
0.0
 40
0.0
 40
0.0
 40
0.2466913178
 40
1.0
 40
1.0
 40
1.0
 40
1.0
 10
812.8380072459
 20
403.098396401
 30
0.0
 10
812.5452530661
 20
403.1841421151
 30
0.0
 10
811.3507262883
 20
403.504637672
 30
0.0
 10
810.1280506719
 20
403.7190817619
 30
0.0
 10
809.2022372175
 20
403.8220763723
 30
0.0
  0
SPLINE
  5
54D
100
AcDbEntity
  8
BEZUGSACHSEN
100
AcDbSpline
 62
7
  6
CONTINUOUS
 70
0
 71
3
 72
9
 73
5
 74
0
 42
0.0000001
 43
0.0000001
 44
0.0000000001
 40
0.0
 40
0.0
 40
0.0
 40
0.0
 40
0.2529933846
 40
1.0
 40
1.0
 40
1.0
 40
1.0
 10
804.2279074387
 20
403.8220763723
 30
0.0
 10
803.9169825892
 20
403.7874867003
 30
0.0
 10
802.6910784196
 20
403.6247395175
 30
0.0
 10
801.4786184272
 20
403.3580406795
 30
0.0
 10
800.5921374103
 20
403.098396401
 30
0.0
  0
SPLINE
  5
54E
100
AcDbEntity
  8
KONSTRUKTIONSELEMENTE
100
AcDbSpline
 62
7
  6
CONTINUOUS
 70
0
 71
3
 72
11
 73
7
 74
0
 42
0.0000001
 43
0.0000001
 44
0.0000000001
 40
0.0
 40
0.0
 40
0.0
 40
0.0
 40
0.2094829334
 40
0.4446557434
 40
0.7120095299
 40
1.0
 40
1.0
 40
1.0
 40
1.0
 10
796.2350723281
 20
293.7923646721
 30
0.0
 10
796.2350723281
 20
293.5674669323
 30
0.0
 10
796.381132215
 20
293.0844371012
 30
0.0
 10
796.940367769
 20
292.5313150847
 30
0.0
 10
797.7259270654
 20
292.1761454657
 30
0.0
 10
798.3258900726
 20
292.0953083973
 30
0.0
 10
798.6350723281
 20
292.0953083973
 30
0.0
  0
SPLINE
  5
54F
100
AcDbEntity
  8
KONSTRUKTIONSELEMENTE
100
AcDbSpline
 62
7
  6
CONTINUOUS
 70
0
 71
3
 72
9
 73
5
 74
0
 42
0.0000001
 43
0.0000001
 44
0.0000000001
 40
0.0
 40
0.0
 40
0.0
 40
0.0
 40
0.4517053273
 40
1.0
 40
1.0
 40
1.0
 40
1.0
 10
847.0485707842
 20
321.6743303652
 30
0.0
 10
847.048563796
 20
321.788322687
 30
0.0
 10
846.9251160226
 20
322.040363685
 30
0.0
 10
846.687506563
 20
322.1580625439
 30
0.0
 10
846.5547175301
 20
322.1969555511
 30
0.0
  0
SPLINE
  5
550
100
AcDbEntity
  8
KONSTRUKTIONSELEMENTE
100
AcDbSpline
 62
7
  6
CONTINUOUS
 70
0
 71
3
 72
11
 73
7
 74
0
 42
0.0000001
 43
0.0000001
 44
0.0000000001
 40
0.0
 40
0.0
 40
0.0
 40
0.0
 40
0.2187538164
 40
0.4541436435
 40
0.7148565427
 40
1.0
 40
1.0
 40
1.0
 40
1.0
 10
880.3543326798
 20
379.5438518844
 30
0.0
 10
880.3543123439
 20
380.1031100208
 30
0.0
 10
880.0979695887
 20
381.2752822718
 30
0.0
 10
879.0323211167
 20
382.805025088
 30
0.0
 10
877.4193032634
 20
384.0264353715
 30
0.0
 10
876.1154043213
 20
384.5648758935
 30
0.0
 10
875.4158074195
 20
384.7697830819
 30
0.0
  0
SPLINE
  5
551
100
AcDbEntity
  8
KONSTRUKTIONSELEMENTE
100
AcDbSpline
 62
7
  6
CONTINUOUS
 70
0
 71
3
 72
11
 73
7
 74
0
 42
0.0000001
 43
0.0000001
 44
0.0000000001
 40
0.0
 40
0.0
 40
0.0
 40
0.0
 40
0.2851597611
 40
0.5458622252
 40
0.7812471547
 40
1.0
 40
1.0
 40
1.0
 40
1.0
 10
837.5930860647
 20
324.8217566368
 30
0.0
 10
836.8934281396
 20
325.0266816986
 30
0.0
 10
835.5894810052
 20
325.5651627367
 30
0.0
 10
833.976432904
 20
326.7866384772
 30
0.0
 10
832.9108507636
 20
328.3164618924
 30
0.0
 10
832.6545918164
 20
329.4886568909
 30
0.0
 10
832.6545531695
 20
330.0479293476
 30
0.0
  0
SPLINE
  5
552
100
AcDbEntity
  8
KONSTRUKTIONSELEMENTE
100
AcDbSpline
 62
7
  6
CONTINUOUS
 70
0
 71
3
 72
11
 73
7
 74
0
 42
0.0000001
 43
0.0000001
 44
0.0000000001
 40
0.0
 40
0.0
 40
0.0
 40
0.0
 40
0.2670089177
 40
0.5340176589
 40
0.7819301107
 40
1.0
 40
1.0
 40
1.0
 40
1.0
 10
868.8965908322
 20
374.7246479943
 30
0.0
 10
867.9076044617
 20
375.0143153958
 30
0.0
 10
865.8333128126
 20
375.2960648734
 30
0.0
 10
862.8066506929
 20
374.8838689207
 30
0.0
 10
860.186059086
 20
373.7078385353
 30
0.0
 10
858.8694995584
 20
372.3894050055
 30
0.0
 10
858.4440871132
 20
371.6631805354
 30
0.0
  0
SPLINE
  5
553
100
AcDbEntity
  8
KONSTRUKTIONSELEMENTE
100
AcDbSpline
 62
7
  6
CONTINUOUS
 70
0
 71
3
 72
9
 73
5
 74
0
 42
0.0000001
 43
0.0000001
 44
0.0000000001
 40
0.0
 40
0.0
 40
0.0
 40
0.0
 40
0.5345986577
 40
1.0
 40
1.0
 40
1.0
 40
1.0
 10
791.6940641244
 20
314.4009359899
 30
0.0
 10
790.6234591356
 20
314.6307370764
 30
0.0
 10
788.6658298272
 20
315.3632833291
 30
0.0
 10
787.1085908555
 20
316.8265860888
 30
0.0
 10
786.6267676096
 20
317.6491098192
 30
0.0
  0
SPLINE
  5
554
100
AcDbEntity
  8
KONSTRUKTIONSELEMENTE
100
AcDbSpline
 62
7
  6
CONTINUOUS
 70
0
 71
3
 72
11
 73
7
 74
0
 42
0.0000001
 43
0.0000001
 44
0.0000000001
 40
0.0
 40
0.0
 40
0.0
 40
0.0
 40
0.2851562407
 40
0.5458562973
 40
0.7812472715
 40
1.0
 40
1.0
 40
1.0
 40
1.0
 10
755.1061085882
 20
389.7758470083
 30
0.0
 10
754.4064522602
 20
389.5709224143
 30
0.0
 10
753.1025065832
 20
389.0324412746
 30
0.0
 10
751.4894400843
 20
387.810955982
 30
0.0
 10
750.4238500494
 20
386.2810994206
 30
0.0
 10
750.1676049622
 20
385.1088725824
 30
0.0
 10
750.1675760574
 20
384.5495947961
 30
0.0
  0
SPLINE
  5
555
100
AcDbEntity
  8
KONSTRUKTIONSELEMENTE
100
AcDbSpline
 62
7
  6
CONTINUOUS
 70
0
 71
3
 72
9
 73
5
 74
0
 42
0.0000001
 43
0.0000001
 44
0.0000000001
 40
0.0
 40
0.0
 40
0.0
 40
0.0
 40
0.5089093208
 40
1.0
 40
1.0
 40
1.0
 40
1.0
 10
750.776539787
 20
378.8492768422
 30
0.0
 10
750.5819858594
 20
379.1814011713
 30
0.0
 10
750.2751596635
 20
379.882871769
 30
0.0
 10
750.167550026
 20
380.642704774
 30
0.0
 10
750.1675756929
 20
381.0141403916
 30
0.0
  0
SPLINE
  5
556
100
AcDbEntity
  8
KONSTRUKTIONSELEMENTE
100
AcDbSpline
 62
7
  6
CONTINUOUS
 70
0
 71
3
 72
8
 73
4
 74
0
 42
0.0000001
 43
0.0000001
 44
0.0000000001
 40
0.0
 40
0.0
 40
0.0
 40
0.0
 40
1.0
 40
1.0
 40
1.0
 40
1.0
 10
752.4913597577
 20
375.9839217783
 30
0.0
 10
752.4222932286
 20
376.0617931904
 30
0.0
 10
752.3598843289
 20
376.1463386379
 30
0.0
 10
752.3072735165
 20
376.2361509125
 30
0.0
  0
SPLINE
  5
557
100
AcDbEntity
  8
KONSTRUKTIONSELEMENTE
100
AcDbSpline
 62
7
  6
CONTINUOUS
 70
0
 71
3
 72
9
 73
5
 74
0
 42
0.0000001
 43
0.0000001
 44
0.0000000001
 40
0.0
 40
0.0
 40
0.0
 40
0.0
 40
0.255719081
 40
1.0
 40
1.0
 40
1.0
 40
1.0
 10
823.5950723281
 20
314.7227253952
 30
0.0
 10
823.3175651478
 20
314.7227253952
 30
0.0
 10
822.2333508504
 20
314.6728620517
 30
0.0
 10
821.1549781283
 20
314.4251902558
 30
0.0
 10
820.4067039123
 20
314.1211201089
 30
0.0
  0
SPLINE
  5
558
100
AcDbEntity
  8
KONSTRUKTIONSELEMENTE
100
AcDbSpline
 62
7
  6
CONTINUOUS
 70
0
 71
3
 72
11
 73
7
 74
0
 42
0.0000001
 43
0.0000001
 44
0.0000000001
 40
0.0
 40
0.0
 40
0.0
 40
0.0
 40
0.2809363762
 40
0.5390132064
 40
0.7759685789
 40
1.0
 40
1.0
 40
1.0
 40
1.0
 10
820.1901005421
 20
314.0290406034
 30
0.0
 10
819.7513913921
 20
313.8341238165
 30
0.0
 10
818.9430520315
 20
313.3746812975
 30
0.0
 10
817.9684437029
 20
312.4536762513
 30
0.0
 10
817.341836011
 20
311.373901512
 30
0.0
 10
817.1950723281
 20
310.5800641899
 30
0.0
 10
817.1950723281
 20
310.1972419956
 30
0.0
  0
SPLINE
  5
559
100
AcDbEntity
  8
KONSTRUKTIONSELEMENTE
100
AcDbSpline
 62
7
  6
CONTINUOUS
 70
0
 71
3
 72
11
 73
7
 74
0
 42
0.0000001
 43
0.0000001
 44
0.0000000001
 40
0.0
 40
0.0
 40
0.0
 40
0.0
 40
0.2851724035
 40
0.5458633614
 40
0.7812662938
 40
1.0
 40
1.0
 40
1.0
 40
1.0
 10
768.6202343896
 20
370.5747275419
 30
0.0
 10
768.8301419076
 20
370.6362080305
 30
0.0
 10
769.2213386598
 20
370.7977369354
 30
0.0
 10
769.7052348075
 20
371.1642361049
 30
0.0
 10
770.0248901769
 20
371.6231792856
 30
0.0
 10
770.1017855908
 20
371.97483537
 30
0.0
 10
770.1017918417
 20
372.1426030949
 30
0.0
  0
SPLINE
  5
55A
100
AcDbEntity
  8
KONSTRUKTIONSELEMENTE
100
AcDbSpline
 62
7
  6
CONTINUOUS
 70
0
 71
3
 72
11
 73
7
 74
0
 42
0.0000001
 43
0.0000001
 44
0.0000000001
 40
0.0
 40
0.0
 40
0.0
 40
0.0
 40
0.2879904701
 40
0.5553442566
 40
0.7905170666
 40
1.0
 40
1.0
 40
1.0
 40
1.0
 10
814.7950723281
 20
292.0953083973
 30
0.0
 10
815.1042545836
 20
292.0953083973
 30
0.0
 10
815.7042175908
 20
292.1761454657
 30
0.0
 10
816.4897768872
 20
292.5313150847
 30
0.0
 10
817.0490124412
 20
293.0844371012
 30
0.0
 10
817.1950723281
 20
293.5674669323
 30
0.0
 10
817.1950723281
 20
293.7923646721
 30
0.0
  0
SPLINE
  5
55B
100
AcDbEntity
  8
KONSTRUKTIONSELEMENTE
100
AcDbSpline
 62
7
  6
CONTINUOUS
 70
0
 71
3
 72
11
 73
7
 74
0
 42
0.0000001
 43
0.0000001
 44
0.0000000001
 40
0.0
 40
0.0
 40
0.0
 40
0.0
 40
0.281228999
 40
0.5394259067
 40
0.7762697724
 40
1.0
 40
1.0
 40
1.0
 40
1.0
 10
793.1915103685
 20
314.4894180795
 30
0.0
 10
793.6366224122
 20
314.2955631277
 30
0.0
 10
794.4571480421
 20
313.8366936026
 30
0.0
 10
795.4478005689
 20
312.9116918901
 30
0.0
 10
796.0854917969
 20
311.8238306872
 30
0.0
 10
796.2350723281
 20
311.0224870297
 30
0.0
 10
796.2350723281
 20
310.636254831
 30
0.0
  0
SPLINE
  5
55C
100
AcDbEntity
  8
KONSTRUKTIONSELEMENTE
100
AcDbSpline
 62
7
  6
CONTINUOUS
 70
0
 71
3
 72
9
 73
5
 74
0
 42
0.0000001
 43
0.0000001
 44
0.0000000001
 40
0.0
 40
0.0
 40
0.0
 40
0.0
 40
0.2584251542
 40
1.0
 40
1.0
 40
1.0
 40
1.0
 10
759.9303274892
 20
363.7884692073
 30
0.0
 10
759.9007605144
 20
363.8389431905
 30
0.0
 10
759.7979473277
 20
364.0407169765
 30
0.0
 10
759.7476344232
 20
364.2700437064
 30
0.0
 10
759.7476406775
 20
364.4379045323
 30
0.0
  0
SPLINE
  5
55D
100
AcDbEntity
  8
KONSTRUKTIONSELEMENTE
100
AcDbSpline
 62
7
  6
CONTINUOUS
 70
0
 71
3
 72
9
 73
5
 74
0
 42
0.0000001
 43
0.0000001
 44
0.0000000001
 40
0.0
 40
0.0
 40
0.0
 40
0.0
 40
0.2454868499
 40
1.0
 40
1.0
 40
1.0
 40
1.0
 10
770.1017918417
 20
372.1426030949
 30
0.0
 10
770.1017939126
 20
372.1981857292
 30
0.0
 10
770.0862887713
 20
372.4245624932
 30
0.0
 10
770.0054536593
 20
372.6446320893
 30
0.0
 10
769.91910503
 20
372.7920384199
 30
0.0
  0
SPLINE
  5
55E
100
AcDbEntity
  8
KONSTRUKTIONSELEMENTE
100
AcDbSpline
 62
7
  6
CONTINUOUS
 70
0
 71
3
 72
11
 73
7
 74
0
 42
0.0000001
 43
0.0000001
 44
0.0000000001
 40
0.0
 40
0.0
 40
0.0
 40
0.0
 40
0.2745288198
 40
0.5376308219
 40
0.7805434542
 40
1.0
 40
1.0
 40
1.0
 40
1.0
 10
840.7729537677
 20
317.6925738762
 30
0.0
 10
841.3567080352
 20
317.6925738762
 30
0.0
 10
842.5036650071
 20
317.8099806056
 30
0.0
 10
844.0943362885
 20
318.33002363
 30
0.0
 10
845.418426661
 20
319.1533749543
 30
0.0
 10
846.0803632988
 20
319.9089749743
 30
0.0
 10
846.3162309628
 20
320.3116262629
 30
0.0
  0
SPLINE
  5
55F
100
AcDbEntity
  8
KONSTRUKTIONSELEMENTE
100
AcDbSpline
 62
7
  6
CONTINUOUS
 70
0
 71
3
 72
12
 73
8
 74
0
 42
0.0000001
 43
0.0000001
 44
0.0000000001
 40
0.0
 40
0.0
 40
0.0
 40
0.0
 40
0.2874378001
 40
0.5543027143
 40
0.7890463209
 40
0.896415877
 40
1.0
 40
1.0
 40
1.0
 40
1.0
 10
820.3950723281
 20
317.6925738762
 30
0.0
 10
819.5706242065
 20
317.6925738762
 30
0.0
 10
817.970779275
 20
317.4757430313
 30
0.0
 10
815.8757044093
 20
316.5338525234
 30
0.0
 10
814.5984316656
 20
315.2560243733
 30
0.0
 10
814.0814242124
 20
314.0723487064
 30
0.0
 10
813.9950723281
 20
313.4641973136
 30
0.0
 10
813.9950723281
 20
313.1670904766
 30
0.0
  0
SPLINE
  5
560
100
AcDbEntity
  8
KONSTRUKTIONSELEMENTE
100
AcDbSpline
 62
7
  6
CONTINUOUS
 70
0
 71
3
 72
8
 73
4
 74
0
 42
0.0000001
 43
0.0000001
 44
0.0000000001
 40
0.0
 40
0.0
 40
0.0
 40
0.0
 40
1.0
 40
1.0
 40
1.0
 40
1.0
 10
771.2610008344
 20
370.4450892406
 30
0.0
 10
771.231016627
 20
370.5341807574
 30
0.0
 10
771.1912052071
 20
370.6204275812
 30
0.0
 10
771.1436920136
 20
370.7015376761
 30
0.0
  0
SPLINE
  5
561
100
AcDbEntity
  8
KONSTRUKTIONSELEMENTE
100
AcDbSpline
 62
7
  6
CONTINUOUS
 70
0
 71
3
 72
12
 73
8
 74
0
 42
0.0000001
 43
0.0000001
 44
0.0000000001
 40
0.0
 40
0.0
 40
0.0
 40
0.0
 40
0.103584123
 40
0.2109536791
 40
0.4456972857
 40
0.7125621999
 40
1.0
 40
1.0
 40
1.0
 40
1.0
 10
799.4350723281
 20
313.1670904766
 30
0.0
 10
799.4350723281
 20
313.4641973136
 30
0.0
 10
799.3487204438
 20
314.0723487064
 30
0.0
 10
798.8317129906
 20
315.2560243733
 30
0.0
 10
797.5544402469
 20
316.5338525234
 30
0.0
 10
795.4593653812
 20
317.4757430313
 30
0.0
 10
793.8595204497
 20
317.6925738762
 30
0.0
 10
793.0350723281
 20
317.6925738762
 30
0.0
  0
SPLINE
  5
562
100
AcDbEntity
  8
KONSTRUKTIONSELEMENTE
100
AcDbSpline
 62
7
  6
CONTINUOUS
 70
0
 71
3
 72
9
 73
5
 74
0
 42
0.0000001
 43
0.0000001
 44
0.0000000001
 40
0.0
 40
0.0
 40
0.0
 40
0.0
 40
0.4910906792
 40
1.0
 40
1.0
 40
1.0
 40
1.0
 10
832.6545531695
 20
330.0479293476
 30
0.0
 10
832.6545275025
 20
330.4193649651
 30
0.0
 10
832.76213714
 20
331.1791979702
 30
0.0
 10
833.068963336
 20
331.8806685678
 30
0.0
 10
833.2635172635
 20
332.2127928969
 30
0.0
  0
SPLINE
  5
563
100
AcDbEntity
  8
KONSTRUKTIONSELEMENTE
100
AcDbSpline
 62
7
  6
CONTINUOUS
 70
0
 71
3
 72
11
 73
7
 74
0
 42
0.0000001
 43
0.0000001
 44
0.0000000001
 40
0.0
 40
0.0
 40
0.0
 40
0.0
 40
0.2094829334
 40
0.4446557434
 40
0.7120095299
 40
1.0
 40
1.0
 40
1.0
 40
1.0
 10
796.2350723281
 20
296.1965277282
 30
0.0
 10
796.2350723281
 20
295.9716299883
 30
0.0
 10
796.381132215
 20
295.4886001572
 30
0.0
 10
796.940367769
 20
294.9354781407
 30
0.0
 10
797.7259270654
 20
294.5803085217
 30
0.0
 10
798.3258900726
 20
294.4994714533
 30
0.0
 10
798.6350723281
 20
294.4994714533
 30
0.0
  0
SPLINE
  5
564
100
AcDbEntity
  8
KONSTRUKTIONSELEMENTE
100
AcDbSpline
 62
7
  6
CONTINUOUS
 70
0
 71
3
 72
9
 73
5
 74
0
 42
0.0000001
 43
0.0000001
 44
0.0000000001
 40
0.0
 40
0.0
 40
0.0
 40
0.0
 40
0.4910898138
 40
1.0
 40
1.0
 40
1.0
 40
1.0
 10
750.1675760574
 20
384.5495947961
 30
0.0
 10
750.1675568614
 20
384.1781727188
 30
0.0
 10
750.2751738772
 20
383.4183683115
 30
0.0
 10
750.5819922782
 20
382.7169241198
 30
0.0
 10
750.776539787
 20
382.3848107482
 30
0.0
  0
SPLINE
  5
565
100
AcDbEntity
  8
KONSTRUKTIONSELEMENTE
100
AcDbSpline
 62
7
  6
CONTINUOUS
 70
0
 71
3
 72
11
 73
7
 74
0
 42
0.0000001
 43
0.0000001
 44
0.0000000001
 40
0.0
 40
0.0
 40
0.0
 40
0.0
 40
0.2180723574
 40
0.4659823302
 40
0.7329881953
 40
1.0
 40
1.0
 40
1.0
 40
1.0
 10
858.4440871132
 20
375.1987144414
 30
0.0
 10
858.8695043752
 20
375.9249471342
 30
0.0
 10
860.1860680835
 20
377.2433783798
 30
0.0
 10
862.8066498685
 20
378.4193991415
 30
0.0
 10
865.8333008474
 20
378.8315993448
 30
0.0
 10
867.907593764
 20
378.549852435
 30
0.0
 10
868.8965908322
 20
378.2601819003
 30
0.0
  0
SPLINE
  5
566
100
AcDbEntity
  8
KONSTRUKTIONSELEMENTE
100
AcDbSpline
 62
7
  6
CONTINUOUS
 70
0
 71
3
 72
9
 73
5
 74
0
 42
0.0000001
 43
0.0000001
 44
0.0000000001
 40
0.0
 40
0.0
 40
0.0
 40
0.0
 40
0.2454868499
 40
1.0
 40
1.0
 40
1.0
 40
1.0
 10
771.3263788253
 20
370.6177877761
 30
0.0
 10
771.3263808962
 20
370.6733704104
 30
0.0
 10
771.3108757549
 20
370.8997471743
 30
0.0
 10
771.2300406429
 20
371.1198167704
 30
0.0
 10
771.1436920136
 20
371.2672231011
 30
0.0
  0
SPLINE
  5
567
100
AcDbEntity
  8
KONSTRUKTIONSELEMENTE
100
AcDbSpline
 62
7
  6
CONTINUOUS
 70
0
 71
3
 72
9
 73
5
 74
0
 42
0.0000001
 43
0.0000001
 44
0.0000000001
 40
0.0
 40
0.0
 40
0.0
 40
0.0
 40
0.4654013423
 40
1.0
 40
1.0
 40
1.0
 40
1.0
 10
786.6267676096
 20
321.1846437251
 30
0.0
 10
787.1085908555
 20
320.3621199948
 30
0.0
 10
788.6658298272
 20
318.8988172351
 30
0.0
 10
790.6234591356
 20
318.1662709823
 30
0.0
 10
791.6940641244
 20
317.9364698959
 30
0.0
  0
SPLINE
  5
568
100
AcDbEntity
  8
KONSTRUKTIONSELEMENTE
100
AcDbSpline
 62
7
  6
CONTINUOUS
 70
0
 71
3
 72
12
 73
8
 74
0
 42
0.0000001
 43
0.0000001
 44
0.0000000001
 40
0.0
 40
0.0
 40
0.0
 40
0.0
 40
0.1038893022
 40
0.2127454956
 40
0.450602775
 40
0.7166673289
 40
1.0
 40
1.0
 40
1.0
 40
1.0
 10
799.3792109291
 20
313.1970716741
 30
0.0
 10
799.3279611506
 20
313.469903691
 30
0.0
 10
799.1509163568
 20
314.0171997075
 30
0.0
 10
798.5191363189
 20
315.0527375016
 30
0.0
 10
797.2397974947
 20
316.1405977245
 30
0.0
 10
795.2679533533
 20
316.9431320196
 30
0.0
 10
793.7921687184
 20
317.1268884513
 30
0.0
 10
793.0350723281
 20
317.1268884513
 30
0.0
  0
SPLINE
  5
569
100
AcDbEntity
  8
KONSTRUKTIONSELEMENTE
100
AcDbSpline
 62
7
  6
CONTINUOUS
 70
0
 71
3
 72
9
 73
5
 74
0
 42
0.0000001
 43
0.0000001
 44
0.0000000001
 40
0.0
 40
0.0
 40
0.0
 40
0.0
 40
0.5089312496
 40
1.0
 40
1.0
 40
1.0
 40
1.0
 10
879.7453762206
 20
377.3787468218
 30
0.0
 10
879.9399589807
 20
377.710920371
 30
0.0
 10
880.2468297171
 20
378.4124720978
 30
0.0
 10
880.3543461869
 20
379.1723938147
 30
0.0
 10
880.3543326798
 20
379.5438518844
 30
0.0
  0
SPLINE
  5
56A
100
AcDbEntity
  8
KONSTRUKTIONSELEMENTE
100
AcDbSpline
 62
7
  6
CONTINUOUS
 70
0
 71
3
 72
9
 73
5
 74
0
 42
0.0000001
 43
0.0000001
 44
0.0000000001
 40
0.0
 40
0.0
 40
0.0
 40
0.0
 40
0.5358983849
 40
1.0
 40
1.0
 40
1.0
 40
1.0
 10
877.8582222975
 20
375.6353808146
 30
0.0
 10
878.0540915123
 20
375.5780120498
 30
0.0
 10
878.452445589
 20
375.5715218525
 30
0.0
 10
878.8141325021
 20
375.789014355
 30
0.0
 10
878.9034726694
 20
375.9415275605
 30
0.0
  0
SPLINE
  5
56B
100
AcDbEntity
  8
KONSTRUKTIONSELEMENTE
100
AcDbSpline
 62
7
  6
CONTINUOUS
 70
0
 71
3
 72
8
 73
4
 74
0
 42
0.0000001
 43
0.0000001
 44
0.0000000001
 40
0.0
 40
0.0
 40
0.0
 40
0.0
 40
1.0
 40
1.0
 40
1.0
 40
1.0
 10
752.3072735165
 20
379.7716848184
 30
0.0
 10
752.3598843289
 20
379.6818725438
 30
0.0
 10
752.4222932286
 20
379.5973270963
 30
0.0
 10
752.4913597577
 20
379.5194556843
 30
0.0
  0
SPLINE
  5
56C
100
AcDbEntity
  8
BEZUGSACHSEN
100
AcDbSpline
 62
7
  6
CONTINUOUS
 70
0
 71
3
 72
11
 73
7
 74
0
 42
0.0000001
 43
0.0000001
 44
0.0000000001
 40
0.0
 40
0.0
 40
0.0
 40
0.0
 40
0.2211783145
 40
0.45719802
 40
0.7166427706
 40
1.0
 40
1.0
 40
1.0
 40
1.0
 10
801.2150723281
 20
396.8885333691
 30
0.0
 10
801.2150723281
 20
397.2467873034
 30
0.0
 10
801.3663374225
 20
397.9938347459
 30
0.0
 10
802.0038846043
 20
398.989033757
 30
0.0
 10
802.9817031298
 20
399.8102731884
 30
0.0
 10
803.7817139374
 20
400.1960740548
 30
0.0
 10
804.2133887598
 20
400.3519867811
 30
0.0
  0
SPLINE
  5
56D
100
AcDbEntity
  8
BEZUGSACHSEN
100
AcDbSpline
 62
7
  6
CONTINUOUS
 70
0
 71
3
 72
11
 73
7
 74
0
 42
0.0000001
 43
0.0000001
 44
0.0000000001
 40
0.0
 40
0.0
 40
0.0
 40
0.0
 40
0.2833572294
 40
0.54280198
 40
0.7788216855
 40
1.0
 40
1.0
 40
1.0
 40
1.0
 10
809.2167558964
 20
400.3519867811
 30
0.0
 10
809.6484307188
 20
400.1960740548
 30
0.0
 10
810.4484415264
 20
399.8102731884
 30
0.0
 10
811.4262600519
 20
398.989033757
 30
0.0
 10
812.0638072337
 20
397.9938347459
 30
0.0
 10
812.2150723281
 20
397.2467873034
 30
0.0
 10
812.2150723281
 20
396.8885333691
 30
0.0
  0
SPLINE
  5
56E
100
AcDbEntity
  8
KONSTRUKTIONSELEMENTE
100
AcDbSpline
 62
7
  6
CONTINUOUS
 70
0
 71
3
 72
11
 73
7
 74
0
 42
0.0000001
 43
0.0000001
 44
0.0000000001
 40
0.0
 40
0.0
 40
0.0
 40
0.0
 40
0.2443163756
 40
0.4950600526
 40
0.7487988751
 40
1.0
 40
1.0
 40
1.0
 40
1.0
 10
765.9243391588
 20
377.3809928906
 30
0.0
 10
765.8093942693
 20
377.6327598803
 30
0.0
 10
765.4944262721
 20
378.1090280517
 30
0.0
 10
764.8284034741
 20
378.6541648004
 30
0.0
 10
764.0207339217
 20
378.9772866958
 30
0.0
 10
763.4352838226
 20
379.0045576532
 30
0.0
 10
763.1534633523
 20
378.9651361325
 30
0.0
  0
SPLINE
  5
56F
100
AcDbEntity
  8
KONSTRUKTIONSELEMENTE
100
AcDbSpline
 62
7
  6
CONTINUOUS
 70
0
 71
3
 72
11
 73
7
 74
0
 42
0.0000001
 43
0.0000001
 44
0.0000000001
 40
0.0
 40
0.0
 40
0.0
 40
0.0
 40
0.1752991397
 40
0.4133885093
 40
0.699818416
 40
1.0
 40
1.0
 40
1.0
 40
1.0
 10
765.969812008
 20
379.3883189064
 30
0.0
 10
765.8320693627
 20
379.5180366537
 30
0.0
 10
765.4130785143
 20
379.7144193669
 30
0.0
 10
764.665560291
 20
379.836546226
 30
0.0
 10
763.770334581
 20
379.8149791578
 30
0.0
 10
763.1449975539
 20
379.6948866586
 30
0.0
 10
762.8340608923
 20
379.603815419
 30
0.0
  0
SPLINE
  5
570
100
AcDbEntity
  8
KONSTRUKTIONSELEMENTE
100
AcDbSpline
 62
7
  6
CONTINUOUS
 70
0
 71
3
 72
9
 73
5
 74
0
 42
0.0000001
 43
0.0000001
 44
0.0000000001
 40
0.0
 40
0.0
 40
0.0
 40
0.0
 40
0.2584251542
 40
1.0
 40
1.0
 40
1.0
 40
1.0
 10
759.9303274892
 20
366.1926322633
 30
0.0
 10
759.9007605144
 20
366.2431062465
 30
0.0
 10
759.7979473277
 20
366.4448800325
 30
0.0
 10
759.7476344232
 20
366.6742067624
 30
0.0
 10
759.7476406775
 20
366.8420675883
 30
0.0
  0
SPLINE
  5
571
100
AcDbEntity
  8
KONSTRUKTIONSELEMENTE
100
AcDbSpline
 62
7
  6
CONTINUOUS
 70
0
 71
3
 72
9
 73
5
 74
0
 42
0.0000001
 43
0.0000001
 44
0.0000000001
 40
0.0
 40
0.0
 40
0.0
 40
0.0
 40
0.2586509047
 40
1.0
 40
1.0
 40
1.0
 40
1.0
 10
846.9876744102
 20
321.4578519251
 30
0.0
 10
846.9975388498
 20
321.4746915769
 30
0.0
 10
847.0318326513
 20
321.5419403437
 30
0.0
 10
847.0485742134
 20
321.6183928157
 30
0.0
 10
847.0485707842
 20
321.6743303652
 30
0.0
  0
SPLINE
  5
572
100
AcDbEntity
  8
KONSTRUKTIONSELEMENTE
100
AcDbSpline
 62
7
  6
CONTINUOUS
 70
0
 71
3
 72
11
 73
7
 74
0
 42
0.0000001
 43
0.0000001
 44
0.0000000001
 40
0.0
 40
0.0
 40
0.0
 40
0.0
 40
0.284043621
 40
0.5439179584
 40
0.7796942959
 40
1.0
 40
1.0
 40
1.0
 40
1.0
 10
792.5848935324
 20
317.1268884513
 30
0.0
 10
793.1075020292
 20
316.9510545741
 30
0.0
 10
794.0778465813
 20
316.5075499219
 30
0.0
 10
795.2690008877
 20
315.5433017852
 30
0.0
 10
796.0490851421
 20
314.3614698498
 30
0.0
 10
796.2350723281
 20
313.4680832314
 30
0.0
 10
796.2350723281
 20
313.0404178871
 30
0.0
  0
SPLINE
  5
573
100
AcDbEntity
  8
KONSTRUKTIONSELEMENTE
100
AcDbSpline
 62
7
  6
CONTINUOUS
 70
0
 71
3
 72
12
 73
8
 74
0
 42
0.0000001
 43
0.0000001
 44
0.0000000001
 40
0.0
 40
0.0
 40
0.0
 40
0.0
 40
0.2833326711
 40
0.549397225
 40
0.7872545044
 40
0.8961106978
 40
1.0
 40
1.0
 40
1.0
 40
1.0
 10
820.3950723281
 20
317.1268884513
 30
0.0
 10
819.6379759378
 20
317.1268884513
 30
0.0
 10
818.1621913029
 20
316.9431320196
 30
0.0
 10
816.1903471615
 20
316.1405977245
 30
0.0
 10
814.9110083373
 20
315.0527375016
 30
0.0
 10
814.2792282995
 20
314.0171997075
 30
0.0
 10
814.1021835056
 20
313.469903691
 30
0.0
 10
814.0509337271
 20
313.1970716741
 30
0.0
  0
SPLINE
  5
574
100
AcDbEntity
  8
KONSTRUKTIONSELEMENTE
100
AcDbSpline
 62
7
  6
CONTINUOUS
 70
0
 71
3
 72
12
 73
8
 74
0
 42
0.0000001
 43
0.0000001
 44
0.0000000001
 40
0.0
 40
0.0
 40
0.0
 40
0.0
 40
0.2874378001
 40
0.5543027143
 40
0.7890463209
 40
0.896415877
 40
1.0
 40
1.0
 40
1.0
 40
1.0
 10
823.5950723281
 20
317.1268884513
 30
0.0
 10
822.7706242065
 20
317.1268884513
 30
0.0
 10
821.170779275
 20
316.9100576063
 30
0.0
 10
819.0757044093
 20
315.9681670985
 30
0.0
 10
817.7984316656
 20
314.6903389483
 30
0.0
 10
817.2814242124
 20
313.5066632814
 30
0.0
 10
817.1950723281
 20
312.8985118886
 30
0.0
 10
817.1950723281
 20
312.6014050517
 30
0.0
  0
SPLINE
  5
575
100
AcDbEntity
  8
KONSTRUKTIONSELEMENTE
100
AcDbSpline
 62
7
  6
CONTINUOUS
 70
0
 71
3
 72
11
 73
7
 74
0
 42
0.0000001
 43
0.0000001
 44
0.0000000001
 40
0.0
 40
0.0
 40
0.0
 40
0.0
 40
0.2879904701
 40
0.5553442566
 40
0.7905170666
 40
1.0
 40
1.0
 40
1.0
 40
1.0
 10
814.7950723281
 20
294.4994714533
 30
0.0
 10
815.1042545836
 20
294.4994714533
 30
0.0
 10
815.7042175908
 20
294.5803085217
 30
0.0
 10
816.4897768872
 20
294.9354781407
 30
0.0
 10
817.0490124412
 20
295.4886001572
 30
0.0
 10
817.1950723281
 20
295.9716299883
 30
0.0
 10
817.1950723281
 20
296.1965277282
 30
0.0
  0
SPLINE
  5
576
100
AcDbEntity
  8
BEZUGSACHSEN
100
AcDbSpline
 62
7
  6
CONTINUOUS
 70
0
 71
3
 72
8
 73
4
 74
0
 42
0.0000001
 43
0.0000001
 44
0.0000000001
 40
0.0
 40
0.0
 40
0.0
 40
0.0
 40
1.0
 40
1.0
 40
1.0
 40
1.0
 10
831.6772385194
 20
215.0839789574
 30
0.0
 10
831.6234021249
 20
215.3265870116
 30
0.0
 10
831.5982713128
 20
215.5768042408
 30
0.0
 10
831.598271395
 20
215.825313849
 30
0.0
  0
SPLINE
  5
577
100
AcDbEntity
  8
BEZUGSACHSEN
100
AcDbSpline
 62
7
  6
CONTINUOUS
 70
0
 71
3
 72
11
 73
7
 74
0
 42
0.0000001
 43
0.0000001
 44
0.0000000001
 40
0.0
 40
0.0
 40
0.0
 40
0.0
 40
0.250010631
 40
0.5000175033
 40
0.7500145996
 40
1.0
 40
1.0
 40
1.0
 40
1.0
 10
856.5155036449
 20
222.1157352855
 30
0.0
 10
856.7517430067
 20
222.1733741225
 30
0.0
 10
857.2085825467
 20
222.3687488702
 30
0.0
 10
857.7585988528
 20
222.8676387338
 30
0.0
 10
858.1162216402
 20
223.5185468319
 30
0.0
 10
858.1985302409
 20
224.0088222072
 30
0.0
 10
858.1982328986
 20
224.2519667095
 30
0.0
  0
SPLINE
  5
578
100
AcDbEntity
  8
BEZUGSACHSEN
100
AcDbSpline
 62
7
  6
CONTINUOUS
 70
0
 71
3
 72
11
 73
7
 74
0
 42
0.0000001
 43
0.0000001
 44
0.0000000001
 40
0.0
 40
0.0
 40
0.0
 40
0.0
 40
0.2500346324
 40
0.500053935
 40
0.750042561
 40
1.0
 40
1.0
 40
1.0
 40
1.0
 10
792.810492458
 20
175.3722097737
 30
0.0
 10
793.0972961238
 20
175.37220947
 30
0.0
 10
793.6770075634
 20
175.485085507
 30
0.0
 10
794.4134505522
 20
175.9698842299
 30
0.0
 10
794.910397902
 20
176.6987102576
 30
0.0
 10
795.0275090778
 20
177.2785823648
 30
0.0
 10
795.02750913
 20
177.5652974855
 30
0.0
  0
SPLINE
  5
579
100
AcDbEntity
  8
RUNDUNGEN
100
AcDbSpline
 62
7
  6
CONTINUOUS
 70
0
 71
3
 72
8
 73
4
 74
0
 42
0.0000001
 43
0.0000001
 44
0.0000000001
 40
0.0
 40
0.0
 40
0.0
 40
0.0
 40
1.0
 40
1.0
 40
1.0
 40
1.0
 10
781.7529061368
 20
174.8703240346
 30
0.0
 10
781.8067425313
 20
174.6277159804
 30
0.0
 10
781.8318733434
 20
174.3774987512
 30
0.0
 10
781.8318732612
 20
174.128989143
 30
0.0
  0
SPLINE
  5
57A
100
AcDbEntity
  8
RUNDUNGEN
100
AcDbSpline
 62
7
  6
CONTINUOUS
 70
0
 71
3
 72
11
 73
7
 74
0
 42
0.0000001
 43
0.0000001
 44
0.0000000001
 40
0.0
 40
0.0
 40
0.0
 40
0.0
 40
0.250010631
 40
0.5000175033
 40
0.7500145996
 40
1.0
 40
1.0
 40
1.0
 40
1.0
 10
756.9146410113
 20
167.8385677065
 30
0.0
 10
756.6784016495
 20
167.7809288695
 30
0.0
 10
756.2215621095
 20
167.5855541218
 30
0.0
 10
755.6715458034
 20
167.0866642582
 30
0.0
 10
755.313923016
 20
166.4357561601
 30
0.0
 10
755.2316144153
 20
165.9454807848
 30
0.0
 10
755.2319117576
 20
165.7023362825
 30
0.0
  0
SPLINE
  5
57B
100
AcDbEntity
  8
RUNDUNGEN
100
AcDbSpline
 62
7
  6
CONTINUOUS
 70
0
 71
3
 72
11
 73
7
 74
0
 42
0.0000001
 43
0.0000001
 44
0.0000000001
 40
0.0
 40
0.0
 40
0.0
 40
0.0
 40
0.2500346324
 40
0.500053935
 40
0.750042561
 40
1.0
 40
1.0
 40
1.0
 40
1.0
 10
820.6196521982
 20
214.5820932183
 30
0.0
 10
820.3328485324
 20
214.582093522
 30
0.0
 10
819.7531370928
 20
214.469217485
 30
0.0
 10
819.016694104
 20
213.9844187622
 30
0.0
 10
818.5197467542
 20
213.2555927344
 30
0.0
 10
818.4026355784
 20
212.6757206272
 30
0.0
 10
818.4026355262
 20
212.3890055065
 30
0.0
  0
SPLINE
  5
57C
100
AcDbEntity
  8
BEZUGSACHSEN
100
AcDbSpline
 62
7
  6
CONTINUOUS
 70
0
 71
3
 72
10
 73
6
 74
0
 42
0.0000001
 43
0.0000001
 44
0.0000000001
 40
0.0
 40
0.0
 40
0.0
 40
0.0
 40
0.2263589792
 40
0.4728161749
 40
1.0
 40
1.0
 40
1.0
 40
1.0
 10
852.0326560832
 20
191.1580438137
 30
0.0
 10
852.0326560832
 20
191.4462748649
 30
0.0
 10
852.0191246925
 20
192.0482829942
 30
0.0
 10
851.9750607426
 20
193.3207844161
 30
0.0
 10
851.95285528
 20
194.3058693201
 30
0.0
 10
851.95285528
 20
194.977151496
 30
0.0
  0
SPLINE
  5
57D
100
AcDbEntity
  8
BEZUGSACHSEN
100
AcDbSpline
 62
7
  6
CONTINUOUS
 70
0
 71
3
 72
10
 73
6
 74
0
 42
0.0000001
 43
0.0000001
 44
0.0000000001
 40
0.0
 40
0.0
 40
0.0
 40
0.0
 40
0.2263588718
 40
0.4728161402
 40
1.0
 40
1.0
 40
1.0
 40
1.0
 10
761.397488573
 20
191.1580438137
 30
0.0
 10
761.397488573
 20
191.4462747282
 30
0.0
 10
761.4110199561
 20
192.0482828135
 30
0.0
 10
761.4550839084
 20
193.3207842353
 30
0.0
 10
761.4772893762
 20
194.305869276
 30
0.0
 10
761.4772893762
 20
194.977151496
 30
0.0
  0
SPLINE
  5
57E
100
AcDbEntity
  8
BEZUGSACHSEN
100
AcDbSpline
 62
7
  6
CONTINUOUS
 70
0
 71
3
 72
30
 73
26
 74
0
 42
0.0000001
 43
0.0000001
 44
0.0000000001
 40
0.0
 40
0.0
 40
0.0
 40
0.0
 40
0.0125480428
 40
0.0248977535
 40
0.0388708593
 40
0.0556717905
 40
0.0758742338
 40
0.0996633815
 40
0.1577207518
 40
0.2282833688
 40
0.3087261201
 40
0.3958710984
 40
0.4862231663
 40
0.5761520817
 40
0.6620675849
 40
0.7406367777
 40
0.8091129919
 40
0.8390305357
 40
0.8660099607
 40
0.8902691713
 40
0.912330136
 40
0.9330873334
 40
0.9537623976
 40
0.9756852277
 40
1.0
 40
1.0
 40
1.0
 40
1.0
 10
761.397488573
 20
184.3070938277
 30
0.0
 10
761.397488573
 20
184.4020049736
 30
0.0
 10
761.4265139161
 20
184.5932771117
 30
0.0
 10
761.5860128259
 20
184.8487453772
 30
0.0
 10
761.8454535017
 20
185.053564541
 30
0.0
 10
762.1949247571
 20
185.2206656809
 30
0.0
 10
762.6344524476
 20
185.359076978
 30
0.0
 10
763.38960157
 20
185.5221558871
 30
0.0
 10
764.5361591602
 20
185.6584660049
 30
0.0
 10
766.114540297
 20
185.756572548
 30
0.0
 10
767.9154842051
 20
185.8071328485
 30
0.0
 10
769.8665564846
 20
185.8178394267
 30
0.0
 10
771.8892736675
 20
185.7897503238
 30
0.0
 10
773.9016359844
 20
185.7185775066
 30
0.0
 10
775.8224824807
 20
185.5944587503
 30
0.0
 10
777.5744932584
 20
185.4014966621
 30
0.0
 10
778.8934638928
 20
185.1571999882
 30
0.0
 10
779.8036626306
 20
184.8876040365
 30
0.0
 10
780.3744803227
 20
184.6586178845
 30
0.0
 10
780.8606909715
 20
184.3881736893
 30
0.0
 10
781.2588634178
 20
184.0688052794
 30
0.0
 10
781.5644437134
 20
183.6929421938
 30
0.0
 10
781.7733059787
 20
183.2568313473
 30
0.0
 10
781.8879414098
 20
182.7605599679
 30
0.0
 10
781.9072768948
 20
182.4099934982
 30
0.0
 10
781.9072768948
 20
182.2260809195
 30
0.0
  0
SPLINE
  5
57F
100
AcDbEntity
  8
BEZUGSACHSEN
100
AcDbSpline
 62
7
  6
CONTINUOUS
 70
0
 71
3
 72
30
 73
26
 74
0
 42
0.0000001
 43
0.0000001
 44
0.0000000001
 40
0.0
 40
0.0
 40
0.0
 40
0.0
 40
0.0125480428
 40
0.0248977535
 40
0.0388708593
 40
0.0556717905
 40
0.0758742338
 40
0.0996633815
 40
0.1577207518
 40
0.2282833688
 40
0.3087261201
 40
0.3958710984
 40
0.4862231663
 40
0.5761520817
 40
0.6620675849
 40
0.7406367777
 40
0.8091129919
 40
0.8390305357
 40
0.8660099607
 40
0.8902691713
 40
0.912330136
 40
0.9330873334
 40
0.9537623976
 40
0.9756852277
 40
1.0
 40
1.0
 40
1.0
 40
1.0
 10
852.0326560832
 20
205.6472091643
 30
0.0
 10
852.0326560832
 20
205.5522980184
 30
0.0
 10
852.0036307401
 20
205.3610258803
 30
0.0
 10
851.8441318303
 20
205.1055576148
 30
0.0
 10
851.5846911545
 20
204.900738451
 30
0.0
 10
851.2352198991
 20
204.7336373111
 30
0.0
 10
850.7956922086
 20
204.595226014
 30
0.0
 10
850.0405430862
 20
204.4321471049
 30
0.0
 10
848.8939854961
 20
204.2958369871
 30
0.0
 10
847.3156043592
 20
204.197730444
 30
0.0
 10
845.5146604511
 20
204.1471701435
 30
0.0
 10
843.5635881716
 20
204.1364635653
 30
0.0
 10
841.5408709887
 20
204.1645526682
 30
0.0
 10
839.5285086718
 20
204.2357254854
 30
0.0
 10
837.6076621755
 20
204.3598442417
 30
0.0
 10
835.8556513978
 20
204.5528063299
 30
0.0
 10
834.5366807634
 20
204.7971030038
 30
0.0
 10
833.6264820256
 20
205.0666989555
 30
0.0
 10
833.0556643335
 20
205.2956851075
 30
0.0
 10
832.5694536847
 20
205.5661293027
 30
0.0
 10
832.1712812384
 20
205.8854977126
 30
0.0
 10
831.8657009428
 20
206.2613607982
 30
0.0
 10
831.6568386775
 20
206.6974716447
 30
0.0
 10
831.5422032464
 20
207.1937430241
 30
0.0
 10
831.5228677614
 20
207.5443094938
 30
0.0
 10
831.5228677614
 20
207.7282220725
 30
0.0
  0
SPLINE
  5
580
100
AcDbEntity
  8
BEZUGSACHSEN
100
AcDbSpline
 62
7
  6
CONTINUOUS
 70
0
 71
3
 72
10
 73
6
 74
0
 42
0.0000001
 43
0.0000001
 44
0.0000000001
 40
0.0
 40
0.0
 40
0.0
 40
0.0
 40
0.5271838679
 40
0.773641068
 40
1.0
 40
1.0
 40
1.0
 40
1.0
 10
831.6026685647
 20
194.977151496
 30
0.0
 10
831.6026685647
 20
194.3058692656
 30
0.0
 10
831.5804630959
 20
193.3207843017
 30
0.0
 10
831.5363991502
 20
192.0482828797
 30
0.0
 10
831.5228677614
 20
191.4462748048
 30
0.0
 10
831.5228677614
 20
191.1580438137
 30
0.0
  0
SPLINE
  5
581
100
AcDbEntity
  8
BEZUGSACHSEN
100
AcDbSpline
 62
7
  6
CONTINUOUS
 70
0
 71
3
 72
10
 73
6
 74
0
 42
0.0000001
 43
0.0000001
 44
0.0000000001
 40
0.0
 40
0.0
 40
0.0
 40
0.0
 40
0.5271838375
 40
0.7736410257
 40
1.0
 40
1.0
 40
1.0
 40
1.0
 10
851.95285528
 20
194.977151496
 30
0.0
 10
851.95285528
 20
195.6484336877
 30
0.0
 10
851.9750607447
 20
196.6335185978
 30
0.0
 10
852.0191246918
 20
197.9060200198
 30
0.0
 10
852.0326560832
 20
198.5080281333
 30
0.0
 10
852.0326560832
 20
198.7962591783
 30
0.0
  0
SPLINE
  5
582
100
AcDbEntity
  8
BEZUGSACHSEN
100
AcDbSpline
 62
7
  6
CONTINUOUS
 70
0
 71
3
 72
10
 73
6
 74
0
 42
0.0000001
 43
0.0000001
 44
0.0000000001
 40
0.0
 40
0.0
 40
0.0
 40
0.0
 40
0.2263589266
 40
0.4728161194
 40
1.0
 40
1.0
 40
1.0
 40
1.0
 10
831.5228677614
 20
198.7962591783
 30
0.0
 10
831.5228677614
 20
198.508028194
 30
0.0
 10
831.5363991508
 20
197.9060201354
 30
0.0
 10
831.5804630938
 20
196.6335187133
 30
0.0
 10
831.6026685647
 20
195.6484337426
 30
0.0
 10
831.6026685647
 20
194.977151496
 30
0.0
  0
SPLINE
  5
583
100
AcDbEntity
  8
BEZUGSACHSEN
100
AcDbSpline
 62
7
  6
CONTINUOUS
 70
0
 71
3
 72
10
 73
6
 74
0
 42
0.0000001
 43
0.0000001
 44
0.0000000001
 40
0.0
 40
0.0
 40
0.0
 40
0.0
 40
0.5271839041
 40
0.773641147
 40
1.0
 40
1.0
 40
1.0
 40
1.0
 10
761.4772893762
 20
194.977151496
 30
0.0
 10
761.4772893762
 20
195.6484337724
 30
0.0
 10
761.4550839003
 20
196.6335188368
 30
0.0
 10
761.4110199594
 20
197.906020259
 30
0.0
 10
761.397488573
 20
198.5080282878
 30
0.0
 10
761.397488573
 20
198.7962591783
 30
0.0
  0
SPLINE
  5
584
100
AcDbEntity
  8
BEZUGSACHSEN
100
AcDbSpline
 62
7
  6
CONTINUOUS
 70
0
 71
3
 72
10
 73
6
 74
0
 42
0.0000001
 43
0.0000001
 44
0.0000000001
 40
0.0
 40
0.0
 40
0.0
 40
0.0
 40
0.2263588699
 40
0.4728161101
 40
1.0
 40
1.0
 40
1.0
 40
1.0
 10
781.9072768948
 20
198.7962591783
 30
0.0
 10
781.9072768948
 20
198.5080282663
 30
0.0
 10
781.8937455077
 20
197.9060202194
 30
0.0
 10
781.8496815652
 20
196.6335187973
 30
0.0
 10
781.8274760915
 20
195.6484337544
 30
0.0
 10
781.8274760915
 20
194.977151496
 30
0.0
  0
SPLINE
  5
585
100
AcDbEntity
  8
BEZUGSACHSEN
100
AcDbSpline
 62
7
  6
CONTINUOUS
 70
0
 71
3
 72
10
 73
6
 74
0
 42
0.0000001
 43
0.0000001
 44
0.0000000001
 40
0.0
 40
0.0
 40
0.0
 40
0.0
 40
0.5271838464
 40
0.7736411122
 40
1.0
 40
1.0
 40
1.0
 40
1.0
 10
781.8274760915
 20
194.977151496
 30
0.0
 10
781.8274760915
 20
194.305869293
 30
0.0
 10
781.8496815573
 20
193.3207842727
 30
0.0
 10
781.8937455111
 20
192.0482828509
 30
0.0
 10
781.9072768948
 20
191.4462747485
 30
0.0
 10
781.9072768948
 20
191.1580438137
 30
0.0
  0
ELLIPSE
  5
586
100
AcDbEntity
  8
KONSTRUKTIONSELEMENTE
100
AcDbEllipse
 62
7
  6
CONTINUOUS
 10
440.8577663695
 20
434.4146541906
 30
0.0
 11
15.0
 21
-0.0
 31
0.0
 40
0.9791658496
 41
0.2362336651
 42
0.2950421164
  0
ELLIPSE
  5
587
100
AcDbEntity
  8
KONSTRUKTIONSELEMENTE
100
AcDbEllipse
 62
7
  6
CONTINUOUS
 10
440.8577663695
 20
430.1437999087
 30
0.0
 11
0.0
 21
29.3750595301
 31
0.0
 40
0.510637263
 41
-1.2757542104
 42
-1.2459650002
  0
ELLIPSE
  5
588
100
AcDbEntity
  8
KONSTRUKTIONSELEMENTE
100
AcDbEllipse
 62
7
  6
CONTINUOUS
 10
440.8577663695
 20
416.081351802
 30
0.0
 11
-0.0
 21
73.4373966977
 31
0.0
 40
0.2042556065
 41
-1.2459650002
 42
-1.2309594173
  0
ELLIPSE
  5
589
100
AcDbEntity
  8
KONSTRUKTIONSELEMENTE
100
AcDbEllipse
 62
7
  6
CONTINUOUS
 10
440.8577663695
 20
466.9146722955
 30
0.0
 11
0.0
 21
73.4375647828
 31
0.0
 40
0.204255139
 41
-1.9106332362
 42
-1.8956276534
  0
ELLIPSE
  5
58A
100
AcDbEntity
  8
KONSTRUKTIONSELEMENTE
100
AcDbEllipse
 62
7
  6
CONTINUOUS
 10
440.8577663695
 20
452.8521705447
 30
0.0
 11
-0.0
 21
29.3750595301
 31
0.0
 40
0.510637263
 41
-1.8956276534
 42
-1.8658384432
  0
ELLIPSE
  5
58B
100
AcDbEntity
  8
KONSTRUKTIONSELEMENTE
100
AcDbEllipse
 62
7
  6
CONTINUOUS
 10
440.8577663695
 20
448.5813040438
 30
0.0
 11
15.0
 21
0.0
 31
0.0
 40
0.9791630482
 41
-0.2950421164
 42
-0.2362336651
  0
ELLIPSE
  5
58C
100
AcDbEntity
  8
KONSTRUKTIONSELEMENTE
100
AcDbEllipse
 62
7
  6
CONTINUOUS
 10
440.8577663695
 20
445.8313215499
 30
0.0
 11
15.0
 21
0.0
 31
0.0
 40
0.195834741
 41
-0.2362336651
 42
-0.1638527432
  0
ELLIPSE
  5
58D
100
AcDbEntity
  8
KONSTRUKTIONSELEMENTE
100
AcDbEllipse
 62
7
  6
CONTINUOUS
 10
440.8577663695
 20
427.826112167
 30
0.0
 11
15.0
 21
0.0
 31
0.0
 40
0.244790762
 41
0.1782473677
 42
0.2362336651
  0
ELLIPSE
  5
58E
100
AcDbEntity
  8
KONSTRUKTIONSELEMENTE
100
AcDbEllipse
 62
7
  6
CONTINUOUS
 10
440.8577663695
 20
425.2479768945
 30
0.0
 11
15.0
 21
-0.0
 31
0.0
 40
0.979168651
 41
0.2362336651
 42
0.2950421164
  0
ELLIPSE
  5
58F
100
AcDbEntity
  8
KONSTRUKTIONSELEMENTE
100
AcDbEllipse
 62
7
  6
CONTINUOUS
 10
440.8577663695
 20
420.9771592694
 30
0.0
 11
0.0
 21
29.3749754876
 31
0.0
 40
0.510638724
 41
-1.2757542104
 42
-1.2459650002
  0
ELLIPSE
  5
590
100
AcDbEntity
  8
KONSTRUKTIONSELEMENTE
100
AcDbEllipse
 62
7
  6
CONTINUOUS
 10
440.8577663695
 20
411.6021670429
 30
0.0
 11
0.0
 21
58.7499509752
 31
0.0
 40
0.255319362
 41
-1.2459650002
 42
-1.2309594173
  0
ELLIPSE
  5
591
100
AcDbEntity
  8
KONSTRUKTIONSELEMENTE
100
AcDbEllipse
 62
7
  6
CONTINUOUS
 10
440.8577663695
 20
456.7063397569
 30
0.0
 11
0.0
 21
73.4375647828
 31
0.0
 40
0.204255139
 41
-1.9106332362
 42
-1.8956276534
  0
ELLIPSE
  5
592
100
AcDbEntity
  8
KONSTRUKTIONSELEMENTE
100
AcDbEllipse
 62
7
  6
CONTINUOUS
 10
440.8577663695
 20
439.5188137751
 30
0.0
 11
-0.0
 21
19.5833169917
 31
0.0
 40
0.765958086
 41
-1.8956276534
 42
-1.8510461683
  0
ELLIPSE
  5
593
100
AcDbEntity
  8
KONSTRUKTIONSELEMENTE
100
AcDbEllipse
 62
7
  6
CONTINUOUS
 10
440.8577663695
 20
437.1490269337
 30
0.0
 11
15.0
 21
0.0
 31
0.0
 40
0.7343750875
 41
-0.2802498415
 42
-0.2216690803
  0
ELLIPSE
  5
594
100
AcDbEntity
  8
KONSTRUKTIONSELEMENTE
100
AcDbEllipse
 62
7
  6
CONTINUOUS
 10
440.8577663695
 20
406.3988994059
 30
0.0
 11
15.0
 21
0.0
 31
0.0
 40
0.334349582
 41
-0.3398369095
 42
0.0000224353
  0
ELLIPSE
  5
595
100
AcDbEntity
  8
KONSTRUKTIONSELEMENTE
100
AcDbEllipse
 62
7
  6
CONTINUOUS
 10
440.8577663695
 20
435.8035364733
 30
0.0
 11
15.0
 21
0.0
 31
0.0
 40
0.3263876827
 41
-0.2216690803
 42
-0.1782473677
  0
ELLIPSE
  5
596
100
AcDbEntity
  8
KONSTRUKTIONSELEMENTE
100
AcDbEllipse
 62
7
  6
CONTINUOUS
 10
440.8577663695
 20
413.164651075
 30
0.0
 11
15.0
 21
0.0
 31
0.0
 40
0.1958336205
 41
0.1065846569
 42
0.1782473677
  0
ELLIPSE
  5
597
100
AcDbEntity
  8
KONSTRUKTIONSELEMENTE
100
AcDbEllipse
 62
7
  6
CONTINUOUS
 10
440.8577663695
 20
412.3834028433
 30
0.0
 11
15.0
 21
0.0
 31
0.0
 40
0.4895829248
 41
0.1782473677
 42
0.2362336651
  0
ELLIPSE
  5
598
100
AcDbEntity
  8
KONSTRUKTIONSELEMENTE
100
AcDbEllipse
 62
7
  6
CONTINUOUS
 10
440.8577663695
 20
410.6646492732
 30
0.0
 11
15.0
 21
0.0
 31
0.0
 40
0.9791672503
 41
0.2362336651
 42
0.2950421164
  0
ELLIPSE
  5
599
100
AcDbEntity
  8
KONSTRUKTIONSELEMENTE
100
AcDbEllipse
 62
7
  6
CONTINUOUS
 10
440.8577663695
 20
406.3938255387
 30
0.0
 11
0.0
 21
29.3749754876
 31
0.0
 40
0.510638724
 41
-1.2757542104
 42
-1.2459650002
  0
ELLIPSE
  5
59A
100
AcDbEntity
  8
KONSTRUKTIONSELEMENTE
100
AcDbEllipse
 62
7
  6
CONTINUOUS
 10
440.8577663695
 20
392.3312969658
 30
0.0
 11
-0.0
 21
73.4375647828
 31
0.0
 40
0.204255139
 41
-1.2459650002
 42
-1.2309594173
  0
ELLIPSE
  5
59B
100
AcDbEntity
  8
KONSTRUKTIONSELEMENTE
100
AcDbEllipse
 62
7
  6
CONTINUOUS
 10
440.8577663695
 20
443.1646454734
 30
0.0
 11
0.0
 21
73.4374807402
 31
0.0
 40
0.2042553727
 41
-1.9106332362
 42
-1.8956276534
  0
ELLIPSE
  5
59C
100
AcDbEntity
  8
KONSTRUKTIONSELEMENTE
100
AcDbEllipse
 62
7
  6
CONTINUOUS
 10
440.8577663695
 20
429.1021571336
 30
0.0
 11
-0.0
 21
29.3750175089
 31
0.0
 40
0.5106379935
 41
-1.8956276534
 42
-1.8658384432
  0
ELLIPSE
  5
59D
100
AcDbEntity
  8
KONSTRUKTIONSELEMENTE
100
AcDbEllipse
 62
7
  6
CONTINUOUS
 10
440.8577663695
 20
424.8313150707
 30
0.0
 11
15.0
 21
0.0
 31
0.0
 40
0.9791658496
 41
-0.2950421164
 42
-0.2362336651
  0
ELLIPSE
  5
59E
100
AcDbEntity
  8
KONSTRUKTIONSELEMENTE
100
AcDbEllipse
 62
7
  6
CONTINUOUS
 10
440.8577663695
 20
422.0813188081
 30
0.0
 11
15.0
 21
-0.0
 31
0.0
 40
0.1958336205
 41
-0.2362336651
 42
-0.1638527432
  0
ELLIPSE
  5
59F
100
AcDbEntity
  8
KONSTRUKTIONSELEMENTE
100
AcDbEllipse
 62
7
  6
CONTINUOUS
 10
440.8577663695
 20
408.8887367207
 30
0.0
 11
15.0
 21
-0.0
 31
0.0
 40
0.334349582
 41
-0.0000224353
 42
0.3398369095
  0
ELLIPSE
  5
5A0
100
AcDbEntity
  8
KONSTRUKTIONSELEMENTE
100
AcDbEllipse
 62
7
  6
CONTINUOUS
 10
440.8577663695
 20
436.9146528632
 30
0.0
 11
15.0
 21
-0.0
 31
0.0
 40
0.1958324999
 41
0.1065846569
 42
0.1782473677
  0
ELLIPSE
  5
5A1
100
AcDbEntity
  8
KONSTRUKTIONSELEMENTE
100
AcDbEllipse
 62
7
  6
CONTINUOUS
 10
440.8577663695
 20
436.1333979259
 30
0.0
 11
15.0
 21
0.0
 31
0.0
 40
0.4895843255
 41
0.1782473677
 42
0.2362336651
  0
ELLIPSE
  5
5A2
100
AcDbEntity
  8
0
100
AcDbEllipse
 62
7
  6
CONTINUOUS
 10
741.8679474871
 20
194.977151496
 30
0.0
 11
0.0
 21
6.5691645537
 31
0.0
 40
0.1051042353
 41
-3.1415926536
 42
-0.0
  0
ELLIPSE
  5
5A3
100
AcDbEntity
  8
0
100
AcDbEllipse
 62
7
  6
CONTINUOUS
 10
795.02750913
 20
194.977151496
 30
0.0
 11
0.0
 21
6.35
 31
0.0
 40
0.1583844403
 41
-0.0
 42
3.1415926536
  0
ELLIPSE
  5
5A4
100
AcDbEntity
  8
KONSTRUKTIONSELEMENTE
100
AcDbEllipse
 62
7
  6
CONTINUOUS
 10
754.5245843945
 20
376.6027435202
 30
0.0
 11
2.3997778992
 21
0.651132626
 31
0.0
 40
0.0501436764
 41
-2.5950501555
 42
-1.191701908
  0
ELLIPSE
  5
5A5
100
AcDbEntity
  8
KONSTRUKTIONSELEMENTE
100
AcDbEllipse
 62
7
  6
CONTINUOUS
 10
763.3675646679
 20
376.5717471623
 30
0.0
 11
2.2997891192
 21
-1.5015656282
 31
0.0
 40
0.7635480741
 41
7.2755602941
 42
8.5460319747
  0
ELLIPSE
  5
5A6
100
AcDbEntity
  8
KONSTRUKTIONSELEMENTE
100
AcDbEllipse
 62
7
  6
CONTINUOUS
 10
754.5245843945
 20
380.7039628511
 30
0.0
 11
-0.888190407
 21
3.2734647654
 31
0.0
 40
0.6811132936
 41
-4.5313362383
 42
-3.1279879907
  0
ELLIPSE
  5
5A7
100
AcDbEntity
  8
KONSTRUKTIONSELEMENTE
100
AcDbEllipse
 62
7
  6
CONTINUOUS
 10
763.3675646679
 20
380.1072810682
 30
0.0
 11
2.2997891192
 21
-1.5015656282
 31
0.0
 40
0.7635480741
 41
0.9923749869
 42
2.5631713137
  0
ELLIPSE
  5
5A8
100
AcDbEntity
  8
BEZUGSACHSEN
100
AcDbEllipse
 62
7
  6
CONTINUOUS
 10
741.8679474871
 20
194.977151496
 30
0.0
 11
0.0
 21
6.5691645537
 31
0.0
 40
0.1051042353
 41
-3.1415926536
 42
-0.0
  0
ELLIPSE
  5
5A9
100
AcDbEntity
  8
0
100
AcDbEllipse
 62
7
  6
CONTINUOUS
 10
871.5621971691
 20
194.977151496
 30
0.0
 11
0.0
 21
6.5691645537
 31
0.0
 40
0.1051042353
 41
-0.0
 42
3.1415926536
  0
ELLIPSE
  5
5AA
100
AcDbEntity
  8
BEZUGSACHSEN
100
AcDbEllipse
 62
7
  6
CONTINUOUS
 10
795.02750913
 20
194.977151496
 30
0.0
 11
0.0
 21
6.35
 31
0.0
 40
0.1583844403
 41
6.2831853072
 42
9.4247779608
  0
ELLIPSE
  5
5AB
100
AcDbEntity
  8
0
100
AcDbEllipse
 62
7
  6
CONTINUOUS
 10
818.4026355262
 20
194.977151496
 30
0.0
 11
-0.0
 21
6.35
 31
0.0
 40
0.1583844403
 41
-3.1415926536
 42
0.0
  0
ENDSEC
  0
SECTION
  2
OBJECTS
  0
DICTIONARY
  5
C
100
AcDbDictionary
280
0
281
1
  3
ACAD_GROUP
350
D
  3
ACAD_MLINESTYLE
350
17
  3
ACAD_LAYOUT
350
1A
  3
ACAD_PLOTSETTINGS
350
19
  3
ACAD_PLOTSTYLENAME
350
E
  0
DICTIONARY
  5
D
102
{ACAD_REACTORS
330
C
102
}
100
AcDbDictionary
280
0
281
1
  0
ACDBDICTIONARYWDFLT
  5
E
102
{ACAD_REACTORS
330
C
102
}
100
AcDbDictionary
281
1
  3
Normal
350
F
100
AcDbDictionaryWithDefault
340
F
  0
DICTIONARY
  5
17
102
{ACAD_REACTORS
330
C
102
}
100
AcDbDictionary
280
0
281
1
  3
Standard
350
18
  0
DICTIONARY
  5
19
102
{ACAD_REACTORS
330
C
102
}
100
AcDbDictionary
281
1
  0
DICTIONARY
  5
1A
102
{ACAD_REACTORS
330
C
102
}
100
AcDbDictionary
281
1
  3
Model
350
5AC
  3
Layout1
350
5AD
  0
ACDBPLACEHOLDER
  5
F
102
{ACAD_REACTORS
330
E
102
}
  0
MLINESTYLE
  5
18
102
{ACAD_REACTORS
330
17
102
}
100
AcDbMlineStyle
  2
STANDARD
 70
0
  3

 62
256
 51
90.0
 52
90.0
 71
2
 49
0.5
 62
256
  6
BYLAYER
 49
-0.5
 62
256
  6
BYLAYER
  0
LAYOUT
  5
5AC
102
{ACAD_REACTORS
330
1A
102
}
100
AcDbPlotSettings
  1

  2
none_device
  4
ISO_A0_(1189.00_x_841.00_MM)
  6

 40
0.0
 41
0.0
 42
0.0
 43
0.0
 44
1189.0
 45
841.0
 46
0.0
 47
0.0
 48
0.0
 49
0.0
140
0.0
141
0.0
142
1.0
143
1.0
 70
1024
 72
1
 73
0
 74
0
  7

 75
0
147
1.0
148
0.0
149
0.0
100
AcDbLayout
  1
Model
 70
0
 71
0
 10
0.0
 20
0.0
 11
1189.0
 21
841.0
 12
0.0
 22
0.0
 32
0.0
 14
0.0
 24
0.0
 34
0.0
 15
0.0
 25
0.0
 35
0.0
146
0.0
 13
0.0
 23
0.0
 33
0.0
 16
1.0
 26
0.0
 36
0.0
 17
0.0
 27
1.0
 37
0.0
 76
0
330
20E
345
0
346
0
  0
LAYOUT
  5
5AD
102
{ACAD_REACTORS
330
1A
102
}
100
AcDbPlotSettings
  1

  2
none_device
  4
ISO_A0_(1189.00_x_841.00_MM)
  6

 40
0.0
 41
0.0
 42
0.0
 43
0.0
 44
1189.0
 45
841.0
 46
0.0
 47
0.0
 48
0.0
 49
0.0
140
0.0
141
0.0
142
1.0
143
1.0
 70
0
 72
1
 73
0
 74
0
  7

 75
0
147
1.0
148
0.0
149
0.0
100
AcDbLayout
  1
Layout1
 70
0
 71
1
 10
0.0
 20
0.0
 11
1189.0
 21
841.0
 12
0.0
 22
0.0
 32
0.0
 14
0.0
 24
0.0
 34
0.0
 15
0.0
 25
0.0
 35
0.0
146
0.0
 13
0.0
 23
0.0
 33
0.0
 16
1.0
 26
0.0
 36
0.0
 17
0.0
 27
1.0
 37
0.0
 76
0
330
20F
345
0
346
0
  0
ENDSEC
  0
EOF
