999
DXF file: 001-m34927-p-4.dxf
999
Pro/ENGINEER 2011490 by Parametric Technology Corporation
  0
SECTION
  2
HEADER
  9
$ACADVER
  1
AC1015
  9
$DWGCODEPAGE
  3
ANSI_1252
  9
$EXTMAX
 10
841.0
 20
594.0
 30
0.0
  9
$EXTMIN
 10
0.0
 20
0.0
 30
0.0
  9
$LIMMIN
 10
0.0
 20
0.0
  9
$LIMMAX
 10
841.0
 20
594.0
  9
$VIEWCTR
 10
420.5
 20
297.0
  9
$VIEWSIZE
 40
594.0
  9
$CLAYER
  8
0
  9
$LTSCALE
 40
46.255
  9
$CELTYPE
  6
BYLAYER
  9
$DIMSCALE
 40
1.0
  9
$DIMASZ
 40
3.5
  9
$DIMEXO
 40
5.25625
  9
$DIMDLI
 40
31.958
  9
$DIMEXE
 40
15.138
  9
$DIMCEN
 40
7.569
  9
$DIMLFAC
 40
1.0
  9
$DIMBLK
  1
_FILLED
  9
$DIMTXT
 40
3.5
  9
$DIMTOL
 70
1
  9
$DIMLIM
 70
0
  9
$DIMTFAC
 40
1.0
  9
$DIMTP
 40
0.005
  9
$DIMTM
 40
0.005
  9
$PDMODE
 70
3
  9
$PDSIZE
 40
0.3125
  9
$HANDSEED
  5
5A8
  9
$TILEMODE
 70
1
  9
$MEASUREMENT
 70
1
  9
$INSUNITS
 70
4
  0
ENDSEC
  0
SECTION
  2
CLASSES
  0
CLASS
  1
ACDBDICTIONARYWDFLT
  2
AcDbDictionaryWithDefault
  3
AutoCAD 2000
 90
0
280
0
281
0
  0
CLASS
  1
ACDBPLACEHOLDER
  2
AcDbPlaceHolder
  3
AutoCAD 2000
 90
0
280
0
281
0
  0
CLASS
  1
LAYOUT
  2
AcDbLayout
  3
AutoCAD 2000
 90
0
280
0
281
0
  0
ENDSEC
  0
SECTION
  2
TABLES
  0
TABLE
  2
VPORT
  5
8
100
AcDbSymbolTable
 70
2
  0
VPORT
  5
1F4
100
AcDbSymbolTableRecord
100
AcDbViewportTableRecord
  2
*ACTIVE
 70
0
 10
0.0
 20
0.0
 11
1.0
 21
1.0
 12
420.5
 22
297.0
 13
0.0
 23
0.0
 14
1.0
 24
1.0
 15
0.0
 25
0.0
 16
0.0
 26
0.0
 36
1.0
 17
0.0
 27
0.0
 37
0.0
 40
594.0
 41
1.4158249158
 42
50.0
 43
0.0
 44
0.0
 50
0.0
 51
0.0
 71
0
 72
100
 73
1
 74
1
 75
0
 76
0
 77
0
 78
0
  0
ENDTAB
  0
TABLE
  2
LTYPE
  5
5
100
AcDbSymbolTable
 70
6
  0
LTYPE
  5
14
100
AcDbSymbolTableRecord
100
AcDbLinetypeTableRecord
  2
BYBLOCK
 70
0
  3

 72
65
 73
0
 40
0.0
  0
LTYPE
  5
15
100
AcDbSymbolTableRecord
100
AcDbLinetypeTableRecord
  2
BYLAYER
 70
0
  3

 72
65
 73
0
 40
0.0
  0
LTYPE
  5
16
100
AcDbSymbolTableRecord
100
AcDbLinetypeTableRecord
  2
CONTINUOUS
 70
64
  3
Solid line
 72
65
 73
0
 40
0.0
  0
LTYPE
  5
1F5
100
AcDbSymbolTableRecord
100
AcDbLinetypeTableRecord
  2
CENTER
 70
64
  3
____ _ ____ _ ____ _ ____ _ ____ _ ____ _ ____
 72
65
 73
4
 40
0.6
 49
0.375
 74
0
 49
-0.075
 74
0
 49
0.075
 74
0
 49
-0.075
 74
0
  0
LTYPE
  5
1F6
100
AcDbSymbolTableRecord
100
AcDbLinetypeTableRecord
  2
HIDDEN
 70
64
  3
- - - - - - - - - - - - - - - - - - - -
 72
65
 73
2
 40
0.2
 49
0.1
 74
0
 49
-0.1
 74
0
  0
LTYPE
  5
1F7
100
AcDbSymbolTableRecord
100
AcDbLinetypeTableRecord
  2
PHANTOM
 70
64
  3
_____ _ _ _____ _ _ _____ _ _ _____
 72
65
 73
6
 40
0.8
 49
0.45
 74
0
 49
-0.05
 74
0
 49
0.1
 74
0
 49
-0.05
 74
0
 49
0.1
 74
0
 49
-0.05
 74
0
  0
LTYPE
  5
1F8
100
AcDbSymbolTableRecord
100
AcDbLinetypeTableRecord
  2
DOT
 70
64
  3
. . . . . . . . . . . . . . . . . . . .
 72
65
 73
2
 40
0.2
 49
0.1
 74
0
 49
-0.1
 74
0
  0
LTYPE
  5
1F9
100
AcDbSymbolTableRecord
100
AcDbLinetypeTableRecord
  2
DASHED
 70
64
  3
- - - - - - - - - - - - - - - - - - - -
 72
65
 73
2
 40
0.2
 49
0.1
 74
0
 49
-0.1
 74
0
  0
ENDTAB
  0
TABLE
  2
LAYER
  5
2
100
AcDbSymbolTable
 70
36
  0
LAYER
  5
10
100
AcDbSymbolTableRecord
100
AcDbLayerTableRecord
  2
0
 70
0
 62
7
  6
CONTINUOUS
370
-3
390
F
  0
LAYER
  5
1FA
100
AcDbSymbolTableRecord
100
AcDbLayerTableRecord
  2
DEFAULT_1
 70
0
 62
7
  6
CENTER
370
-3
390
F
  0
LAYER
  5
1FB
100
AcDbSymbolTableRecord
100
AcDbLayerTableRecord
  2
DEFAULT_2
 70
0
 62
8
  6
HIDDEN
370
-3
390
F
  0
LAYER
  5
1FC
100
AcDbSymbolTableRecord
100
AcDbLayerTableRecord
  2
DEFAULT_3
 70
0
 62
7
  6
PHANTOM
370
-3
390
F
  0
LAYER
  5
1FD
100
AcDbSymbolTableRecord
100
AcDbLayerTableRecord
  2
AUSFORMSCHRAEGEN
 70
0
 62
7
  6
CONTINUOUS
370
-3
390
F
  0
LAYER
  5
1FE
100
AcDbSymbolTableRecord
100
AcDbLayerTableRecord
  2
BEZUGSACHSEN
 70
0
 62
7
  6
CONTINUOUS
370
-3
390
F
  0
LAYER
  5
1FF
100
AcDbSymbolTableRecord
100
AcDbLayerTableRecord
  2
BEZUGSEBENEN
 70
0
 62
7
  6
CONTINUOUS
370
-3
390
F
  0
LAYER
  5
200
100
AcDbSymbolTableRecord
100
AcDbLayerTableRecord
  2
BG_STARTBEZUEGE
 70
0
 62
7
  6
CONTINUOUS
370
-3
390
F
  0
LAYER
  5
201
100
AcDbSymbolTableRecord
100
AcDbLayerTableRecord
  2
BOHRUNGEN
 70
0
 62
7
  6
CONTINUOUS
370
-3
390
F
  0
LAYER
  5
202
100
AcDbSymbolTableRecord
100
AcDbLayerTableRecord
  2
FASEN
 70
0
 62
7
  6
CONTINUOUS
370
-3
390
F
  0
LAYER
  5
203
100
AcDbSymbolTableRecord
100
AcDbLayerTableRecord
  2
HILFEN
 70
0
 62
7
  6
CONTINUOUS
370
-3
390
F
  0
LAYER
  5
204
100
AcDbSymbolTableRecord
100
AcDbLayerTableRecord
  2
KONSTRUKTIONSELEMENTE
 70
0
 62
7
  6
CONTINUOUS
370
-3
390
F
  0
LAYER
  5
205
100
AcDbSymbolTableRecord
100
AcDbLayerTableRecord
  2
KURVEN
 70
0
 62
7
  6
CONTINUOUS
370
-3
390
F
  0
LAYER
  5
206
100
AcDbSymbolTableRecord
100
AcDbLayerTableRecord
  2
NORM
 70
0
 62
7
  6
CONTINUOUS
370
-3
390
F
  0
LAYER
  5
207
100
AcDbSymbolTableRecord
100
AcDbLayerTableRecord
  2
PLATZIERUNG
 70
0
 62
7
  6
CONTINUOUS
370
-3
390
F
  0
LAYER
  5
208
100
AcDbSymbolTableRecord
100
AcDbLayerTableRecord
  2
RUNDUNGEN
 70
0
 62
7
  6
CONTINUOUS
370
-3
390
F
  0
LAYER
  5
209
100
AcDbSymbolTableRecord
100
AcDbLayerTableRecord
  2
TEIL_STARTBEZUEGE
 70
0
 62
7
  6
CONTINUOUS
370
-3
390
F
  0
LAYER
  5
20A
100
AcDbSymbolTableRecord
100
AcDbLayerTableRecord
  2
T_STARTBEZUEGE
 70
0
 62
7
  6
CONTINUOUS
370
-3
390
F
  0
LAYER
  5
20B
100
AcDbSymbolTableRecord
100
AcDbLayerTableRecord
  2
ZEICHNUNGSBEMASSUNGEN
 70
0
 62
7
  6
CONTINUOUS
370
-3
390
F
  0
ENDTAB
  0
TABLE
  2
STYLE
  5
3
100
AcDbSymbolTable
 70
1
  0
STYLE
  5
11
100
AcDbSymbolTableRecord
100
AcDbTextStyleTableRecord
  2
STANDARD
 70
0
 40
0.0
 41
0.7
 50
0.0
 71
0
 42
0.2
  3
txt
  4

  0
STYLE
  5
20C
100
AcDbSymbolTableRecord
100
AcDbTextStyleTableRecord
  2
TEXTSTYLE_1
 70
0
 40
0.0
 41
0.8
 50
0.0
 71
0
 42
0.2
  3
gdt
  4

  0
ENDTAB
  0
TABLE
  2
VIEW
  5
6
100
AcDbSymbolTable
 70
0
  0
ENDTAB
  0
TABLE
  2
UCS
  5
7
100
AcDbSymbolTable
 70
0
  0
ENDTAB
  0
TABLE
  2
APPID
  5
9
100
AcDbSymbolTable
 70
1
  0
APPID
  5
20D
100
AcDbSymbolTableRecord
100
AcDbRegAppTableRecord
  2
ACAD
 70
0
  0
ENDTAB
  0
TABLE
  2
BLOCK_RECORD
  5
1
100
AcDbSymbolTable
 70
0
  0
BLOCK_RECORD
  5
20E
100
AcDbSymbolTableRecord
100
AcDbBlockTableRecord
  2
*Model_Space
  0
BLOCK_RECORD
  5
20F
100
AcDbSymbolTableRecord
100
AcDbBlockTableRecord
  2
*Paper_Space
  0
ENDTAB
  0
TABLE
  2
DIMSTYLE
  5
A
100
AcDbSymbolTable
 70
1
100
AcDbDimStyleTable
 71
0
  0
DIMSTYLE
105
210
100
AcDbSymbolTableRecord
100
AcDbDimStyleTableRecord
  2
STANDARD
 70
0
  3

  4

 40
1.0
 41
3.5
 42
0.0625
 43
0.38
 44
0.18
 45
0.0
 46
0.0
 47
0.005
 48
0.005
140
3.5
141
0.09
142
0.0
143
25.4
144
1.0
145
0.0
146
1.0
147
0.09
 71
1.0
 72
0.0
 73
0
 74
0
 75
0
 76
0
 77
1
 78
8
170
0
171
2
172
0
173
0
174
0
175
0
176
0
177
0
178
5
270
2
271
3
272
3
273
2
274
2
275
0
280
0
281
0
282
0
283
1
284
8
285
0
286
0
287
3
288
0
340
11
  0
ENDTAB
  0
ENDSEC
  0
SECTION
  2
BLOCKS
  0
BLOCK
  5
20
100
AcDbEntity
  8
0
100
AcDbBlockBegin
  2
*Model_Space
 70
0
 10
0.0
 20
0.0
 30
0.0
  3
*Model_Space
  1

  0
ENDBLK
  5
21
100
AcDbEntity
  8
0
100
AcDbBlockEnd
  0
BLOCK
  5
1C
100
AcDbEntity
  8
0
100
AcDbBlockBegin
  2
*Paper_Space
 70
0
 10
0.0
 20
0.0
 30
0.0
  3
*Paper_Space
  1

  0
ENDBLK
  5
1D
100
AcDbEntity
  8
0
100
AcDbBlockEnd
  0
ENDSEC
  0
SECTION
  2
ENTITIES
  0
MTEXT
  5
211
100
AcDbEntity
  8
0
100
AcDbMText
 62
5
  6
CONTINUOUS
  7
STANDARD
 71
1
 72
1
 10
275.8457657879
 20
323.1864589256
 30
0.0
 11
1.0
 21
0.0
 31
0.0
 44
0.9
  1
VWK-2S-13
 40
8.0
 41
59.619047619
  0
MTEXT
  5
212
100
AcDbEntity
  8
0
100
AcDbMText
 62
5
  6
CONTINUOUS
  7
STANDARD
 71
1
 72
1
 10
631.7493064199
 20
371.3654170353
 30
0.0
 11
0.0
 21
1.0
 31
0.0
 44
0.9
  1
VWK-2S-13
 40
8.0
 41
59.619047619
  0
LINE
  5
213
100
AcDbEntity
  8
0
100
AcDbLine
 62
7
  6
CONTINUOUS
 10
0.0
 20
0.0
 11
0.0
 21
594.0
  0
LINE
  5
214
100
AcDbEntity
  8
0
100
AcDbLine
 62
7
  6
CONTINUOUS
 10
0.0
 20
0.0
 11
841.0
 21
0.0
  0
LINE
  5
215
100
AcDbEntity
  8
0
100
AcDbLine
 62
7
  6
CONTINUOUS
 10
0.0
 20
594.0
 11
841.0
 21
594.0
  0
LINE
  5
216
100
AcDbEntity
  8
0
100
AcDbLine
 62
7
  6
CONTINUOUS
 10
841.0
 20
0.0
 11
841.0
 21
594.0
  0
LINE
  5
217
100
AcDbEntity
  8
AUSFORMSCHRAEGEN
100
AcDbLine
 62
7
  6
CONTINUOUS
 10
426.8999441191
 20
31.2615988083
 11
432.221279901
 21
31.8208937363
  0
LINE
  5
218
100
AcDbEntity
  8
BEZUGSACHSEN
100
AcDbLine
 62
7
  6
CONTINUOUS
 10
426.8999441191
 20
31.2615988083
 11
432.221279901
 21
31.8208937363
  0
LINE
  5
219
100
AcDbEntity
  8
BEZUGSACHSEN
100
AcDbLine
 62
7
  6
CONTINUOUS
 10
186.8999441191
 20
31.2615988083
 11
181.5786083371
 21
31.8208937363
  0
LINE
  5
21A
100
AcDbEntity
  8
AUSFORMSCHRAEGEN
100
AcDbLine
 62
7
  6
CONTINUOUS
 10
186.8999441191
 20
31.2615988083
 11
192.221279901
 21
31.8208937363
  0
LINE
  5
21B
100
AcDbEntity
  8
BEZUGSACHSEN
100
AcDbLine
 62
7
  6
CONTINUOUS
 10
186.8999441191
 20
31.2615988083
 11
192.221279901
 21
31.8208937363
  0
LINE
  5
21C
100
AcDbEntity
  8
BEZUGSACHSEN
100
AcDbLine
 62
7
  6
CONTINUOUS
 10
426.8999441191
 20
31.2615988083
 11
421.5786083371
 21
31.8208937363
  0
LINE
  5
21D
100
AcDbEntity
  8
KONSTRUKTIONSELEMENTE
100
AcDbLine
 62
7
  6
CONTINUOUS
 10
80.2722207488
 20
154.3269415321
 11
76.7366868429
 21
157.8624754381
  0
LINE
  5
21E
100
AcDbEntity
  8
BEZUGSACHSEN
100
AcDbLine
 62
7
  6
CONTINUOUS
 10
174.1963649751
 20
80.9397971415
 11
175.0883934018
 21
80.0477687148
  0
LINE
  5
21F
100
AcDbEntity
  8
KONSTRUKTIONSELEMENTE
100
AcDbLine
 62
7
  6
CONTINUOUS
 10
98.6569970596
 20
172.711717843
 11
95.1214631537
 21
176.2472517489
  0
LINE
  5
220
100
AcDbEntity
  8
BEZUGSACHSEN
100
AcDbLine
 62
7
  6
CONTINUOUS
 10
173.9950920488
 20
81.1568986967
 11
174.0106612166
 21
81.1388872892
  0
LINE
  5
221
100
AcDbEntity
  8
RUNDUNGEN
100
AcDbLine
 62
7
  6
CONTINUOUS
 10
198.7114866918
 20
121.3326370465
 11
199.6035569101
 21
120.4405668282
  0
LINE
  5
222
100
AcDbEntity
  8
BEZUGSACHSEN
100
AcDbLine
 62
7
  6
CONTINUOUS
 10
198.7114866918
 20
121.3326370465
 11
199.6035569101
 21
120.4405668282
  0
LINE
  5
223
100
AcDbEntity
  8
0
100
AcDbLine
 62
7
  6
CONTINUOUS
 10
318.6824432846
 20
150.4940285656
 11
317.8074441191
 21
150.2706243369
  0
LINE
  5
224
100
AcDbEntity
  8
0
100
AcDbLine
 62
7
  6
CONTINUOUS
 10
308.1824445363
 20
150.4940285656
 11
307.3074441191
 21
150.2706243369
  0
LINE
  5
225
100
AcDbEntity
  8
0
100
AcDbLine
 62
7
  6
CONTINUOUS
 10
317.8074441191
 20
148.9301988083
 11
318.9011949535
 21
149.1536030566
  0
LINE
  5
226
100
AcDbEntity
  8
0
100
AcDbLine
 62
7
  6
CONTINUOUS
 10
307.3074441191
 20
148.9301988083
 11
308.4011937019
 21
149.1536030566
  0
LINE
  5
227
100
AcDbEntity
  8
BEZUGSACHSEN
100
AcDbLine
 62
7
  6
CONTINUOUS
 10
194.8499441191
 20
127.552066889
 11
306.8999441191
 21
147.3095050774
  0
LINE
  5
228
100
AcDbEntity
  8
0
100
AcDbLine
 62
7
  6
CONTINUOUS
 10
243.1591869626
 20
143.7068097234
 11
244.0462857445
 21
143.7120756083
  0
LINE
  5
229
100
AcDbEntity
  8
0
100
AcDbLine
 62
7
  6
CONTINUOUS
 10
242.8809090721
 20
141.0881309026
 11
242.1373514092
 21
141.1081751898
  0
LINE
  5
22A
100
AcDbEntity
  8
0
100
AcDbLine
 62
7
  6
CONTINUOUS
 10
242.6422112509
 20
146.6387246782
 11
243.3857689138
 21
146.618680391
  0
LINE
  5
22B
100
AcDbEntity
  8
0
100
AcDbLine
 62
7
  6
CONTINUOUS
 10
242.2665953349
 20
140.3751964639
 11
242.8666102382
 21
140.3298417021
  0
LINE
  5
22C
100
AcDbEntity
  8
0
100
AcDbLine
 62
7
  6
CONTINUOUS
 10
245.0252297244
 20
144.0358434095
 11
244.2558232796
 21
144.2024834239
  0
LINE
  5
22D
100
AcDbEntity
  8
0
100
AcDbLine
 62
7
  6
CONTINUOUS
 10
241.640731645
 20
140.5671469786
 11
242.2665953349
 21
140.3751964639
  0
LINE
  5
22E
100
AcDbEntity
  8
0
100
AcDbLine
 62
7
  6
CONTINUOUS
 10
242.1373514092
 20
141.1081751898
 11
241.8244187463
 21
141.204150283
  0
LINE
  5
22F
100
AcDbEntity
  8
0
100
AcDbLine
 62
7
  6
CONTINUOUS
 10
244.0259314488
 20
147.1850190126
 11
243.4000661231
 21
147.3769691991
  0
LINE
  5
230
100
AcDbEntity
  8
0
100
AcDbLine
 62
7
  6
CONTINUOUS
 10
241.1584090721
 20
140.7844076783
 11
241.640731645
 21
140.5671469786
  0
LINE
  5
231
100
AcDbEntity
  8
RUNDUNGEN
100
AcDbLine
 62
7
  6
CONTINUOUS
 10
199.7976480745
 20
120.2317911076
 11
199.793217495
 21
120.2369070371
  0
LINE
  5
232
100
AcDbEntity
  8
RUNDUNGEN
100
AcDbLine
 62
7
  6
CONTINUOUS
 10
199.8354965416
 20
120.1872930582
 11
199.8172371468
 21
120.2089337112
  0
LINE
  5
233
100
AcDbEntity
  8
RUNDUNGEN
100
AcDbLine
 62
7
  6
CONTINUOUS
 10
199.8763625842
 20
120.1377529567
 11
199.8574967715
 21
120.1608407551
  0
LWPOLYLINE
  5
234
100
AcDbEntity
  8
RUNDUNGEN
100
AcDbPolyline
 62
7
  6
CONTINUOUS
 90
9
 70
0
 10
200.0795740752
 20
119.8634404701
 10
200.0509216033
 20
119.9052880416
 10
200.0227611721
 20
119.9453130905
 10
199.9953612665
 20
119.9832560722
 10
199.9689550008
 20
120.0189342792
 10
199.9436977126
 20
120.0522867183
 10
199.9197478003
 20
120.083247785
 10
199.8972933471
 20
120.1117068825
 10
199.8763625842
 20
120.1377529567
  0
LWPOLYLINE
  5
235
100
AcDbEntity
  8
RUNDUNGEN
100
AcDbPolyline
 62
7
  6
CONTINUOUS
 90
4
 70
0
 10
200.1689011345
 20
119.7249866446
 10
200.1386557627
 20
119.7733138592
 10
200.1088083729
 20
119.8195177481
 10
200.0795740752
 20
119.8634404701
  0
LINE
  5
236
100
AcDbEntity
  8
RUNDUNGEN
100
AcDbLine
 62
7
  6
CONTINUOUS
 10
200.1994031242
 20
119.6745970055
 11
200.1689011345
 21
119.7249866446
  0
LINE
  5
237
100
AcDbEntity
  8
0
100
AcDbLine
 62
7
  6
CONTINUOUS
 10
222.1966108542
 20
136.6851631194
 11
223.3449441191
 21
136.8876452569
  0
LINE
  5
238
100
AcDbEntity
  8
0
100
AcDbLine
 62
7
  6
CONTINUOUS
 10
227.9382771786
 20
137.6975738067
 11
229.0866110595
 21
137.9000560527
  0
LINE
  5
239
100
AcDbEntity
  8
0
100
AcDbLine
 62
7
  6
CONTINUOUS
 10
231.3832771786
 20
138.3050202552
 11
232.5316110595
 21
138.5075025013
  0
LINE
  5
23A
100
AcDbEntity
  8
0
100
AcDbLine
 62
7
  6
CONTINUOUS
 10
238.8474441191
 20
139.6211542753
 11
239.7086941191
 21
139.7730158875
  0
LINE
  5
23B
100
AcDbEntity
  8
0
100
AcDbLine
 62
7
  6
CONTINUOUS
 10
242.8666102382
 20
140.3298417021
 11
244.0149441191
 21
140.5323239481
  0
LINE
  5
23C
100
AcDbEntity
  8
0
100
AcDbLine
 62
7
  6
CONTINUOUS
 10
256.3595263573
 20
142.7090068623
 11
257.5078618809
 21
142.911489398
  0
LINE
  5
23D
100
AcDbEntity
  8
0
100
AcDbLine
 62
7
  6
CONTINUOUS
 10
260.9528618809
 20
143.5189358466
 11
261.8141118809
 21
143.6707974587
  0
LINE
  5
23E
100
AcDbEntity
  8
0
100
AcDbLine
 62
7
  6
CONTINUOUS
 10
262.9624441191
 20
143.8732794151
 11
263.8236941191
 21
144.0251410272
  0
LINE
  5
23F
100
AcDbEntity
  8
0
100
AcDbLine
 62
7
  6
CONTINUOUS
 10
243.7421590721
 20
141.2399925147
 11
242.8809090721
 21
141.0881309026
  0
LINE
  5
240
100
AcDbEntity
  8
0
100
AcDbLine
 62
7
  6
CONTINUOUS
 10
241.2903986004
 20
141.7146024885
 11
240.5726913622
 21
141.5880513381
  0
LINE
  5
241
100
AcDbEntity
  8
0
100
AcDbLine
 62
7
  6
CONTINUOUS
 10
234.3888486704
 20
141.4045944164
 11
236.3984309086
 21
141.7589379849
  0
LINE
  5
242
100
AcDbEntity
  8
0
100
AcDbLine
 62
7
  6
CONTINUOUS
 10
263.2808696254
 20
147.1036517092
 11
265.8646196254
 21
147.5592365456
  0
LINE
  5
243
100
AcDbEntity
  8
0
100
AcDbLine
 62
7
  6
CONTINUOUS
 10
236.2691869626
 20
142.4919168263
 11
234.2596047244
 21
142.1375732578
  0
LINE
  5
244
100
AcDbEntity
  8
0
100
AcDbLine
 62
7
  6
CONTINUOUS
 10
242.5850208435
 20
143.6055687452
 11
243.1591869626
 21
143.7068097234
  0
LINE
  5
245
100
AcDbEntity
  8
0
100
AcDbLine
 62
7
  6
CONTINUOUS
 10
243.0557918347
 20
144.2931926322
 11
242.4816257156
 21
144.191951654
  0
LINE
  5
246
100
AcDbEntity
  8
0
100
AcDbLine
 62
7
  6
CONTINUOUS
 10
265.8530696955
 20
148.4641213707
 11
263.1257769337
 21
147.9832260725
  0
LINE
  5
247
100
AcDbEntity
  8
0
100
AcDbLine
 62
7
  6
CONTINUOUS
 10
240.0700128236
 20
145.2782553064
 11
240.7877217045
 21
145.4048067464
  0
LINE
  5
248
100
AcDbEntity
  8
0
100
AcDbLine
 62
7
  6
CONTINUOUS
 10
242.0680451318
 20
146.5374837
 11
242.6422112509
 21
146.6387246782
  0
LINE
  5
249
100
AcDbEntity
  8
0
100
AcDbLine
 62
7
  6
CONTINUOUS
 10
262.7380451318
 20
150.1821623912
 11
265.4653378936
 21
150.6630576894
  0
LINE
  5
24A
100
AcDbEntity
  8
0
100
AcDbLine
 62
7
  6
CONTINUOUS
 10
265.192551222
 20
151.3707258636
 11
261.747551222
 21
150.7632794151
  0
LINE
  5
24B
100
AcDbEntity
  8
0
100
AcDbLine
 62
7
  6
CONTINUOUS
 10
260.5992189838
 20
150.5607974587
 11
259.7379689838
 21
150.4089358466
  0
LINE
  5
24C
100
AcDbEntity
  8
0
100
AcDbLine
 62
7
  6
CONTINUOUS
 10
258.5896334602
 20
150.2064533108
 11
257.7283834602
 21
150.0545916987
  0
LINE
  5
24D
100
AcDbEntity
  8
0
100
AcDbLine
 62
7
  6
CONTINUOUS
 10
253.7092189838
 20
149.3459045616
 11
252.8479689838
 21
149.1940429495
  0
LINE
  5
24E
100
AcDbEntity
  8
0
100
AcDbLine
 62
7
  6
CONTINUOUS
 10
242.369426222
 20
147.3463931421
 11
242.0823423411
 21
147.2957725081
  0
LINE
  5
24F
100
AcDbEntity
  8
0
100
AcDbLine
 62
7
  6
CONTINUOUS
 10
238.493801222
 20
146.6630158875
 11
237.632551222
 21
146.5111542753
  0
LINE
  5
250
100
AcDbEntity
  8
0
100
AcDbLine
 62
7
  6
CONTINUOUS
 10
232.465051222
 20
145.5999846025
 11
231.603801222
 21
145.4481229904
  0
LINE
  5
251
100
AcDbEntity
  8
0
100
AcDbLine
 62
7
  6
CONTINUOUS
 10
229.5942181625
 20
145.093779277
 11
228.4458842816
 21
144.8912970309
  0
LINE
  5
252
100
AcDbEntity
  8
0
100
AcDbLine
 62
7
  6
CONTINUOUS
 10
226.436301222
 20
144.5369533176
 11
225.575051222
 21
144.3850917054
  0
LINE
  5
253
100
AcDbEntity
  8
0
100
AcDbLine
 62
7
  6
CONTINUOUS
 10
224.4267177518
 20
144.1826095318
 11
223.5654677518
 21
144.0307479196
  0
LINE
  5
254
100
AcDbEntity
  8
0
100
AcDbLine
 62
7
  6
CONTINUOUS
 10
219.546301222
 20
143.3220604205
 11
218.685051222
 21
143.1701988083
  0
LINE
  5
255
100
AcDbEntity
  8
BEZUGSACHSEN
100
AcDbLine
 62
7
  6
CONTINUOUS
 10
426.8999441191
 20
170.1187988083
 11
421.5786083371
 21
169.5595038804
  0
LINE
  5
256
100
AcDbEntity
  8
0
100
AcDbLine
 62
7
  6
CONTINUOUS
 10
243.4000661231
 20
147.3769691991
 11
242.369426222
 21
147.3463931421
  0
LINE
  5
257
100
AcDbEntity
  8
0
100
AcDbLine
 62
7
  6
CONTINUOUS
 10
292.8699441191
 20
148.9301988083
 11
294.1824441191
 21
148.9301988083
  0
LINE
  5
258
100
AcDbEntity
  8
0
100
AcDbLine
 62
7
  6
CONTINUOUS
 10
299.6511939105
 20
148.9301988083
 11
301.1824443277
 21
148.9301988083
  0
LINE
  5
259
100
AcDbEntity
  8
0
100
AcDbLine
 62
7
  6
CONTINUOUS
 10
306.4324437019
 20
148.9301988083
 11
307.3074441191
 21
148.9301988083
  0
LINE
  5
25A
100
AcDbEntity
  8
0
100
AcDbLine
 62
7
  6
CONTINUOUS
 10
312.5574441191
 20
148.9301988083
 11
317.8074441191
 21
148.9301988083
  0
LINE
  5
25B
100
AcDbEntity
  8
0
100
AcDbLine
 62
7
  6
CONTINUOUS
 10
317.8074441191
 20
150.2706243369
 11
313.8699441191
 21
150.2706243369
  0
LINE
  5
25C
100
AcDbEntity
  8
0
100
AcDbLine
 62
7
  6
CONTINUOUS
 10
307.3074441191
 20
150.2706243369
 11
306.4324437019
 21
150.2706243369
  0
LINE
  5
25D
100
AcDbEntity
  8
0
100
AcDbLine
 62
7
  6
CONTINUOUS
 10
294.1824441191
 20
153.6216882366
 11
297.9011940148
 21
153.6216882366
  0
LINE
  5
25E
100
AcDbEntity
  8
0
100
AcDbLine
 62
7
  6
CONTINUOUS
 10
298.3386939105
 20
154.9621136088
 11
294.1824441191
 21
154.9621136088
  0
LINE
  5
25F
100
AcDbEntity
  8
0
100
AcDbLine
 62
7
  6
CONTINUOUS
 10
313.8699441191
 20
158.0897734362
 11
317.8074441191
 21
158.0897734362
  0
LINE
  5
260
100
AcDbEntity
  8
0
100
AcDbLine
 62
7
  6
CONTINUOUS
 10
294.1824441191
 20
158.3131776649
 11
298.3386939105
 21
158.3131776649
  0
LINE
  5
261
100
AcDbEntity
  8
0
100
AcDbLine
 62
7
  6
CONTINUOUS
 10
317.8074441191
 20
159.4301988083
 11
312.5574441191
 21
159.4301988083
  0
LINE
  5
262
100
AcDbEntity
  8
0
100
AcDbLine
 62
7
  6
CONTINUOUS
 10
310.8074445363
 20
159.4301988083
 11
309.4949445363
 21
159.4301988083
  0
LINE
  5
263
100
AcDbEntity
  8
0
100
AcDbLine
 62
7
  6
CONTINUOUS
 10
304.2449445363
 20
159.4301988083
 11
302.9324439105
 21
159.4301988083
  0
LINE
  5
264
100
AcDbEntity
  8
0
100
AcDbLine
 62
7
  6
CONTINUOUS
 10
298.1199441191
 20
159.4301988083
 11
292.8699441191
 21
159.4301988083
  0
LINE
  5
265
100
AcDbEntity
  8
0
100
AcDbLine
 62
7
  6
CONTINUOUS
 10
265.9361072422
 20
151.3506812868
 11
265.192551222
 21
151.3707258636
  0
LINE
  5
266
100
AcDbEntity
  8
BEZUGSACHSEN
100
AcDbLine
 62
7
  6
CONTINUOUS
 10
186.8999441191
 20
170.1187988083
 11
192.221279901
 21
169.5595038804
  0
LINE
  5
267
100
AcDbEntity
  8
AUSFORMSCHRAEGEN
100
AcDbLine
 62
7
  6
CONTINUOUS
 10
186.8999441191
 20
170.1187988083
 11
192.221279901
 21
169.5595038804
  0
LINE
  5
268
100
AcDbEntity
  8
0
100
AcDbLine
 62
7
  6
CONTINUOUS
 10
265.4653378936
 20
150.6630576894
 11
265.9218116756
 21
150.5923927683
  0
LINE
  5
269
100
AcDbEntity
  8
BEZUGSACHSEN
100
AcDbLine
 62
7
  6
CONTINUOUS
 10
418.9499441191
 20
127.552066889
 11
306.8999441191
 21
147.3095050774
  0
LINE
  5
26A
100
AcDbEntity
  8
0
100
AcDbLine
 62
7
  6
CONTINUOUS
 10
305.3386941191
 20
149.1536030566
 11
306.4324437019
 21
148.9301988083
  0
LINE
  5
26B
100
AcDbEntity
  8
0
100
AcDbLine
 62
7
  6
CONTINUOUS
 10
299.2136943277
 20
159.2067945797
 11
298.1199441191
 21
159.4301988083
  0
LINE
  5
26C
100
AcDbEntity
  8
0
100
AcDbLine
 62
7
  6
CONTINUOUS
 10
306.4324437019
 20
150.2706243369
 11
305.5574445363
 21
150.4940285656
  0
LINE
  5
26D
100
AcDbEntity
  8
0
100
AcDbLine
 62
7
  6
CONTINUOUS
 10
244.0462857445
 20
143.7120756083
 11
244.5286083085
 21
143.49481496
  0
LINE
  5
26E
100
AcDbEntity
  8
0
100
AcDbLine
 62
7
  6
CONTINUOUS
 10
243.3857689138
 20
146.618680391
 11
243.8680914777
 21
146.4014197426
  0
LINE
  5
26F
100
AcDbEntity
  8
0
100
AcDbLine
 62
7
  6
CONTINUOUS
 10
266.5878213499
 20
151.012135373
 11
265.9361072422
 21
151.3506812868
  0
LINE
  5
270
100
AcDbEntity
  8
0
100
AcDbLine
 62
7
  6
CONTINUOUS
 10
241.8244187463
 20
141.204150283
 11
241.4856389261
 21
141.4467214958
  0
LINE
  5
271
100
AcDbEntity
  8
0
100
AcDbLine
 62
7
  6
CONTINUOUS
 10
244.7034926957
 20
146.699877082
 11
244.0259314488
 21
147.1850190126
  0
LINE
  5
272
100
AcDbEntity
  8
KONSTRUKTIONSELEMENTE
100
AcDbLine
 62
7
  6
CONTINUOUS
 10
145.0921642702
 20
219.1468850535
 11
141.5566303642
 21
222.6824189594
  0
LINE
  5
273
100
AcDbEntity
  8
BEZUGSACHSEN
100
AcDbLine
 62
7
  6
CONTINUOUS
 10
186.8999441191
 20
170.1187988083
 11
181.5786083371
 21
169.5595038804
  0
LINE
  5
274
100
AcDbEntity
  8
BEZUGSACHSEN
100
AcDbLine
 62
7
  6
CONTINUOUS
 10
426.8999441191
 20
170.1187988083
 11
432.221279901
 21
169.5595038804
  0
LINE
  5
275
100
AcDbEntity
  8
AUSFORMSCHRAEGEN
100
AcDbLine
 62
7
  6
CONTINUOUS
 10
426.8999441191
 20
170.1187988083
 11
432.221279901
 21
169.5595038804
  0
LINE
  5
276
100
AcDbEntity
  8
0
100
AcDbLine
 62
7
  6
CONTINUOUS
 10
318.9011949535
 20
159.2067945797
 11
317.8074441191
 21
159.4301988083
  0
LINE
  5
277
100
AcDbEntity
  8
0
100
AcDbLine
 62
7
  6
CONTINUOUS
 10
317.8074441191
 20
158.0897734362
 11
318.6824432846
 21
157.8663692075
  0
LINE
  5
278
100
AcDbEntity
  8
0
100
AcDbLine
 62
7
  6
CONTINUOUS
 10
298.3386939105
 20
158.3131776649
 11
298.9949439105
 21
158.0897734362
  0
LINE
  5
279
100
AcDbEntity
  8
0
100
AcDbLine
 62
7
  6
CONTINUOUS
 10
304.4636937019
 20
149.6004115726
 11
305.3386941191
 21
149.1536030566
  0
LINE
  5
27A
100
AcDbEntity
  8
0
100
AcDbLine
 62
7
  6
CONTINUOUS
 10
265.9218116756
 20
150.5923927683
 11
266.2605914777
 21
150.3498216581
  0
LINE
  5
27B
100
AcDbEntity
  8
0
100
AcDbLine
 62
7
  6
CONTINUOUS
 10
267.1218414777
 20
150.5016832703
 11
266.5878213499
 21
151.012135373
  0
LINE
  5
27C
100
AcDbEntity
  8
0
100
AcDbLine
 62
7
  6
CONTINUOUS
 10
240.7937788453
 20
141.173574226
 11
241.1584090721
 21
140.7844076783
  0
LINE
  5
27D
100
AcDbEntity
  8
0
100
AcDbLine
 62
7
  6
CONTINUOUS
 10
245.3898583085
 20
143.6466765721
 11
245.0252297244
 21
144.0358434095
  0
LINE
  5
27E
100
AcDbEntity
  8
0
100
AcDbLine
 62
7
  6
CONTINUOUS
 10
243.8680914777
 20
146.4014197426
 11
244.2327217045
 21
146.0122531949
  0
LINE
  5
27F
100
AcDbEntity
  8
0
100
AcDbLine
 62
7
  6
CONTINUOUS
 10
241.4856389261
 20
141.4467214958
 11
241.2903986004
 21
141.7146024885
  0
LINE
  5
280
100
AcDbEntity
  8
0
100
AcDbLine
 62
7
  6
CONTINUOUS
 10
244.5286083085
 20
143.49481496
 11
244.9190873534
 21
142.9590524798
  0
LINE
  5
281
100
AcDbEntity
  8
0
100
AcDbLine
 62
7
  6
CONTINUOUS
 10
222.6156846741
 20
137.665978636
 11
219.546301222
 21
143.3220604205
  0
LINE
  5
282
100
AcDbEntity
  8
0
100
AcDbLine
 62
7
  6
CONTINUOUS
 10
218.685051222
 20
143.1701988083
 11
222.1966108542
 21
136.6851631194
  0
LINE
  5
283
100
AcDbEntity
  8
BEZUGSACHSEN
100
AcDbLine
 62
7
  6
CONTINUOUS
 10
176.1966983956
 20
77.8248600672
 11
178.8547164491
 21
58.9120788883
  0
LINE
  5
284
100
AcDbEntity
  8
BEZUGSACHSEN
100
AcDbLine
 62
7
  6
CONTINUOUS
 10
178.9561479924
 20
118.2866480477
 11
178.9731744144
 21
118.141726768
  0
LWPOLYLINE
  5
285
100
AcDbEntity
  8
RUNDUNGEN
100
AcDbPolyline
 62
7
  6
CONTINUOUS
 90
3
 70
0
 10
178.9499441191
 20
118.4423356283
 10
178.9577948208
 20
118.2672359964
 10
178.9731744126
 20
118.1417267797
  0
LINE
  5
286
100
AcDbEntity
  8
BEZUGSACHSEN
100
AcDbLine
 62
7
  6
CONTINUOUS
 10
178.9499441191
 20
118.4423356302
 11
178.9561479924
 21
118.2866480477
  0
LINE
  5
287
100
AcDbEntity
  8
RUNDUNGEN
100
AcDbLine
 62
7
  6
CONTINUOUS
 10
173.0499441191
 20
115.2123106591
 11
173.0499441191
 21
108.6153970639
  0
LINE
  5
288
100
AcDbEntity
  8
BEZUGSACHSEN
100
AcDbLine
 62
7
  6
CONTINUOUS
 10
173.0499441191
 20
83.7074545198
 11
173.0499441191
 21
117.6729430744
  0
LINE
  5
289
100
AcDbEntity
  8
BEZUGSACHSEN
100
AcDbLine
 62
7
  6
CONTINUOUS
 10
178.9499441191
 20
57.5502603506
 11
178.9499441191
 21
34.7403211141
  0
LINE
  5
28A
100
AcDbEntity
  8
RUNDUNGEN
100
AcDbLine
 62
7
  6
CONTINUOUS
 10
178.9499441191
 20
118.4420744213
 11
178.9499441191
 21
166.6400765026
  0
LINE
  5
28B
100
AcDbEntity
  8
BEZUGSACHSEN
100
AcDbLine
 62
7
  6
CONTINUOUS
 10
178.9499441191
 20
118.4420743882
 11
178.9499441191
 21
166.6400765026
  0
LINE
  5
28C
100
AcDbEntity
  8
0
100
AcDbLine
 62
7
  6
CONTINUOUS
 10
298.5252567037
 20
194.6901988083
 11
273.2047966071
 21
194.6901988083
  0
LINE
  5
28D
100
AcDbEntity
  8
BEZUGSACHSEN
100
AcDbLine
 62
7
  6
CONTINUOUS
 10
315.2750656047
 20
194.6901988083
 11
340.5950916311
 21
194.6901988083
  0
LINE
  5
28E
100
AcDbEntity
  8
0
100
AcDbLine
 62
7
  6
CONTINUOUS
 10
319.7761941191
 20
158.7599861223
 11
318.9011949535
 21
159.2067945797
  0
LINE
  5
28F
100
AcDbEntity
  8
0
100
AcDbLine
 62
7
  6
CONTINUOUS
 10
305.5574445363
 20
150.4940285656
 11
304.9011945363
 21
150.9408371795
  0
LINE
  5
290
100
AcDbEntity
  8
0
100
AcDbLine
 62
7
  6
CONTINUOUS
 10
318.6824432846
 20
157.8663692075
 11
319.3386932846
 21
157.4195607502
  0
LINE
  5
291
100
AcDbEntity
  8
0
100
AcDbLine
 62
7
  6
CONTINUOUS
 10
300.0886941191
 20
158.5365818936
 11
299.2136943277
 21
159.2067945797
  0
LINE
  5
292
100
AcDbEntity
  8
BEZUGSACHSEN
100
AcDbLine
 62
7
  6
CONTINUOUS
 10
171.4889955219
 20
245.5437163052
 11
167.9534616159
 21
249.0792502111
  0
LINE
  5
293
100
AcDbEntity
  8
KONSTRUKTIONSELEMENTE
100
AcDbLine
 62
7
  6
CONTINUOUS
 10
172.5496556936
 20
245.5437163052
 11
176.0851895996
 21
242.0081823993
  0
LINE
  5
294
100
AcDbEntity
  8
KONSTRUKTIONSELEMENTE
100
AcDbLine
 62
7
  6
CONTINUOUS
 10
172.9032090842
 20
245.8972696958
 11
176.4387429902
 21
242.3617357899
  0
LINE
  5
295
100
AcDbEntity
  8
0
100
AcDbLine
 62
7
  6
CONTINUOUS
 10
252.8479689838
 20
149.1940429495
 11
256.3595263573
 21
142.7090068623
  0
LINE
  5
296
100
AcDbEntity
  8
0
100
AcDbLine
 62
7
  6
CONTINUOUS
 10
240.5726913622
 20
141.5880513381
 11
240.7937788453
 21
141.173574226
  0
LINE
  5
297
100
AcDbEntity
  8
RUNDUNGEN
100
AcDbLine
 62
7
  6
CONTINUOUS
 10
214.6426501458
 20
186.7639921951
 11
225.7210186025
 21
163.0063543718
  0
LINE
  5
298
100
AcDbEntity
  8
0
100
AcDbLine
 62
7
  6
CONTINUOUS
 10
231.6731074813
 20
140.0188145828
 11
229.5942181625
 21
145.093779277
  0
LINE
  5
299
100
AcDbEntity
  8
0
100
AcDbLine
 62
7
  6
CONTINUOUS
 10
229.2526902597
 20
143.6731766091
 11
231.3832771786
 21
138.3050202552
  0
LINE
  5
29A
100
AcDbEntity
  8
0
100
AcDbLine
 62
7
  6
CONTINUOUS
 10
225.575051222
 20
144.3850917054
 11
227.9382771786
 21
137.6975738067
  0
LINE
  5
29B
100
AcDbEntity
  8
0
100
AcDbLine
 62
7
  6
CONTINUOUS
 10
228.2281074813
 20
139.4113681343
 11
226.436301222
 21
144.5369533176
  0
LINE
  5
29C
100
AcDbEntity
  8
RUNDUNGEN
100
AcDbLine
 62
7
  6
CONTINUOUS
 10
196.9885179729
 20
127.9291551596
 11
197.6031896772
 21
123.5555387261
  0
LINE
  5
29D
100
AcDbEntity
  8
BEZUGSACHSEN
100
AcDbLine
 62
7
  6
CONTINUOUS
 10
196.9885179729
 20
127.9291551596
 11
197.6031896772
 21
123.5555387261
  0
LWPOLYLINE
  5
29E
100
AcDbEntity
  8
RUNDUNGEN
100
AcDbPolyline
 62
7
  6
CONTINUOUS
 90
25
 70
0
 10
200.7397200899
 20
117.9550469447
 10
200.7395279665
 20
117.9582307179
 10
200.7312072873
 20
118.0554185528
 10
200.7206887204
 20
118.1505925892
 10
200.7081052799
 20
118.2437337379
 10
200.6935823083
 20
118.3348336623
 10
200.6772396117
 20
118.4238977239
 10
200.6592023032
 20
118.5108961906
 10
200.6395970944
 20
118.595797109
 10
200.6185429602
 20
118.6786025879
 10
200.5961608501
 20
118.7593010515
 10
200.5725566493
 20
118.8379124661
 10
200.5478264947
 20
118.9144644427
 10
200.5220764672
 20
118.9889502917
 10
200.4954137001
 20
119.0613635648
 10
200.4679395151
 20
119.131715225
 10
200.4397659924
 20
119.1999901178
 10
200.4109684109
 20
119.2662534907
 10
200.3816033855
 20
119.3305827792
 10
200.3517769375
 20
119.3929421504
 10
200.3215822842
 20
119.4533316732
 10
200.2911423679
 20
119.5117002142
 10
200.2606085759
 20
119.5679576982
 10
200.2300251224
 20
119.6222126001
 10
200.1994031242
 20
119.6745970055
  0
LINE
  5
29F
100
AcDbEntity
  8
RUNDUNGEN
100
AcDbLine
 62
7
  6
CONTINUOUS
 10
194.8499441191
 20
166.6400765026
 11
194.8499441191
 21
118.4423337023
  0
LINE
  5
2A0
100
AcDbEntity
  8
BEZUGSACHSEN
100
AcDbLine
 62
7
  6
CONTINUOUS
 10
194.8499441191
 20
166.6400765026
 11
194.8499441191
 21
118.4423337005
  0
LINE
  5
2A1
100
AcDbEntity
  8
RUNDUNGEN
100
AcDbLine
 62
7
  6
CONTINUOUS
 10
194.8499441191
 20
57.5502603506
 11
194.8499441191
 21
34.7403211141
  0
LINE
  5
2A2
100
AcDbEntity
  8
BEZUGSACHSEN
100
AcDbLine
 62
7
  6
CONTINUOUS
 10
200.7499441191
 20
117.6729430744
 11
200.7499441191
 21
110.7304705796
  0
LINE
  5
2A3
100
AcDbEntity
  8
RUNDUNGEN
100
AcDbLine
 62
7
  6
CONTINUOUS
 10
200.7499441191
 20
117.6729430744
 11
200.7499441191
 21
83.7074545198
  0
LINE
  5
2A4
100
AcDbEntity
  8
RUNDUNGEN
100
AcDbLine
 62
7
  6
CONTINUOUS
 10
194.8420933134
 20
118.2672310484
 11
194.8499441191
 21
118.4423337005
  0
LINE
  5
2A5
100
AcDbEntity
  8
BEZUGSACHSEN
100
AcDbLine
 62
7
  6
CONTINUOUS
 10
176.8452897412
 20
128.1705047719
 11
176.196698561
 21
123.5555387261
  0
LINE
  5
2A6
100
AcDbEntity
  8
0
100
AcDbLine
 62
7
  6
CONTINUOUS
 10
303.5886945363
 20
150.4940285656
 11
304.4636937019
 21
149.6004115726
  0
LINE
  5
2A7
100
AcDbEntity
  8
0
100
AcDbLine
 62
7
  6
CONTINUOUS
 10
298.9949439105
 20
158.0897734362
 11
299.4324441191
 21
157.6429649789
  0
LINE
  5
2A8
100
AcDbEntity
  8
0
100
AcDbLine
 62
7
  6
CONTINUOUS
 10
256.7786014092
 20
143.6898225961
 11
253.7092189838
 21
149.3459045616
  0
LINE
  5
2A9
100
AcDbEntity
  8
0
100
AcDbLine
 62
7
  6
CONTINUOUS
 10
266.2605914777
 20
150.3498216581
 11
266.4816805854
 21
149.9353449383
  0
LINE
  5
2AA
100
AcDbEntity
  8
0
100
AcDbLine
 62
7
  6
CONTINUOUS
 10
267.3429305854
 20
150.0872065505
 11
267.1218414777
 21
150.5016832703
  0
LINE
  5
2AB
100
AcDbEntity
  8
0
100
AcDbLine
 62
7
  6
CONTINUOUS
 10
245.6367962343
 20
143.0856039197
 11
245.3898583085
 21
143.6466765721
  0
LINE
  5
2AC
100
AcDbEntity
  8
0
100
AcDbLine
 62
7
  6
CONTINUOUS
 10
244.9504289427
 20
146.1388043453
 11
244.7034926957
 21
146.699877082
  0
LINE
  5
2AD
100
AcDbEntity
  8
0
100
AcDbLine
 62
7
  6
CONTINUOUS
 10
219.8999441191
 20
384.4901988083
 11
219.8999441191
 21
474.4901988083
  0
LWPOLYLINE
  5
2AE
100
AcDbEntity
  8
BEZUGSACHSEN
100
AcDbPolyline
 62
7
  6
CONTINUOUS
 90
3
 70
0
 10
194.8267135848
 20
118.1417201064
 10
194.8437401614
 20
118.2866434054
 10
194.8499441191
 20
118.4423337023
  0
LINE
  5
2AF
100
AcDbEntity
  8
RUNDUNGEN
100
AcDbLine
 62
7
  6
CONTINUOUS
 10
194.8267135865
 20
118.1417201175
 11
194.8420933134
 21
118.2672310484
  0
LINE
  5
2B0
100
AcDbEntity
  8
KONSTRUKTIONSELEMENTE
100
AcDbLine
 62
7
  6
CONTINUOUS
 10
225.229110892
 20
314.4866274709
 11
219.218703252
 21
308.4762198308
  0
LINE
  5
2B1
100
AcDbEntity
  8
KONSTRUKTIONSELEMENTE
100
AcDbLine
 62
7
  6
CONTINUOUS
 10
167.5999082253
 20
256.8574248042
 11
161.5895005852
 21
250.8470171641
  0
LINE
  5
2B2
100
AcDbEntity
  8
KONSTRUKTIONSELEMENTE
100
AcDbLine
 62
7
  6
CONTINUOUS
 10
199.0661599881
 20
287.9701231764
 11
188.4595582703
 21
277.3635214586
  0
LINE
  5
2B3
100
AcDbEntity
  8
BEZUGSACHSEN
100
AcDbLine
 62
7
  6
CONTINUOUS
 10
414.1963649751
 20
80.9397971415
 11
415.0883934018
 21
80.0477687148
  0
LINE
  5
2B4
100
AcDbEntity
  8
0
100
AcDbLine
 62
7
  6
CONTINUOUS
 10
320.6511932846
 20
157.8663692075
 11
319.7761941191
 21
158.7599861223
  0
LINE
  5
2B5
100
AcDbEntity
  8
0
100
AcDbLine
 62
7
  6
CONTINUOUS
 10
300.7449441191
 20
157.6429649789
 11
300.0886941191
 21
158.5365818936
  0
LINE
  5
2B6
100
AcDbEntity
  8
0
100
AcDbLine
 62
7
  6
CONTINUOUS
 10
304.9011945363
 20
150.9408371795
 11
304.4636937019
 21
151.6110498655
  0
LINE
  5
2B7
100
AcDbEntity
  8
0
100
AcDbLine
 62
7
  6
CONTINUOUS
 10
234.2596047244
 20
142.1375732578
 11
234.3888486704
 21
141.4045944164
  0
LINE
  5
2B8
100
AcDbEntity
  8
0
100
AcDbLine
 62
7
  6
CONTINUOUS
 10
236.3984309086
 20
141.7589379849
 11
236.2691869626
 21
142.4919168263
  0
LINE
  5
2B9
100
AcDbEntity
  8
0
100
AcDbLine
 62
7
  6
CONTINUOUS
 10
236.9522426957
 20
145.3331225727
 11
237.1590330239
 21
144.1603563444
  0
LINE
  5
2BA
100
AcDbEntity
  8
0
100
AcDbLine
 62
7
  6
CONTINUOUS
 10
237.8393414777
 20
145.3383884577
 11
238.8474441191
 21
139.6211542753
  0
LINE
  5
2BB
100
AcDbEntity
  8
0
100
AcDbLine
 62
7
  6
CONTINUOUS
 10
239.7086941191
 20
139.7730158875
 11
238.493801222
 21
146.6630158875
  0
LINE
  5
2BC
100
AcDbEntity
  8
0
100
AcDbLine
 62
7
  6
CONTINUOUS
 10
242.4816257156
 20
144.191951654
 11
242.5850208435
 21
143.6055687452
  0
LINE
  5
2BD
100
AcDbEntity
  8
0
100
AcDbLine
 62
7
  6
CONTINUOUS
 10
244.2327217045
 20
146.0122531949
 11
244.2844193408
 21
145.7190613299
  0
LINE
  5
2BE
100
AcDbEntity
  8
0
100
AcDbLine
 62
7
  6
CONTINUOUS
 10
244.9190873534
 20
142.9590524798
 11
245.0224824813
 21
142.3726695709
  0
LINE
  5
2BF
100
AcDbEntity
  8
0
100
AcDbLine
 62
7
  6
CONTINUOUS
 10
245.002126579
 20
145.8456124802
 11
244.9504289427
 21
146.1388043453
  0
LINE
  5
2C0
100
AcDbEntity
  8
0
100
AcDbLine
 62
7
  6
CONTINUOUS
 10
245.7401913622
 20
142.4992210109
 11
245.6367962343
 21
143.0856039197
  0
LINE
  5
2C1
100
AcDbEntity
  8
0
100
AcDbLine
 62
7
  6
CONTINUOUS
 10
231.603801222
 20
145.4481229904
 11
231.6731074813
 21
140.0188145828
  0
LINE
  5
2C2
100
AcDbEntity
  8
0
100
AcDbLine
 62
7
  6
CONTINUOUS
 10
232.5316110595
 20
138.5075025013
 11
232.465051222
 21
145.5999846025
  0
LINE
  5
2C3
100
AcDbEntity
  8
0
100
AcDbLine
 62
7
  6
CONTINUOUS
 10
229.0866110595
 20
137.9000560527
 11
229.2526902597
 21
143.6731766091
  0
LINE
  5
2C4
100
AcDbEntity
  8
0
100
AcDbLine
 62
7
  6
CONTINUOUS
 10
228.4458842816
 20
144.8912970309
 11
228.2281074813
 21
139.4113681343
  0
LINE
  5
2C5
100
AcDbEntity
  8
0
100
AcDbLine
 62
7
  6
CONTINUOUS
 10
240.1101588148
 20
145.8899483874
 11
240.0700128236
 21
145.2782553064
  0
LINE
  5
2C6
100
AcDbEntity
  8
RUNDUNGEN
100
AcDbLine
 62
7
  6
CONTINUOUS
 10
197.6031898425
 20
77.8248600672
 11
194.9451717891
 21
58.9120788883
  0
LINE
  5
2C7
100
AcDbEntity
  8
0
100
AcDbLine
 62
7
  6
CONTINUOUS
 10
223.3449441191
 20
136.8876452569
 11
224.4267177518
 21
144.1826095318
  0
LINE
  5
2C8
100
AcDbEntity
  8
0
100
AcDbLine
 62
7
  6
CONTINUOUS
 10
223.5654677518
 20
144.0307479196
 11
222.6156846741
 21
137.665978636
  0
LINE
  5
2C9
100
AcDbEntity
  8
KONSTRUKTIONSELEMENTE
100
AcDbLine
 62
7
  6
CONTINUOUS
 10
227.7562318103
 20
311.003340749
 11
268.6683734907
 21
351.9154824295
  0
LINE
  5
2CA
100
AcDbEntity
  8
KONSTRUKTIONSELEMENTE
100
AcDbLine
 62
7
  6
CONTINUOUS
 10
202.2481405035
 20
284.788142661
 11
191.6415387857
 21
274.1815409432
  0
LINE
  5
2CB
100
AcDbEntity
  8
KONSTRUKTIONSELEMENTE
100
AcDbLine
 62
7
  6
CONTINUOUS
 10
226.5897359064
 20
308.7761846734
 11
222.7542371579
 21
304.9406859249
  0
LINE
  5
2CC
100
AcDbEntity
  8
KONSTRUKTIONSELEMENTE
100
AcDbLine
 62
7
  6
CONTINUOUS
 10
171.1354421313
 20
253.3218908982
 11
165.1250344912
 21
247.3114832582
  0
LINE
  5
2CD
100
AcDbEntity
  8
KONSTRUKTIONSELEMENTE
100
AcDbLine
 62
7
  6
CONTINUOUS
 10
76.7366868429
 20
157.8624754381
 11
166.8934552298
 21
248.019243825
  0
LINE
  5
2CE
100
AcDbEntity
  8
BEZUGSACHSEN
100
AcDbLine
 62
7
  6
CONTINUOUS
 10
166.8934552298
 20
248.019243825
 11
167.9532161884
 21
249.0790047836
  0
LINE
  5
2CF
100
AcDbEntity
  8
KONSTRUKTIONSELEMENTE
100
AcDbLine
 62
7
  6
CONTINUOUS
 10
172.9032090842
 20
253.6754442888
 11
191.6118940594
 21
272.384129264
  0
LINE
  5
2D0
100
AcDbEntity
  8
KONSTRUKTIONSELEMENTE
100
AcDbLine
 62
7
  6
CONTINUOUS
 10
204.0159074564
 20
284.788142661
 11
222.7245924316
 21
303.4968276362
  0
LINE
  5
2D1
100
AcDbEntity
  8
KONSTRUKTIONSELEMENTE
100
AcDbLine
 62
7
  6
CONTINUOUS
 10
77.1963062506
 20
157.4028560303
 11
95.5810825615
 21
175.7876323411
  0
LINE
  5
2D2
100
AcDbEntity
  8
KONSTRUKTIONSELEMENTE
100
AcDbLine
 62
7
  6
CONTINUOUS
 10
79.812601341
 20
154.7865609399
 11
98.1973776519
 21
173.1713372507
  0
LINE
  5
2D3
100
AcDbEntity
  8
KONSTRUKTIONSELEMENTE
100
AcDbLine
 62
7
  6
CONTINUOUS
 10
176.0851895996
 20
250.4934637735
 11
194.7938745748
 21
269.2021487487
  0
LINE
  5
2D4
100
AcDbEntity
  8
KONSTRUKTIONSELEMENTE
100
AcDbLine
 62
7
  6
CONTINUOUS
 10
207.1978879718
 20
281.6061621457
 11
225.906572947
 21
300.3148471209
  0
LINE
  5
2D5
100
AcDbEntity
  8
KONSTRUKTIONSELEMENTE
100
AcDbLine
 62
7
  6
CONTINUOUS
 10
80.2722207488
 20
154.3269415321
 11
170.4289891358
 21
244.4837099191
  0
LINE
  5
2D6
100
AcDbEntity
  8
BEZUGSACHSEN
100
AcDbLine
 62
7
  6
CONTINUOUS
 10
170.4289891358
 20
244.4837099191
 11
171.4887500943
 21
245.5434708777
  0
LINE
  5
2D7
100
AcDbEntity
  8
KONSTRUKTIONSELEMENTE
100
AcDbLine
 62
7
  6
CONTINUOUS
 10
169.7212285689
 20
242.7152891804
 11
172.5496556936
 21
245.5437163052
  0
LINE
  5
2D8
100
AcDbEntity
  8
KONSTRUKTIONSELEMENTE
100
AcDbLine
 62
7
  6
CONTINUOUS
 10
172.9032090842
 20
245.8972696958
 11
175.731636209
 21
248.7256968205
  0
LINE
  5
2D9
100
AcDbEntity
  8
KONSTRUKTIONSELEMENTE
100
AcDbLine
 62
7
  6
CONTINUOUS
 10
227.3504312356
 20
300.3444918471
 11
230.1788583603
 21
303.1729189719
  0
LINE
  5
2DA
100
AcDbEntity
  8
KONSTRUKTIONSELEMENTE
100
AcDbLine
 62
7
  6
CONTINUOUS
 10
230.5324117509
 20
303.5264723625
 11
231.1859299841
 21
304.1799905956
  0
LINE
  5
2DB
100
AcDbEntity
  8
KONSTRUKTIONSELEMENTE
100
AcDbLine
 62
7
  6
CONTINUOUS
 10
196.591286254
 20
269.2317934749
 11
207.1978879718
 21
279.8383951927
  0
LINE
  5
2DC
100
AcDbEntity
  8
KONSTRUKTIONSELEMENTE
100
AcDbLine
 62
7
  6
CONTINUOUS
 10
233.4130860597
 20
305.3464864995
 11
274.3730321845
 21
346.3064326243
  0
LINE
  5
2DD
100
AcDbEntity
  8
KONSTRUKTIONSELEMENTE
100
AcDbLine
 62
7
  6
CONTINUOUS
 10
199.7732667693
 20
266.0498129596
 11
210.3798684871
 21
276.6564146774
  0
LINE
  5
2DE
100
AcDbEntity
  8
KONSTRUKTIONSELEMENTE
100
AcDbLine
 62
7
  6
CONTINUOUS
 10
173.2567624748
 20
239.1797552745
 11
176.0851895996
 21
242.0081823993
  0
LINE
  5
2DF
100
AcDbEntity
  8
KONSTRUKTIONSELEMENTE
100
AcDbLine
 62
7
  6
CONTINUOUS
 10
176.4387429902
 20
242.3617357899
 11
179.2671701149
 21
245.1901629146
  0
LINE
  5
2E0
100
AcDbEntity
  8
KONSTRUKTIONSELEMENTE
100
AcDbLine
 62
7
  6
CONTINUOUS
 10
230.8859651415
 20
296.8089579412
 11
233.7143922663
 21
299.637385066
  0
LINE
  5
2E1
100
AcDbEntity
  8
KONSTRUKTIONSELEMENTE
100
AcDbLine
 62
7
  6
CONTINUOUS
 10
234.0679456569
 20
299.9909384566
 11
236.8963727816
 21
302.8193655813
  0
LINE
  5
2E2
100
AcDbEntity
  8
KONSTRUKTIONSELEMENTE
100
AcDbLine
 62
7
  6
CONTINUOUS
 10
320.8499441191
 20
270.2901988083
 11
319.6278661804
 21
270.2901988083
  0
LINE
  5
2E3
100
AcDbEntity
  8
KONSTRUKTIONSELEMENTE
100
AcDbLine
 62
7
  6
CONTINUOUS
 10
320.8499441191
 20
271.4151988083
 11
319.6278661804
 21
271.4151988083
  0
LINE
  5
2E4
100
AcDbEntity
  8
KONSTRUKTIONSELEMENTE
100
AcDbLine
 62
7
  6
CONTINUOUS
 10
320.8499441191
 20
274.0401987189
 11
320.3999441191
 21
274.0401987189
  0
LINE
  5
2E5
100
AcDbEntity
  8
KONSTRUKTIONSELEMENTE
100
AcDbLine
 62
7
  6
CONTINUOUS
 10
320.8499441191
 20
276.6651986295
 11
319.6278661804
 21
276.6651986295
  0
LINE
  5
2E6
100
AcDbEntity
  8
BEZUGSACHSEN
100
AcDbLine
 62
7
  6
CONTINUOUS
 10
365.903967256
 20
209.9938924776
 11
395.7714114153
 21
196.0664745366
  0
LINE
  5
2E7
100
AcDbEntity
  8
BEZUGSACHSEN
100
AcDbLine
 62
7
  6
CONTINUOUS
 10
354.8343497899
 20
233.9131644972
 11
441.69158328
 21
193.4109713546
  0
LINE
  5
2E8
100
AcDbEntity
  8
KONSTRUKTIONSELEMENTE
100
AcDbLine
 62
7
  6
CONTINUOUS
 10
230.1788583603
 20
303.1729189719
 11
233.7143922663
 21
299.637385066
  0
LINE
  5
2E9
100
AcDbEntity
  8
KONSTRUKTIONSELEMENTE
100
AcDbLine
 62
7
  6
CONTINUOUS
 10
230.5324117509
 20
303.5264723625
 11
234.0679456569
 21
299.9909384566
  0
LINE
  5
2EA
100
AcDbEntity
  8
BEZUGSACHSEN
100
AcDbLine
 62
7
  6
CONTINUOUS
 10
413.9950920488
 20
81.1568986967
 11
414.0106612166
 21
81.1388872892
  0
LINE
  5
2EB
100
AcDbEntity
  8
0
100
AcDbLine
 62
7
  6
CONTINUOUS
 10
319.3386932846
 20
157.4195607502
 11
319.7761941191
 21
156.7493474383
  0
LINE
  5
2EC
100
AcDbEntity
  8
0
100
AcDbLine
 62
7
  6
CONTINUOUS
 10
303.1511943277
 20
151.3876456368
 11
303.5886945363
 21
150.4940285656
  0
LINE
  5
2ED
100
AcDbEntity
  8
0
100
AcDbLine
 62
7
  6
CONTINUOUS
 10
301.1824443277
 20
148.9301988083
 11
299.2136943277
 21
154.068496694
  0
LINE
  5
2EE
100
AcDbEntity
  8
0
100
AcDbLine
 62
7
  6
CONTINUOUS
 10
297.9011940148
 20
153.6216882366
 11
299.6511939105
 21
148.9301988083
  0
LINE
  5
2EF
100
AcDbEntity
  8
0
100
AcDbLine
 62
7
  6
CONTINUOUS
 10
259.7379689838
 20
150.4089358466
 11
260.9528618809
 21
143.5189358466
  0
LINE
  5
2F0
100
AcDbEntity
  8
0
100
AcDbLine
 62
7
  6
CONTINUOUS
 10
261.8141118809
 20
143.6707974587
 11
260.5992189838
 21
150.5607974587
  0
LINE
  5
2F1
100
AcDbEntity
  8
0
100
AcDbLine
 62
7
  6
CONTINUOUS
 10
261.747551222
 20
150.7632794151
 11
262.9624441191
 21
143.8732794151
  0
LINE
  5
2F2
100
AcDbEntity
  8
0
100
AcDbLine
 62
7
  6
CONTINUOUS
 10
263.8236941191
 20
144.0251410272
 11
263.2808696254
 21
147.1036517092
  0
LINE
  5
2F3
100
AcDbEntity
  8
0
100
AcDbLine
 62
7
  6
CONTINUOUS
 10
263.1257769337
 20
147.9832260725
 11
262.7380451318
 21
150.1821623912
  0
LINE
  5
2F4
100
AcDbEntity
  8
0
100
AcDbLine
 62
7
  6
CONTINUOUS
 10
266.4816805854
 20
149.9353449383
 11
266.5592270037
 21
149.495557346
  0
LINE
  5
2F5
100
AcDbEntity
  8
0
100
AcDbLine
 62
7
  6
CONTINUOUS
 10
267.4463257857
 20
149.500823231
 11
267.3429305854
 21
150.0872065505
  0
LINE
  5
2F6
100
AcDbEntity
  8
0
100
AcDbLine
 62
7
  6
CONTINUOUS
 10
251.8999441191
 20
384.4901988083
 11
251.8999441191
 21
474.4901988083
  0
LINE
  5
2F7
100
AcDbEntity
  8
0
100
AcDbLine
 62
7
  6
CONTINUOUS
 10
244.9619805878
 20
145.2339193992
 11
245.002126579
 21
145.8456124802
  0
LINE
  5
2F8
100
AcDbEntity
  8
0
100
AcDbLine
 62
7
  6
CONTINUOUS
 10
245.6741949644
 20
142.0341232649
 11
245.7401913622
 21
142.4992210109
  0
LINE
  5
2F9
100
AcDbEntity
  8
KONSTRUKTIONSELEMENTE
100
AcDbLine
 62
7
  6
CONTINUOUS
 10
320.8499441191
 20
277.7901986295
 11
319.6278661804
 21
277.7901986295
  0
LINE
  5
2FA
100
AcDbEntity
  8
KONSTRUKTIONSELEMENTE
100
AcDbLine
 62
7
  6
CONTINUOUS
 10
320.8499441191
 20
279.2901988083
 11
320.3233347344
 21
279.2901988083
  0
LINE
  5
2FB
100
AcDbEntity
  8
KONSTRUKTIONSELEMENTE
100
AcDbLine
 62
7
  6
CONTINUOUS
 10
320.8499441191
 20
279.477699166
 11
320.186049506
 21
279.477699166
  0
LINE
  5
2FC
100
AcDbEntity
  8
KONSTRUKTIONSELEMENTE
100
AcDbLine
 62
7
  6
CONTINUOUS
 10
320.8499441191
 20
279.8526988083
 11
320.0249998588
 21
279.8526988083
  0
LINE
  5
2FD
100
AcDbEntity
  8
KONSTRUKTIONSELEMENTE
100
AcDbLine
 62
7
  6
CONTINUOUS
 10
320.8499441191
 20
280.602699166
 11
319.8166077226
 21
280.602699166
  0
LINE
  5
2FE
100
AcDbEntity
  8
KONSTRUKTIONSELEMENTE
100
AcDbLine
 62
7
  6
CONTINUOUS
 10
320.8499441191
 20
281.3526984507
 11
319.6939558388
 21
281.3526984507
  0
LINE
  5
2FF
100
AcDbEntity
  8
KONSTRUKTIONSELEMENTE
100
AcDbLine
 62
7
  6
CONTINUOUS
 10
320.8499441191
 20
282.290199166
 11
319.6278661804
 21
282.290199166
  0
LINE
  5
300
100
AcDbEntity
  8
KONSTRUKTIONSELEMENTE
100
AcDbLine
 62
7
  6
CONTINUOUS
 10
320.8499441191
 20
283.977699166
 11
319.6278661804
 21
283.977699166
  0
LINE
  5
301
100
AcDbEntity
  8
KONSTRUKTIONSELEMENTE
100
AcDbLine
 62
7
  6
CONTINUOUS
 10
320.8499441191
 20
284.9151988083
 11
319.6939558388
 21
284.9151988083
  0
LINE
  5
302
100
AcDbEntity
  8
KONSTRUKTIONSELEMENTE
100
AcDbLine
 62
7
  6
CONTINUOUS
 10
320.8499441191
 20
285.665199166
 11
319.8166077226
 21
285.665199166
  0
LINE
  5
303
100
AcDbEntity
  8
KONSTRUKTIONSELEMENTE
100
AcDbLine
 62
7
  6
CONTINUOUS
 10
320.8499441191
 20
286.4151984507
 11
320.0249998588
 21
286.4151984507
  0
LINE
  5
304
100
AcDbEntity
  8
KONSTRUKTIONSELEMENTE
100
AcDbLine
 62
7
  6
CONTINUOUS
 10
320.8499441191
 20
286.6026988083
 11
320.2191270868
 21
286.6026988083
  0
LINE
  5
305
100
AcDbEntity
  8
KONSTRUKTIONSELEMENTE
100
AcDbLine
 62
7
  6
CONTINUOUS
 10
320.8499441191
 20
287.1651988083
 11
320.3999441191
 21
287.1651988083
  0
LINE
  5
306
100
AcDbEntity
  8
KONSTRUKTIONSELEMENTE
100
AcDbLine
 62
7
  6
CONTINUOUS
 10
320.8499441191
 20
287.7276988083
 11
320.3999441191
 21
287.7276988083
  0
LINE
  5
307
100
AcDbEntity
  8
KONSTRUKTIONSELEMENTE
100
AcDbLine
 62
7
  6
CONTINUOUS
 10
320.8499441191
 20
288.1026984507
 11
320.3968880926
 21
288.1026984507
  0
LINE
  5
308
100
AcDbEntity
  8
KONSTRUKTIONSELEMENTE
100
AcDbLine
 62
7
  6
CONTINUOUS
 10
320.8499441191
 20
290.7276980931
 11
320.3968880926
 21
290.7276980931
  0
LINE
  5
309
100
AcDbEntity
  8
KONSTRUKTIONSELEMENTE
100
AcDbLine
 62
7
  6
CONTINUOUS
 10
320.8499441191
 20
292.2276988083
 11
320.3999441191
 21
292.2276988083
  0
LINE
  5
30A
100
AcDbEntity
  8
KONSTRUKTIONSELEMENTE
100
AcDbLine
 62
7
  6
CONTINUOUS
 10
320.8499441191
 20
292.7901988083
 11
320.186049506
 21
292.7901988083
  0
LINE
  5
30B
100
AcDbEntity
  8
KONSTRUKTIONSELEMENTE
100
AcDbLine
 62
7
  6
CONTINUOUS
 10
320.8499441191
 20
292.9776980931
 11
320.0249998588
 21
292.9776980931
  0
LINE
  5
30C
100
AcDbEntity
  8
KONSTRUKTIONSELEMENTE
100
AcDbLine
 62
7
  6
CONTINUOUS
 10
320.8499441191
 20
293.7276995236
 11
319.8166077226
 21
293.7276995236
  0
LINE
  5
30D
100
AcDbEntity
  8
KONSTRUKTIONSELEMENTE
100
AcDbLine
 62
7
  6
CONTINUOUS
 10
320.8499441191
 20
294.4776988083
 11
319.6939558388
 21
294.4776988083
  0
LINE
  5
30E
100
AcDbEntity
  8
KONSTRUKTIONSELEMENTE
100
AcDbLine
 62
7
  6
CONTINUOUS
 10
320.8499441191
 20
295.2276980931
 11
319.6278661804
 21
295.2276980931
  0
LINE
  5
30F
100
AcDbEntity
  8
KONSTRUKTIONSELEMENTE
100
AcDbLine
 62
7
  6
CONTINUOUS
 10
320.8499441191
 20
296.1651988083
 11
319.6278661804
 21
296.1651988083
  0
LINE
  5
310
100
AcDbEntity
  8
KONSTRUKTIONSELEMENTE
100
AcDbLine
 62
7
  6
CONTINUOUS
 10
320.8499441191
 20
297.1026995236
 11
319.6939558388
 21
297.1026995236
  0
LINE
  5
311
100
AcDbEntity
  8
KONSTRUKTIONSELEMENTE
100
AcDbLine
 62
7
  6
CONTINUOUS
 10
320.8499441191
 20
297.8526988083
 11
319.8732600225
 21
297.8526988083
  0
LINE
  5
312
100
AcDbEntity
  8
KONSTRUKTIONSELEMENTE
100
AcDbLine
 62
7
  6
CONTINUOUS
 10
320.8499441191
 20
298.4151988083
 11
320.0696240589
 21
298.4151988083
  0
LINE
  5
313
100
AcDbEntity
  8
KONSTRUKTIONSELEMENTE
100
AcDbLine
 62
7
  6
CONTINUOUS
 10
320.8499441191
 20
298.6026980931
 11
320.186049506
 21
298.6026980931
  0
LINE
  5
314
100
AcDbEntity
  8
KONSTRUKTIONSELEMENTE
100
AcDbLine
 62
7
  6
CONTINUOUS
 10
320.8499441191
 20
298.7901995236
 11
320.3999441191
 21
298.7901995236
  0
LINE
  5
315
100
AcDbEntity
  8
KONSTRUKTIONSELEMENTE
100
AcDbLine
 62
7
  6
CONTINUOUS
 10
320.8499441191
 20
299.1651980931
 11
320.3999441191
 21
299.1651980931
  0
LINE
  5
316
100
AcDbEntity
  8
RUNDUNGEN
100
AcDbLine
 62
7
  6
CONTINUOUS
 10
438.7114866918
 20
121.3326370465
 11
439.6035569101
 21
120.4405668282
  0
LINE
  5
317
100
AcDbEntity
  8
BEZUGSACHSEN
100
AcDbLine
 62
7
  6
CONTINUOUS
 10
438.7114866918
 20
121.3326370465
 11
439.6035569101
 21
120.4405668282
  0
LINE
  5
318
100
AcDbEntity
  8
0
100
AcDbLine
 62
7
  6
CONTINUOUS
 10
321.0886941191
 20
156.9727522928
 11
320.6511932846
 21
157.8663692075
  0
LINE
  5
319
100
AcDbEntity
  8
0
100
AcDbLine
 62
7
  6
CONTINUOUS
 10
299.4324441191
 20
157.6429649789
 11
299.6511939105
 21
156.9727522928
  0
LINE
  5
31A
100
AcDbEntity
  8
0
100
AcDbLine
 62
7
  6
CONTINUOUS
 10
300.9636939105
 20
156.9727522928
 11
300.7449441191
 21
157.6429649789
  0
LINE
  5
31B
100
AcDbEntity
  8
0
100
AcDbLine
 62
7
  6
CONTINUOUS
 10
304.4636937019
 20
151.6110498655
 11
304.2449445363
 21
152.5046667803
  0
LINE
  5
31C
100
AcDbEntity
  8
0
100
AcDbLine
 62
7
  6
CONTINUOUS
 10
292.8699441191
 20
159.4301988083
 11
292.8699441191
 21
148.9301988083
  0
LINE
  5
31D
100
AcDbEntity
  8
BEZUGSACHSEN
100
AcDbLine
 62
7
  6
CONTINUOUS
 10
293.3999441191
 20
308.5401988083
 11
293.3999441191
 21
259.7259231754
  0
LINE
  5
31E
100
AcDbEntity
  8
KONSTRUKTIONSELEMENTE
100
AcDbLine
 62
7
  6
CONTINUOUS
 10
293.3999441191
 20
308.5401988083
 11
293.3999441191
 21
345.8901324503
  0
LINE
  5
31F
100
AcDbEntity
  8
0
100
AcDbLine
 62
7
  6
CONTINUOUS
 10
266.5592270037
 20
149.495557346
 11
266.4932305878
 21
149.0304597026
  0
LINE
  5
320
100
AcDbEntity
  8
0
100
AcDbLine
 62
7
  6
CONTINUOUS
 10
267.3803293697
 20
149.0357255875
 11
267.4463257857
 21
149.500823231
  0
LINE
  5
321
100
AcDbEntity
  8
0
100
AcDbLine
 62
7
  6
CONTINUOUS
 10
257.5078618809
 20
142.911489398
 11
258.5896334602
 21
150.2064533108
  0
LINE
  5
322
100
AcDbEntity
  8
0
100
AcDbLine
 62
7
  6
CONTINUOUS
 10
257.7283834602
 20
150.0545916987
 11
256.7786014092
 21
143.6898225961
  0
LINE
  5
323
100
AcDbEntity
  8
0
100
AcDbLine
 62
7
  6
CONTINUOUS
 10
244.2844193408
 20
145.7190613299
 11
244.1007305878
 21
145.0820577871
  0
LINE
  5
324
100
AcDbEntity
  8
0
100
AcDbLine
 62
7
  6
CONTINUOUS
 10
245.0224824813
 20
142.3726695709
 11
244.9306389261
 21
142.0541679444
  0
LINE
  5
325
100
AcDbEntity
  8
KONSTRUKTIONSELEMENTE
100
AcDbLine
 62
7
  6
CONTINUOUS
 10
320.8499441191
 20
300.6651988083
 11
320.3233347344
 21
300.6651988083
  0
LINE
  5
326
100
AcDbEntity
  8
KONSTRUKTIONSELEMENTE
100
AcDbLine
 62
7
  6
CONTINUOUS
 10
320.8499441191
 20
300.8526980931
 11
320.186049506
 21
300.8526980931
  0
LINE
  5
327
100
AcDbEntity
  8
KONSTRUKTIONSELEMENTE
100
AcDbLine
 62
7
  6
CONTINUOUS
 10
320.8499441191
 20
301.2276988083
 11
320.0249998588
 21
301.2276988083
  0
LINE
  5
328
100
AcDbEntity
  8
KONSTRUKTIONSELEMENTE
100
AcDbLine
 62
7
  6
CONTINUOUS
 10
320.8499441191
 20
301.9776980931
 11
319.8166077226
 21
301.9776980931
  0
LINE
  5
329
100
AcDbEntity
  8
KONSTRUKTIONSELEMENTE
100
AcDbLine
 62
7
  6
CONTINUOUS
 10
320.8499441191
 20
302.7276995236
 11
319.6939558388
 21
302.7276995236
  0
LINE
  5
32A
100
AcDbEntity
  8
KONSTRUKTIONSELEMENTE
100
AcDbLine
 62
7
  6
CONTINUOUS
 10
320.8499441191
 20
303.6651980931
 11
319.6278661804
 21
303.6651980931
  0
LINE
  5
32B
100
AcDbEntity
  8
KONSTRUKTIONSELEMENTE
100
AcDbLine
 62
7
  6
CONTINUOUS
 10
320.8499441191
 20
305.3526980931
 11
319.6278661804
 21
305.3526980931
  0
LINE
  5
32C
100
AcDbEntity
  8
KONSTRUKTIONSELEMENTE
100
AcDbLine
 62
7
  6
CONTINUOUS
 10
320.8499441191
 20
306.2901988083
 11
319.6939558388
 21
306.2901988083
  0
LINE
  5
32D
100
AcDbEntity
  8
KONSTRUKTIONSELEMENTE
100
AcDbLine
 62
7
  6
CONTINUOUS
 10
320.8499441191
 20
307.0402002389
 11
319.8166077226
 21
307.0402002389
  0
LINE
  5
32E
100
AcDbEntity
  8
KONSTRUKTIONSELEMENTE
100
AcDbLine
 62
7
  6
CONTINUOUS
 10
320.8499441191
 20
307.7901973778
 11
320.0249998588
 21
307.7901973778
  0
LINE
  5
32F
100
AcDbEntity
  8
KONSTRUKTIONSELEMENTE
100
AcDbLine
 62
7
  6
CONTINUOUS
 10
320.8499441191
 20
307.9776988083
 11
320.2191270868
 21
307.9776988083
  0
LINE
  5
330
100
AcDbEntity
  8
KONSTRUKTIONSELEMENTE
100
AcDbLine
 62
7
  6
CONTINUOUS
 10
320.8499441191
 20
309.4776973778
 11
319.6278661804
 21
309.4776973778
  0
LINE
  5
331
100
AcDbEntity
  8
KONSTRUKTIONSELEMENTE
100
AcDbLine
 62
7
  6
CONTINUOUS
 10
320.8499441191
 20
310.6026973778
 11
319.6278661804
 21
310.6026973778
  0
LINE
  5
332
100
AcDbEntity
  8
KONSTRUKTIONSELEMENTE
100
AcDbLine
 62
7
  6
CONTINUOUS
 10
320.8499441191
 20
315.8526988083
 11
319.5288667645
 21
315.8526988083
  0
LINE
  5
333
100
AcDbEntity
  8
KONSTRUKTIONSELEMENTE
100
AcDbLine
 62
7
  6
CONTINUOUS
 10
320.8499441191
 20
316.9776988083
 11
319.4721928698
 21
316.9776988083
  0
LINE
  5
334
100
AcDbEntity
  8
RUNDUNGEN
100
AcDbLine
 62
7
  6
CONTINUOUS
 10
439.7976480745
 20
120.2317911076
 11
439.793217495
 21
120.2369070371
  0
LINE
  5
335
100
AcDbEntity
  8
RUNDUNGEN
100
AcDbLine
 62
7
  6
CONTINUOUS
 10
439.8354965416
 20
120.1872930582
 11
439.8172371468
 21
120.2089337112
  0
LINE
  5
336
100
AcDbEntity
  8
RUNDUNGEN
100
AcDbLine
 62
7
  6
CONTINUOUS
 10
439.8763625842
 20
120.1377529567
 11
439.8574967715
 21
120.1608407551
  0
LINE
  5
337
100
AcDbEntity
  8
BEZUGSACHSEN
100
AcDbLine
 62
7
  6
CONTINUOUS
 10
340.5950916311
 20
194.6901988083
 11
348.8269504666
 21
178.1796442621
  0
LINE
  5
338
100
AcDbEntity
  8
0
100
AcDbLine
 62
7
  6
CONTINUOUS
 10
319.7761941191
 20
156.7493474383
 11
319.9949432846
 21
155.8557305235
  0
LINE
  5
339
100
AcDbEntity
  8
0
100
AcDbLine
 62
7
  6
CONTINUOUS
 10
302.9324439105
 20
152.5046667803
 11
303.1511943277
 21
151.3876456368
  0
LINE
  5
33A
100
AcDbEntity
  8
0
100
AcDbLine
 62
7
  6
CONTINUOUS
 10
321.3074432846
 20
155.8557305235
 11
321.0886941191
 21
156.9727522928
  0
LINE
  5
33B
100
AcDbEntity
  8
BEZUGSACHSEN
100
AcDbLine
 62
7
  6
CONTINUOUS
 10
317.1451866014
 20
161.5865413806
 11
315.4955289136
 21
170.9422150342
  0
LINE
  5
33C
100
AcDbEntity
  8
0
100
AcDbLine
 62
7
  6
CONTINUOUS
 10
294.1824441191
 20
148.9301988083
 11
294.1824441191
 21
153.6216882366
  0
LINE
  5
33D
100
AcDbEntity
  8
0
100
AcDbLine
 62
7
  6
CONTINUOUS
 10
294.1824441191
 20
154.9621136088
 11
294.1824441191
 21
158.3131776649
  0
LINE
  5
33E
100
AcDbEntity
  8
0
100
AcDbLine
 62
7
  6
CONTINUOUS
 10
299.6511939105
 20
156.9727522928
 11
299.6511939105
 21
156.3025389809
  0
LINE
  5
33F
100
AcDbEntity
  8
0
100
AcDbLine
 62
7
  6
CONTINUOUS
 10
300.9636939105
 20
156.0791347522
 11
300.9636939105
 21
156.9727522928
  0
LINE
  5
340
100
AcDbEntity
  8
KONSTRUKTIONSELEMENTE
100
AcDbLine
 62
7
  6
CONTINUOUS
 10
302.3999441191
 20
243.6951486969
 11
302.3999441191
 21
203.2852489198
  0
LINE
  5
341
100
AcDbEntity
  8
0
100
AcDbLine
 62
7
  6
CONTINUOUS
 10
302.9324439105
 20
159.4301988083
 11
302.9324439105
 21
152.5046667803
  0
LINE
  5
342
100
AcDbEntity
  8
0
100
AcDbLine
 62
7
  6
CONTINUOUS
 10
304.2449445363
 20
152.5046667803
 11
304.2449445363
 21
159.4301988083
  0
LINE
  5
343
100
AcDbEntity
  8
0
100
AcDbLine
 62
7
  6
CONTINUOUS
 10
309.4949445363
 20
159.4301988083
 11
309.4949445363
 21
152.5046667803
  0
LINE
  5
344
100
AcDbEntity
  8
0
100
AcDbLine
 62
7
  6
CONTINUOUS
 10
310.8074445363
 20
152.5046667803
 11
310.8074445363
 21
159.4301988083
  0
LINE
  5
345
100
AcDbEntity
  8
KONSTRUKTIONSELEMENTE
100
AcDbLine
 62
7
  6
CONTINUOUS
 10
311.3999441191
 20
203.2852489198
 11
311.3999441191
 21
243.6951486969
  0
LINE
  5
346
100
AcDbEntity
  8
0
100
AcDbLine
 62
7
  6
CONTINUOUS
 10
312.5574441191
 20
159.4301988083
 11
312.5574441191
 21
148.9301988083
  0
LINE
  5
347
100
AcDbEntity
  8
0
100
AcDbLine
 62
7
  6
CONTINUOUS
 10
313.8699441191
 20
150.2706243369
 11
313.8699441191
 21
158.0897734362
  0
LINE
  5
348
100
AcDbEntity
  8
0
100
AcDbLine
 62
7
  6
CONTINUOUS
 10
240.7877217045
 20
145.4048067464
 11
240.9972575968
 21
145.8952142723
  0
LINE
  5
349
100
AcDbEntity
  8
0
100
AcDbLine
 62
7
  6
CONTINUOUS
 10
244.7524430528
 20
144.7435115837
 11
244.9619805878
 21
145.2339193992
  0
LINE
  5
34A
100
AcDbEntity
  8
0
100
AcDbLine
 62
7
  6
CONTINUOUS
 10
245.4646590721
 20
141.543715739
 11
245.6741949644
 21
142.0341232649
  0
LINE
  5
34B
100
AcDbEntity
  8
RUNDUNGEN
100
AcDbLine
 62
7
  6
CONTINUOUS
 10
238.329713643
 20
162.8412975122
 11
257.1187893455
 21
200.5263532765
  0
LWPOLYLINE
  5
34C
100
AcDbEntity
  8
RUNDUNGEN
100
AcDbPolyline
 62
7
  6
CONTINUOUS
 90
9
 70
0
 10
440.0795740752
 20
119.8634404701
 10
440.0509216033
 20
119.9052880416
 10
440.0227611721
 20
119.9453130905
 10
439.9953612665
 20
119.9832560722
 10
439.9689550008
 20
120.0189342792
 10
439.9436977126
 20
120.0522867183
 10
439.9197478003
 20
120.083247785
 10
439.8972933471
 20
120.1117068825
 10
439.8763625842
 20
120.1377529567
  0
LINE
  5
34D
100
AcDbEntity
  8
BEZUGSACHSEN
100
AcDbLine
 62
7
  6
CONTINUOUS
 10
375.4701745952
 20
162.8412975122
 11
356.6810988926
 21
200.5263532765
  0
LINE
  5
34E
100
AcDbEntity
  8
KONSTRUKTIONSELEMENTE
100
AcDbLine
 62
7
  6
CONTINUOUS
 10
319.6278661804
 20
310.6026973778
 11
319.6278661804
 21
309.4776973778
  0
LINE
  5
34F
100
AcDbEntity
  8
KONSTRUKTIONSELEMENTE
100
AcDbLine
 62
7
  6
CONTINUOUS
 10
319.6278661804
 20
305.3526980931
 11
319.6278661804
 21
303.6651980931
  0
LINE
  5
350
100
AcDbEntity
  8
KONSTRUKTIONSELEMENTE
100
AcDbLine
 62
7
  6
CONTINUOUS
 10
319.6278661804
 20
296.1651988083
 11
319.6278661804
 21
295.2276980931
  0
LINE
  5
351
100
AcDbEntity
  8
KONSTRUKTIONSELEMENTE
100
AcDbLine
 62
7
  6
CONTINUOUS
 10
319.6278661804
 20
283.977699166
 11
319.6278661804
 21
282.290199166
  0
LINE
  5
352
100
AcDbEntity
  8
KONSTRUKTIONSELEMENTE
100
AcDbLine
 62
7
  6
CONTINUOUS
 10
319.6278661804
 20
277.7901986295
 11
319.6278661804
 21
276.6651986295
  0
LINE
  5
353
100
AcDbEntity
  8
KONSTRUKTIONSELEMENTE
100
AcDbLine
 62
7
  6
CONTINUOUS
 10
319.6278661804
 20
271.4151988083
 11
319.6278661804
 21
270.2901988083
  0
LINE
  5
354
100
AcDbEntity
  8
0
100
AcDbLine
 62
7
  6
CONTINUOUS
 10
319.9949432846
 20
155.8557305235
 11
319.9949432846
 21
152.5046667803
  0
LINE
  5
355
100
AcDbEntity
  8
KONSTRUKTIONSELEMENTE
100
AcDbLine
 62
7
  6
CONTINUOUS
 10
320.3724149251
 20
311.2401988083
 11
320.3724149251
 21
310.6026973778
  0
LINE
  5
356
100
AcDbEntity
  8
KONSTRUKTIONSELEMENTE
100
AcDbLine
 62
7
  6
CONTINUOUS
 10
320.3999441191
 20
345.8901735489
 11
320.3999441191
 21
316.9776988083
  0
LINE
  5
357
100
AcDbEntity
  8
KONSTRUKTIONSELEMENTE
100
AcDbLine
 62
7
  6
CONTINUOUS
 10
320.3999441191
 20
309.4776973778
 11
320.3999441191
 21
308.5401988083
  0
LINE
  5
358
100
AcDbEntity
  8
BEZUGSACHSEN
100
AcDbLine
 62
7
  6
CONTINUOUS
 10
320.3999441191
 20
309.4776973778
 11
320.3999441191
 21
307.9776988083
  0
LINE
  5
359
100
AcDbEntity
  8
BEZUGSACHSEN
100
AcDbLine
 62
7
  6
CONTINUOUS
 10
320.3999441191
 20
300.6651988083
 11
320.3999441191
 21
298.6026980931
  0
LINE
  5
35A
100
AcDbEntity
  8
BEZUGSACHSEN
100
AcDbLine
 62
7
  6
CONTINUOUS
 10
320.3999441191
 20
292.7901988083
 11
320.3999441191
 21
286.6026988083
  0
LINE
  5
35B
100
AcDbEntity
  8
BEZUGSACHSEN
100
AcDbLine
 62
7
  6
CONTINUOUS
 10
320.3999441191
 20
279.2901988083
 11
320.3999441191
 21
277.7901986295
  0
LINE
  5
35C
100
AcDbEntity
  8
BEZUGSACHSEN
100
AcDbLine
 62
7
  6
CONTINUOUS
 10
320.3999441191
 20
275.1605244065
 11
320.3999441191
 21
272.9198730314
  0
LINE
  5
35D
100
AcDbEntity
  8
BEZUGSACHSEN
100
AcDbLine
 62
7
  6
CONTINUOUS
 10
320.3999441191
 20
270.2901988083
 11
320.3999441191
 21
259.7267121415
  0
LINE
  5
35E
100
AcDbEntity
  8
KONSTRUKTIONSELEMENTE
100
AcDbLine
 62
7
  6
CONTINUOUS
 10
320.8499441191
 20
270.2901988083
 11
320.8499441191
 21
277.7901986295
  0
LINE
  5
35F
100
AcDbEntity
  8
KONSTRUKTIONSELEMENTE
100
AcDbLine
 62
7
  6
CONTINUOUS
 10
320.8499441191
 20
279.2901988083
 11
320.8499441191
 21
299.1651980931
  0
LINE
  5
360
100
AcDbEntity
  8
KONSTRUKTIONSELEMENTE
100
AcDbLine
 62
7
  6
CONTINUOUS
 10
320.8499441191
 20
300.6651988083
 11
320.8499441191
 21
307.9776988083
  0
LINE
  5
361
100
AcDbEntity
  8
KONSTRUKTIONSELEMENTE
100
AcDbLine
 62
7
  6
CONTINUOUS
 10
320.8499441191
 20
309.4776973778
 11
320.8499441191
 21
316.9776988083
  0
LINE
  5
362
100
AcDbEntity
  8
0
100
AcDbLine
 62
7
  6
CONTINUOUS
 10
321.3074432846
 20
152.5046667803
 11
321.3074432846
 21
155.8557305235
  0
LINE
  5
363
100
AcDbEntity
  8
0
100
AcDbLine
 62
7
  6
CONTINUOUS
 10
296.6547016367
 20
161.5865413806
 11
298.3043593246
 21
170.9422150342
  0
LINE
  5
364
100
AcDbEntity
  8
0
100
AcDbLine
 62
7
  6
CONTINUOUS
 10
310.5886941191
 20
151.3876456368
 11
310.8074445363
 21
152.5046667803
  0
LINE
  5
365
100
AcDbEntity
  8
0
100
AcDbLine
 62
7
  6
CONTINUOUS
 10
267.0530994976
 20
148.3734118727
 11
267.3803293697
 21
149.0357255875
  0
LINE
  5
366
100
AcDbEntity
  8
0
100
AcDbLine
 62
7
  6
CONTINUOUS
 10
273.2047966071
 20
194.6901988083
 11
264.9729377716
 21
178.1796442621
  0
LINE
  5
367
100
AcDbEntity
  8
0
100
AcDbLine
 62
7
  6
CONTINUOUS
 10
237.632551222
 20
146.5111542753
 11
236.9522426957
 21
145.3331225727
  0
LINE
  5
368
100
AcDbEntity
  8
0
100
AcDbLine
 62
7
  6
CONTINUOUS
 10
237.1590330239
 20
144.1603563444
 11
237.8393414777
 21
145.3383884577
  0
LINE
  5
369
100
AcDbEntity
  8
0
100
AcDbLine
 62
7
  6
CONTINUOUS
 10
240.5809314488
 20
146.577572564
 11
240.1101588148
 21
145.8899483874
  0
LINE
  5
36A
100
AcDbEntity
  8
0
100
AcDbLine
 62
7
  6
CONTINUOUS
 10
244.1007305878
 20
145.0820577871
 11
243.8653442708
 21
144.7382456988
  0
LINE
  5
36B
100
AcDbEntity
  8
0
100
AcDbLine
 62
7
  6
CONTINUOUS
 10
244.9306389261
 20
142.0541679444
 11
244.6952526272
 21
141.7103557534
  0
LINE
  5
36C
100
AcDbEntity
  8
BEZUGSACHSEN
100
AcDbLine
 62
7
  6
CONTINUOUS
 10
175.0884015464
 20
121.3326370465
 11
174.1963313281
 21
120.4405668282
  0
LINE
  5
36D
100
AcDbEntity
  8
BEZUGSACHSEN
100
AcDbLine
 62
7
  6
CONTINUOUS
 10
258.9655384483
 20
233.9131644972
 11
172.1083049582
 21
193.4109713546
  0
LWPOLYLINE
  5
36E
100
AcDbEntity
  8
RUNDUNGEN
100
AcDbPolyline
 62
7
  6
CONTINUOUS
 90
4
 70
0
 10
440.1689011345
 20
119.7249866446
 10
440.1386557627
 20
119.7733138592
 10
440.1088083729
 20
119.8195177481
 10
440.0795740752
 20
119.8634404701
  0
LINE
  5
36F
100
AcDbEntity
  8
RUNDUNGEN
100
AcDbLine
 62
7
  6
CONTINUOUS
 10
440.1994031242
 20
119.6745970055
 11
440.1689011345
 21
119.7249866446
  0
LINE
  5
370
100
AcDbEntity
  8
0
100
AcDbLine
 62
7
  6
CONTINUOUS
 10
321.0886941191
 20
151.3876456368
 11
321.3074432846
 21
152.5046667803
  0
LINE
  5
371
100
AcDbEntity
  8
0
100
AcDbLine
 62
7
  6
CONTINUOUS
 10
309.4949445363
 20
152.5046667803
 11
309.2761941191
 21
151.6110498655
  0
LINE
  5
372
100
AcDbEntity
  8
0
100
AcDbLine
 62
7
  6
CONTINUOUS
 10
319.9949432846
 20
152.5046667803
 11
319.7761941191
 21
151.6110498655
  0
LINE
  5
373
100
AcDbEntity
  8
0
100
AcDbLine
 62
7
  6
CONTINUOUS
 10
299.6511939105
 20
156.3025389809
 11
299.4324441191
 21
155.6323262948
  0
LINE
  5
374
100
AcDbEntity
  8
0
100
AcDbLine
 62
7
  6
CONTINUOUS
 10
300.7449441191
 20
155.4089220661
 11
300.9636939105
 21
156.0791347522
  0
LINE
  5
375
100
AcDbEntity
  8
0
100
AcDbLine
 62
7
  6
CONTINUOUS
 10
266.4932305878
 20
149.0304597026
 11
266.2578459135
 21
148.6866479039
  0
LINE
  5
376
100
AcDbEntity
  8
RUNDUNGEN
100
AcDbLine
 62
7
  6
CONTINUOUS
 10
199.7927787904
 20
81.1429839847
 11
199.8047985327
 21
81.1569014251
  0
LINE
  5
377
100
AcDbEntity
  8
0
100
AcDbLine
 62
7
  6
CONTINUOUS
 10
244.2558232796
 20
144.2024834239
 11
244.7524430528
 21
144.7435115837
  0
LINE
  5
378
100
AcDbEntity
  8
0
100
AcDbLine
 62
7
  6
CONTINUOUS
 10
240.9972575968
 20
145.8952142723
 11
241.3761850329
 21
146.2643365328
  0
LINE
  5
379
100
AcDbEntity
  8
RUNDUNGEN
100
AcDbLine
 62
7
  6
CONTINUOUS
 10
247.8959209821
 20
209.9938924776
 11
218.0284768229
 21
196.0664745366
  0
LINE
  5
37A
100
AcDbEntity
  8
0
100
AcDbLine
 62
7
  6
CONTINUOUS
 10
361.8999441191
 20
474.4901988083
 11
361.8999441191
 21
384.4901988083
  0
LINE
  5
37B
100
AcDbEntity
  8
0
100
AcDbLine
 62
7
  6
CONTINUOUS
 10
310.1511945363
 20
150.4940285656
 11
310.5886941191
 21
151.3876456368
  0
LINE
  5
37C
100
AcDbEntity
  8
0
100
AcDbLine
 62
7
  6
CONTINUOUS
 10
320.6511932846
 20
150.4940285656
 11
321.0886941191
 21
151.3876456368
  0
LINE
  5
37D
100
AcDbEntity
  8
0
100
AcDbLine
 62
7
  6
CONTINUOUS
 10
300.0886941191
 20
154.5153051514
 11
300.7449441191
 21
155.4089220661
  0
LINE
  5
37E
100
AcDbEntity
  8
0
100
AcDbLine
 62
7
  6
CONTINUOUS
 10
266.5564780817
 20
147.8323834232
 11
267.0530994976
 21
148.3734118727
  0
LINE
  5
37F
100
AcDbEntity
  8
RUNDUNGEN
100
AcDbLine
 62
7
  6
CONTINUOUS
 10
199.603523263
 20
80.9397971415
 11
198.7114948364
 21
80.0477687148
  0
LINE
  5
380
100
AcDbEntity
  8
0
100
AcDbLine
 62
7
  6
CONTINUOUS
 10
245.085731645
 20
141.1745934271
 11
245.4646590721
 21
141.543715739
  0
LINE
  5
381
100
AcDbEntity
  8
0
100
AcDbLine
 62
7
  6
CONTINUOUS
 10
241.103400004
 20
146.9720049967
 11
240.5809314488
 21
146.577572564
  0
LINE
  5
382
100
AcDbEntity
  8
0
100
AcDbLine
 62
7
  6
CONTINUOUS
 10
244.6952526272
 20
141.7103557534
 11
244.4340175283
 21
141.5131393922
  0
LINE
  5
383
100
AcDbEntity
  8
0
100
AcDbLine
 62
7
  6
CONTINUOUS
 10
244.563261454
 20
140.7801606664
 11
245.085731645
 21
141.1745934271
  0
LINE
  5
384
100
AcDbEntity
  8
0
100
AcDbLine
 62
7
  6
CONTINUOUS
 10
393.8999441191
 20
474.4901988083
 11
393.8999441191
 21
384.4901988083
  0
LINE
  5
385
100
AcDbEntity
  8
0
100
AcDbLine
 62
7
  6
CONTINUOUS
 10
309.2761941191
 20
151.6110498655
 11
308.8386945363
 21
150.9408371795
  0
LINE
  5
386
100
AcDbEntity
  8
0
100
AcDbLine
 62
7
  6
CONTINUOUS
 10
319.7761941191
 20
151.6110498655
 11
319.3386932846
 21
150.9408371795
  0
LINE
  5
387
100
AcDbEntity
  8
0
100
AcDbLine
 62
7
  6
CONTINUOUS
 10
299.4324441191
 20
155.6323262948
 11
298.9949439105
 21
155.1855178374
  0
LINE
  5
388
100
AcDbEntity
  8
0
100
AcDbLine
 62
7
  6
CONTINUOUS
 10
309.2761941191
 20
149.6004115726
 11
310.1511945363
 21
150.4940285656
  0
LINE
  5
389
100
AcDbEntity
  8
0
100
AcDbLine
 62
7
  6
CONTINUOUS
 10
243.8653442708
 20
144.7382456988
 11
243.0557918347
 21
144.2931926322
  0
LINE
  5
38A
100
AcDbEntity
  8
0
100
AcDbLine
 62
7
  6
CONTINUOUS
 10
266.2578459135
 20
148.6866479039
 11
265.8530696955
 21
148.4641213707
  0
LINE
  5
38B
100
AcDbEntity
  8
0
100
AcDbLine
 62
7
  6
CONTINUOUS
 10
244.0149441191
 20
140.5323239481
 11
244.563261454
 21
140.7801606664
  0
LINE
  5
38C
100
AcDbEntity
  8
0
100
AcDbLine
 62
7
  6
CONTINUOUS
 10
241.3761850329
 20
146.2643365328
 11
242.0680451318
 21
146.5374837
  0
LINE
  5
38D
100
AcDbEntity
  8
0
100
AcDbLine
 62
7
  6
CONTINUOUS
 10
242.0823423411
 20
147.2957725081
 11
241.103400004
 21
146.9720049967
  0
LINE
  5
38E
100
AcDbEntity
  8
BEZUGSACHSEN
100
AcDbLine
 62
7
  6
CONTINUOUS
 10
416.1966983956
 20
77.8248600672
 11
418.8547164491
 21
58.9120788883
  0
LINE
  5
38F
100
AcDbEntity
  8
BEZUGSACHSEN
100
AcDbLine
 62
7
  6
CONTINUOUS
 10
418.9561479924
 20
118.2866480477
 11
418.9731744144
 21
118.141726768
  0
LWPOLYLINE
  5
390
100
AcDbEntity
  8
RUNDUNGEN
100
AcDbPolyline
 62
7
  6
CONTINUOUS
 90
3
 70
0
 10
418.9499441191
 20
118.4423356283
 10
418.9577948208
 20
118.2672359964
 10
418.9731744126
 20
118.1417267797
  0
LINE
  5
391
100
AcDbEntity
  8
BEZUGSACHSEN
100
AcDbLine
 62
7
  6
CONTINUOUS
 10
418.9499441191
 20
118.4423356302
 11
418.9561479924
 21
118.2866480477
  0
LINE
  5
392
100
AcDbEntity
  8
RUNDUNGEN
100
AcDbLine
 62
7
  6
CONTINUOUS
 10
413.0499441191
 20
115.2123106591
 11
413.0499441191
 21
108.6153970639
  0
LINE
  5
393
100
AcDbEntity
  8
BEZUGSACHSEN
100
AcDbLine
 62
7
  6
CONTINUOUS
 10
413.0499441191
 20
83.7074545198
 11
413.0499441191
 21
117.6729430744
  0
LINE
  5
394
100
AcDbEntity
  8
BEZUGSACHSEN
100
AcDbLine
 62
7
  6
CONTINUOUS
 10
418.9499441191
 20
57.5502603506
 11
418.9499441191
 21
34.7403211141
  0
LINE
  5
395
100
AcDbEntity
  8
RUNDUNGEN
100
AcDbLine
 62
7
  6
CONTINUOUS
 10
418.9499441191
 20
118.4420744213
 11
418.9499441191
 21
166.6400765026
  0
LINE
  5
396
100
AcDbEntity
  8
BEZUGSACHSEN
100
AcDbLine
 62
7
  6
CONTINUOUS
 10
418.9499441191
 20
118.4420743882
 11
418.9499441191
 21
166.6400765026
  0
LINE
  5
397
100
AcDbEntity
  8
0
100
AcDbLine
 62
7
  6
CONTINUOUS
 10
319.7761941191
 20
149.6004115726
 11
320.6511932846
 21
150.4940285656
  0
LINE
  5
398
100
AcDbEntity
  8
0
100
AcDbLine
 62
7
  6
CONTINUOUS
 10
308.8386945363
 20
150.9408371795
 11
308.1824445363
 21
150.4940285656
  0
LINE
  5
399
100
AcDbEntity
  8
0
100
AcDbLine
 62
7
  6
CONTINUOUS
 10
319.3386932846
 20
150.9408371795
 11
318.6824432846
 21
150.4940285656
  0
LINE
  5
39A
100
AcDbEntity
  8
0
100
AcDbLine
 62
7
  6
CONTINUOUS
 10
299.2136943277
 20
154.068496694
 11
300.0886941191
 21
154.5153051514
  0
LINE
  5
39B
100
AcDbEntity
  8
0
100
AcDbLine
 62
7
  6
CONTINUOUS
 10
308.4011937019
 20
149.1536030566
 11
309.2761941191
 21
149.6004115726
  0
LINE
  5
39C
100
AcDbEntity
  8
0
100
AcDbLine
 62
7
  6
CONTINUOUS
 10
318.9011949535
 20
149.1536030566
 11
319.7761941191
 21
149.6004115726
  0
LINE
  5
39D
100
AcDbEntity
  8
0
100
AcDbLine
 62
7
  6
CONTINUOUS
 10
244.4340175283
 20
141.5131393922
 11
243.7421590721
 21
141.2399925147
  0
LINE
  5
39E
100
AcDbEntity
  8
0
100
AcDbLine
 62
7
  6
CONTINUOUS
 10
265.8646196254
 20
147.5592365456
 11
266.5564780817
 21
147.8323834232
  0
LINE
  5
39F
100
AcDbEntity
  8
0
100
AcDbLine
 62
7
  6
CONTINUOUS
 10
298.9949439105
 20
155.1855178374
 11
298.3386939105
 21
154.9621136088
  0
LINE
  5
3A0
100
AcDbEntity
  8
RUNDUNGEN
100
AcDbLine
 62
7
  6
CONTINUOUS
 10
436.954598497
 20
128.1705047719
 11
437.6031896772
 21
123.5555387261
  0
LINE
  5
3A1
100
AcDbEntity
  8
BEZUGSACHSEN
100
AcDbLine
 62
7
  6
CONTINUOUS
 10
436.954598497
 20
128.1705047719
 11
437.6031896772
 21
123.5555387261
  0
LWPOLYLINE
  5
3A2
100
AcDbEntity
  8
RUNDUNGEN
100
AcDbPolyline
 62
7
  6
CONTINUOUS
 90
25
 70
0
 10
440.7397200899
 20
117.9550469447
 10
440.7395279665
 20
117.9582307179
 10
440.7312072873
 20
118.0554185528
 10
440.7206887204
 20
118.1505925892
 10
440.7081052799
 20
118.2437337379
 10
440.6935823083
 20
118.3348336623
 10
440.6772396117
 20
118.4238977239
 10
440.6592023032
 20
118.5108961906
 10
440.6395970944
 20
118.595797109
 10
440.6185429602
 20
118.6786025879
 10
440.5961608501
 20
118.7593010515
 10
440.5725566493
 20
118.8379124661
 10
440.5478264947
 20
118.9144644427
 10
440.5220764672
 20
118.9889502917
 10
440.4954137001
 20
119.0613635648
 10
440.4679395151
 20
119.131715225
 10
440.4397659924
 20
119.1999901178
 10
440.4109684109
 20
119.2662534907
 10
440.3816033855
 20
119.3305827792
 10
440.3517769375
 20
119.3929421504
 10
440.3215822842
 20
119.4533316732
 10
440.2911423679
 20
119.5117002142
 10
440.2606085759
 20
119.5679576982
 10
440.2300251224
 20
119.6222126001
 10
440.1994031242
 20
119.6745970055
  0
LINE
  5
3A3
100
AcDbEntity
  8
RUNDUNGEN
100
AcDbLine
 62
7
  6
CONTINUOUS
 10
434.8499441191
 20
166.6400765026
 11
434.8499441191
 21
118.4423337023
  0
LINE
  5
3A4
100
AcDbEntity
  8
BEZUGSACHSEN
100
AcDbLine
 62
7
  6
CONTINUOUS
 10
434.8499441191
 20
166.6400765026
 11
434.8499441191
 21
118.4423337005
  0
LINE
  5
3A5
100
AcDbEntity
  8
RUNDUNGEN
100
AcDbLine
 62
7
  6
CONTINUOUS
 10
434.8499441191
 20
57.5502603506
 11
434.8499441191
 21
34.7403211141
  0
LINE
  5
3A6
100
AcDbEntity
  8
BEZUGSACHSEN
100
AcDbLine
 62
7
  6
CONTINUOUS
 10
440.7499441191
 20
117.6729430744
 11
440.7499441191
 21
110.7304705796
  0
LINE
  5
3A7
100
AcDbEntity
  8
RUNDUNGEN
100
AcDbLine
 62
7
  6
CONTINUOUS
 10
440.7499441191
 20
117.6729430744
 11
440.7499441191
 21
83.7074545198
  0
LINE
  5
3A8
100
AcDbEntity
  8
RUNDUNGEN
100
AcDbLine
 62
7
  6
CONTINUOUS
 10
434.8420933134
 20
118.2672310484
 11
434.8499441191
 21
118.4423337005
  0
LINE
  5
3A9
100
AcDbEntity
  8
BEZUGSACHSEN
100
AcDbLine
 62
7
  6
CONTINUOUS
 10
416.8113702652
 20
127.9291551596
 11
416.196698561
 21
123.5555387261
  0
LINE
  5
3AA
100
AcDbEntity
  8
BEZUGSACHSEN
100
AcDbLine
 62
7
  6
CONTINUOUS
 10
399.1572380924
 20
186.7639921951
 11
388.0788696357
 21
163.0063543718
  0
LWPOLYLINE
  5
3AB
100
AcDbEntity
  8
BEZUGSACHSEN
100
AcDbPolyline
 62
7
  6
CONTINUOUS
 90
3
 70
0
 10
434.8267135848
 20
118.1417201064
 10
434.8437401614
 20
118.2866434054
 10
434.8499441191
 20
118.4423337023
  0
LINE
  5
3AC
100
AcDbEntity
  8
RUNDUNGEN
100
AcDbLine
 62
7
  6
CONTINUOUS
 10
434.8267135865
 20
118.1417201175
 11
434.8420933134
 21
118.2672310484
  0
LINE
  5
3AD
100
AcDbEntity
  8
RUNDUNGEN
100
AcDbLine
 62
7
  6
CONTINUOUS
 10
437.6031898425
 20
77.8248600672
 11
434.9451717891
 21
58.9120788883
  0
LINE
  5
3AE
100
AcDbEntity
  8
BEZUGSACHSEN
100
AcDbLine
 62
7
  6
CONTINUOUS
 10
415.0884015464
 20
121.3326370465
 11
414.1963313281
 21
120.4405668282
  0
LINE
  5
3AF
100
AcDbEntity
  8
RUNDUNGEN
100
AcDbLine
 62
7
  6
CONTINUOUS
 10
439.7927787904
 20
81.1429839847
 11
439.8047985327
 21
81.1569014251
  0
LINE
  5
3B0
100
AcDbEntity
  8
RUNDUNGEN
100
AcDbLine
 62
7
  6
CONTINUOUS
 10
439.603523263
 20
80.9397971415
 11
438.7114948364
 21
80.0477687148
  0
LINE
  5
3B1
100
AcDbEntity
  8
BEZUGSACHSEN
100
AcDbLine
 62
7
  6
CONTINUOUS
 10
621.1873990988
 20
83.1687988083
 11
614.9866646198
 21
83.1687988083
  0
LINE
  5
3B2
100
AcDbEntity
  8
BEZUGSACHSEN
100
AcDbLine
 62
7
  6
CONTINUOUS
 10
592.2034534198
 20
83.1687988083
 11
586.1971066087
 21
83.1687988083
  0
LINE
  5
3B3
100
AcDbEntity
  8
BEZUGSACHSEN
100
AcDbLine
 62
7
  6
CONTINUOUS
 10
658.9249097045
 20
85.1904988083
 11
673.8801226824
 21
85.1904988083
  0
LINE
  5
3B4
100
AcDbEntity
  8
0
100
AcDbLine
 62
7
  6
CONTINUOUS
 10
673.5431834198
 20
86.5382988083
 11
659.1271146198
 21
86.5382988083
  0
LINE
  5
3B5
100
AcDbEntity
  8
BEZUGSACHSEN
100
AcDbLine
 62
7
  6
CONTINUOUS
 10
673.5431834198
 20
86.5382988083
 11
659.1271146198
 21
86.5382988083
  0
LINE
  5
3B6
100
AcDbEntity
  8
0
100
AcDbLine
 62
7
  6
CONTINUOUS
 10
675.8371390198
 20
95.1901988083
 11
675.5001890198
 21
95.1901988083
  0
LINE
  5
3B7
100
AcDbEntity
  8
0
100
AcDbLine
 62
7
  6
CONTINUOUS
 10
657.1701090198
 20
95.1901988083
 11
656.9679390198
 21
95.1901988083
  0
LINE
  5
3B8
100
AcDbEntity
  8
0
100
AcDbLine
 62
7
  6
CONTINUOUS
 10
646.8287990198
 20
95.1901988083
 11
623.1687990198
 21
95.1901988083
  0
LINE
  5
3B9
100
AcDbEntity
  8
0
100
AcDbLine
 62
7
  6
CONTINUOUS
 10
613.0296590198
 20
95.1901988083
 11
612.8274890198
 21
95.1901988083
  0
LINE
  5
3BA
100
AcDbEntity
  8
0
100
AcDbLine
 62
7
  6
CONTINUOUS
 10
594.4974090198
 20
95.1901988083
 11
594.1604590198
 21
95.1901988083
  0
LINE
  5
3BB
100
AcDbEntity
  8
0
100
AcDbLine
 62
7
  6
CONTINUOUS
 10
675.8371390198
 20
106.1901988083
 11
675.5001890198
 21
106.1901988083
  0
LINE
  5
3BC
100
AcDbEntity
  8
0
100
AcDbLine
 62
7
  6
CONTINUOUS
 10
657.1701090198
 20
106.1901988083
 11
656.9679390198
 21
106.1901988083
  0
LINE
  5
3BD
100
AcDbEntity
  8
0
100
AcDbLine
 62
7
  6
CONTINUOUS
 10
646.8287990198
 20
106.1901988083
 11
623.1687990198
 21
106.1901988083
  0
LINE
  5
3BE
100
AcDbEntity
  8
0
100
AcDbLine
 62
7
  6
CONTINUOUS
 10
613.0296590198
 20
106.1901988083
 11
612.8274890198
 21
106.1901988083
  0
LINE
  5
3BF
100
AcDbEntity
  8
0
100
AcDbLine
 62
7
  6
CONTINUOUS
 10
594.4974090198
 20
106.1901988083
 11
594.1604590198
 21
106.1901988083
  0
LINE
  5
3C0
100
AcDbEntity
  8
0
100
AcDbLine
 62
7
  6
CONTINUOUS
 10
596.4544146198
 20
114.8420988083
 11
610.8704834198
 21
114.8420988083
  0
LINE
  5
3C1
100
AcDbEntity
  8
BEZUGSACHSEN
100
AcDbLine
 62
7
  6
CONTINUOUS
 10
611.0726871324
 20
116.1898988083
 11
596.1174700473
 21
116.1898988083
  0
LINE
  5
3C2
100
AcDbEntity
  8
BEZUGSACHSEN
100
AcDbLine
 62
7
  6
CONTINUOUS
 10
648.8101989408
 20
118.2115988083
 11
655.0109334198
 21
118.2115988083
  0
LINE
  5
3C3
100
AcDbEntity
  8
BEZUGSACHSEN
100
AcDbLine
 62
7
  6
CONTINUOUS
 10
677.7941446198
 20
118.2115988083
 11
683.8004914309
 21
118.2115988083
  0
LINE
  5
3C4
100
AcDbEntity
  8
BEZUGSACHSEN
100
AcDbLine
 62
7
  6
CONTINUOUS
 10
619.9987990198
 20
126.6901988083
 11
649.9987990198
 21
126.6901988083
  0
LINE
  5
3C5
100
AcDbEntity
  8
RUNDUNGEN
100
AcDbLine
 62
7
  6
CONTINUOUS
 10
584.5756148596
 20
84.0108055827
 11
579.8787531417
 21
90.7186192832
  0
LINE
  5
3C6
100
AcDbEntity
  8
BEZUGSACHSEN
100
AcDbLine
 62
7
  6
CONTINUOUS
 10
584.5756148596
 20
84.0108055827
 11
579.8787531417
 21
90.7186192832
  0
LINE
  5
3C7
100
AcDbEntity
  8
KONSTRUKTIONSELEMENTE
100
AcDbLine
 62
7
  6
CONTINUOUS
 10
629.0837990198
 20
154.3269415321
 11
640.9137990198
 21
154.3269415321
  0
LINE
  5
3C8
100
AcDbEntity
  8
KONSTRUKTIONSELEMENTE
100
AcDbLine
 62
7
  6
CONTINUOUS
 10
628.4337990198
 20
154.7865609399
 11
629.0837990198
 21
154.7865609399
  0
LINE
  5
3C9
100
AcDbEntity
  8
KONSTRUKTIONSELEMENTE
100
AcDbLine
 62
7
  6
CONTINUOUS
 10
640.9137990198
 20
154.7865609399
 11
641.5637990198
 21
154.7865609399
  0
LINE
  5
3CA
100
AcDbEntity
  8
KONSTRUKTIONSELEMENTE
100
AcDbLine
 62
7
  6
CONTINUOUS
 10
628.4337990198
 20
157.4028560303
 11
629.0837990198
 21
157.4028560303
  0
LINE
  5
3CB
100
AcDbEntity
  8
KONSTRUKTIONSELEMENTE
100
AcDbLine
 62
7
  6
CONTINUOUS
 10
640.9137990198
 20
157.4028560303
 11
641.5637990198
 21
157.4028560303
  0
LINE
  5
3CC
100
AcDbEntity
  8
KONSTRUKTIONSELEMENTE
100
AcDbLine
 62
7
  6
CONTINUOUS
 10
629.0837990198
 20
157.8624754381
 11
640.9137990198
 21
157.8624754381
  0
LINE
  5
3CD
100
AcDbEntity
  8
KONSTRUKTIONSELEMENTE
100
AcDbLine
 62
7
  6
CONTINUOUS
 10
664.4027459405
 20
172.711717843
 11
646.2027922053
 21
172.711717843
  0
LINE
  5
3CE
100
AcDbEntity
  8
KONSTRUKTIONSELEMENTE
100
AcDbLine
 62
7
  6
CONTINUOUS
 10
623.8837990198
 20
172.711717843
 11
622.2969125795
 21
172.711717843
  0
LINE
  5
3CF
100
AcDbEntity
  8
KONSTRUKTIONSELEMENTE
100
AcDbLine
 62
7
  6
CONTINUOUS
 10
648.7137990198
 20
175.7876323411
 11
646.1137990198
 21
175.7876323411
  0
LINE
  5
3D0
100
AcDbEntity
  8
KONSTRUKTIONSELEMENTE
100
AcDbLine
 62
7
  6
CONTINUOUS
 10
623.8837990198
 20
175.7876323411
 11
622.2969125795
 21
175.7876323411
  0
LINE
  5
3D1
100
AcDbEntity
  8
KONSTRUKTIONSELEMENTE
100
AcDbLine
 62
7
  6
CONTINUOUS
 10
623.8837990198
 20
176.2472517489
 11
622.2969125795
 21
176.2472517489
  0
LINE
  5
3D2
100
AcDbEntity
  8
KONSTRUKTIONSELEMENTE
100
AcDbLine
 62
7
  6
CONTINUOUS
 10
646.1137990198
 20
176.2472517489
 11
664.4027459405
 21
176.2472517489
  0
LINE
  5
3D3
100
AcDbEntity
  8
BEZUGSACHSEN
100
AcDbLine
 62
7
  6
CONTINUOUS
 10
586.9987990198
 20
193.4901988083
 11
604.9640426728
 21
193.4901988083
  0
LINE
  5
3D4
100
AcDbEntity
  8
BEZUGSACHSEN
100
AcDbLine
 62
7
  6
CONTINUOUS
 10
665.0335553668
 20
193.4901988083
 11
683.2987990198
 21
193.4901988083
  0
LINE
  5
3D5
100
AcDbEntity
  8
KONSTRUKTIONSELEMENTE
100
AcDbLine
 62
7
  6
CONTINUOUS
 10
586.9987990198
 20
198.7401988083
 11
568.9987990198
 21
198.7401988083
  0
LINE
  5
3D6
100
AcDbEntity
  8
BEZUGSACHSEN
100
AcDbLine
 62
7
  6
CONTINUOUS
 10
683.2987990198
 20
202.7901988083
 11
689.5987990198
 21
202.7901988083
  0
LINE
  5
3D7
100
AcDbEntity
  8
KONSTRUKTIONSELEMENTE
100
AcDbLine
 62
7
  6
CONTINUOUS
 10
688.6987990198
 20
203.2852489198
 11
694.0987990198
 21
203.2852489198
  0
LINE
  5
3D8
100
AcDbEntity
  8
KONSTRUKTIONSELEMENTE
100
AcDbLine
 62
7
  6
CONTINUOUS
 10
566.2987990198
 20
205.0401988083
 11
562.6987990198
 21
205.0401988083
  0
LINE
  5
3D9
100
AcDbEntity
  8
KONSTRUKTIONSELEMENTE
100
AcDbLine
 62
7
  6
CONTINUOUS
 10
670.2038144138
 20
179.8521897593
 11
662.5455136134
 21
182.3773559766
  0
LINE
  5
3DA
100
AcDbEntity
  8
KONSTRUKTIONSELEMENTE
100
AcDbLine
 62
7
  6
CONTINUOUS
 10
558.1987990198
 20
238.490076624
 11
558.1987990198
 21
208.4903209927
  0
LINE
  5
3DB
100
AcDbEntity
  8
KONSTRUKTIONSELEMENTE
100
AcDbLine
 62
7
  6
CONTINUOUS
 10
562.6987990198
 20
205.0401988083
 11
562.6987990198
 21
241.9401988083
  0
LINE
  5
3DC
100
AcDbEntity
  8
KONSTRUKTIONSELEMENTE
100
AcDbLine
 62
7
  6
CONTINUOUS
 10
558.1987990198
 20
208.4901988083
 11
562.6987990198
 21
208.4901988083
  0
LINE
  5
3DD
100
AcDbEntity
  8
KONSTRUKTIONSELEMENTE
100
AcDbLine
 62
7
  6
CONTINUOUS
 10
566.2987990198
 20
208.4901988083
 11
568.9987990198
 21
208.4901988083
  0
LINE
  5
3DE
100
AcDbEntity
  8
KONSTRUKTIONSELEMENTE
100
AcDbLine
 62
7
  6
CONTINUOUS
 10
566.2987990198
 20
222.4260684164
 11
562.6987990198
 21
222.4260684164
  0
LINE
  5
3DF
100
AcDbEntity
  8
KONSTRUKTIONSELEMENTE
100
AcDbLine
 62
7
  6
CONTINUOUS
 10
585.1802842408
 20
223.4901988083
 11
568.9987990198
 21
223.4901988083
  0
LINE
  5
3E0
100
AcDbEntity
  8
KONSTRUKTIONSELEMENTE
100
AcDbLine
 62
7
  6
CONTINUOUS
 10
566.2987990198
 20
223.4901988083
 11
562.6987990198
 21
223.4901988083
  0
LINE
  5
3E1
100
AcDbEntity
  8
KONSTRUKTIONSELEMENTE
100
AcDbLine
 62
7
  6
CONTINUOUS
 10
566.2987990198
 20
224.5543292003
 11
562.6987990198
 21
224.5543292003
  0
LINE
  5
3E2
100
AcDbEntity
  8
KONSTRUKTIONSELEMENTE
100
AcDbLine
 62
7
  6
CONTINUOUS
 10
584.2458177211
 20
224.907219527
 11
585.5981961587
 21
222.8564791044
  0
LINE
  5
3E3
100
AcDbEntity
  8
KONSTRUKTIONSELEMENTE
100
AcDbLine
 62
7
  6
CONTINUOUS
 10
592.7341055082
 20
212.0356190934
 11
616.9165470191
 21
175.3654763689
  0
LINE
  5
3E4
100
AcDbEntity
  8
KONSTRUKTIONSELEMENTE
100
AcDbLine
 62
7
  6
CONTINUOUS
 10
592.7341055082
 20
212.4952385011
 11
592.459403638
 21
212.9117951495
  0
LINE
  5
3E5
100
AcDbEntity
  8
KONSTRUKTIONSELEMENTE
100
AcDbLine
 62
7
  6
CONTINUOUS
 10
592.7341055082
 20
215.1115335915
 11
592.459403638
 21
215.5280902399
  0
LINE
  5
3E6
100
AcDbEntity
  8
KONSTRUKTIONSELEMENTE
100
AcDbLine
 62
7
  6
CONTINUOUS
 10
584.2458177211
 20
228.4427534329
 11
585.5981961587
 21
226.3920130103
  0
LINE
  5
3E7
100
AcDbEntity
  8
KONSTRUKTIONSELEMENTE
100
AcDbLine
 62
7
  6
CONTINUOUS
 10
592.7341055082
 20
215.5711529993
 11
616.9165470191
 21
178.9010102749
  0
LINE
  5
3E8
100
AcDbEntity
  8
KONSTRUKTIONSELEMENTE
100
AcDbLine
 62
7
  6
CONTINUOUS
 10
599.3915954001
 20
219.3410668654
 11
596.1892584749
 21
224.1970758025
  0
LINE
  5
3E9
100
AcDbEntity
  8
KONSTRUKTIONSELEMENTE
100
AcDbLine
 62
7
  6
CONTINUOUS
 10
566.2987990198
 20
205.0401988083
 11
566.2987990198
 21
241.9401988083
  0
LINE
  5
3EA
100
AcDbEntity
  8
KONSTRUKTIONSELEMENTE
100
AcDbLine
 62
7
  6
CONTINUOUS
 10
568.9987990198
 20
198.7401988083
 11
568.9987990198
 21
248.2401988083
  0
LINE
  5
3EB
100
AcDbEntity
  8
0
100
AcDbLine
 62
7
  6
CONTINUOUS
 10
578.9987990198
 20
112.4008647307
 11
578.9987990198
 21
106.5612156083
  0
LINE
  5
3EC
100
AcDbEntity
  8
BEZUGSACHSEN
100
AcDbLine
 62
7
  6
CONTINUOUS
 10
578.9987990198
 20
112.4008647307
 11
578.9987990198
 21
106.5612156083
  0
LINE
  5
3ED
100
AcDbEntity
  8
0
100
AcDbLine
 62
7
  6
CONTINUOUS
 10
578.9987990198
 20
94.8191820083
 11
578.9987990198
 21
93.5094772024
  0
LINE
  5
3EE
100
AcDbEntity
  8
BEZUGSACHSEN
100
AcDbLine
 62
7
  6
CONTINUOUS
 10
578.9987990198
 20
94.8191820083
 11
578.9987990198
 21
93.5094772024
  0
LINE
  5
3EF
100
AcDbEntity
  8
KONSTRUKTIONSELEMENTE
100
AcDbLine
 62
7
  6
CONTINUOUS
 10
585.6193270718
 20
222.8597916243
 11
585.5981961587
 21
222.8564791044
  0
LINE
  5
3F0
100
AcDbEntity
  8
KONSTRUKTIONSELEMENTE
100
AcDbLine
 62
7
  6
CONTINUOUS
 10
558.1987990198
 20
238.4901988083
 11
562.6987990198
 21
238.4901988083
  0
LINE
  5
3F1
100
AcDbEntity
  8
KONSTRUKTIONSELEMENTE
100
AcDbLine
 62
7
  6
CONTINUOUS
 10
566.2987990198
 20
238.4901988083
 11
568.9987990198
 21
238.4901988083
  0
LINE
  5
3F2
100
AcDbEntity
  8
KONSTRUKTIONSELEMENTE
100
AcDbLine
 62
7
  6
CONTINUOUS
 10
566.2987990198
 20
241.9401988083
 11
562.6987990198
 21
241.9401988083
  0
LINE
  5
3F3
100
AcDbEntity
  8
KONSTRUKTIONSELEMENTE
100
AcDbLine
 62
7
  6
CONTINUOUS
 10
690.8186753238
 20
221.7151140302
 11
698.4769761243
 21
219.1899478129
  0
LINE
  5
3F4
100
AcDbEntity
  8
RUNDUNGEN
100
AcDbLine
 62
7
  6
CONTINUOUS
 10
685.42198318
 20
117.369592034
 11
690.1188448979
 21
110.6617783335
  0
LINE
  5
3F5
100
AcDbEntity
  8
KONSTRUKTIONSELEMENTE
100
AcDbLine
 62
7
  6
CONTINUOUS
 10
601.335600883
 20
219.4691004193
 11
600.2367934024
 21
221.1353270127
  0
LINE
  5
3F6
100
AcDbEntity
  8
KONSTRUKTIONSELEMENTE
100
AcDbLine
 62
7
  6
CONTINUOUS
 10
596.1892584749
 20
227.7326097084
 11
601.335600883
 21
219.9287198271
  0
LINE
  5
3F7
100
AcDbEntity
  8
KONSTRUKTIONSELEMENTE
100
AcDbLine
 62
7
  6
CONTINUOUS
 10
585.5981961587
 20
226.3920130103
 11
585.6193270718
 21
226.3246148522
  0
LINE
  5
3F8
100
AcDbEntity
  8
KONSTRUKTIONSELEMENTE
100
AcDbLine
 62
7
  6
CONTINUOUS
 10
583.6368183368
 20
230.3851889846
 11
583.6368183368
 21
226.8496550787
  0
LINE
  5
3F9
100
AcDbEntity
  8
BEZUGSACHSEN
100
AcDbLine
 62
7
  6
CONTINUOUS
 10
586.9987990198
 20
311.2401988083
 11
586.9987990198
 21
308.5401988083
  0
LINE
  5
3FA
100
AcDbEntity
  8
KONSTRUKTIONSELEMENTE
100
AcDbLine
 62
7
  6
CONTINUOUS
 10
586.9987990198
 20
193.4901988105
 11
586.9987990198
 21
223.2001781588
  0
LINE
  5
3FB
100
AcDbEntity
  8
KONSTRUKTIONSELEMENTE
100
AcDbLine
 62
7
  6
CONTINUOUS
 10
586.9987990198
 20
234.4050628594
 11
586.9987990198
 21
308.5401988083
  0
LINE
  5
3FC
100
AcDbEntity
  8
KONSTRUKTIONSELEMENTE
100
AcDbLine
 62
7
  6
CONTINUOUS
 10
592.2767038228
 20
216.1108209054
 11
592.2767038228
 21
213.494525815
  0
LINE
  5
3FD
100
AcDbEntity
  8
KONSTRUKTIONSELEMENTE
100
AcDbLine
 62
7
  6
CONTINUOUS
 10
592.7341055082
 20
215.5711529993
 11
592.7341055082
 21
215.1115335915
  0
LINE
  5
3FE
100
AcDbEntity
  8
KONSTRUKTIONSELEMENTE
100
AcDbLine
 62
7
  6
CONTINUOUS
 10
592.7341055082
 20
212.0356190934
 11
592.7341055082
 21
212.4952385011
  0
LINE
  5
3FF
100
AcDbEntity
  8
RUNDUNGEN
100
AcDbLine
 62
7
  6
CONTINUOUS
 10
594.1604590198
 20
114.2328932083
 11
594.1604590198
 21
85.1258044083
  0
LINE
  5
400
100
AcDbEntity
  8
BEZUGSACHSEN
100
AcDbLine
 62
7
  6
CONTINUOUS
 10
594.1604590198
 20
114.2328932083
 11
594.1604590198
 21
85.1258044083
  0
LINE
  5
401
100
AcDbEntity
  8
0
100
AcDbLine
 62
7
  6
CONTINUOUS
 10
594.4974090198
 20
91.1541174214
 11
594.4974090198
 21
97.5768643813
  0
LINE
  5
402
100
AcDbEntity
  8
BEZUGSACHSEN
100
AcDbLine
 62
7
  6
CONTINUOUS
 10
594.4974090198
 20
90.3001347293
 11
594.4974090198
 21
97.5768643813
  0
LINE
  5
403
100
AcDbEntity
  8
0
100
AcDbLine
 62
7
  6
CONTINUOUS
 10
594.4974090198
 20
103.8035332354
 11
594.4974090198
 21
112.0109011135
  0
LINE
  5
404
100
AcDbEntity
  8
BEZUGSACHSEN
100
AcDbLine
 62
7
  6
CONTINUOUS
 10
594.4974090198
 20
103.8035332354
 11
594.4974090198
 21
112.0109470379
  0
LINE
  5
405
100
AcDbEntity
  8
RUNDUNGEN
100
AcDbLine
 62
7
  6
CONTINUOUS
 10
594.4974090198
 20
112.0109011135
 11
594.4974090198
 21
112.8850490574
  0
LINE
  5
406
100
AcDbEntity
  8
KONSTRUKTIONSELEMENTE
100
AcDbLine
 62
7
  6
CONTINUOUS
 10
688.6987990198
 20
243.6951486969
 11
694.0987990198
 21
243.6951486969
  0
LINE
  5
407
100
AcDbEntity
  8
BEZUGSACHSEN
100
AcDbLine
 62
7
  6
CONTINUOUS
 10
683.2987990198
 20
244.1901988083
 11
689.5987990198
 21
244.1901988083
  0
LINE
  5
408
100
AcDbEntity
  8
KONSTRUKTIONSELEMENTE
100
AcDbLine
 62
7
  6
CONTINUOUS
 10
586.9987990198
 20
248.2401988083
 11
568.9987990198
 21
248.2401988083
  0
LINE
  5
409
100
AcDbEntity
  8
KONSTRUKTIONSELEMENTE
100
AcDbLine
 62
7
  6
CONTINUOUS
 10
690.8186753238
 20
225.2506479361
 11
698.4769761243
 21
222.7254817189
  0
LINE
  5
40A
100
AcDbEntity
  8
KONSTRUKTIONSELEMENTE
100
AcDbLine
 62
7
  6
CONTINUOUS
 10
641.7606912076
 20
248.019243825
 11
696.7461998818
 21
229.8889101438
  0
LINE
  5
40B
100
AcDbEntity
  8
RUNDUNGEN
100
AcDbLine
 62
7
  6
CONTINUOUS
 10
612.7600990198
 20
82.0577059816
 11
612.7600990198
 21
76.4302988083
  0
LINE
  5
40C
100
AcDbEntity
  8
RUNDUNGEN
100
AcDbLine
 62
7
  6
CONTINUOUS
 10
612.8274890198
 20
112.8850490746
 11
612.8274890198
 21
112.0109443639
  0
LINE
  5
40D
100
AcDbEntity
  8
BEZUGSACHSEN
100
AcDbLine
 62
7
  6
CONTINUOUS
 10
612.8274890198
 20
86.8508707938
 11
612.8274890198
 21
97.5768643813
  0
LINE
  5
40E
100
AcDbEntity
  8
BEZUGSACHSEN
100
AcDbLine
 62
7
  6
CONTINUOUS
 10
612.8274890198
 20
103.8035332354
 11
612.8274890198
 21
112.0109443639
  0
LINE
  5
40F
100
AcDbEntity
  8
RUNDUNGEN
100
AcDbLine
 62
7
  6
CONTINUOUS
 10
613.0296590198
 20
85.1258044083
 11
613.0296590198
 21
114.2328932083
  0
LINE
  5
410
100
AcDbEntity
  8
BEZUGSACHSEN
100
AcDbLine
 62
7
  6
CONTINUOUS
 10
613.0296590198
 20
85.1258044083
 11
613.0296590198
 21
114.2328932083
  0
LINE
  5
411
100
AcDbEntity
  8
BEZUGSACHSEN
100
AcDbLine
 62
7
  6
CONTINUOUS
 10
613.9987990198
 20
308.5401988083
 11
613.9987990198
 21
271.4902339003
  0
LINE
  5
412
100
AcDbEntity
  8
KONSTRUKTIONSELEMENTE
100
AcDbLine
 62
7
  6
CONTINUOUS
 10
613.9987990198
 20
308.5401988083
 11
613.9987990198
 21
243.3245224003
  0
LINE
  5
413
100
AcDbEntity
  8
BEZUGSACHSEN
100
AcDbLine
 62
7
  6
CONTINUOUS
 10
619.9987990198
 20
269.6901988083
 11
627.9006996915
 21
269.6901988083
  0
LINE
  5
414
100
AcDbEntity
  8
BEZUGSACHSEN
100
AcDbLine
 62
7
  6
CONTINUOUS
 10
642.1019003429
 20
269.6901988083
 11
649.9987990198
 21
269.6901988083
  0
LINE
  5
415
100
AcDbEntity
  8
0
100
AcDbLine
 62
7
  6
CONTINUOUS
 10
618.9987990198
 20
316.0269843599
 11
618.9987990198
 21
545.4901988083
  0
LINE
  5
416
100
AcDbEntity
  8
BEZUGSACHSEN
100
AcDbLine
 62
7
  6
CONTINUOUS
 10
619.9987990198
 20
173.1661234079
 11
619.9987990198
 21
126.6903428162
  0
LINE
  5
417
100
AcDbEntity
  8
BEZUGSACHSEN
100
AcDbLine
 62
7
  6
CONTINUOUS
 10
619.9987990198
 20
245.3028982435
 11
619.9987990198
 21
269.6900691466
  0
LINE
  5
418
100
AcDbEntity
  8
KONSTRUKTIONSELEMENTE
100
AcDbLine
 62
7
  6
CONTINUOUS
 10
622.2969125795
 20
176.2472517489
 11
622.2969125795
 21
175.7876323411
  0
LINE
  5
419
100
AcDbEntity
  8
KONSTRUKTIONSELEMENTE
100
AcDbLine
 62
7
  6
CONTINUOUS
 10
622.2969125795
 20
173.1713372507
 11
622.2969125795
 21
172.711717843
  0
LINE
  5
41A
100
AcDbEntity
  8
0
100
AcDbLine
 62
7
  6
CONTINUOUS
 10
623.1687990198
 20
85.1288155335
 11
623.1687990198
 21
95.1901988083
  0
LINE
  5
41B
100
AcDbEntity
  8
BEZUGSACHSEN
100
AcDbLine
 62
7
  6
CONTINUOUS
 10
623.1687990198
 20
85.1288155335
 11
623.1687990198
 21
95.1901988083
  0
LINE
  5
41C
100
AcDbEntity
  8
0
100
AcDbLine
 62
7
  6
CONTINUOUS
 10
623.1687990198
 20
106.1901988083
 11
623.1687990198
 21
115.2123106591
  0
LINE
  5
41D
100
AcDbEntity
  8
BEZUGSACHSEN
100
AcDbLine
 62
7
  6
CONTINUOUS
 10
623.1687990198
 20
106.1901988083
 11
623.1687990198
 21
115.2123106591
  0
LINE
  5
41E
100
AcDbEntity
  8
KONSTRUKTIONSELEMENTE
100
AcDbLine
 62
7
  6
CONTINUOUS
 10
626.4837990198
 20
156.1654191632
 11
626.4837990198
 21
172.1811381352
  0
LINE
  5
41F
100
AcDbEntity
  8
KONSTRUKTIONSELEMENTE
100
AcDbLine
 62
7
  6
CONTINUOUS
 10
626.9987990198
 20
297.869618113
 11
626.9987990198
 21
287.2630163952
  0
LINE
  5
420
100
AcDbEntity
  8
KONSTRUKTIONSELEMENTE
100
AcDbLine
 62
7
  6
CONTINUOUS
 10
626.9987990198
 20
266.7569197408
 11
626.9987990198
 21
256.150318023
  0
LINE
  5
421
100
AcDbEntity
  8
KONSTRUKTIONSELEMENTE
100
AcDbLine
 62
7
  6
CONTINUOUS
 10
629.0837990198
 20
154.3269415321
 11
629.0837990198
 21
154.7865609399
  0
LINE
  5
422
100
AcDbEntity
  8
KONSTRUKTIONSELEMENTE
100
AcDbLine
 62
7
  6
CONTINUOUS
 10
629.0837990198
 20
157.4028560303
 11
629.0837990198
 21
172.5702964867
  0
LINE
  5
423
100
AcDbEntity
  8
KONSTRUKTIONSELEMENTE
100
AcDbLine
 62
7
  6
CONTINUOUS
 10
631.4987990198
 20
297.869618113
 11
631.4987990198
 21
287.2630163952
  0
LINE
  5
424
100
AcDbEntity
  8
KONSTRUKTIONSELEMENTE
100
AcDbLine
 62
7
  6
CONTINUOUS
 10
631.4987990198
 20
266.7569197408
 11
631.4987990198
 21
256.150318023
  0
LINE
  5
425
100
AcDbEntity
  8
KONSTRUKTIONSELEMENTE
100
AcDbLine
 62
7
  6
CONTINUOUS
 10
632.4987990198
 20
314.3883461851
 11
632.4987990198
 21
296.907239227
  0
LINE
  5
426
100
AcDbEntity
  8
KONSTRUKTIONSELEMENTE
100
AcDbLine
 62
7
  6
CONTINUOUS
 10
632.4987990198
 20
256.7591435184
 11
632.4987990198
 21
239.2780365603
  0
LINE
  5
427
100
AcDbEntity
  8
KONSTRUKTIONSELEMENTE
100
AcDbLine
 62
7
  6
CONTINUOUS
 10
632.7487990198
 20
288.0632689269
 11
632.7487990198
 21
265.9566672091
  0
LINE
  5
428
100
AcDbEntity
  8
0
100
AcDbLine
 62
7
  6
CONTINUOUS
 10
634.9987990198
 20
106.1901988083
 11
634.9987990198
 21
95.1901988083
  0
LINE
  5
429
100
AcDbEntity
  8
KONSTRUKTIONSELEMENTE
100
AcDbLine
 62
7
  6
CONTINUOUS
 10
637.2487990198
 20
288.0632689269
 11
637.2487990198
 21
265.9566672091
  0
LINE
  5
42A
100
AcDbEntity
  8
KONSTRUKTIONSELEMENTE
100
AcDbLine
 62
7
  6
CONTINUOUS
 10
637.4987990198
 20
314.3883461851
 11
637.4987990198
 21
296.907239227
  0
LINE
  5
42B
100
AcDbEntity
  8
KONSTRUKTIONSELEMENTE
100
AcDbLine
 62
7
  6
CONTINUOUS
 10
637.4987990198
 20
256.7591435184
 11
637.4987990198
 21
239.2780365603
  0
LINE
  5
42C
100
AcDbEntity
  8
KONSTRUKTIONSELEMENTE
100
AcDbLine
 62
7
  6
CONTINUOUS
 10
638.4987990198
 20
256.150318023
 11
638.4987990198
 21
266.7569197408
  0
LINE
  5
42D
100
AcDbEntity
  8
KONSTRUKTIONSELEMENTE
100
AcDbLine
 62
7
  6
CONTINUOUS
 10
638.4987990198
 20
287.2630163952
 11
638.4987990198
 21
297.869618113
  0
LINE
  5
42E
100
AcDbEntity
  8
KONSTRUKTIONSELEMENTE
100
AcDbLine
 62
7
  6
CONTINUOUS
 10
640.9137990198
 20
154.3269415321
 11
640.9137990198
 21
154.7865609399
  0
LINE
  5
42F
100
AcDbEntity
  8
KONSTRUKTIONSELEMENTE
100
AcDbLine
 62
7
  6
CONTINUOUS
 10
640.9137990198
 20
157.4028560303
 11
640.9137990198
 21
172.5702964867
  0
LINE
  5
430
100
AcDbEntity
  8
KONSTRUKTIONSELEMENTE
100
AcDbLine
 62
7
  6
CONTINUOUS
 10
642.9987990198
 20
256.150318023
 11
642.9987990198
 21
266.7569197408
  0
LINE
  5
431
100
AcDbEntity
  8
KONSTRUKTIONSELEMENTE
100
AcDbLine
 62
7
  6
CONTINUOUS
 10
642.9987990198
 20
287.2630163952
 11
642.9987990198
 21
297.869618113
  0
LINE
  5
432
100
AcDbEntity
  8
KONSTRUKTIONSELEMENTE
100
AcDbLine
 62
7
  6
CONTINUOUS
 10
643.5137990198
 20
156.1654191632
 11
643.5137990198
 21
172.110677079
  0
LINE
  5
433
100
AcDbEntity
  8
0
100
AcDbLine
 62
7
  6
CONTINUOUS
 10
646.8287990198
 20
116.2515820832
 11
646.8287990198
 21
106.1901988083
  0
LINE
  5
434
100
AcDbEntity
  8
0
100
AcDbLine
 62
7
  6
CONTINUOUS
 10
646.8287990198
 20
95.1901988083
 11
646.8287990198
 21
86.5980869576
  0
LINE
  5
435
100
AcDbEntity
  8
BEZUGSACHSEN
100
AcDbLine
 62
7
  6
CONTINUOUS
 10
649.9987990198
 20
269.6900691466
 11
649.9987990198
 21
245.3028982435
  0
LINE
  5
436
100
AcDbEntity
  8
BEZUGSACHSEN
100
AcDbLine
 62
7
  6
CONTINUOUS
 10
649.9987990198
 20
172.711717843
 11
649.9987990198
 21
126.6903428162
  0
LINE
  5
437
100
AcDbEntity
  8
0
100
AcDbLine
 62
7
  6
CONTINUOUS
 10
650.9987990198
 20
316.0291587701
 11
650.9987990198
 21
545.4901988083
  0
LINE
  5
438
100
AcDbEntity
  8
KONSTRUKTIONSELEMENTE
100
AcDbLine
 62
7
  6
CONTINUOUS
 10
669.7987990198
 20
308.5401988083
 11
656.2993989372
 21
308.5401988083
  0
LINE
  5
439
100
AcDbEntity
  8
KONSTRUKTIONSELEMENTE
100
AcDbLine
 62
7
  6
CONTINUOUS
 10
613.9981991025
 20
308.5401988083
 11
600.4987990198
 21
308.5401988083
  0
LINE
  5
43A
100
AcDbEntity
  8
BEZUGSACHSEN
100
AcDbLine
 62
7
  6
CONTINUOUS
 10
656.2987990198
 20
308.5401988083
 11
656.2987990198
 21
271.4902329711
  0
LINE
  5
43B
100
AcDbEntity
  8
KONSTRUKTIONSELEMENTE
100
AcDbLine
 62
7
  6
CONTINUOUS
 10
656.2987990198
 20
243.2256036081
 11
656.2987990198
 21
308.5401988083
  0
LINE
  5
43C
100
AcDbEntity
  8
RUNDUNGEN
100
AcDbLine
 62
7
  6
CONTINUOUS
 10
656.9679390198
 20
116.2545932083
 11
656.9679390198
 21
87.1475044083
  0
LINE
  5
43D
100
AcDbEntity
  8
RUNDUNGEN
100
AcDbLine
 62
7
  6
CONTINUOUS
 10
657.1701090198
 20
112.086130355
 11
657.1701090198
 21
103.8035332354
  0
LINE
  5
43E
100
AcDbEntity
  8
RUNDUNGEN
100
AcDbLine
 62
7
  6
CONTINUOUS
 10
657.1701090198
 20
88.4953485421
 11
657.1701090198
 21
97.5768643813
  0
LINE
  5
43F
100
AcDbEntity
  8
BEZUGSACHSEN
100
AcDbLine
 62
7
  6
CONTINUOUS
 10
657.1701090198
 20
88.4953485421
 11
657.1701090198
 21
97.5768643813
  0
LINE
  5
440
100
AcDbEntity
  8
BEZUGSACHSEN
100
AcDbLine
 62
7
  6
CONTINUOUS
 10
657.1701090198
 20
103.8035332354
 11
657.1701090198
 21
114.5295268229
  0
LINE
  5
441
100
AcDbEntity
  8
RUNDUNGEN
100
AcDbLine
 62
7
  6
CONTINUOUS
 10
657.2374990198
 20
119.3226916351
 11
657.2374990198
 21
125.3800988083
  0
LINE
  5
442
100
AcDbEntity
  8
BEZUGSACHSEN
100
AcDbLine
 62
7
  6
CONTINUOUS
 10
657.2374990198
 20
119.3226916351
 11
657.2374990198
 21
125.3800988083
  0
LINE
  5
443
100
AcDbEntity
  8
KONSTRUKTIONSELEMENTE
100
AcDbLine
 62
7
  6
CONTINUOUS
 10
670.5791125437
 20
175.9000992051
 11
670.5791125437
 21
179.435633111
  0
LINE
  5
444
100
AcDbEntity
  8
0
100
AcDbLine
 62
7
  6
CONTINUOUS
 10
675.5001890198
 20
110.2262801953
 11
675.5001890198
 21
103.8035332354
  0
LINE
  5
445
100
AcDbEntity
  8
RUNDUNGEN
100
AcDbLine
 62
7
  6
CONTINUOUS
 10
675.5001890198
 20
110.2262801953
 11
675.5001890198
 21
103.8035332354
  0
LINE
  5
446
100
AcDbEntity
  8
BEZUGSACHSEN
100
AcDbLine
 62
7
  6
CONTINUOUS
 10
675.5001890198
 20
111.0802628874
 11
675.5001890198
 21
103.8035332354
  0
LINE
  5
447
100
AcDbEntity
  8
0
100
AcDbLine
 62
7
  6
CONTINUOUS
 10
675.5001890198
 20
97.5768643813
 11
675.5001890198
 21
89.3694965032
  0
LINE
  5
448
100
AcDbEntity
  8
RUNDUNGEN
100
AcDbLine
 62
7
  6
CONTINUOUS
 10
675.5001890198
 20
97.5768643813
 11
675.5001890198
 21
88.4953485593
  0
LINE
  5
449
100
AcDbEntity
  8
BEZUGSACHSEN
100
AcDbLine
 62
7
  6
CONTINUOUS
 10
675.5001890198
 20
97.5768643813
 11
675.5001890198
 21
88.4953485593
  0
LINE
  5
44A
100
AcDbEntity
  8
RUNDUNGEN
100
AcDbLine
 62
7
  6
CONTINUOUS
 10
675.8371390198
 20
87.1475044083
 11
675.8371390198
 21
116.2545932083
  0
LINE
  5
44B
100
AcDbEntity
  8
BEZUGSACHSEN
100
AcDbLine
 62
7
  6
CONTINUOUS
 10
683.2987990198
 20
311.2401988083
 11
683.2987990198
 21
271.4902339003
  0
LINE
  5
44C
100
AcDbEntity
  8
KONSTRUKTIONSELEMENTE
100
AcDbLine
 62
7
  6
CONTINUOUS
 10
683.2987990198
 20
308.5401988083
 11
683.2987990198
 21
234.3229123137
  0
LINE
  5
44D
100
AcDbEntity
  8
KONSTRUKTIONSELEMENTE
100
AcDbLine
 62
7
  6
CONTINUOUS
 10
683.2987990198
 20
220.6647841039
 11
683.2987990198
 21
193.4901988106
  0
LINE
  5
44E
100
AcDbEntity
  8
KONSTRUKTIONSELEMENTE
100
AcDbLine
 62
7
  6
CONTINUOUS
 10
688.6987990198
 20
243.6951486969
 11
688.6987990198
 21
232.5423740548
  0
LINE
  5
44F
100
AcDbEntity
  8
KONSTRUKTIONSELEMENTE
100
AcDbLine
 62
7
  6
CONTINUOUS
 10
688.6987990198
 20
222.118460106
 11
688.6987990198
 21
203.2852489198
  0
LINE
  5
450
100
AcDbEntity
  8
0
100
AcDbLine
 62
7
  6
CONTINUOUS
 10
690.9987990198
 20
88.594671738
 11
690.9987990198
 21
94.8191820083
  0
LINE
  5
451
100
AcDbEntity
  8
0
100
AcDbLine
 62
7
  6
CONTINUOUS
 10
690.9987990198
 20
106.5612156083
 11
690.9987990198
 21
107.8709204143
  0
LINE
  5
452
100
AcDbEntity
  8
BEZUGSACHSEN
100
AcDbLine
 62
7
  6
CONTINUOUS
 10
601.5757531851
 20
151.5348669839
 11
580.4721060887
 21
117.5643972545
  0
LINE
  5
453
100
AcDbEntity
  8
KONSTRUKTIONSELEMENTE
100
AcDbLine
 62
7
  6
CONTINUOUS
 10
628.2369068319
 20
248.019243825
 11
587.3897996355
 21
234.550755468
  0
LINE
  5
454
100
AcDbEntity
  8
KONSTRUKTIONSELEMENTE
100
AcDbLine
 62
7
  6
CONTINUOUS
 10
593.2564969591
 20
228.9171792276
 11
585.5981961587
 21
226.3920130103
  0
LINE
  5
455
100
AcDbEntity
  8
KONSTRUKTIONSELEMENTE
100
AcDbLine
 62
7
  6
CONTINUOUS
 10
588.2107328669
 20
224.2788173494
 11
594.1017334826
 21
226.2212529011
  0
LINE
  5
456
100
AcDbEntity
  8
KONSTRUKTIONSELEMENTE
100
AcDbLine
 62
7
  6
CONTINUOUS
 10
594.1017334826
 20
225.5141461199
 11
588.2107328669
 21
223.5717105682
  0
LINE
  5
457
100
AcDbEntity
  8
KONSTRUKTIONSELEMENTE
100
AcDbLine
 62
7
  6
CONTINUOUS
 10
700.4991811805
 20
222.1878097545
 11
700.4991811805
 21
225.7233436605
  0
LINE
  5
458
100
AcDbEntity
  8
KONSTRUKTIONSELEMENTE
100
AcDbLine
 62
7
  6
CONTINUOUS
 10
593.4025982124
 20
217.3604908504
 11
599.2935988281
 21
219.3029264022
  0
LINE
  5
459
100
AcDbEntity
  8
KONSTRUKTIONSELEMENTE
100
AcDbLine
 62
7
  6
CONTINUOUS
 10
592.7341055082
 20
215.5711529993
 11
600.3924063086
 21
218.0963192166
  0
LINE
  5
45A
100
AcDbEntity
  8
KONSTRUKTIONSELEMENTE
100
AcDbLine
 62
7
  6
CONTINUOUS
 10
659.4015316989
 20
188.4853580117
 11
682.1806560068
 21
223.0275170045
  0
LINE
  5
45B
100
AcDbEntity
  8
KONSTRUKTIONSELEMENTE
100
AcDbLine
 62
7
  6
CONTINUOUS
 10
659.4015316989
 20
184.9498241058
 11
682.1806560068
 21
219.4919830986
  0
LINE
  5
45C
100
AcDbEntity
  8
KONSTRUKTIONSELEMENTE
100
AcDbLine
 62
7
  6
CONTINUOUS
 10
670.2937465563
 20
178.9010102749
 11
670.5182126053
 21
179.2413895558
  0
LINE
  5
45D
100
AcDbEntity
  8
KONSTRUKTIONSELEMENTE
100
AcDbLine
 62
7
  6
CONTINUOUS
 10
699.340778056
 20
222.947794812
 11
699.8901817963
 21
223.7809081087
  0
LINE
  5
45E
100
AcDbEntity
  8
KONSTRUKTIONSELEMENTE
100
AcDbLine
 62
7
  6
CONTINUOUS
 10
670.2937465563
 20
175.3654763689
 11
670.5182126053
 21
175.7058556499
  0
LINE
  5
45F
100
AcDbEntity
  8
KONSTRUKTIONSELEMENTE
100
AcDbLine
 62
7
  6
CONTINUOUS
 10
699.340778056
 20
219.4122609061
 11
699.8901817963
 21
220.2453742028
  0
LINE
  5
460
100
AcDbEntity
  8
BEZUGSACHSEN
100
AcDbLine
 62
7
  6
CONTINUOUS
 10
668.7871008354
 20
50.0486208084
 11
689.5254919509
 21
83.4311392142
  0
ARC
  5
461
100
AcDbEntity
  8
BEZUGSACHSEN
100
AcDbCircle
 62
7
  6
CONTINUOUS
 10
169.1649161191
 20
57.5502629955
 40
9.785028
100
AcDbArc
 50
359.9999845129
 51
8.0000189395
  0
ARC
  5
462
100
AcDbEntity
  8
BEZUGSACHSEN
100
AcDbCircle
 62
7
  6
CONTINUOUS
 10
170.7540780259
 20
116.8637988083
 40
8.3178436932
100
AcDbArc
 50
356.4990275492
 51
8.8690729808
  0
ARC
  5
463
100
AcDbEntity
  8
KONSTRUKTIONSELEMENTE
100
AcDbCircle
 62
7
  6
CONTINUOUS
 10
167.42313153
 20
245.0133862193
 40
8.25
100
AcDbArc
 50
135.0
 51
207.3230042808
  0
ARC
  5
464
100
AcDbEntity
  8
KONSTRUKTIONSELEMENTE
100
AcDbCircle
 62
7
  6
CONTINUOUS
 10
167.42313153
 20
245.0133862193
 40
8.25
100
AcDbArc
 50
242.6769957192
 51
315.0
  0
ARC
  5
465
100
AcDbEntity
  8
KONSTRUKTIONSELEMENTE
100
AcDbCircle
 62
7
  6
CONTINUOUS
 10
167.42313153
 20
245.0133862193
 40
3.25
100
AcDbArc
 50
135.0
 51
174.5945904425
  0
ARC
  5
466
100
AcDbEntity
  8
KONSTRUKTIONSELEMENTE
100
AcDbCircle
 62
7
  6
CONTINUOUS
 10
167.42313153
 20
245.0133862193
 40
3.25
100
AcDbArc
 50
275.4054095575
 51
315.0
  0
ARC
  5
467
100
AcDbEntity
  8
BEZUGSACHSEN
100
AcDbCircle
 62
7
  6
CONTINUOUS
 10
172.3207778678
 20
124.1002610903
 40
3.9140112
100
AcDbArc
 50
314.9999962195
 51
352.000040086
  0
ARC
  5
468
100
AcDbEntity
  8
BEZUGSACHSEN
100
AcDbCircle
 62
7
  6
CONTINUOUS
 10
172.3207778678
 20
77.2801365264
 40
3.9140112
100
AcDbArc
 50
7.9999773075
 51
45.0001723907
  0
ARC
  5
469
100
AcDbEntity
  8
KONSTRUKTIONSELEMENTE
100
AcDbCircle
 62
7
  6
CONTINUOUS
 10
173.4335391701
 20
251.0237938594
 40
8.25
100
AcDbArc
 50
315.0
 51
29.1578555427
  0
ARC
  5
46A
100
AcDbEntity
  8
KONSTRUKTIONSELEMENTE
100
AcDbCircle
 62
7
  6
CONTINUOUS
 10
173.4335391701
 20
251.0237938594
 40
8.25
100
AcDbArc
 50
60.8421444573
 51
135.0
  0
ARC
  5
46B
100
AcDbEntity
  8
KONSTRUKTIONSELEMENTE
100
AcDbCircle
 62
7
  6
CONTINUOUS
 10
173.4335391701
 20
251.0237938594
 40
3.25
100
AcDbArc
 50
315.0
 51
1.1162428201
  0
ARC
  5
46C
100
AcDbEntity
  8
KONSTRUKTIONSELEMENTE
100
AcDbCircle
 62
7
  6
CONTINUOUS
 10
173.4335391701
 20
251.0237938594
 40
3.25
100
AcDbArc
 50
88.8837571799
 51
135.0
  0
ARC
  5
46D
100
AcDbEntity
  8
KONSTRUKTIONSELEMENTE
100
AcDbCircle
 62
7
  6
CONTINUOUS
 10
174.4941993419
 20
252.0844540312
 40
2.25
100
AcDbArc
 50
135.0
 51
315.0
  0
ARC
  5
46E
100
AcDbEntity
  8
KONSTRUKTIONSELEMENTE
100
AcDbCircle
 62
7
  6
CONTINUOUS
 10
-94.867674228
 20
311.5299245895
 40
415.2401902284
100
AcDbArc
 50
359.960022979
 51
0.5964769264
  0
ARC
  5
46F
100
AcDbEntity
  8
BEZUGSACHSEN
100
AcDbCircle
 62
7
  6
CONTINUOUS
 10
181.8854525191
 20
34.7403211141
 40
2.9355084
100
AcDbArc
 50
180.0
 51
264.0
  0
ARC
  5
470
100
AcDbEntity
  8
BEZUGSACHSEN
100
AcDbCircle
 62
7
  6
CONTINUOUS
 10
176.9639553191
 20
83.7074545198
 40
3.9140112
100
AcDbArc
 50
180.0
 51
224.9999975948
  0
ARC
  5
471
100
AcDbEntity
  8
BEZUGSACHSEN
100
AcDbCircle
 62
7
  6
CONTINUOUS
 10
175.8564700307
 20
82.7442418083
 40
2.446257
100
AcDbArc
 50
220.711647831
 51
221.0144488482
  0
ARC
  5
472
100
AcDbEntity
  8
BEZUGSACHSEN
100
AcDbCircle
 62
7
  6
CONTINUOUS
 10
176.9639553191
 20
117.6729430969
 40
3.9140112
100
AcDbArc
 50
135.0000026882
 51
180.000000329
  0
ARC
  5
473
100
AcDbEntity
  8
BEZUGSACHSEN
100
AcDbCircle
 62
7
  6
CONTINUOUS
 10
175.8564700307
 20
118.6361558083
 40
2.446257
100
AcDbArc
 50
138.9855511518
 51
152.7817076912
  0
ARC
  5
474
100
AcDbEntity
  8
RUNDUNGEN
100
AcDbCircle
 62
7
  6
CONTINUOUS
 10
175.0069497191
 20
110.7304705796
 40
1.9570056
100
AcDbArc
 50
139.8283635656
 51
180.0
  0
ARC
  5
475
100
AcDbEntity
  8
RUNDUNGEN
100
AcDbCircle
 62
7
  6
CONTINUOUS
 10
186.8999441191
 20
100.6901988083
 40
17.5214
100
AcDbArc
 50
40.1716364344
 51
139.8283635656
  0
CIRCLE
  5
476
100
AcDbEntity
  8
0
100
AcDbCircle
 62
7
  6
CONTINUOUS
 10
186.8999441191
 20
100.6901988083
 40
5.8710168
  0
ARC
  5
477
100
AcDbEntity
  8
RUNDUNGEN
100
AcDbCircle
 62
7
  6
CONTINUOUS
 10
204.6349721191
 20
57.5502629955
 40
9.785028
100
AcDbArc
 50
171.9999810605
 51
180.0000154871
  0
ARC
  5
478
100
AcDbEntity
  8
RUNDUNGEN
100
AcDbCircle
 62
7
  6
CONTINUOUS
 10
201.4791103703
 20
77.2801365264
 40
3.9140112
100
AcDbArc
 50
134.9998276093
 51
172.0000226925
  0
ARC
  5
479
100
AcDbEntity
  8
RUNDUNGEN
100
AcDbCircle
 62
7
  6
CONTINUOUS
 10
191.9144357191
 20
34.7403211141
 40
2.9355084
100
AcDbArc
 50
276.0
 51
360.0
  0
ARC
  5
47A
100
AcDbEntity
  8
RUNDUNGEN
100
AcDbCircle
 62
7
  6
CONTINUOUS
 10
196.8359329191
 20
83.7074545198
 40
3.9140112
100
AcDbArc
 50
315.0000024052
 51
360.0
  0
ARC
  5
47B
100
AcDbEntity
  8
RUNDUNGEN
100
AcDbCircle
 62
7
  6
CONTINUOUS
 10
197.943418358
 20
82.7442418579
 40
2.4462569725
100
AcDbArc
 50
318.9855479634
 51
319.311336579
  0
ARC
  5
47C
100
AcDbEntity
  8
RUNDUNGEN
100
AcDbCircle
 62
7
  6
CONTINUOUS
 10
196.8359329191
 20
117.6729430969
 40
3.9140112
100
AcDbArc
 50
359.999999671
 51
44.9999973118
  0
ARC
  5
47D
100
AcDbEntity
  8
BEZUGSACHSEN
100
AcDbCircle
 62
7
  6
CONTINUOUS
 10
196.8359329191
 20
117.6729430969
 40
3.9140112
100
AcDbArc
 50
359.999999671
 51
44.9999973118
  0
ARC
  5
47E
100
AcDbEntity
  8
RUNDUNGEN
100
AcDbCircle
 62
7
  6
CONTINUOUS
 10
197.9434182075
 20
118.6361558083
 40
2.446257
100
AcDbArc
 50
27.2182923088
 51
41.0144488482
  0
ARC
  5
47F
100
AcDbEntity
  8
BEZUGSACHSEN
100
AcDbCircle
 62
7
  6
CONTINUOUS
 10
197.9434182075
 20
118.6361558083
 40
2.446257
100
AcDbArc
 50
27.2182923088
 51
41.0144488482
  0
ARC
  5
480
100
AcDbEntity
  8
RUNDUNGEN
100
AcDbCircle
 62
7
  6
CONTINUOUS
 10
198.7929385191
 20
110.7304705796
 40
1.9570056
100
AcDbArc
 50
359.9999182161
 51
40.1716364344
  0
ARC
  5
481
100
AcDbEntity
  8
BEZUGSACHSEN
100
AcDbCircle
 62
7
  6
CONTINUOUS
 10
203.0458102123
 20
116.8637988083
 40
8.3178436932
100
AcDbArc
 50
171.1318362513
 51
183.5122388913
  0
ARC
  5
482
100
AcDbEntity
  8
RUNDUNGEN
100
AcDbCircle
 62
7
  6
CONTINUOUS
 10
201.4791103703
 20
124.1002610903
 40
3.9140112
100
AcDbArc
 50
187.999959914
 51
225.0000037805
  0
ARC
  5
483
100
AcDbEntity
  8
BEZUGSACHSEN
100
AcDbCircle
 62
7
  6
CONTINUOUS
 10
201.4791103703
 20
124.1002610903
 40
3.9140112
100
AcDbArc
 50
187.999959914
 51
225.0000037805
  0
ARC
  5
484
100
AcDbEntity
  8
BEZUGSACHSEN
100
AcDbCircle
 62
7
  6
CONTINUOUS
 10
186.8999441191
 20
161.6901988083
 40
35.0
100
AcDbArc
 50
115.0
 51
256.870785333
  0
ARC
  5
485
100
AcDbEntity
  8
RUNDUNGEN
100
AcDbCircle
 62
7
  6
CONTINUOUS
 10
186.8999441191
 20
161.6901988083
 40
14.0
100
AcDbArc
 50
304.6260704103
 51
235.373929592
  0
ARC
  5
486
100
AcDbEntity
  8
RUNDUNGEN
100
AcDbCircle
 62
7
  6
CONTINUOUS
 10
220.9868046551
 20
189.7223200273
 40
7.0
100
AcDbArc
 50
115.0
 51
205.0
  0
ARC
  5
487
100
AcDbEntity
  8
RUNDUNGEN
100
AcDbCircle
 62
7
  6
CONTINUOUS
 10
232.0651731118
 20
165.964682204
 40
7.0
100
AcDbArc
 50
205.0
 51
333.5
  0
ARC
  5
488
100
AcDbEntity
  8
RUNDUNGEN
100
AcDbCircle
 62
7
  6
CONTINUOUS
 10
191.9144357191
 20
166.6400765026
 40
2.9355084
100
AcDbArc
 50
0.0
 51
84.0
  0
ARC
  5
489
100
AcDbEntity
  8
BEZUGSACHSEN
100
AcDbCircle
 62
7
  6
CONTINUOUS
 10
191.9144357191
 20
166.6400765026
 40
2.9355084
100
AcDbArc
 50
0.0
 51
84.0
  0
ARC
  5
48A
100
AcDbEntity
  8
BEZUGSACHSEN
100
AcDbCircle
 62
7
  6
CONTINUOUS
 10
181.8854525191
 20
166.6400765026
 40
2.9355084
100
AcDbArc
 50
96.0
 51
180.0
  0
ARC
  5
48B
100
AcDbEntity
  8
BEZUGSACHSEN
100
AcDbCircle
 62
7
  6
CONTINUOUS
 10
306.8999441191
 20
219.6901988083
 40
59.0
100
AcDbArc
 50
280.0
 51
315.2859711165
  0
ARC
  5
48C
100
AcDbEntity
  8
0
100
AcDbCircle
 62
7
  6
CONTINUOUS
 10
306.8999441191
 20
219.6901988083
 40
59.0
100
AcDbArc
 50
224.7140288835
 51
260.0
  0
ARC
  5
48D
100
AcDbEntity
  8
BEZUGSACHSEN
100
AcDbCircle
 62
7
  6
CONTINUOUS
 10
306.8999441191
 20
219.6901988083
 40
50.0
100
AcDbArc
 50
16.5265318901
 51
74.3318893903
  0
ARC
  5
48E
100
AcDbEntity
  8
BEZUGSACHSEN
100
AcDbCircle
 62
7
  6
CONTINUOUS
 10
306.8999441191
 20
219.6901988083
 40
50.0
100
AcDbArc
 50
105.6681106097
 51
163.4734681099
  0
ARC
  5
48F
100
AcDbEntity
  8
BEZUGSACHSEN
100
AcDbCircle
 62
7
  6
CONTINUOUS
 10
306.8999441191
 20
219.6901988083
 40
49.5
100
AcDbArc
 50
260.0
 51
280.0
  0
ARC
  5
490
100
AcDbEntity
  8
KONSTRUKTIONSELEMENTE
100
AcDbCircle
 62
7
  6
CONTINUOUS
 10
306.8999441191
 20
223.4901988083
 40
30.0
100
AcDbArc
 50
126.3657236433
 51
53.6343516804
  0
CIRCLE
  5
491
100
AcDbEntity
  8
KONSTRUKTIONSELEMENTE
100
AcDbCircle
 62
7
  6
CONTINUOUS
 10
306.8999441191
 20
223.4901988083
 40
20.7
  0
ARC
  5
492
100
AcDbEntity
  8
RUNDUNGEN
100
AcDbCircle
 62
7
  6
CONTINUOUS
 10
250.8542488143
 20
203.6497379683
 40
7.0
100
AcDbArc
 50
333.5
 51
115.0
  0
ARC
  5
493
100
AcDbEntity
  8
BEZUGSACHSEN
100
AcDbCircle
 62
7
  6
CONTINUOUS
 10
409.1649161191
 20
57.5502629955
 40
9.785028
100
AcDbArc
 50
359.9999845129
 51
8.0000189395
  0
ARC
  5
494
100
AcDbEntity
  8
BEZUGSACHSEN
100
AcDbCircle
 62
7
  6
CONTINUOUS
 10
412.3207778678
 20
77.2801365264
 40
3.9140112
100
AcDbArc
 50
7.9999773075
 51
45.0001723907
  0
ARC
  5
495
100
AcDbEntity
  8
BEZUGSACHSEN
100
AcDbCircle
 62
7
  6
CONTINUOUS
 10
421.8854525191
 20
34.7403211141
 40
2.9355084
100
AcDbArc
 50
180.0
 51
264.0
  0
ARC
  5
496
100
AcDbEntity
  8
BEZUGSACHSEN
100
AcDbCircle
 62
7
  6
CONTINUOUS
 10
410.7540780259
 20
116.8637988083
 40
8.3178436932
100
AcDbArc
 50
356.4990275492
 51
8.8690729808
  0
ARC
  5
497
100
AcDbEntity
  8
BEZUGSACHSEN
100
AcDbCircle
 62
7
  6
CONTINUOUS
 10
412.3207778678
 20
124.1002610903
 40
3.9140112
100
AcDbArc
 50
314.9999962195
 51
352.000040086
  0
ARC
  5
498
100
AcDbEntity
  8
BEZUGSACHSEN
100
AcDbCircle
 62
7
  6
CONTINUOUS
 10
416.9639553191
 20
83.7074545198
 40
3.9140112
100
AcDbArc
 50
180.0
 51
224.9999975948
  0
ARC
  5
499
100
AcDbEntity
  8
BEZUGSACHSEN
100
AcDbCircle
 62
7
  6
CONTINUOUS
 10
415.8564700307
 20
82.7442418083
 40
2.446257
100
AcDbArc
 50
220.711647831
 51
221.0144488482
  0
ARC
  5
49A
100
AcDbEntity
  8
BEZUGSACHSEN
100
AcDbCircle
 62
7
  6
CONTINUOUS
 10
416.9639553191
 20
117.6729430969
 40
3.9140112
100
AcDbArc
 50
135.0000026882
 51
180.000000329
  0
ARC
  5
49B
100
AcDbEntity
  8
BEZUGSACHSEN
100
AcDbCircle
 62
7
  6
CONTINUOUS
 10
415.8564700307
 20
118.6361558083
 40
2.446257
100
AcDbArc
 50
138.9855511518
 51
152.7817076912
  0
ARC
  5
49C
100
AcDbEntity
  8
RUNDUNGEN
100
AcDbCircle
 62
7
  6
CONTINUOUS
 10
415.0069497191
 20
110.7304705796
 40
1.9570056
100
AcDbArc
 50
139.8283635656
 51
180.0
  0
ARC
  5
49D
100
AcDbEntity
  8
RUNDUNGEN
100
AcDbCircle
 62
7
  6
CONTINUOUS
 10
444.6349721191
 20
57.5502629955
 40
9.785028
100
AcDbArc
 50
171.9999810605
 51
180.0000154871
  0
ARC
  5
49E
100
AcDbEntity
  8
RUNDUNGEN
100
AcDbCircle
 62
7
  6
CONTINUOUS
 10
441.4791103703
 20
77.2801365264
 40
3.9140112
100
AcDbArc
 50
134.9998276093
 51
172.0000226925
  0
ARC
  5
49F
100
AcDbEntity
  8
RUNDUNGEN
100
AcDbCircle
 62
7
  6
CONTINUOUS
 10
431.9144357191
 20
34.7403211141
 40
2.9355084
100
AcDbArc
 50
276.0
 51
360.0
  0
ARC
  5
4A0
100
AcDbEntity
  8
RUNDUNGEN
100
AcDbCircle
 62
7
  6
CONTINUOUS
 10
426.8999441191
 20
100.6901988083
 40
17.5214
100
AcDbArc
 50
40.1716364344
 51
139.8283635656
  0
CIRCLE
  5
4A1
100
AcDbEntity
  8
0
100
AcDbCircle
 62
7
  6
CONTINUOUS
 10
426.8999441191
 20
100.6901988083
 40
5.8710168
  0
ARC
  5
4A2
100
AcDbEntity
  8
RUNDUNGEN
100
AcDbCircle
 62
7
  6
CONTINUOUS
 10
436.8359329191
 20
83.7074545198
 40
3.9140112
100
AcDbArc
 50
315.0000024052
 51
360.0
  0
ARC
  5
4A3
100
AcDbEntity
  8
RUNDUNGEN
100
AcDbCircle
 62
7
  6
CONTINUOUS
 10
437.943418358
 20
82.7442418579
 40
2.4462569725
100
AcDbArc
 50
318.9855479634
 51
319.311336579
  0
ARC
  5
4A4
100
AcDbEntity
  8
BEZUGSACHSEN
100
AcDbCircle
 62
7
  6
CONTINUOUS
 10
443.0458102123
 20
116.8637988083
 40
8.3178436932
100
AcDbArc
 50
171.1318362513
 51
183.5122388913
  0
ARC
  5
4A5
100
AcDbEntity
  8
RUNDUNGEN
100
AcDbCircle
 62
7
  6
CONTINUOUS
 10
441.4791103703
 20
124.1002610903
 40
3.9140112
100
AcDbArc
 50
187.999959914
 51
225.0000037805
  0
ARC
  5
4A6
100
AcDbEntity
  8
RUNDUNGEN
100
AcDbCircle
 62
7
  6
CONTINUOUS
 10
436.8359329191
 20
117.6729430969
 40
3.9140112
100
AcDbArc
 50
359.999999671
 51
44.9999973118
  0
ARC
  5
4A7
100
AcDbEntity
  8
BEZUGSACHSEN
100
AcDbCircle
 62
7
  6
CONTINUOUS
 10
441.4791103703
 20
124.1002610903
 40
3.9140112
100
AcDbArc
 50
187.999959914
 51
225.0000037805
  0
ARC
  5
4A8
100
AcDbEntity
  8
BEZUGSACHSEN
100
AcDbCircle
 62
7
  6
CONTINUOUS
 10
436.8359329191
 20
117.6729430969
 40
3.9140112
100
AcDbArc
 50
359.999999671
 51
44.9999973118
  0
ARC
  5
4A9
100
AcDbEntity
  8
RUNDUNGEN
100
AcDbCircle
 62
7
  6
CONTINUOUS
 10
437.9434182075
 20
118.6361558083
 40
2.446257
100
AcDbArc
 50
27.2182923088
 51
41.0144488482
  0
ARC
  5
4AA
100
AcDbEntity
  8
BEZUGSACHSEN
100
AcDbCircle
 62
7
  6
CONTINUOUS
 10
437.9434182075
 20
118.6361558083
 40
2.446257
100
AcDbArc
 50
27.2182923088
 51
41.0144488482
  0
ARC
  5
4AB
100
AcDbEntity
  8
RUNDUNGEN
100
AcDbCircle
 62
7
  6
CONTINUOUS
 10
438.7929385191
 20
110.7304705796
 40
1.9570056
100
AcDbArc
 50
359.9999182161
 51
40.1716364344
  0
ARC
  5
4AC
100
AcDbEntity
  8
BEZUGSACHSEN
100
AcDbCircle
 62
7
  6
CONTINUOUS
 10
381.7347151264
 20
165.964682204
 40
7.0
100
AcDbArc
 50
206.5
 51
335.0
  0
ARC
  5
4AD
100
AcDbEntity
  8
BEZUGSACHSEN
100
AcDbCircle
 62
7
  6
CONTINUOUS
 10
392.8130835831
 20
189.7223200273
 40
7.0
100
AcDbArc
 50
335.0
 51
65.0
  0
ARC
  5
4AE
100
AcDbEntity
  8
BEZUGSACHSEN
100
AcDbCircle
 62
7
  6
CONTINUOUS
 10
362.9456394238
 20
203.6497379683
 40
7.0
100
AcDbArc
 50
65.0
 51
206.5
  0
ARC
  5
4AF
100
AcDbEntity
  8
BEZUGSACHSEN
100
AcDbCircle
 62
7
  6
CONTINUOUS
 10
421.8854525191
 20
166.6400765026
 40
2.9355084
100
AcDbArc
 50
96.0
 51
180.0
  0
ARC
  5
4B0
100
AcDbEntity
  8
BEZUGSACHSEN
100
AcDbCircle
 62
7
  6
CONTINUOUS
 10
426.8999441191
 20
161.6901988083
 40
35.0
100
AcDbArc
 50
283.129214667
 51
65.0
  0
ARC
  5
4B1
100
AcDbEntity
  8
BEZUGSACHSEN
100
AcDbCircle
 62
7
  6
CONTINUOUS
 10
426.8999441191
 20
161.6901988083
 40
14.0
100
AcDbArc
 50
304.6192585832
 51
235.3807414168
  0
ARC
  5
4B2
100
AcDbEntity
  8
RUNDUNGEN
100
AcDbCircle
 62
7
  6
CONTINUOUS
 10
431.9144357191
 20
166.6400765026
 40
2.9355084
100
AcDbArc
 50
0.0
 51
84.0
  0
ARC
  5
4B3
100
AcDbEntity
  8
BEZUGSACHSEN
100
AcDbCircle
 62
7
  6
CONTINUOUS
 10
431.9144357191
 20
166.6400765026
 40
2.9355084
100
AcDbArc
 50
0.0
 51
84.0
  0
ARC
  5
4B4
100
AcDbEntity
  8
KONSTRUKTIONSELEMENTE
100
AcDbCircle
 62
7
  6
CONTINUOUS
 10
194.1164125198
 20
271.7066672091
 40
8.0
100
AcDbArc
 50
135.0
 51
208.6357041722
  0
ARC
  5
4B5
100
AcDbEntity
  8
KONSTRUKTIONSELEMENTE
100
AcDbCircle
 62
7
  6
CONTINUOUS
 10
194.1164125198
 20
271.7066672091
 40
8.0
100
AcDbArc
 50
241.3642958278
 51
315.0
  0
ARC
  5
4B6
100
AcDbEntity
  8
KONSTRUKTIONSELEMENTE
100
AcDbCircle
 62
7
  6
CONTINUOUS
 10
204.7230142376
 20
282.3132689269
 40
8.0
100
AcDbArc
 50
315.0
 51
28.6357041722
  0
ARC
  5
4B7
100
AcDbEntity
  8
KONSTRUKTIONSELEMENTE
100
AcDbCircle
 62
7
  6
CONTINUOUS
 10
204.7230142376
 20
282.3132689269
 40
8.0
100
AcDbArc
 50
61.3642958278
 51
135.0
  0
ARC
  5
4B8
100
AcDbEntity
  8
KONSTRUKTIONSELEMENTE
100
AcDbCircle
 62
7
  6
CONTINUOUS
 10
194.1164125198
 20
271.7066672091
 40
3.5
100
AcDbArc
 50
135.0
 51
184.8461224921
  0
ARC
  5
4B9
100
AcDbEntity
  8
KONSTRUKTIONSELEMENTE
100
AcDbCircle
 62
7
  6
CONTINUOUS
 10
194.1164125198
 20
271.7066672091
 40
3.5
100
AcDbArc
 50
265.1538775079
 51
315.0
  0
ARC
  5
4BA
100
AcDbEntity
  8
KONSTRUKTIONSELEMENTE
100
AcDbCircle
 62
7
  6
CONTINUOUS
 10
204.7230142376
 20
282.3132689269
 40
3.5
100
AcDbArc
 50
315.0
 51
4.8461224921
  0
ARC
  5
4BB
100
AcDbEntity
  8
KONSTRUKTIONSELEMENTE
100
AcDbCircle
 62
7
  6
CONTINUOUS
 10
204.7230142376
 20
282.3132689269
 40
3.5
100
AcDbArc
 50
85.1538775079
 51
135.0
  0
ARC
  5
4BC
100
AcDbEntity
  8
KONSTRUKTIONSELEMENTE
100
AcDbCircle
 62
7
  6
CONTINUOUS
 10
193.2325290433
 20
270.8227837326
 40
2.25
100
AcDbArc
 50
315.0
 51
135.0
  0
ARC
  5
4BD
100
AcDbEntity
  8
KONSTRUKTIONSELEMENTE
100
AcDbCircle
 62
7
  6
CONTINUOUS
 10
205.6068977141
 20
283.1971524034
 40
2.25
100
AcDbArc
 50
135.0
 51
315.0
  0
ARC
  5
4BE
100
AcDbEntity
  8
KONSTRUKTIONSELEMENTE
100
AcDbCircle
 62
7
  6
CONTINUOUS
 10
229.4364403843
 20
311.87805861
 40
90.1800590806
100
AcDbArc
 50
2.5261006172
 51
3.2417789111
  0
ARC
  5
4BF
100
AcDbEntity
  8
KONSTRUKTIONSELEMENTE
100
AcDbCircle
 62
7
  6
CONTINUOUS
 10
231.0627418368
 20
308.6529965261
 40
8.25
100
AcDbArc
 50
315.0
 51
15.9686301426
  0
ARC
  5
4C0
100
AcDbEntity
  8
KONSTRUKTIONSELEMENTE
100
AcDbCircle
 62
7
  6
CONTINUOUS
 10
231.0627418368
 20
308.6529965261
 40
8.25
100
AcDbArc
 50
74.0313698574
 51
135.0
  0
ARC
  5
4C1
100
AcDbEntity
  8
KONSTRUKTIONSELEMENTE
100
AcDbCircle
 62
7
  6
CONTINUOUS
 10
225.0523341967
 20
302.642588886
 40
8.25
100
AcDbArc
 50
135.0
 51
209.1578555427
  0
ARC
  5
4C2
100
AcDbEntity
  8
KONSTRUKTIONSELEMENTE
100
AcDbCircle
 62
7
  6
CONTINUOUS
 10
225.0523341967
 20
302.642588886
 40
8.25
100
AcDbArc
 50
240.8421444573
 51
315.0
  0
ARC
  5
4C3
100
AcDbEntity
  8
KONSTRUKTIONSELEMENTE
100
AcDbCircle
 62
7
  6
CONTINUOUS
 10
230.5324117509
 20
308.1226664402
 40
4.0
100
AcDbArc
 50
170.5899726581
 51
279.4100273419
  0
ARC
  5
4C4
100
AcDbEntity
  8
KONSTRUKTIONSELEMENTE
100
AcDbCircle
 62
7
  6
CONTINUOUS
 10
225.0523341967
 20
302.642588886
 40
3.25
100
AcDbArc
 50
135.0
 51
181.1162428201
  0
ARC
  5
4C5
100
AcDbEntity
  8
KONSTRUKTIONSELEMENTE
100
AcDbCircle
 62
7
  6
CONTINUOUS
 10
225.0523341967
 20
302.642588886
 40
3.25
100
AcDbArc
 50
268.8837571799
 51
315.0
  0
ARC
  5
4C6
100
AcDbEntity
  8
KONSTRUKTIONSELEMENTE
100
AcDbCircle
 62
7
  6
CONTINUOUS
 10
224.3452274156
 20
301.9354821048
 40
2.25
100
AcDbArc
 50
315.0
 51
135.0
  0
ARC
  5
4C7
100
AcDbEntity
  8
KONSTRUKTIONSELEMENTE
100
AcDbCircle
 62
7
  6
CONTINUOUS
 10
275.3999515776
 20
259.7083051395
 40
17.9999957397
100
AcDbArc
 50
311.0145700367
 51
359.9999999857
  0
ARC
  5
4C8
100
AcDbEntity
  8
KONSTRUKTIONSELEMENTE
100
AcDbCircle
 62
7
  6
CONTINUOUS
 10
338.3999353594
 20
259.7083079761
 40
17.9999950003
100
AcDbArc
 50
180.0000000504
 51
228.9854191131
  0
ARC
  5
4C9
100
AcDbEntity
  8
KONSTRUKTIONSELEMENTE
100
AcDbCircle
 62
7
  6
CONTINUOUS
 10
306.8999441191
 20
345.8901988083
 40
13.5
100
AcDbArc
 50
0.0
 51
180.0000000206
  0
ARC
  5
4CA
100
AcDbEntity
  8
KONSTRUKTIONSELEMENTE
100
AcDbCircle
 62
7
  6
CONTINUOUS
 10
271.5446050598
 20
349.134859749
 40
4.0
100
AcDbArc
 50
315.0
 51
135.0
  0
ARC
  5
4CB
100
AcDbEntity
  8
0
100
AcDbCircle
 62
7
  6
CONTINUOUS
 10
306.8999441191
 20
384.4901988083
 40
87.0
100
AcDbArc
 50
279.2255714215
 51
360.0
  0
ARC
  5
4CC
100
AcDbEntity
  8
0
100
AcDbCircle
 62
7
  6
CONTINUOUS
 10
306.8999441191
 20
384.4901988083
 40
87.0
100
AcDbArc
 50
227.6358693257
 51
261.0709328113
  0
ARC
  5
4CD
100
AcDbEntity
  8
0
100
AcDbCircle
 62
7
  6
CONTINUOUS
 10
306.8999441191
 20
384.4901988083
 40
87.0
100
AcDbArc
 50
180.0
 51
222.3641306743
  0
ARC
  5
4CE
100
AcDbEntity
  8
0
100
AcDbCircle
 62
7
  6
CONTINUOUS
 10
306.8999441191
 20
474.4901988083
 40
87.0
100
AcDbArc
 50
0.0
 51
180.0
  0
ARC
  5
4CF
100
AcDbEntity
  8
0
100
AcDbCircle
 62
7
  6
CONTINUOUS
 10
306.8999441191
 20
384.4901988083
 40
55.0
100
AcDbArc
 50
284.2103599819
 51
360.0
  0
ARC
  5
4D0
100
AcDbEntity
  8
0
100
AcDbCircle
 62
7
  6
CONTINUOUS
 10
306.8999441191
 20
384.4901988083
 40
55.0
100
AcDbArc
 50
229.1717021672
 51
255.7896400181
  0
ARC
  5
4D1
100
AcDbEntity
  8
0
100
AcDbCircle
 62
7
  6
CONTINUOUS
 10
306.8999441191
 20
384.4901988083
 40
55.0
100
AcDbArc
 50
180.0
 51
220.8282978328
  0
ARC
  5
4D2
100
AcDbEntity
  8
0
100
AcDbCircle
 62
7
  6
CONTINUOUS
 10
306.8999441191
 20
474.4901988083
 40
55.0
100
AcDbArc
 50
0.0
 51
180.0
  0
ARC
  5
4D3
100
AcDbEntity
  8
BEZUGSACHSEN
100
AcDbCircle
 62
7
  6
CONTINUOUS
 10
588.7838270198
 20
112.4008647307
 40
9.785028
100
AcDbArc
 50
148.15
 51
180.0
  0
ARC
  5
4D4
100
AcDbEntity
  8
BEZUGSACHSEN
100
AcDbCircle
 62
7
  6
CONTINUOUS
 10
588.5193461266
 20
84.5165988083
 40
8.3178436932
100
AcDbArc
 50
288.7910524318
 51
44.0524622899
  0
ARC
  5
4D5
100
AcDbEntity
  8
BEZUGSACHSEN
100
AcDbCircle
 62
7
  6
CONTINUOUS
 10
583.8633347372
 20
93.5091062285
 40
4.8645357316
100
AcDbArc
 50
179.9956305717
 51
215.0043694283
  0
CIRCLE
  5
4D6
100
AcDbEntity
  8
BEZUGSACHSEN
100
AcDbCircle
 62
7
  6
CONTINUOUS
 10
587.9241884198
 20
100.6901988083
 40
2.447168143
  0
ARC
  5
4D7
100
AcDbEntity
  8
RUNDUNGEN
100
AcDbCircle
 62
7
  6
CONTINUOUS
 10
592.2034534198
 20
85.1258044083
 40
1.9570056
100
AcDbArc
 50
270.0
 51
360.0
  0
ARC
  5
4D8
100
AcDbEntity
  8
BEZUGSACHSEN
100
AcDbCircle
 62
7
  6
CONTINUOUS
 10
592.2034534198
 20
85.1258044083
 40
1.9570056
100
AcDbArc
 50
270.0
 51
360.0
  0
ARC
  5
4D9
100
AcDbEntity
  8
RUNDUNGEN
100
AcDbCircle
 62
7
  6
CONTINUOUS
 10
596.4544146198
 20
112.8850932083
 40
1.9570056
100
AcDbArc
 50
90.0
 51
180.0
  0
ARC
  5
4DA
100
AcDbEntity
  8
BEZUGSACHSEN
100
AcDbCircle
 62
7
  6
CONTINUOUS
 10
596.1174646198
 20
114.2328932083
 40
1.9570056
100
AcDbArc
 50
89.9998410969
 51
180.0
  0
ARC
  5
4DB
100
AcDbEntity
  8
KONSTRUKTIONSELEMENTE
100
AcDbCircle
 62
7
  6
CONTINUOUS
 10
594.6619526192
 20
223.8076910991
 40
1.7960607504
100
AcDbArc
 50
98.816572065
 51
108.1747037042
  0
ARC
  5
4DC
100
AcDbEntity
  8
KONSTRUKTIONSELEMENTE
100
AcDbCircle
 62
7
  6
CONTINUOUS
 10
600.4648287607
 20
218.8689449764
 40
1.0555154765
100
AcDbArc
 50
13.4753960075
 51
21.9722612622
  0
ARC
  5
4DD
100
AcDbEntity
  8
RUNDUNGEN
100
AcDbCircle
 62
7
  6
CONTINUOUS
 10
614.9866646198
 20
85.1258044083
 40
1.9570056
100
AcDbArc
 50
180.0
 51
270.0
  0
ARC
  5
4DE
100
AcDbEntity
  8
BEZUGSACHSEN
100
AcDbCircle
 62
7
  6
CONTINUOUS
 10
614.9866646198
 20
85.1258044083
 40
1.9570056
100
AcDbArc
 50
180.0
 51
270.0
  0
ARC
  5
4DF
100
AcDbEntity
  8
RUNDUNGEN
100
AcDbCircle
 62
7
  6
CONTINUOUS
 10
610.8704834198
 20
112.8850932083
 40
1.9570056
100
AcDbArc
 50
0.0
 51
90.0
  0
ARC
  5
4E0
100
AcDbEntity
  8
RUNDUNGEN
100
AcDbCircle
 62
7
  6
CONTINUOUS
 10
611.0726534198
 20
114.2328932083
 40
1.9570056
100
AcDbArc
 50
51.3751876027
 51
89.9990129871
  0
ARC
  5
4E1
100
AcDbEntity
  8
BEZUGSACHSEN
100
AcDbCircle
 62
7
  6
CONTINUOUS
 10
611.0726534198
 20
114.2328932083
 40
1.9570056
100
AcDbArc
 50
0.0
 51
89.9990129871
  0
ARC
  5
4E2
100
AcDbEntity
  8
BEZUGSACHSEN
100
AcDbCircle
 62
7
  6
CONTINUOUS
 10
613.3837710198
 20
115.2123106591
 40
9.785028
100
AcDbArc
 50
0.0
 51
35.7471969812
  0
ARC
  5
4E3
100
AcDbEntity
  8
BEZUGSACHSEN
100
AcDbCircle
 62
7
  6
CONTINUOUS
 10
620.811078313
 20
84.5165988083
 40
8.3178436932
100
AcDbArc
 50
163.7019364916
 51
192.4720186323
  0
ARC
  5
4E4
100
AcDbEntity
  8
RUNDUNGEN
100
AcDbCircle
 62
7
  6
CONTINUOUS
 10
620.811078313
 20
84.5165988083
 40
8.3178436932
100
AcDbArc
 50
163.7019364916
 51
192.4720186323
  0
ARC
  5
4E5
100
AcDbEntity
  8
KONSTRUKTIONSELEMENTE
100
AcDbCircle
 62
7
  6
CONTINUOUS
 10
621.2948653464
 20
165.5741137963
 40
7.2075994745
100
AcDbArc
 50
82.0084828409
 51
84.6969256904
  0
ARC
  5
4E6
100
AcDbEntity
  8
KONSTRUKTIONSELEMENTE
100
AcDbCircle
 62
7
  6
CONTINUOUS
 10
621.2948653464
 20
169.1096477021
 40
7.2075994746
100
AcDbArc
 50
82.0084828409
 51
84.6969256904
  0
ARC
  5
4E7
100
AcDbEntity
  8
RUNDUNGEN
100
AcDbCircle
 62
7
  6
CONTINUOUS
 10
634.9987990198
 20
76.4302988083
 40
45.1687
100
AcDbArc
 50
182.1859726843
 51
270.0
  0
ARC
  5
4E8
100
AcDbEntity
  8
BEZUGSACHSEN
100
AcDbCircle
 62
7
  6
CONTINUOUS
 10
634.9987990198
 20
71.0390988083
 40
39.7775
100
AcDbArc
 50
270.0
 51
328.15
  0
ARC
  5
4E9
100
AcDbEntity
  8
BEZUGSACHSEN
100
AcDbCircle
 62
7
  6
CONTINUOUS
 10
634.9987990198
 20
76.4302988083
 40
22.2387
100
AcDbArc
 50
180.0
 51
270.0
  0
ARC
  5
4EA
100
AcDbEntity
  8
BEZUGSACHSEN
100
AcDbCircle
 62
7
  6
CONTINUOUS
 10
634.9987990198
 20
71.0390988083
 40
16.8475
100
AcDbArc
 50
270.0
 51
35.7471969812
  0
ARC
  5
4EB
100
AcDbEntity
  8
RUNDUNGEN
100
AcDbCircle
 62
7
  6
CONTINUOUS
 10
634.9987990198
 20
125.3800988083
 40
44.7387
100
AcDbArc
 50
1.4324331241
 51
70.406322304
  0
ARC
  5
4EC
100
AcDbEntity
  8
BEZUGSACHSEN
100
AcDbCircle
 62
7
  6
CONTINUOUS
 10
634.9987990198
 20
125.3800988083
 40
44.7387
100
AcDbArc
 50
1.4324331241
 51
70.406322304
  0
ARC
  5
4ED
100
AcDbEntity
  8
BEZUGSACHSEN
100
AcDbCircle
 62
7
  6
CONTINUOUS
 10
634.9987990198
 20
130.7712988083
 40
39.3475
100
AcDbArc
 50
112.4132222737
 51
148.15
  0
ARC
  5
4EE
100
AcDbEntity
  8
BEZUGSACHSEN
100
AcDbCircle
 62
7
  6
CONTINUOUS
 10
634.9987990198
 20
125.3800988083
 40
22.2387
100
AcDbArc
 50
0.0
 51
47.5798193563
  0
ARC
  5
4EF
100
AcDbEntity
  8
BEZUGSACHSEN
100
AcDbCircle
 62
7
  6
CONTINUOUS
 10
634.9987990198
 20
130.7712988083
 40
16.8475
100
AcDbArc
 50
152.9182448757
 51
215.7471969812
  0
ARC
  5
4F0
100
AcDbEntity
  8
KONSTRUKTIONSELEMENTE
100
AcDbCircle
 62
7
  6
CONTINUOUS
 10
623.8837807764
 20
165.3950229212
 40
7.3166949218
100
AcDbArc
 50
89.338900262
 51
89.9998571389
  0
ARC
  5
4F1
100
AcDbEntity
  8
KONSTRUKTIONSELEMENTE
100
AcDbCircle
 62
7
  6
CONTINUOUS
 10
626.4188439505
 20
172.1028065829
 40
2.6654083412
100
AcDbArc
 50
9.1122156586
 51
9.8872067217
  0
ARC
  5
4F2
100
AcDbEntity
  8
KONSTRUKTIONSELEMENTE
100
AcDbCircle
 62
7
  6
CONTINUOUS
 10
626.4638106135
 20
172.1092502202
 40
2.6199887948
100
AcDbArc
 50
0.0312035641
 51
9.1288137427
  0
ARC
  5
4F3
100
AcDbEntity
  8
KONSTRUKTIONSELEMENTE
100
AcDbCircle
 62
7
  6
CONTINUOUS
 10
634.223095367
 20
257.957988282
 40
3.4734267316
100
AcDbArc
 50
239.0003102487
 51
240.1154159746
  0
ARC
  5
4F4
100
AcDbEntity
  8
KONSTRUKTIONSELEMENTE
100
AcDbCircle
 62
7
  6
CONTINUOUS
 10
635.7755086158
 20
257.9562760074
 40
3.4714410362
100
AcDbArc
 50
299.8860112582
 51
300.9978757029
  0
ARC
  5
4F5
100
AcDbEntity
  8
KONSTRUKTIONSELEMENTE
100
AcDbCircle
 62
7
  6
CONTINUOUS
 10
634.9987990198
 20
296.892588886
 40
2.5
100
AcDbArc
 50
180.0
 51
360.0
  0
ARC
  5
4F6
100
AcDbEntity
  8
KONSTRUKTIONSELEMENTE
100
AcDbCircle
 62
7
  6
CONTINUOUS
 10
634.9987990198
 20
256.7737938594
 40
2.5
100
AcDbArc
 50
0.0
 51
180.0
  0
ARC
  5
4F7
100
AcDbEntity
  8
KONSTRUKTIONSELEMENTE
100
AcDbCircle
 62
7
  6
CONTINUOUS
 10
634.9987990198
 20
239.2633862193
 40
2.5
100
AcDbArc
 50
180.0
 51
197.8078987882
  0
ARC
  5
4F8
100
AcDbEntity
  8
KONSTRUKTIONSELEMENTE
100
AcDbCircle
 62
7
  6
CONTINUOUS
 10
634.9987990198
 20
239.2633862193
 40
2.5
100
AcDbArc
 50
342.1921012118
 51
360.0
  0
ARC
  5
4F9
100
AcDbEntity
  8
KONSTRUKTIONSELEMENTE
100
AcDbCircle
 62
7
  6
CONTINUOUS
 10
634.9987990198
 20
265.9566672091
 40
2.25
100
AcDbArc
 50
180.0
 51
360.0
  0
ARC
  5
4FA
100
AcDbEntity
  8
KONSTRUKTIONSELEMENTE
100
AcDbCircle
 62
7
  6
CONTINUOUS
 10
634.9987990198
 20
288.0632689269
 40
2.25
100
AcDbArc
 50
0.0
 51
180.0
  0
ARC
  5
4FB
100
AcDbEntity
  8
KONSTRUKTIONSELEMENTE
100
AcDbCircle
 62
7
  6
CONTINUOUS
 10
635.1487990198
 20
311.2401988083
 40
48.15
100
AcDbArc
 50
109.6010952011
 51
180.0
  0
ARC
  5
4FC
100
AcDbEntity
  8
KONSTRUKTIONSELEMENTE
100
AcDbCircle
 62
7
  6
CONTINUOUS
 10
635.1487990198
 20
311.2401988083
 40
48.15
100
AcDbArc
 50
0.0
 51
70.7799463255
  0
ARC
  5
4FD
100
AcDbEntity
  8
KONSTRUKTIONSELEMENTE
100
AcDbCircle
 62
7
  6
CONTINUOUS
 10
635.1487990198
 20
308.5401988083
 40
21.15
100
AcDbArc
 50
176.9364314862
 51
180.0
  0
ARC
  5
4FE
100
AcDbEntity
  8
KONSTRUKTIONSELEMENTE
100
AcDbCircle
 62
7
  6
CONTINUOUS
 10
635.1487990198
 20
308.5401988083
 40
21.15
100
AcDbArc
 50
139.7887241014
 51
153.8121364146
  0
ARC
  5
4FF
100
AcDbEntity
  8
KONSTRUKTIONSELEMENTE
100
AcDbCircle
 62
7
  6
CONTINUOUS
 10
635.1487990198
 20
308.5401988083
 40
21.15
100
AcDbArc
 50
26.6922922909
 51
41.4481095689
  0
ARC
  5
500
100
AcDbEntity
  8
KONSTRUKTIONSELEMENTE
100
AcDbCircle
 62
7
  6
CONTINUOUS
 10
635.1487990198
 20
308.5401988083
 40
21.15
100
AcDbArc
 50
0.0
 51
3.5451579555
  0
ARC
  5
501
100
AcDbEntity
  8
0
100
AcDbCircle
 62
7
  6
CONTINUOUS
 10
634.9987990198
 20
545.4901988083
 40
16.0
100
AcDbArc
 50
0.0
 51
180.0
  0
ARC
  5
502
100
AcDbEntity
  8
0
100
AcDbCircle
 62
7
  6
CONTINUOUS
 10
634.9987990198
 20
313.4901988083
 40
16.0
100
AcDbArc
 50
298.9003658975
 51
334.3705161931
  0
ARC
  5
503
100
AcDbEntity
  8
0
100
AcDbCircle
 62
7
  6
CONTINUOUS
 10
634.9987990198
 20
313.4901988083
 40
16.0
100
AcDbArc
 50
278.9937760094
 51
282.6293136233
  0
ARC
  5
504
100
AcDbEntity
  8
0
100
AcDbCircle
 62
7
  6
CONTINUOUS
 10
634.9987990198
 20
313.4901988083
 40
16.0
100
AcDbArc
 50
257.3706863767
 51
261.0062239906
  0
ARC
  5
505
100
AcDbEntity
  8
0
100
AcDbCircle
 62
7
  6
CONTINUOUS
 10
634.9987990198
 20
313.4901988083
 40
16.0
100
AcDbArc
 50
205.6046627279
 51
241.1007850104
  0
ARC
  5
506
100
AcDbEntity
  8
KONSTRUKTIONSELEMENTE
100
AcDbCircle
 62
7
  6
CONTINUOUS
 10
634.9987990198
 20
314.4029965261
 40
2.5
100
AcDbArc
 50
0.0
 51
180.0
  0
ARC
  5
507
100
AcDbEntity
  8
BEZUGSACHSEN
100
AcDbCircle
 62
7
  6
CONTINUOUS
 10
656.6138270198
 20
86.5980869576
 40
9.785028
100
AcDbArc
 50
180.0
 51
215.7471969812
  0
ARC
  5
508
100
AcDbEntity
  8
RUNDUNGEN
100
AcDbCircle
 62
7
  6
CONTINUOUS
 10
649.1865197266
 20
116.8637988083
 40
8.3178436932
100
AcDbArc
 50
343.7019364916
 51
12.4720186323
  0
ARC
  5
509
100
AcDbEntity
  8
BEZUGSACHSEN
100
AcDbCircle
 62
7
  6
CONTINUOUS
 10
649.1865197266
 20
116.8637988083
 40
8.3178436932
100
AcDbArc
 50
343.7019364916
 51
12.4720186323
  0
ARC
  5
50A
100
AcDbEntity
  8
RUNDUNGEN
100
AcDbCircle
 62
7
  6
CONTINUOUS
 10
659.1271146198
 20
88.4953044083
 40
1.9570056
100
AcDbArc
 50
180.0
 51
270.0
  0
ARC
  5
50B
100
AcDbEntity
  8
BEZUGSACHSEN
100
AcDbCircle
 62
7
  6
CONTINUOUS
 10
659.1271146198
 20
88.4953044083
 40
1.9570056
100
AcDbArc
 50
180.0
 51
270.0
  0
ARC
  5
50C
100
AcDbEntity
  8
RUNDUNGEN
100
AcDbCircle
 62
7
  6
CONTINUOUS
 10
655.0109334198
 20
116.2545932083
 40
1.9570056
100
AcDbArc
 50
0.0
 51
90.0
  0
ARC
  5
50D
100
AcDbEntity
  8
RUNDUNGEN
100
AcDbCircle
 62
7
  6
CONTINUOUS
 10
658.9249446198
 20
87.1475044083
 40
1.9570056
100
AcDbArc
 50
231.3751876027
 51
269.9989777745
  0
ARC
  5
50E
100
AcDbEntity
  8
BEZUGSACHSEN
100
AcDbCircle
 62
7
  6
CONTINUOUS
 10
658.9249446198
 20
87.1475044083
 40
1.9570056
100
AcDbArc
 50
180.0
 51
269.9989777745
  0
ARC
  5
50F
100
AcDbEntity
  8
KONSTRUKTIONSELEMENTE
100
AcDbCircle
 62
7
  6
CONTINUOUS
 10
662.7949612569
 20
182.7113423311
 40
4.0652385933
100
AcDbArc
 50
146.5890896055
 51
149.454088987
  0
ARC
  5
510
100
AcDbEntity
  8
KONSTRUKTIONSELEMENTE
100
AcDbCircle
 62
7
  6
CONTINUOUS
 10
643.5787540886
 20
172.102806583
 40
2.6654083407
100
AcDbArc
 50
170.1127932782
 51
170.8877843415
  0
ARC
  5
511
100
AcDbEntity
  8
KONSTRUKTIONSELEMENTE
100
AcDbCircle
 62
7
  6
CONTINUOUS
 10
643.5337874261
 20
172.1092502202
 40
2.6199887948
100
AcDbArc
 50
170.8711862573
 51
179.9687964359
  0
ARC
  5
512
100
AcDbEntity
  8
BEZUGSACHSEN
100
AcDbCircle
 62
7
  6
CONTINUOUS
 10
681.2137710198
 20
88.594671738
 40
9.785028
100
AcDbArc
 50
328.15
 51
360.0
  0
ARC
  5
513
100
AcDbEntity
  8
BEZUGSACHSEN
100
AcDbCircle
 62
7
  6
CONTINUOUS
 10
681.478251913
 20
116.8637988083
 40
8.3178436932
100
AcDbArc
 50
111.236238366
 51
224.0524622899
  0
ARC
  5
514
100
AcDbEntity
  8
BEZUGSACHSEN
100
AcDbCircle
 62
7
  6
CONTINUOUS
 10
686.1342633024
 20
107.8712913882
 40
4.8645357316
100
AcDbArc
 50
359.9956305717
 51
35.0043694283
  0
CIRCLE
  5
515
100
AcDbEntity
  8
BEZUGSACHSEN
100
AcDbCircle
 62
7
  6
CONTINUOUS
 10
682.0734096198
 20
100.6901988083
 40
2.447168143
  0
ARC
  5
516
100
AcDbEntity
  8
RUNDUNGEN
100
AcDbCircle
 62
7
  6
CONTINUOUS
 10
677.5994920633
 20
126.8406626349
 40
2.3864797769
100
AcDbArc
 50
291.2820489662
 51
291.5968580217
  0
ARC
  5
517
100
AcDbEntity
  8
BEZUGSACHSEN
100
AcDbCircle
 62
7
  6
CONTINUOUS
 10
677.5994920633
 20
126.8406626349
 40
2.3864797769
100
AcDbArc
 50
291.2820489662
 51
291.5968580217
  0
ARC
  5
518
100
AcDbEntity
  8
RUNDUNGEN
100
AcDbCircle
 62
7
  6
CONTINUOUS
 10
673.5431834198
 20
88.4953044083
 40
1.9570056
100
AcDbArc
 50
270.0
 51
360.0
  0
ARC
  5
519
100
AcDbEntity
  8
BEZUGSACHSEN
100
AcDbCircle
 62
7
  6
CONTINUOUS
 10
673.5431834198
 20
88.4953044083
 40
1.9570056
100
AcDbArc
 50
270.0
 51
360.0
  0
ARC
  5
51A
100
AcDbEntity
  8
RUNDUNGEN
100
AcDbCircle
 62
7
  6
CONTINUOUS
 10
677.7941446198
 20
116.2545932083
 40
1.9570056
100
AcDbArc
 50
90.0
 51
180.0
  0
ARC
  5
51B
100
AcDbEntity
  8
BEZUGSACHSEN
100
AcDbCircle
 62
7
  6
CONTINUOUS
 10
673.8801334198
 20
87.1475044083
 40
1.9570056
100
AcDbArc
 50
269.9996856384
 51
360.0
  0
ARC
  5
51C
100
AcDbEntity
  8
KONSTRUKTIONSELEMENTE
100
AcDbCircle
 62
7
  6
CONTINUOUS
 10
689.5987990198
 20
223.4901988083
 40
20.7
100
AcDbArc
 50
270.0
 51
90.0
  0
ARC
  5
51D
100
AcDbEntity
  8
BEZUGSACHSEN
100
AcDbCircle
 62
7
  6
CONTINUOUS
 10
698.5987990198
 20
223.4451486969
 40
4.5
100
AcDbArc
 50
226.8505695315
 51
74.3986300791
  0
SPLINE
  5
51E
100
AcDbEntity
  8
KONSTRUKTIONSELEMENTE
100
AcDbSpline
 62
7
  6
CONTINUOUS
 70
0
 71
3
 72
15
 73
11
 74
0
 42
0.0000001
 43
0.0000001
 44
0.0000000001
 40
0.0
 40
0.0
 40
0.0
 40
0.0
 40
0.1249836996
 40
0.2499915208
 40
0.3750081282
 40
0.5000242729
 40
0.6250372646
 40
0.7500417524
 40
0.8750273849
 40
1.0
 40
1.0
 40
1.0
 40
1.0
 10
306.9001512164
 20
271.4899346791
 30
0.0
 10
306.0843253347
 20
270.5476173181
 30
0.0
 10
304.5655308361
 20
268.5634550525
 30
0.0
 10
302.5584990501
 20
265.4055752754
 30
0.0
 10
300.6740548753
 20
262.1748506961
 30
0.0
 10
298.778063117
 20
258.9506783004
 30
0.0
 10
296.7608835779
 20
255.7992806678
 30
0.0
 10
294.530404391
 20
252.7919601695
 30
0.0
 10
292.0145119611
 20
250.0159269066
 30
0.0
 10
290.1154186339
 20
248.3866176115
 30
0.0
 10
289.1118261817
 20
247.6476585309
 30
0.0
  0
SPLINE
  5
51F
100
AcDbEntity
  8
KONSTRUKTIONSELEMENTE
100
AcDbSpline
 62
7
  6
CONTINUOUS
 70
0
 71
3
 72
15
 73
11
 74
0
 42
0.0000001
 43
0.0000001
 44
0.0000000001
 40
0.0
 40
0.0
 40
0.0
 40
0.0
 40
0.124976609
 40
0.2499724886
 40
0.3749790003
 40
0.4999904523
 40
0.6250093068
 40
0.7500283433
 40
0.8750305237
 40
1.0
 40
1.0
 40
1.0
 40
1.0
 10
324.6880302979
 20
247.647681916
 30
0.0
 10
323.6844141707
 20
248.3866553448
 30
0.0
 10
321.7852577735
 20
250.0160720378
 30
0.0
 10
319.2692699945
 20
252.7921878255
 30
0.0
 10
317.0387893889
 20
255.7995961527
 30
0.0
 10
315.0216313507
 20
258.9510017086
 30
0.0
 10
313.1256017489
 20
262.1751436953
 30
0.0
 10
311.2413185194
 20
265.4059419761
 30
0.0
 10
309.2339384317
 20
268.5632698479
 30
0.0
 10
307.7163127853
 20
270.5481119492
 30
0.0
 10
306.9001512164
 20
271.4899346791
 30
0.0
  0
SPLINE
  5
520
100
AcDbEntity
  8
KONSTRUKTIONSELEMENTE
100
AcDbSpline
 62
7
  6
CONTINUOUS
 70
0
 71
3
 72
13
 73
9
 74
0
 42
0.0000001
 43
0.0000001
 44
0.0000000001
 40
0.0
 40
0.0
 40
0.0
 40
0.0
 40
0.1197290731
 40
0.2397365246
 40
0.3609040964
 40
0.4836831257
 40
0.7359942557
 40
1.0
 40
1.0
 40
1.0
 40
1.0
 10
642.9987990198
 20
297.869618113
 30
0.0
 10
642.9987990198
 20
298.2188318151
 30
0.0
 10
642.926695398
 20
298.9201728511
 30
0.0
 10
642.6084100632
 20
299.9303910993
 30
0.0
 10
642.0990265216
 20
300.8689693179
 30
0.0
 10
641.187225993
 20
302.0017438246
 30
0.0
 10
639.6713347274
 20
303.1388872407
 30
0.0
 10
638.2484478774
 20
303.6854329646
 30
0.0
 10
637.5022233557
 20
303.8754014552
 30
0.0
  0
SPLINE
  5
521
100
AcDbEntity
  8
KONSTRUKTIONSELEMENTE
100
AcDbSpline
 62
7
  6
CONTINUOUS
 70
0
 71
3
 72
13
 73
9
 74
0
 42
0.0000001
 43
0.0000001
 44
0.0000000001
 40
0.0
 40
0.0
 40
0.0
 40
0.0
 40
0.2640112835
 40
0.5163080567
 40
0.6390830379
 40
0.7602378991
 40
0.8802701562
 40
1.0
 40
1.0
 40
1.0
 40
1.0
 10
632.4944712173
 20
303.8751542657
 30
0.0
 10
631.748331395
 20
303.6851196644
 30
0.0
 10
630.3256549536
 20
303.1385530332
 30
0.0
 10
628.8100648865
 20
302.0014076923
 30
0.0
 10
627.8984746091
 20
300.8687921836
 30
0.0
 10
627.3890836932
 20
299.9303148971
 30
0.0
 10
627.0709469742
 20
298.9201267939
 30
0.0
 10
626.9987990198
 20
298.2187969104
 30
0.0
 10
626.9987990198
 20
297.869618113
 30
0.0
  0
SPLINE
  5
522
100
AcDbEntity
  8
KONSTRUKTIONSELEMENTE
100
AcDbSpline
 62
7
  6
CONTINUOUS
 70
0
 71
3
 72
10
 73
6
 74
0
 42
0.0000001
 43
0.0000001
 44
0.0000000001
 40
0.0
 40
0.0
 40
0.0
 40
0.0
 40
0.3192646009
 40
0.6086079864
 40
1.0
 40
1.0
 40
1.0
 40
1.0
 10
638.4987990198
 20
297.869618113
 30
0.0
 10
638.4987990198
 20
298.0413578882
 30
0.0
 10
638.3567832332
 20
298.3622091031
 30
0.0
 10
637.9909772186
 20
298.7555614425
 30
0.0
 10
637.6876893858
 20
298.9686013558
 30
0.0
 10
637.5051530848
 20
299.0735159523
 30
0.0
  0
SPLINE
  5
523
100
AcDbEntity
  8
KONSTRUKTIONSELEMENTE
100
AcDbSpline
 62
7
  6
CONTINUOUS
 70
0
 71
3
 72
10
 73
6
 74
0
 42
0.0000001
 43
0.0000001
 44
0.0000000001
 40
0.0
 40
0.0
 40
0.0
 40
0.0
 40
0.3914026107
 40
0.6807340322
 40
1.0
 40
1.0
 40
1.0
 40
1.0
 10
632.4923534187
 20
299.0734634811
 30
0.0
 10
632.3098261753
 20
298.9685480716
 30
0.0
 10
632.0065865945
 20
298.7554890001
 30
0.0
 10
631.6407658899
 20
298.3621906395
 30
0.0
 10
631.4987990198
 20
298.0413478986
 30
0.0
 10
631.4987990198
 20
297.869618113
 30
0.0
  0
SPLINE
  5
524
100
AcDbEntity
  8
KONSTRUKTIONSELEMENTE
100
AcDbSpline
 62
7
  6
CONTINUOUS
 70
0
 71
3
 72
10
 73
6
 74
0
 42
0.0000001
 43
0.0000001
 44
0.0000000001
 40
0.0
 40
0.0
 40
0.0
 40
0.0
 40
0.3116645009
 40
0.6060899939
 40
1.0
 40
1.0
 40
1.0
 40
1.0
 10
631.4987990198
 20
287.2630163952
 30
0.0
 10
631.4987990198
 20
287.0658615488
 30
0.0
 10
631.6863275763
 20
286.6945353541
 30
0.0
 10
632.143646846
 20
286.2606622643
 30
0.0
 10
632.5220481582
 20
286.0332522309
 30
0.0
 10
632.7468071315
 20
285.9256640999
 30
0.0
  0
SPLINE
  5
525
100
AcDbEntity
  8
KONSTRUKTIONSELEMENTE
100
AcDbSpline
 62
7
  6
CONTINUOUS
 70
0
 71
3
 72
10
 73
6
 74
0
 42
0.0000001
 43
0.0000001
 44
0.0000000001
 40
0.0
 40
0.0
 40
0.0
 40
0.0
 40
0.3939255147
 40
0.6883533687
 40
1.0
 40
1.0
 40
1.0
 40
1.0
 10
637.2505482553
 20
285.9255521718
 30
0.0
 10
637.4753561613
 20
286.0331420725
 30
0.0
 10
637.8538186829
 20
286.2605876407
 30
0.0
 10
638.3112602006
 20
286.6944653841
 30
0.0
 10
638.4987990198
 20
287.0658450913
 30
0.0
 10
638.4987990198
 20
287.2630163952
 30
0.0
  0
SPLINE
  5
526
100
AcDbEntity
  8
KONSTRUKTIONSELEMENTE
100
AcDbSpline
 62
7
  6
CONTINUOUS
 70
0
 71
3
 72
13
 73
9
 74
0
 42
0.0000001
 43
0.0000001
 44
0.0000000001
 40
0.0
 40
0.0
 40
0.0
 40
0.0
 40
0.1194785188
 40
0.2392741704
 40
0.3602835725
 40
0.4830059608
 40
0.7355440041
 40
1.0
 40
1.0
 40
1.0
 40
1.0
 10
626.9987990198
 20
287.2630163952
 30
0.0
 10
626.9987990198
 20
286.904376784
 30
0.0
 10
627.074894503
 20
286.183870155
 30
0.0
 10
627.4104707306
 20
285.1483743993
 30
0.0
 10
627.9464551959
 20
284.1900547201
 30
0.0
 10
628.9041507616
 20
283.0396749592
 30
0.0
 10
630.4904694043
 20
281.9003324399
 30
0.0
 10
631.9705228467
 20
281.3728064196
 30
0.0
 10
632.7446866993
 20
281.1972502745
 30
0.0
  0
SPLINE
  5
527
100
AcDbEntity
  8
KONSTRUKTIONSELEMENTE
100
AcDbSpline
 62
7
  6
CONTINUOUS
 70
0
 71
3
 72
13
 73
9
 74
0
 42
0.0000001
 43
0.0000001
 44
0.0000000001
 40
0.0
 40
0.0
 40
0.0
 40
0.0
 40
0.2644681654
 40
0.5169944072
 40
0.6397129492
 40
0.760706397
 40
0.8805228501
 40
1.0
 40
1.0
 40
1.0
 40
1.0
 10
637.2509697986
 20
281.1968190622
 30
0.0
 10
638.0253671251
 20
281.3722991665
 30
0.0
 10
639.5058579727
 20
281.8996198951
 30
0.0
 10
641.0927083798
 20
283.0389723586
 30
0.0
 10
642.0506803391
 20
284.1894149074
 30
0.0
 10
642.5869970968
 20
285.1478366939
 30
0.0
 10
642.9226114334
 20
286.1835901064
 30
0.0
 10
642.9987990198
 20
286.9043021249
 30
0.0
 10
642.9987990198
 20
287.2630163952
 30
0.0
  0
SPLINE
  5
528
100
AcDbEntity
  8
KONSTRUKTIONSELEMENTE
100
AcDbSpline
 62
7
  6
CONTINUOUS
 70
0
 71
3
 72
13
 73
9
 74
0
 42
0.0000001
 43
0.0000001
 44
0.0000000001
 40
0.0
 40
0.0
 40
0.0
 40
0.0
 40
0.1194785188
 40
0.2392741704
 40
0.3602835725
 40
0.4830059608
 40
0.7355440041
 40
1.0
 40
1.0
 40
1.0
 40
1.0
 10
642.9987990198
 20
266.7569197408
 30
0.0
 10
642.9987990198
 20
267.115559352
 30
0.0
 10
642.9227035366
 20
267.836065981
 30
0.0
 10
642.587127309
 20
268.8715617367
 30
0.0
 10
642.0511428437
 20
269.8298814159
 30
0.0
 10
641.093447278
 20
270.9802611768
 30
0.0
 10
639.5071286353
 20
272.1196036961
 30
0.0
 10
638.0270751929
 20
272.6471297164
 30
0.0
 10
637.2529113403
 20
272.8226858614
 30
0.0
  0
SPLINE
  5
529
100
AcDbEntity
  8
KONSTRUKTIONSELEMENTE
100
AcDbSpline
 62
7
  6
CONTINUOUS
 70
0
 71
3
 72
13
 73
9
 74
0
 42
0.0000001
 43
0.0000001
 44
0.0000000001
 40
0.0
 40
0.0
 40
0.0
 40
0.0
 40
0.2644681654
 40
0.5169944072
 40
0.6397129492
 40
0.760706397
 40
0.8805228501
 40
1.0
 40
1.0
 40
1.0
 40
1.0
 10
632.746628241
 20
272.8231170738
 30
0.0
 10
631.9722309145
 20
272.6476369695
 30
0.0
 10
630.4917400669
 20
272.1203162409
 30
0.0
 10
628.9048896598
 20
270.9809637774
 30
0.0
 10
627.9469177005
 20
269.8305212286
 30
0.0
 10
627.4106009428
 20
268.872099442
 30
0.0
 10
627.0749866062
 20
267.8363460296
 30
0.0
 10
626.9987990198
 20
267.1156340111
 30
0.0
 10
626.9987990198
 20
266.7569197408
 30
0.0
  0
SPLINE
  5
52A
100
AcDbEntity
  8
KONSTRUKTIONSELEMENTE
100
AcDbSpline
 62
7
  6
CONTINUOUS
 70
0
 71
3
 72
10
 73
6
 74
0
 42
0.0000001
 43
0.0000001
 44
0.0000000001
 40
0.0
 40
0.0
 40
0.0
 40
0.0
 40
0.3116645009
 40
0.6060899939
 40
1.0
 40
1.0
 40
1.0
 40
1.0
 10
638.4987990198
 20
266.7569197408
 30
0.0
 10
638.4987990198
 20
266.9540745872
 30
0.0
 10
638.3112704633
 20
267.3254007819
 30
0.0
 10
637.8539511936
 20
267.7592738717
 30
0.0
 10
637.4755498814
 20
267.9866839051
 30
0.0
 10
637.2507909081
 20
268.0942720361
 30
0.0
  0
SPLINE
  5
52B
100
AcDbEntity
  8
KONSTRUKTIONSELEMENTE
100
AcDbSpline
 62
7
  6
CONTINUOUS
 70
0
 71
3
 72
10
 73
6
 74
0
 42
0.0000001
 43
0.0000001
 44
0.0000000001
 40
0.0
 40
0.0
 40
0.0
 40
0.0
 40
0.3939255147
 40
0.6883533687
 40
1.0
 40
1.0
 40
1.0
 40
1.0
 10
632.7470497843
 20
268.0943839642
 30
0.0
 10
632.5222418783
 20
267.9867940635
 30
0.0
 10
632.1437793567
 20
267.7593484952
 30
0.0
 10
631.686337839
 20
267.3254707519
 30
0.0
 10
631.4987990198
 20
266.9540910446
 30
0.0
 10
631.4987990198
 20
266.7569197408
 30
0.0
  0
SPLINE
  5
52C
100
AcDbEntity
  8
KONSTRUKTIONSELEMENTE
100
AcDbSpline
 62
7
  6
CONTINUOUS
 70
0
 71
3
 72
11
 73
7
 74
0
 42
0.0000001
 43
0.0000001
 44
0.0000000001
 40
0.0
 40
0.0
 40
0.0
 40
0.0
 40
0.1300212612
 40
0.3238128257
 40
0.6109171711
 40
1.0
 40
1.0
 40
1.0
 40
1.0
 10
631.4987990198
 20
256.150318023
 30
0.0
 10
631.4987990198
 20
256.0830447398
 30
0.0
 10
631.5268089415
 20
255.9149274529
 30
0.0
 10
631.6740899913
 20
255.6304012385
 30
0.0
 10
631.9758832823
 20
255.2913989404
 30
0.0
 10
632.2616128566
 20
255.0843654416
 30
0.0
 10
632.4341644716
 20
254.9806707794
 30
0.0
  0
SPLINE
  5
52D
100
AcDbEntity
  8
KONSTRUKTIONSELEMENTE
100
AcDbSpline
 62
7
  6
CONTINUOUS
 70
0
 71
3
 72
11
 73
7
 74
0
 42
0.0000001
 43
0.0000001
 44
0.0000000001
 40
0.0
 40
0.0
 40
0.0
 40
0.0
 40
0.3890986935
 40
0.6761938014
 40
0.8699946842
 40
1.0
 40
1.0
 40
1.0
 40
1.0
 10
637.5633225995
 20
254.9806039778
 30
0.0
 10
637.7358984903
 20
255.0843057616
 30
0.0
 10
638.0216315172
 20
255.2913732894
 30
0.0
 10
638.3235340914
 20
255.630354542
 30
0.0
 10
638.4707514608
 20
255.9149287252
 30
0.0
 10
638.4987990198
 20
256.0830475546
 30
0.0
 10
638.4987990198
 20
256.150318023
 30
0.0
  0
SPLINE
  5
52E
100
AcDbEntity
  8
KONSTRUKTIONSELEMENTE
100
AcDbSpline
 62
7
  6
CONTINUOUS
 70
0
 71
3
 72
13
 73
9
 74
0
 42
0.0000001
 43
0.0000001
 44
0.0000000001
 40
0.0
 40
0.0
 40
0.0
 40
0.0
 40
0.1197290731
 40
0.2397365246
 40
0.3609040964
 40
0.4836831257
 40
0.7359942557
 40
1.0
 40
1.0
 40
1.0
 40
1.0
 10
626.9987990198
 20
256.150318023
 30
0.0
 10
626.9987990198
 20
255.8011043209
 30
0.0
 10
627.0709026416
 20
255.0997632849
 30
0.0
 10
627.3891879763
 20
254.0895450367
 30
0.0
 10
627.898571518
 20
253.1509668181
 30
0.0
 10
628.8103720466
 20
252.0181923114
 30
0.0
 10
630.3262633122
 20
250.8810488953
 30
0.0
 10
631.7491501622
 20
250.3345031714
 30
0.0
 10
632.4953746839
 20
250.1445346808
 30
0.0
  0
SPLINE
  5
52F
100
AcDbEntity
  8
KONSTRUKTIONSELEMENTE
100
AcDbSpline
 62
7
  6
CONTINUOUS
 70
0
 71
3
 72
13
 73
9
 74
0
 42
0.0000001
 43
0.0000001
 44
0.0000000001
 40
0.0
 40
0.0
 40
0.0
 40
0.0
 40
0.2640112835
 40
0.5163080567
 40
0.6390830379
 40
0.7602378991
 40
0.8802701562
 40
1.0
 40
1.0
 40
1.0
 40
1.0
 10
637.5031268223
 20
250.1447818703
 30
0.0
 10
638.2492666446
 20
250.3348164716
 30
0.0
 10
639.671943086
 20
250.8813831028
 30
0.0
 10
641.1875331531
 20
252.0185284437
 30
0.0
 10
642.0991234305
 20
253.1511439523
 30
0.0
 10
642.6085143464
 20
254.0896212389
 30
0.0
 10
642.9266510654
 20
255.0998093421
 30
0.0
 10
642.9987990198
 20
255.8011392256
 30
0.0
 10
642.9987990198
 20
256.150318023
 30
0.0
  0
SPLINE
  5
530
100
AcDbEntity
  8
KONSTRUKTIONSELEMENTE
100
AcDbSpline
 62
7
  6
CONTINUOUS
 70
0
 71
3
 72
12
 73
8
 74
0
 42
0.0000001
 43
0.0000001
 44
0.0000000001
 40
0.0
 40
0.0
 40
0.0
 40
0.0
 40
0.1046648477
 40
0.2122475636
 40
0.4433597838
 40
0.705355557
 40
1.0
 40
1.0
 40
1.0
 40
1.0
 10
659.9987990198
 20
328.6287630946
 30
0.0
 10
659.9987990198
 20
329.1939023762
 30
0.0
 10
659.9050133476
 20
330.3420415237
 30
0.0
 10
659.331930978
 20
332.6753169635
 30
0.0
 10
657.8146524868
 20
335.599648122
 30
0.0
 10
654.8988610285
 20
338.7504430404
 30
0.0
 10
652.397368695
 20
340.4622078295
 30
0.0
 10
651.0078781243
 20
341.2370598047
 30
0.0
  0
SPLINE
  5
531
100
AcDbEntity
  8
KONSTRUKTIONSELEMENTE
100
AcDbSpline
 62
7
  6
CONTINUOUS
 70
0
 71
3
 72
12
 73
8
 74
0
 42
0.0000001
 43
0.0000001
 44
0.0000000001
 40
0.0
 40
0.0
 40
0.0
 40
0.0
 40
0.2946428418
 40
0.5566374964
 40
0.7877496771
 40
0.8953360323
 40
1.0
 40
1.0
 40
1.0
 40
1.0
 10
618.9880297694
 20
341.2361108475
 30
0.0
 10
617.5987735178
 20
340.4612458082
 30
0.0
 10
615.0977006845
 20
338.7495344081
 30
0.0
 10
612.1824934014
 20
335.5989234375
 30
0.0
 10
610.6655067695
 20
332.6748762535
 30
0.0
 10
610.0925704337
 20
330.3418457841
 30
0.0
 10
609.9987990198
 20
329.1938302617
 30
0.0
 10
609.9987990198
 20
328.6287630946
 30
0.0
  0
SPLINE
  5
532
100
AcDbEntity
  8
KONSTRUKTIONSELEMENTE
100
AcDbSpline
 62
7
  6
CONTINUOUS
 70
0
 71
3
 72
14
 73
10
 74
0
 42
0.0000001
 43
0.0000001
 44
0.0000000001
 40
0.0
 40
0.0
 40
0.0
 40
0.0
 40
0.1160816574
 40
0.2331564982
 40
0.3521921366
 40
0.4740732572
 40
0.599519804
 40
0.7290040956
 40
1.0
 40
1.0
 40
1.0
 40
1.0
 10
667.9987990198
 20
328.6287630946
 30
0.0
 10
667.9987990198
 20
329.7516541955
 30
0.0
 10
667.7916368988
 20
332.0123054956
 30
0.0
 10
666.8727964559
 20
335.3104730489
 30
0.0
 10
665.378284672
 20
338.4524911591
 30
0.0
 10
663.3538651742
 20
341.3783595048
 30
0.0
 10
660.8499216946
 20
344.0448578874
 30
0.0
 10
656.8875667547
 20
347.2539741684
 30
0.0
 10
653.4306817248
 20
349.1034438498
 30
0.0
 10
651.0035101787
 20
350.0937398291
 30
0.0
  0
SPLINE
  5
533
100
AcDbEntity
  8
KONSTRUKTIONSELEMENTE
100
AcDbSpline
 62
7
  6
CONTINUOUS
 70
0
 71
3
 72
14
 73
10
 74
0
 42
0.0000001
 43
0.0000001
 44
0.0000000001
 40
0.0
 40
0.0
 40
0.0
 40
0.0
 40
0.2709984352
 40
0.4004828431
 40
0.5259288988
 40
0.6478092892
 40
0.7668437972
 40
0.8839181486
 40
1.0
 40
1.0
 40
1.0
 40
1.0
 10
618.9975319983
 20
350.0951453871
 30
0.0
 10
616.5699351846
 20
349.1049395653
 30
0.0
 10
613.1123982661
 20
347.2555632034
 30
0.0
 10
609.149255815
 20
344.0463466147
 30
0.0
 10
606.6447928956
 20
341.3797071379
 30
0.0
 10
604.6199391894
 20
338.4536110317
 30
0.0
 10
603.1250786023
 20
335.3112881163
 30
0.0
 10
602.206016342
 20
332.0127381296
 30
0.0
 10
601.9987990198
 20
329.7517996662
 30
0.0
 10
601.9987990198
 20
328.6287630946
 30
0.0
  0
SPLINE
  5
534
100
AcDbEntity
  8
KONSTRUKTIONSELEMENTE
100
AcDbSpline
 62
7
  6
CONTINUOUS
 70
0
 71
3
 72
14
 73
10
 74
0
 42
0.0000001
 43
0.0000001
 44
0.0000000001
 40
0.0
 40
0.0
 40
0.0
 40
0.0
 40
0.0926617876
 40
0.1913801651
 40
0.3003577316
 40
0.4212285543
 40
0.5536633428
 40
0.6960472196
 40
1.0
 40
1.0
 40
1.0
 40
1.0
 10
609.9987990198
 20
328.6287630946
 30
0.0
 10
609.9987990198
 20
327.6923188348
 30
0.0
 10
610.2637635061
 20
325.7494223052
 30
0.0
 10
611.4473420555
 20
322.9221829972
 30
0.0
 10
613.4173661161
 20
320.2160981193
 30
0.0
 10
616.1414454937
 20
317.7376481559
 30
0.0
 10
619.5424400295
 20
315.5980656739
 30
0.0
 10
624.9327138454
 20
313.2848198005
 30
0.0
 10
629.4327181547
 20
312.4155863009
 30
0.0
 10
632.4974160006
 20
312.2074016892
 30
0.0
  0
SPLINE
  5
535
100
AcDbEntity
  8
KONSTRUKTIONSELEMENTE
100
AcDbSpline
 62
7
  6
CONTINUOUS
 70
0
 71
3
 72
14
 73
10
 74
0
 42
0.0000001
 43
0.0000001
 44
0.0000000001
 40
0.0
 40
0.0
 40
0.0
 40
0.0
 40
0.3039516839
 40
0.4463359797
 40
0.578771468
 40
0.6996430113
 40
0.8086209477
 40
0.9073389559
 40
1.0
 40
1.0
 40
1.0
 40
1.0
 10
637.5005286012
 20
312.2074310961
 30
0.0
 10
640.5651777204
 20
312.4156499601
 30
0.0
 10
645.0651184797
 20
313.2848834209
 30
0.0
 10
650.4553149342
 20
315.5981458949
 30
0.0
 10
653.8562636134
 20
317.7377475714
 30
0.0
 10
656.5803163389
 20
320.2161912183
 30
0.0
 10
658.5502989719
 20
322.9222684902
 30
0.0
 10
659.7338452011
 20
325.7494740936
 30
0.0
 10
659.9987990198
 20
327.6923370831
 30
0.0
 10
659.9987990198
 20
328.6287630946
 30
0.0
  0
SPLINE
  5
536
100
AcDbEntity
  8
KONSTRUKTIONSELEMENTE
100
AcDbSpline
 62
7
  6
CONTINUOUS
 70
0
 71
3
 72
14
 73
10
 74
0
 42
0.0000001
 43
0.0000001
 44
0.0000000001
 40
0.0
 40
0.0
 40
0.0
 40
0.0
 40
0.1111900543
 40
0.2242929242
 40
0.3410601944
 40
0.4628382889
 40
0.5902699081
 40
0.7231514294
 40
1.0
 40
1.0
 40
1.0
 40
1.0
 10
601.9987990198
 20
328.6287630946
 30
0.0
 10
601.9987990198
 20
327.0403827848
 30
0.0
 10
602.4190190398
 20
323.8218271599
 30
0.0
 10
604.2533476002
 20
319.2588958726
 30
0.0
 10
607.1690058269
 20
315.1183017484
 30
0.0
 10
611.0130082919
 20
311.5276603919
 30
0.0
 10
615.632605066
 20
308.5683908685
 30
0.0
 10
622.6969873622
 20
305.5134511305
 30
0.0
 10
628.5492191602
 20
304.4122792643
 30
0.0
 10
632.4979519856
 20
304.1922638056
 30
0.0
  0
SPLINE
  5
537
100
AcDbEntity
  8
KONSTRUKTIONSELEMENTE
100
AcDbSpline
 62
7
  6
CONTINUOUS
 70
0
 71
3
 72
14
 73
10
 74
0
 42
0.0000001
 43
0.0000001
 44
0.0000000001
 40
0.0
 40
0.0
 40
0.0
 40
0.0
 40
0.2768506627
 40
0.4097320701
 40
0.5371629867
 40
0.6589400149
 40
0.7757063617
 40
0.8888087262
 40
1.0
 40
1.0
 40
1.0
 40
1.0
 10
637.4990468223
 20
304.1922312486
 30
0.0
 10
641.4478659312
 20
304.4122287892
 30
0.0
 10
647.3002252835
 20
305.5133180122
 30
0.0
 10
654.3647501085
 20
308.5682541039
 30
0.0
 10
658.9844069137
 20
311.5275205969
 30
0.0
 10
662.8284644722
 20
315.11815355
 30
0.0
 10
665.7441766257
 20
319.2587521616
 30
0.0
 10
667.5785662146
 20
323.8217308114
 30
0.0
 10
667.9987990198
 20
327.0403431669
 30
0.0
 10
667.9987990198
 20
328.6287630946
 30
0.0
  0
SPLINE
  5
538
100
AcDbEntity
  8
RUNDUNGEN
100
AcDbSpline
 62
7
  6
CONTINUOUS
 70
0
 71
3
 72
8
 73
4
 74
0
 42
0.0000001
 43
0.0000001
 44
0.0000000001
 40
0.0
 40
0.0
 40
0.0
 40
0.0
 40
1.0
 40
1.0
 40
1.0
 40
1.0
 10
657.3080738047
 20
118.660143215
 30
0.0
 10
657.2599498828
 20
118.8769657237
 30
0.0
 10
657.2374989458
 20
119.1005927559
 30
0.0
 10
657.2374990198
 20
119.3226916351
 30
0.0
  0
SPLINE
  5
539
100
AcDbEntity
  8
RUNDUNGEN
100
AcDbSpline
 62
7
  6
CONTINUOUS
 70
0
 71
3
 72
11
 73
7
 74
0
 42
0.0000001
 43
0.0000001
 44
0.0000000001
 40
0.0
 40
0.0
 40
0.0
 40
0.0
 40
0.2500104169
 40
0.5000108951
 40
0.75000483
 40
1.0
 40
1.0
 40
1.0
 40
1.0
 10
678.477143883
 20
124.6214219457
 30
0.0
 10
678.6622957834
 20
124.6947317243
 30
0.0
 10
679.0125736766
 20
124.898985746
 30
0.0
 10
679.4208557472
 20
125.3472533913
 30
0.0
 10
679.676586756
 20
125.8970926559
 30
0.0
 10
679.7284958873
 20
126.2994173225
 30
0.0
 10
679.7235181501
 20
126.4984799642
 30
0.0
  0
SPLINE
  5
53A
100
AcDbEntity
  8
RUNDUNGEN
100
AcDbSpline
 62
7
  6
CONTINUOUS
 70
0
 71
3
 72
11
 73
7
 74
0
 42
0.0000001
 43
0.0000001
 44
0.0000000001
 40
0.0
 40
0.0
 40
0.0
 40
0.0
 40
0.2500139657
 40
0.500003507
 40
0.7499908108
 40
1.0
 40
1.0
 40
1.0
 40
1.0
 10
586.1971066087
 20
83.1687992036
 30
0.0
 10
586.0392203053
 20
83.1687992323
 30
0.0
 10
585.7221735177
 20
83.2067928036
 30
0.0
 10
585.274628271
 20
83.3747126037
 30
0.0
 10
584.8795393639
 20
83.6438207426
 30
0.0
 10
584.6661730745
 20
83.8814752227
 30
0.0
 10
584.5756148596
 20
84.0108055827
 30
0.0
  0
SPLINE
  5
53B
100
AcDbEntity
  8
RUNDUNGEN
100
AcDbSpline
 62
7
  6
CONTINUOUS
 70
0
 71
3
 72
11
 73
7
 74
0
 42
0.0000001
 43
0.0000001
 44
0.0000000001
 40
0.0
 40
0.0
 40
0.0
 40
0.0
 40
0.250034634
 40
0.5000539361
 40
0.7500425615
 40
1.0
 40
1.0
 40
1.0
 40
1.0
 10
621.1873990988
 20
83.1688014087
 30
0.0
 10
621.4437222851
 20
83.1688011152
 30
0.0
 10
621.9618240331
 20
83.2696811482
 30
0.0
 10
622.6200004732
 20
83.7029571401
 30
0.0
 10
623.0641339864
 20
84.3543261376
 30
0.0
 10
623.1687989818
 20
84.8725714842
 30
0.0
 10
623.1687990198
 20
85.1288155335
 30
0.0
  0
SPLINE
  5
53C
100
AcDbEntity
  8
BEZUGSACHSEN
100
AcDbSpline
 62
7
  6
CONTINUOUS
 70
0
 71
3
 72
9
 73
5
 74
0
 42
0.0000001
 43
0.0000001
 44
0.0000000001
 40
0.0
 40
0.0
 40
0.0
 40
0.0
 40
0.4742784426
 40
1.0
 40
1.0
 40
1.0
 40
1.0
 10
630.1011833689
 20
240.2422845402
 30
0.0
 10
630.3758440055
 20
240.6222467787
 30
0.0
 10
631.1115850646
 20
241.3133870628
 30
0.0
 10
632.0073984844
 20
241.7591582924
 30
0.0
 10
632.496152804
 20
241.9357901687
 30
0.0
  0
SPLINE
  5
53D
100
AcDbEntity
  8
BEZUGSACHSEN
100
AcDbSpline
 62
7
  6
CONTINUOUS
 70
0
 71
3
 72
9
 73
5
 74
0
 42
0.0000001
 43
0.0000001
 44
0.0000000001
 40
0.0
 40
0.0
 40
0.0
 40
0.0
 40
0.5257215574
 40
1.0
 40
1.0
 40
1.0
 40
1.0
 10
637.5014452356
 20
241.9357901687
 30
0.0
 10
637.9901995552
 20
241.7591582924
 30
0.0
 10
638.886012975
 20
241.3133870628
 30
0.0
 10
639.621754034
 20
240.6222467787
 30
0.0
 10
639.8964146707
 20
240.2422845402
 30
0.0
  0
SPLINE
  5
53E
100
AcDbEntity
  8
KONSTRUKTIONSELEMENTE
100
AcDbSpline
 62
7
  6
CONTINUOUS
 70
0
 71
3
 72
11
 73
7
 74
0
 42
0.0000001
 43
0.0000001
 44
0.0000000001
 40
0.0
 40
0.0
 40
0.0
 40
0.0
 40
0.2729767978
 40
0.5353848362
 40
0.7789285996
 40
1.0
 40
1.0
 40
1.0
 40
1.0
 10
664.4027459405
 20
172.711717843
 30
0.0
 10
665.0121237203
 20
172.711717843
 30
0.0
 10
666.210897009
 20
172.830040512
 30
0.0
 10
667.8826415927
 20
173.3545408807
 30
0.0
 10
669.293758299
 20
174.1874615848
 30
0.0
 10
670.0220573788
 20
174.9534881538
 30
0.0
 10
670.2937465563
 20
175.3654763689
 30
0.0
  0
SPLINE
  5
53F
100
AcDbEntity
  8
KONSTRUKTIONSELEMENTE
100
AcDbSpline
 62
7
  6
CONTINUOUS
 70
0
 71
3
 72
9
 73
5
 74
0
 42
0.0000001
 43
0.0000001
 44
0.0000000001
 40
0.0
 40
0.0
 40
0.0
 40
0.0
 40
0.2605100871
 40
1.0
 40
1.0
 40
1.0
 40
1.0
 10
670.5182126053
 20
175.7058556499
 30
0.0
 10
670.5280192079
 20
175.7207263369
 30
0.0
 10
670.5620447206
 20
175.7800682563
 30
0.0
 10
670.5791074882
 20
175.8494787143
 30
0.0
 10
670.5791104558
 20
175.9000434093
 30
0.0
  0
SPLINE
  5
540
100
AcDbEntity
  8
KONSTRUKTIONSELEMENTE
100
AcDbSpline
 62
7
  6
CONTINUOUS
 70
0
 71
3
 72
9
 73
5
 74
0
 42
0.0000001
 43
0.0000001
 44
0.0000000001
 40
0.0
 40
0.0
 40
0.0
 40
0.0
 40
0.5322168521
 40
1.0
 40
1.0
 40
1.0
 40
1.0
 10
698.4769761243
 20
219.1899478129
 30
0.0
 10
698.6343903088
 20
219.1380437429
 30
0.0
 10
698.960204837
 20
219.1246595147
 30
0.0
 10
699.2605751822
 20
219.2906416384
 30
0.0
 10
699.340778056
 20
219.4122609061
 30
0.0
  0
SPLINE
  5
541
100
AcDbEntity
  8
KONSTRUKTIONSELEMENTE
100
AcDbSpline
 62
7
  6
CONTINUOUS
 70
0
 71
3
 72
9
 73
5
 74
0
 42
0.0000001
 43
0.0000001
 44
0.0000000001
 40
0.0
 40
0.0
 40
0.0
 40
0.0
 40
0.5108269807
 40
1.0
 40
1.0
 40
1.0
 40
1.0
 10
699.8901817963
 20
220.2453742028
 30
0.0
 10
700.0830787069
 20
220.537882188
 30
0.0
 10
700.3901082839
 20
221.1624713374
 30
0.0
 10
700.4991752419
 20
221.852195894
 30
0.0
 10
700.4991812198
 20
222.1877287413
 30
0.0
  0
SPLINE
  5
542
100
AcDbEntity
  8
KONSTRUKTIONSELEMENTE
100
AcDbSpline
 62
7
  6
CONTINUOUS
 70
0
 71
3
 72
11
 73
7
 74
0
 42
0.0000001
 43
0.0000001
 44
0.0000000001
 40
0.0
 40
0.0
 40
0.0
 40
0.0
 40
0.2200436456
 40
0.4557793627
 40
0.7157728079
 40
1.0
 40
1.0
 40
1.0
 40
1.0
 10
592.2767055453
 20
216.111128106
 30
0.0
 10
592.2767416514
 20
216.2423066606
 30
0.0
 10
592.3343505793
 20
216.5164796481
 30
0.0
 10
592.5753104002
 20
216.8784404892
 30
0.0
 10
592.9427276682
 20
217.1728580924
 30
0.0
 10
593.241678802
 20
217.3074310047
 30
0.0
 10
593.4025982124
 20
217.3604908504
 30
0.0
  0
SPLINE
  5
543
100
AcDbEntity
  8
BEZUGSACHSEN
100
AcDbSpline
 62
7
  6
CONTINUOUS
 70
0
 71
3
 72
19
 73
15
 74
0
 42
0.0000001
 43
0.0000001
 44
0.0000000001
 40
0.0
 40
0.0
 40
0.0
 40
0.0
 40
0.0517234907
 40
0.1053372095
 40
0.1622487312
 40
0.2232163938
 40
0.3564752704
 40
0.5
 40
0.6435247296
 40
0.7767836062
 40
0.8377512688
 40
0.8946627905
 40
0.9482765093
 40
1.0
 40
1.0
 40
1.0
 40
1.0
 10
640.4987990198
 20
242.0081823993
 30
0.0
 10
640.4987990198
 20
241.7528562151
 30
0.0
 10
640.4246484386
 20
241.2302332829
 30
0.0
 10
640.1004626397
 20
240.4886118938
 30
0.0
 10
639.5801905472
 20
239.8113635004
 30
0.0
 10
638.6296236777
 20
239.0039205403
 30
0.0
 10
637.0796431858
 20
238.3035988868
 30
0.0
 10
634.9987990198
 20
238.023421605
 30
0.0
 10
632.9179548538
 20
238.3035988868
 30
0.0
 10
631.3679743618
 20
239.0039205403
 30
0.0
 10
630.4174074924
 20
239.8113635004
 30
0.0
 10
629.8971353999
 20
240.4886118938
 30
0.0
 10
629.572949601
 20
241.2302332829
 30
0.0
 10
629.4987990198
 20
241.7528562151
 30
0.0
 10
629.4987990198
 20
242.0081823993
 30
0.0
  0
SPLINE
  5
544
100
AcDbEntity
  8
KONSTRUKTIONSELEMENTE
100
AcDbSpline
 62
7
  6
CONTINUOUS
 70
0
 71
3
 72
11
 73
7
 74
0
 42
0.0000001
 43
0.0000001
 44
0.0000000001
 40
0.0
 40
0.0
 40
0.0
 40
0.0
 40
0.2842271921
 40
0.5442206373
 40
0.7799563544
 40
1.0
 40
1.0
 40
1.0
 40
1.0
 10
600.3924063086
 20
218.0963192166
 30
0.0
 10
600.553325719
 20
218.1493790623
 30
0.0
 10
600.8522768528
 20
218.2839519746
 30
0.0
 10
601.2196941208
 20
218.5783695778
 30
0.0
 10
601.4606539417
 20
218.9403304189
 30
0.0
 10
601.5182628697
 20
219.2145034064
 30
0.0
 10
601.5182989757
 20
219.345681961
 30
0.0
  0
SPLINE
  5
545
100
AcDbEntity
  8
BEZUGSACHSEN
100
AcDbSpline
 62
7
  6
CONTINUOUS
 70
0
 71
3
 72
9
 73
5
 74
0
 42
0.0000001
 43
0.0000001
 44
0.0000000001
 40
0.0
 40
0.0
 40
0.0
 40
0.0
 40
0.2459387646
 40
1.0
 40
1.0
 40
1.0
 40
1.0
 10
641.7606912076
 20
248.019243825
 30
0.0
 10
641.420995341
 20
248.1312515078
 30
0.0
 10
640.0274917351
 20
248.5488201216
 30
0.0
 10
638.5902498716
 20
248.8181245568
 30
0.0
 10
637.5003731692
 20
248.9401178409
 30
0.0
  0
SPLINE
  5
546
100
AcDbEntity
  8
BEZUGSACHSEN
100
AcDbSpline
 62
7
  6
CONTINUOUS
 70
0
 71
3
 72
9
 73
5
 74
0
 42
0.0000001
 43
0.0000001
 44
0.0000000001
 40
0.0
 40
0.0
 40
0.0
 40
0.0
 40
0.2536983179
 40
1.0
 40
1.0
 40
1.0
 40
1.0
 10
632.4972248704
 20
248.9401178409
 30
0.0
 10
632.1305507179
 20
248.8990748643
 30
0.0
 10
630.6895744034
 20
248.7013830595
 30
0.0
 10
629.2676955372
 20
248.3591250707
 30
0.0
 10
628.2369068319
 20
248.019243825
 30
0.0
  0
SPLINE
  5
547
100
AcDbEntity
  8
KONSTRUKTIONSELEMENTE
100
AcDbSpline
 62
7
  6
CONTINUOUS
 70
0
 71
3
 72
11
 73
7
 74
0
 42
0.0000001
 43
0.0000001
 44
0.0000000001
 40
0.0
 40
0.0
 40
0.0
 40
0.0
 40
0.2094829334
 40
0.4446557434
 40
0.7120095299
 40
1.0
 40
1.0
 40
1.0
 40
1.0
 10
626.4837990198
 20
156.1654191632
 30
0.0
 10
626.4837990198
 20
155.9826897496
 30
0.0
 10
626.6024726779
 20
155.5902280118
 30
0.0
 10
627.0568515655
 20
155.1408163734
 30
0.0
 10
627.6951184938
 20
154.852241058
 30
0.0
 10
628.1825884372
 20
154.7865609399
 30
0.0
 10
628.4337990198
 20
154.7865609399
 30
0.0
  0
SPLINE
  5
548
100
AcDbEntity
  8
KONSTRUKTIONSELEMENTE
100
AcDbSpline
 62
7
  6
CONTINUOUS
 70
0
 71
3
 72
10
 73
6
 74
0
 42
0.0000001
 43
0.0000001
 44
0.0000000001
 40
0.0
 40
0.0
 40
0.0
 40
0.0
 40
0.2210513433
 40
0.4578290806
 40
1.0
 40
1.0
 40
1.0
 40
1.0
 10
670.5791104558
 20
179.4355773152
 30
0.0
 10
670.5791130229
 20
179.4793184071
 30
0.0
 10
670.5599206494
 20
179.5707810521
 30
0.0
 10
670.4484712316
 20
179.7384140851
 30
0.0
 10
670.3057020446
 20
179.8185944215
 30
0.0
 10
670.2038144138
 20
179.8521897593
 30
0.0
  0
SPLINE
  5
549
100
AcDbEntity
  8
KONSTRUKTIONSELEMENTE
100
AcDbSpline
 62
7
  6
CONTINUOUS
 70
0
 71
3
 72
11
 73
7
 74
0
 42
0.0000001
 43
0.0000001
 44
0.0000000001
 40
0.0
 40
0.0
 40
0.0
 40
0.0
 40
0.220058334
 40
0.4557781708
 40
0.71578719
 40
1.0
 40
1.0
 40
1.0
 40
1.0
 10
700.4991812198
 20
225.7232626472
 30
0.0
 10
700.499189012
 20
226.1606355045
 30
0.0
 10
700.3074778788
 20
227.0747995947
 30
0.0
 10
699.504255314
 20
228.2817286066
 30
0.0
 10
698.2793418068
 20
229.2633099305
 30
0.0
 10
697.2826711132
 20
229.7120198564
 30
0.0
 10
696.7461998818
 20
229.8889101438
 30
0.0
  0
SPLINE
  5
54A
100
AcDbEntity
  8
KONSTRUKTIONSELEMENTE
100
AcDbSpline
 62
7
  6
CONTINUOUS
 70
0
 71
3
 72
11
 73
7
 74
0
 42
0.0000001
 43
0.0000001
 44
0.0000000001
 40
0.0
 40
0.0
 40
0.0
 40
0.0
 40
0.2842268035
 40
0.5442239761
 40
0.7799400332
 40
1.0
 40
1.0
 40
1.0
 40
1.0
 10
662.5455136134
 20
182.3773559766
 30
0.0
 10
662.0090243132
 20
182.5542522219
 30
0.0
 10
661.0123645414
 20
183.0029625676
 30
0.0
 10
659.7874851385
 20
183.98452974
 30
0.0
 10
658.9842652889
 20
185.1914146902
 30
0.0
 10
658.7925985085
 20
186.1055528546
 30
0.0
 10
658.7925511944
 20
186.5429221516
 30
0.0
  0
SPLINE
  5
54B
100
AcDbEntity
  8
KONSTRUKTIONSELEMENTE
100
AcDbSpline
 62
7
  6
CONTINUOUS
 70
0
 71
3
 72
13
 73
9
 74
0
 42
0.0000001
 43
0.0000001
 44
0.0000000001
 40
0.0
 40
0.0
 40
0.0
 40
0.0
 40
0.2637729944
 40
0.3981079932
 40
0.5304590913
 40
0.6584573598
 40
0.7801901214
 40
1.0
 40
1.0
 40
1.0
 40
1.0
 10
690.8186753238
 20
221.7151140302
 30
0.0
 10
690.0272230925
 20
221.9760790261
 30
0.0
 10
688.764172213
 20
222.1865735046
 30
0.0
 10
687.0862840337
 20
222.1221075983
 30
0.0
 10
685.8545644707
 20
221.9014018758
 30
0.0
 10
684.7050175321
 20
221.5150456886
 30
0.0
 10
683.3885776683
 20
220.8267636688
 30
0.0
 10
682.5629801292
 20
220.0717376337
 30
0.0
 10
682.1806560068
 20
219.4919830986
 30
0.0
  0
SPLINE
  5
54C
100
AcDbEntity
  8
KONSTRUKTIONSELEMENTE
100
AcDbSpline
 62
7
  6
CONTINUOUS
 70
0
 71
3
 72
11
 73
7
 74
0
 42
0.0000001
 43
0.0000001
 44
0.0000000001
 40
0.0
 40
0.0
 40
0.0
 40
0.0
 40
0.273440081
 40
0.5344562229
 40
0.7773250529
 40
1.0
 40
1.0
 40
1.0
 40
1.0
 10
621.9610206265
 20
172.7508628742
 30
0.0
 10
621.4297270649
 20
172.8002099785
 30
0.0
 10
620.3970436499
 20
172.9881576919
 30
0.0
 10
618.9728369427
 20
173.5380074561
 30
0.0
 10
617.7771500264
 20
174.3211276888
 30
0.0
 10
617.155761742
 20
175.002732267
 30
0.0
 10
616.9165470191
 20
175.3654763689
 30
0.0
  0
SPLINE
  5
54D
100
AcDbEntity
  8
KONSTRUKTIONSELEMENTE
100
AcDbSpline
 62
7
  6
CONTINUOUS
 70
0
 71
3
 72
11
 73
7
 74
0
 42
0.0000001
 43
0.0000001
 44
0.0000000001
 40
0.0
 40
0.0
 40
0.0
 40
0.0
 40
0.2842240174
 40
0.5442187073
 40
0.779940343
 40
1.0
 40
1.0
 40
1.0
 40
1.0
 10
587.3897996355
 20
234.550755468
 30
0.0
 10
586.8533019665
 20
234.3738564633
 30
0.0
 10
585.85662758
 20
233.9251362387
 30
0.0
 10
584.6317203284
 20
232.9435378214
 30
0.0
 10
583.8285003083
 20
231.7365971203
 30
0.0
 10
583.6368630154
 20
230.8224152967
 30
0.0
 10
583.6368374767
 20
230.3850355035
 30
0.0
  0
SPLINE
  5
54E
100
AcDbEntity
  8
KONSTRUKTIONSELEMENTE
100
AcDbSpline
 62
7
  6
CONTINUOUS
 70
0
 71
3
 72
9
 73
5
 74
0
 42
0.0000001
 43
0.0000001
 44
0.0000000001
 40
0.0
 40
0.0
 40
0.0
 40
0.0
 40
0.5108316005
 40
1.0
 40
1.0
 40
1.0
 40
1.0
 10
584.2458177211
 20
224.907219527
 30
0.0
 10
584.0529116399
 20
225.1997414184
 30
0.0
 10
583.7458708005
 20
225.8243517882
 30
0.0
 10
583.6368009179
 20
226.5141127936
 30
0.0
 10
583.6368372165
 20
226.8496553871
 30
0.0
  0
SPLINE
  5
54F
100
AcDbEntity
  8
KONSTRUKTIONSELEMENTE
100
AcDbSpline
 62
7
  6
CONTINUOUS
 70
0
 71
3
 72
9
 73
5
 74
0
 42
0.0000001
 43
0.0000001
 44
0.0000000001
 40
0.0
 40
0.0
 40
0.0
 40
0.0
 40
0.2557677725
 40
1.0
 40
1.0
 40
1.0
 40
1.0
 10
648.7137990198
 20
173.1713372507
 30
0.0
 10
648.4884060658
 20
173.1713372507
 30
0.0
 10
647.6079584097
 20
173.1309386223
 30
0.0
 10
646.7323061398
 20
172.9297851777
 30
0.0
 10
646.1246180849
 20
172.6831043979
 30
0.0
  0
SPLINE
  5
550
100
AcDbEntity
  8
KONSTRUKTIONSELEMENTE
100
AcDbSpline
 62
7
  6
CONTINUOUS
 70
0
 71
3
 72
11
 73
7
 74
0
 42
0.0000001
 43
0.0000001
 44
0.0000000001
 40
0.0
 40
0.0
 40
0.0
 40
0.0
 40
0.2820767698
 40
0.5407553301
 40
0.7772666753
 40
1.0
 40
1.0
 40
1.0
 40
1.0
 10
646.1246180849
 20
172.6831043979
 30
0.0
 10
645.7450855885
 20
172.5290395427
 30
0.0
 10
645.0440375737
 20
172.1585136557
 30
0.0
 10
644.1935436007
 20
171.3965068742
 30
0.0
 10
643.6434017005
 20
170.4901745278
 30
0.0
 10
643.5137990198
 20
169.8178185654
 30
0.0
 10
643.5137990198
 20
169.4943819886
 30
0.0
  0
SPLINE
  5
551
100
AcDbEntity
  8
KONSTRUKTIONSELEMENTE
100
AcDbSpline
 62
7
  6
CONTINUOUS
 70
0
 71
3
 72
11
 73
7
 74
0
 42
0.0000001
 43
0.0000001
 44
0.0000000001
 40
0.0
 40
0.0
 40
0.0
 40
0.0
 40
0.2879904701
 40
0.5553442566
 40
0.7905170666
 40
1.0
 40
1.0
 40
1.0
 40
1.0
 10
641.5637990198
 20
154.7865609399
 30
0.0
 10
641.8150096024
 20
154.7865609399
 30
0.0
 10
642.3024795458
 20
154.852241058
 30
0.0
 10
642.940746474
 20
155.1408163734
 30
0.0
 10
643.3951253617
 20
155.5902280118
 30
0.0
 10
643.5137990198
 20
155.9826897496
 30
0.0
 10
643.5137990198
 20
156.1654191632
 30
0.0
  0
SPLINE
  5
552
100
AcDbEntity
  8
KONSTRUKTIONSELEMENTE
100
AcDbSpline
 62
7
  6
CONTINUOUS
 70
0
 71
3
 72
9
 73
5
 74
0
 42
0.0000001
 43
0.0000001
 44
0.0000000001
 40
0.0
 40
0.0
 40
0.0
 40
0.0
 40
0.2551589249
 40
1.0
 40
1.0
 40
1.0
 40
1.0
 10
622.2969125795
 20
173.1713372507
 30
0.0
 10
622.436751802
 20
173.1516958754
 30
0.0
 10
622.9823142298
 20
173.0584527564
 30
0.0
 10
623.5173275468
 20
172.8999446591
 30
0.0
 10
623.8985517672
 20
172.7431342455
 30
0.0
  0
SPLINE
  5
553
100
AcDbEntity
  8
KONSTRUKTIONSELEMENTE
100
AcDbSpline
 62
7
  6
CONTINUOUS
 70
0
 71
3
 72
11
 73
7
 74
0
 42
0.0000001
 43
0.0000001
 44
0.0000000001
 40
0.0
 40
0.0
 40
0.0
 40
0.0
 40
0.281910293
 40
0.5405050243
 40
0.7770804409
 40
1.0
 40
1.0
 40
1.0
 40
1.0
 10
623.8985517672
 20
172.7431342455
 30
0.0
 10
624.2747630752
 20
172.5883858122
 30
0.0
 10
624.9694449257
 20
172.2173653575
 30
0.0
 10
625.8114905206
 20
171.4572114041
 30
0.0
 10
626.3557012533
 20
170.5549644208
 30
0.0
 10
626.4837990198
 20
169.8865145986
 30
0.0
 10
626.4837990198
 20
169.5648430448
 30
0.0
  0
SPLINE
  5
554
100
AcDbEntity
  8
KONSTRUKTIONSELEMENTE
100
AcDbSpline
 62
7
  6
CONTINUOUS
 70
0
 71
3
 72
11
 73
7
 74
0
 42
0.0000001
 43
0.0000001
 44
0.0000000001
 40
0.0
 40
0.0
 40
0.0
 40
0.0
 40
0.2842271921
 40
0.5442206373
 40
0.7799563544
 40
1.0
 40
1.0
 40
1.0
 40
1.0
 10
599.2935988281
 20
219.3029264022
 30
0.0
 10
599.4545182384
 20
219.3559862478
 30
0.0
 10
599.7534693723
 20
219.4905591601
 30
0.0
 10
600.1208866403
 20
219.7849767634
 30
0.0
 10
600.3618464612
 20
220.1469376045
 30
0.0
 10
600.4194553891
 20
220.421110592
 30
0.0
 10
600.4194914952
 20
220.5522891466
 30
0.0
  0
SPLINE
  5
555
100
AcDbEntity
  8
KONSTRUKTIONSELEMENTE
100
AcDbSpline
 62
7
  6
CONTINUOUS
 70
0
 71
3
 72
9
 73
5
 74
0
 42
0.0000001
 43
0.0000001
 44
0.0000000001
 40
0.0
 40
0.0
 40
0.0
 40
0.0
 40
0.5107012964
 40
1.0
 40
1.0
 40
1.0
 40
1.0
 10
592.459403638
 20
212.9117951495
 30
0.0
 10
592.4015187648
 20
212.9995715042
 30
0.0
 10
592.3094076002
 20
213.1870665832
 30
0.0
 10
592.2766778179
 20
213.3940950265
 30
0.0
 10
592.2767055453
 20
213.4948330156
 30
0.0
  0
SPLINE
  5
556
100
AcDbEntity
  8
KONSTRUKTIONSELEMENTE
100
AcDbSpline
 62
7
  6
CONTINUOUS
 70
0
 71
3
 72
9
 73
5
 74
0
 42
0.0000001
 43
0.0000001
 44
0.0000000001
 40
0.0
 40
0.0
 40
0.0
 40
0.0
 40
0.4892987036
 40
1.0
 40
1.0
 40
1.0
 40
1.0
 10
600.4194914952
 20
220.5522891466
 30
0.0
 10
600.4195192226
 20
220.6530271357
 30
0.0
 10
600.3867894403
 20
220.860055579
 30
0.0
 10
600.2946782757
 20
221.047550658
 30
0.0
 10
600.2367934024
 20
221.1353270127
 30
0.0
  0
SPLINE
  5
557
100
AcDbEntity
  8
KONSTRUKTIONSELEMENTE
100
AcDbSpline
 62
7
  6
CONTINUOUS
 70
0
 71
3
 72
11
 73
7
 74
0
 42
0.0000001
 43
0.0000001
 44
0.0000000001
 40
0.0
 40
0.0
 40
0.0
 40
0.0
 40
0.2729767978
 40
0.5353848362
 40
0.7789285996
 40
1.0
 40
1.0
 40
1.0
 40
1.0
 10
664.4027459405
 20
176.2472517489
 30
0.0
 10
665.0121237203
 20
176.2472517489
 30
0.0
 10
666.210897009
 20
176.3655744179
 30
0.0
 10
667.8826415927
 20
176.8900747866
 30
0.0
 10
669.293758299
 20
177.7229954908
 30
0.0
 10
670.0220573788
 20
178.4890220597
 30
0.0
 10
670.2937465563
 20
178.9010102749
 30
0.0
  0
SPLINE
  5
558
100
AcDbEntity
  8
KONSTRUKTIONSELEMENTE
100
AcDbSpline
 62
7
  6
CONTINUOUS
 70
0
 71
3
 72
13
 73
9
 74
0
 42
0.0000001
 43
0.0000001
 44
0.0000000001
 40
0.0
 40
0.0
 40
0.0
 40
0.0
 40
0.2870489256
 40
0.5535682914
 40
0.6755020148
 40
0.789331082
 40
0.8965440086
 40
1.0
 40
1.0
 40
1.0
 40
1.0
 10
646.1137990198
 20
176.2472517489
 30
0.0
 10
645.4439519726
 20
176.2472517489
 30
0.0
 10
644.1455753518
 20
176.072832556
 30
0.0
 10
642.6811126402
 20
175.4106924556
 30
0.0
 10
641.7822284397
 20
174.6473170356
 30
0.0
 10
641.2904425662
 20
174.0069726443
 30
0.0
 10
640.983860909
 20
173.3058345152
 30
0.0
 10
640.9137990198
 20
172.8117176668
 30
0.0
 10
640.9137990198
 20
172.5702964867
 30
0.0
  0
SPLINE
  5
559
100
AcDbEntity
  8
KONSTRUKTIONSELEMENTE
100
AcDbSpline
 62
7
  6
CONTINUOUS
 70
0
 71
3
 72
8
 73
4
 74
0
 42
0.0000001
 43
0.0000001
 44
0.0000000001
 40
0.0
 40
0.0
 40
0.0
 40
0.0
 40
1.0
 40
1.0
 40
1.0
 40
1.0
 10
601.4436769815
 20
219.2638741877
 30
0.0
 10
601.4148095134
 20
219.3355976325
 30
0.0
 10
601.3781648124
 20
219.4045566732
 30
0.0
 10
601.335600883
 20
219.4691004193
 30
0.0
  0
SPLINE
  5
55A
100
AcDbEntity
  8
KONSTRUKTIONSELEMENTE
100
AcDbSpline
 62
7
  6
CONTINUOUS
 70
0
 71
3
 72
13
 73
9
 74
0
 42
0.0000001
 43
0.0000001
 44
0.0000000001
 40
0.0
 40
0.0
 40
0.0
 40
0.0
 40
0.1034559914
 40
0.210668918
 40
0.3244979852
 40
0.4464317086
 40
0.7129510744
 40
1.0
 40
1.0
 40
1.0
 40
1.0
 10
629.0837990198
 20
172.5702964867
 30
0.0
 10
629.0837990198
 20
172.8117176668
 30
0.0
 10
629.0137371306
 20
173.3058345152
 30
0.0
 10
628.7071554734
 20
174.0069726443
 30
0.0
 10
628.2153695999
 20
174.6473170356
 30
0.0
 10
627.3164853994
 20
175.4106924556
 30
0.0
 10
625.8520226877
 20
176.072832556
 30
0.0
 10
624.553646067
 20
176.2472517489
 30
0.0
 10
623.8837990198
 20
176.2472517489
 30
0.0
  0
SPLINE
  5
55B
100
AcDbEntity
  8
KONSTRUKTIONSELEMENTE
100
AcDbSpline
 62
7
  6
CONTINUOUS
 70
0
 71
3
 72
9
 73
5
 74
0
 42
0.0000001
 43
0.0000001
 44
0.0000000001
 40
0.0
 40
0.0
 40
0.0
 40
0.0
 40
0.4891683995
 40
1.0
 40
1.0
 40
1.0
 40
1.0
 10
658.7925511944
 20
186.5429221516
 30
0.0
 10
658.7925148958
 20
186.8784647451
 30
0.0
 10
658.9015847783
 20
187.5682257505
 30
0.0
 10
659.2086256177
 20
188.1928361203
 30
0.0
 10
659.4015316989
 20
188.4853580117
 30
0.0
  0
SPLINE
  5
55C
100
AcDbEntity
  8
KONSTRUKTIONSELEMENTE
100
AcDbSpline
 62
7
  6
CONTINUOUS
 70
0
 71
3
 72
11
 73
7
 74
0
 42
0.0000001
 43
0.0000001
 44
0.0000000001
 40
0.0
 40
0.0
 40
0.0
 40
0.0
 40
0.2094829334
 40
0.4446557434
 40
0.7120095299
 40
1.0
 40
1.0
 40
1.0
 40
1.0
 10
626.4837990198
 20
158.7817142536
 30
0.0
 10
626.4837990198
 20
158.59898484
 30
0.0
 10
626.6024726779
 20
158.2065231022
 30
0.0
 10
627.0568515655
 20
157.7571114638
 30
0.0
 10
627.6951184938
 20
157.4685361484
 30
0.0
 10
628.1825884372
 20
157.4028560303
 30
0.0
 10
628.4337990198
 20
157.4028560303
 30
0.0
  0
SPLINE
  5
55D
100
AcDbEntity
  8
KONSTRUKTIONSELEMENTE
100
AcDbSpline
 62
7
  6
CONTINUOUS
 70
0
 71
3
 72
9
 73
5
 74
0
 42
0.0000001
 43
0.0000001
 44
0.0000000001
 40
0.0
 40
0.0
 40
0.0
 40
0.0
 40
0.4891681133
 40
1.0
 40
1.0
 40
1.0
 40
1.0
 10
583.6368374767
 20
230.3850355035
 30
0.0
 10
583.6368178858
 20
230.0495179067
 30
0.0
 10
583.7459021367
 20
229.3598137447
 30
0.0
 10
584.0529257906
 20
228.7352538663
 30
0.0
 10
584.2458177211
 20
228.4427534329
 30
0.0
  0
SPLINE
  5
55E
100
AcDbEntity
  8
KONSTRUKTIONSELEMENTE
100
AcDbSpline
 62
7
  6
CONTINUOUS
 70
0
 71
3
 72
13
 73
9
 74
0
 42
0.0000001
 43
0.0000001
 44
0.0000000001
 40
0.0
 40
0.0
 40
0.0
 40
0.0
 40
0.2198121251
 40
0.3415455497
 40
0.4695397045
 40
0.6018885822
 40
0.736224413
 40
1.0
 40
1.0
 40
1.0
 40
1.0
 10
682.1806560068
 20
223.0275170045
 30
0.0
 10
682.5629840194
 20
223.6072774387
 30
0.0
 10
683.388590586
 20
224.362308741
 30
0.0
 10
684.7050298138
 20
225.0505835068
 30
0.0
 10
685.8545595159
 20
225.436933126
 30
0.0
 10
687.0862612375
 20
225.6576385539
 30
0.0
 10
688.7641529589
 20
225.7221104641
 30
0.0
 10
690.0272153491
 20
225.5116154853
 30
0.0
 10
690.8186753238
 20
225.2506479361
 30
0.0
  0
SPLINE
  5
55F
100
AcDbEntity
  8
KONSTRUKTIONSELEMENTE
100
AcDbSpline
 62
7
  6
CONTINUOUS
 70
0
 71
3
 72
9
 73
5
 74
0
 42
0.0000001
 43
0.0000001
 44
0.0000000001
 40
0.0
 40
0.0
 40
0.0
 40
0.0
 40
0.4892987036
 40
1.0
 40
1.0
 40
1.0
 40
1.0
 10
601.5182989757
 20
219.345681961
 30
0.0
 10
601.5183267031
 20
219.4464199501
 30
0.0
 10
601.4855969208
 20
219.6534483934
 30
0.0
 10
601.3934857562
 20
219.8409434724
 30
0.0
 10
601.335600883
 20
219.9287198271
 30
0.0
  0
SPLINE
  5
560
100
AcDbEntity
  8
KONSTRUKTIONSELEMENTE
100
AcDbSpline
 62
7
  6
CONTINUOUS
 70
0
 71
3
 72
13
 73
9
 74
0
 42
0.0000001
 43
0.0000001
 44
0.0000000001
 40
0.0
 40
0.0
 40
0.0
 40
0.0
 40
0.1037033436
 40
0.212323527
 40
0.3277710209
 40
0.4507608463
 40
0.7166544849
 40
1.0
 40
1.0
 40
1.0
 40
1.0
 10
629.0446648228
 20
172.5604815464
 30
0.0
 10
629.0057626522
 20
172.7836801125
 30
0.0
 10
628.8665377003
 20
173.2320108781
 30
0.0
 10
628.4963685494
 20
173.8515825337
 30
0.0
 10
627.9770410275
 20
174.4109262071
 30
0.0
 10
627.0875589338
 20
175.0699039785
 30
0.0
 10
625.7080091035
 20
175.6375319758
 30
0.0
 10
624.5028313856
 20
175.7876323411
 30
0.0
 10
623.8837990198
 20
175.7876323411
 30
0.0
  0
SPLINE
  5
561
100
AcDbEntity
  8
KONSTRUKTIONSELEMENTE
100
AcDbSpline
 62
7
  6
CONTINUOUS
 70
0
 71
3
 72
11
 73
7
 74
0
 42
0.0000001
 43
0.0000001
 44
0.0000000001
 40
0.0
 40
0.0
 40
0.0
 40
0.0
 40
0.2226749471
 40
0.4655437771
 40
0.726559919
 40
1.0
 40
1.0
 40
1.0
 40
1.0
 10
616.9165470191
 20
178.9010102749
 30
0.0
 10
617.155761742
 20
178.5382661729
 30
0.0
 10
617.7771500264
 20
177.8566615948
 30
0.0
 10
618.9728369427
 20
177.073541362
 30
0.0
 10
620.3970436499
 20
176.5236915979
 30
0.0
 10
621.4297270649
 20
176.3357438845
 30
0.0
 10
621.9610206265
 20
176.2863967801
 30
0.0
  0
SPLINE
  5
562
100
AcDbEntity
  8
KONSTRUKTIONSELEMENTE
100
AcDbSpline
 62
7
  6
CONTINUOUS
 70
0
 71
3
 72
9
 73
5
 74
0
 42
0.0000001
 43
0.0000001
 44
0.0000000001
 40
0.0
 40
0.0
 40
0.0
 40
0.0
 40
0.5108269807
 40
1.0
 40
1.0
 40
1.0
 40
1.0
 10
699.8901817963
 20
223.7809081087
 30
0.0
 10
700.0830787069
 20
224.0734160939
 30
0.0
 10
700.3901082839
 20
224.6980052434
 30
0.0
 10
700.4991752419
 20
225.3877297999
 30
0.0
 10
700.4991812198
 20
225.7232626472
 30
0.0
  0
SPLINE
  5
563
100
AcDbEntity
  8
KONSTRUKTIONSELEMENTE
100
AcDbSpline
 62
7
  6
CONTINUOUS
 70
0
 71
3
 72
9
 73
5
 74
0
 42
0.0000001
 43
0.0000001
 44
0.0000000001
 40
0.0
 40
0.0
 40
0.0
 40
0.0
 40
0.5322168521
 40
1.0
 40
1.0
 40
1.0
 40
1.0
 10
698.4769761243
 20
222.7254817189
 30
0.0
 10
698.6343903088
 20
222.6735776489
 30
0.0
 10
698.960204837
 20
222.6601934206
 30
0.0
 10
699.2605751822
 20
222.8261755444
 30
0.0
 10
699.340778056
 20
222.947794812
 30
0.0
  0
SPLINE
  5
564
100
AcDbEntity
  8
BEZUGSACHSEN
100
AcDbSpline
 62
7
  6
CONTINUOUS
 70
0
 71
3
 72
11
 73
7
 74
0
 42
0.0000001
 43
0.0000001
 44
0.0000000001
 40
0.0
 40
0.0
 40
0.0
 40
0.0
 40
0.221185816
 40
0.4572071684
 40
0.716647289
 40
1.0
 40
1.0
 40
1.0
 40
1.0
 10
629.4987990198
 20
242.0081823993
 30
0.0
 10
629.4987990198
 20
242.3663749069
 30
0.0
 10
629.6500142766
 20
243.1132813747
 30
0.0
 10
630.2873358711
 20
244.1083361139
 30
0.0
 10
631.2648298992
 20
244.9295317664
 30
0.0
 10
632.0646026161
 20
245.315365311
 30
0.0
 10
632.496152804
 20
245.4713240746
 30
0.0
  0
SPLINE
  5
565
100
AcDbEntity
  8
BEZUGSACHSEN
100
AcDbSpline
 62
7
  6
CONTINUOUS
 70
0
 71
3
 72
11
 73
7
 74
0
 42
0.0000001
 43
0.0000001
 44
0.0000000001
 40
0.0
 40
0.0
 40
0.0
 40
0.0
 40
0.283352711
 40
0.5427928316
 40
0.778814184
 40
1.0
 40
1.0
 40
1.0
 40
1.0
 10
637.5014452356
 20
245.4713240746
 30
0.0
 10
637.9329954235
 20
245.315365311
 30
0.0
 10
638.7327681404
 20
244.9295317664
 30
0.0
 10
639.7102621684
 20
244.1083361139
 30
0.0
 10
640.347583763
 20
243.1132813747
 30
0.0
 10
640.4987990198
 20
242.3663749069
 30
0.0
 10
640.4987990198
 20
242.0081823993
 30
0.0
  0
SPLINE
  5
566
100
AcDbEntity
  8
KONSTRUKTIONSELEMENTE
100
AcDbSpline
 62
7
  6
CONTINUOUS
 70
0
 71
3
 72
9
 73
5
 74
0
 42
0.0000001
 43
0.0000001
 44
0.0000000001
 40
0.0
 40
0.0
 40
0.0
 40
0.0
 40
0.2605100871
 40
1.0
 40
1.0
 40
1.0
 40
1.0
 10
670.5182126053
 20
179.2413895558
 30
0.0
 10
670.5280192079
 20
179.2562602429
 30
0.0
 10
670.5620447206
 20
179.3156021623
 30
0.0
 10
670.5791074882
 20
179.3850126203
 30
0.0
 10
670.5791104558
 20
179.4355773152
 30
0.0
  0
SPLINE
  5
567
100
AcDbEntity
  8
KONSTRUKTIONSELEMENTE
100
AcDbSpline
 62
7
  6
CONTINUOUS
 70
0
 71
3
 72
11
 73
7
 74
0
 42
0.0000001
 43
0.0000001
 44
0.0000000001
 40
0.0
 40
0.0
 40
0.0
 40
0.0
 40
0.2445537072
 40
0.4957655095
 40
0.7496099133
 40
1.0
 40
1.0
 40
1.0
 40
1.0
 10
596.6931392777
 20
224.2760650638
 30
0.0
 10
596.5981252073
 20
224.485992931
 30
0.0
 10
596.3356730028
 20
224.8829264238
 30
0.0
 10
595.7798716776
 20
225.3355604718
 30
0.0
 10
595.1068046713
 20
225.6010952845
 30
0.0
 10
594.6197706068
 20
225.6189290051
 30
0.0
 10
594.3866674026
 20
225.582529759
 30
0.0
  0
SPLINE
  5
568
100
AcDbEntity
  8
KONSTRUKTIONSELEMENTE
100
AcDbSpline
 62
7
  6
CONTINUOUS
 70
0
 71
3
 72
11
 73
7
 74
0
 42
0.0000001
 43
0.0000001
 44
0.0000000001
 40
0.0
 40
0.0
 40
0.0
 40
0.0
 40
0.1794231642
 40
0.4196341704
 40
0.7047772544
 40
1.0
 40
1.0
 40
1.0
 40
1.0
 10
596.6931392777
 20
226.1254553983
 30
0.0
 10
596.5699565529
 20
226.2268780165
 30
0.0
 10
596.2140609869
 20
226.3747334904
 30
0.0
 10
595.5906764109
 20
226.4561939572
 30
0.0
 10
594.8577862187
 20
226.4167613666
 30
0.0
 10
594.3510745507
 20
226.3034679587
 30
0.0
 10
594.1017334826
 20
226.2212529011
 30
0.0
  0
SPLINE
  5
569
100
AcDbEntity
  8
KONSTRUKTIONSELEMENTE
100
AcDbSpline
 62
7
  6
CONTINUOUS
 70
0
 71
3
 72
9
 73
5
 74
0
 42
0.0000001
 43
0.0000001
 44
0.0000000001
 40
0.0
 40
0.0
 40
0.0
 40
0.0
 40
0.5107012964
 40
1.0
 40
1.0
 40
1.0
 40
1.0
 10
592.459403638
 20
215.5280902399
 30
0.0
 10
592.4015187648
 20
215.6158665945
 30
0.0
 10
592.3094076002
 20
215.8033616736
 30
0.0
 10
592.2766778179
 20
216.0103901169
 30
0.0
 10
592.2767055453
 20
216.111128106
 30
0.0
  0
SPLINE
  5
56A
100
AcDbEntity
  8
KONSTRUKTIONSELEMENTE
100
AcDbSpline
 62
7
  6
CONTINUOUS
 70
0
 71
3
 72
12
 73
8
 74
0
 42
0.0000001
 43
0.0000001
 44
0.0000000001
 40
0.0
 40
0.0
 40
0.0
 40
0.0
 40
0.2874215584
 40
0.5510223284
 40
0.7853124567
 40
0.8941581073
 40
1.0
 40
1.0
 40
1.0
 40
1.0
 10
622.2969125795
 20
175.7876323411
 30
0.0
 10
622.8646371499
 20
175.707891542
 30
0.0
 10
623.9409831177
 20
175.4234283667
 30
0.0
 10
625.3113075961
 20
174.6209927734
 30
0.0
 10
626.1115534261
 20
173.666728992
 30
0.0
 10
626.4306224549
 20
172.8221960539
 30
0.0
 10
626.4837990198
 20
172.3922526758
 30
0.0
 10
626.4837990198
 20
172.1811381352
 30
0.0
  0
SPLINE
  5
56B
100
AcDbEntity
  8
KONSTRUKTIONSELEMENTE
100
AcDbSpline
 62
7
  6
CONTINUOUS
 70
0
 71
3
 72
11
 73
7
 74
0
 42
0.0000001
 43
0.0000001
 44
0.0000000001
 40
0.0
 40
0.0
 40
0.0
 40
0.0
 40
0.2879904701
 40
0.5553442566
 40
0.7905170666
 40
1.0
 40
1.0
 40
1.0
 40
1.0
 10
641.5637990198
 20
157.4028560303
 30
0.0
 10
641.8150096024
 20
157.4028560303
 30
0.0
 10
642.3024795458
 20
157.4685361484
 30
0.0
 10
642.940746474
 20
157.7571114638
 30
0.0
 10
643.3951253617
 20
158.2065231022
 30
0.0
 10
643.5137990198
 20
158.59898484
 30
0.0
 10
643.5137990198
 20
158.7817142536
 30
0.0
  0
SPLINE
  5
56C
100
AcDbEntity
  8
KONSTRUKTIONSELEMENTE
100
AcDbSpline
 62
7
  6
CONTINUOUS
 70
0
 71
3
 72
13
 73
9
 74
0
 42
0.0000001
 43
0.0000001
 44
0.0000000001
 40
0.0
 40
0.0
 40
0.0
 40
0.0
 40
0.2833455151
 40
0.5492391537
 40
0.6722289791
 40
0.787676473
 40
0.8962966564
 40
1.0
 40
1.0
 40
1.0
 40
1.0
 10
646.1137990198
 20
175.7876323411
 30
0.0
 10
645.494766654
 20
175.7876323411
 30
0.0
 10
644.2895889361
 20
175.6375319758
 30
0.0
 10
642.9100391058
 20
175.0699039785
 30
0.0
 10
642.0205570121
 20
174.4109262071
 30
0.0
 10
641.5012294902
 20
173.8515825337
 30
0.0
 10
641.1310603393
 20
173.2320108781
 30
0.0
 10
640.9918353874
 20
172.7836801125
 30
0.0
 10
640.9529332168
 20
172.5604815464
 30
0.0
  0
SPLINE
  5
56D
100
AcDbEntity
  8
KONSTRUKTIONSELEMENTE
100
AcDbSpline
 62
7
  6
CONTINUOUS
 70
0
 71
3
 72
13
 73
9
 74
0
 42
0.0000001
 43
0.0000001
 44
0.0000000001
 40
0.0
 40
0.0
 40
0.0
 40
0.0
 40
0.2870489256
 40
0.5535682914
 40
0.6755020148
 40
0.789331082
 40
0.8965440086
 40
1.0
 40
1.0
 40
1.0
 40
1.0
 10
648.7137990198
 20
175.7876323411
 30
0.0
 10
648.0439519726
 20
175.7876323411
 30
0.0
 10
646.7455753518
 20
175.6132131482
 30
0.0
 10
645.2811126402
 20
174.9510730478
 30
0.0
 10
644.3822284397
 20
174.1876976278
 30
0.0
 10
643.8904425662
 20
173.5473532365
 30
0.0
 10
643.583860909
 20
172.8462151074
 30
0.0
 10
643.5137990198
 20
172.352098259
 30
0.0
 10
643.5137990198
 20
172.110677079
 30
0.0
  0
SPLINE
  5
56E
100
AcDbEntity
  8
BEZUGSACHSEN
100
AcDbSpline
 62
7
  6
CONTINUOUS
 70
0
 71
3
 72
8
 73
4
 74
0
 42
0.0000001
 43
0.0000001
 44
0.0000000001
 40
0.0
 40
0.0
 40
0.0
 40
0.0
 40
1.0
 40
1.0
 40
1.0
 40
1.0
 10
657.3080738047
 20
118.660143215
 30
0.0
 10
657.2599498828
 20
118.8769657237
 30
0.0
 10
657.2374989458
 20
119.1005927559
 30
0.0
 10
657.2374990198
 20
119.3226916351
 30
0.0
  0
SPLINE
  5
56F
100
AcDbEntity
  8
BEZUGSACHSEN
100
AcDbSpline
 62
7
  6
CONTINUOUS
 70
0
 71
3
 72
11
 73
7
 74
0
 42
0.0000001
 43
0.0000001
 44
0.0000000001
 40
0.0
 40
0.0
 40
0.0
 40
0.0
 40
0.2500104169
 40
0.5000108951
 40
0.75000483
 40
1.0
 40
1.0
 40
1.0
 40
1.0
 10
678.477143883
 20
124.6214219457
 30
0.0
 10
678.6622957834
 20
124.6947317243
 30
0.0
 10
679.0125736766
 20
124.898985746
 30
0.0
 10
679.4208557472
 20
125.3472533913
 30
0.0
 10
679.676586756
 20
125.8970926559
 30
0.0
 10
679.7284958873
 20
126.2994173225
 30
0.0
 10
679.7235181501
 20
126.4984799642
 30
0.0
  0
SPLINE
  5
570
100
AcDbEntity
  8
BEZUGSACHSEN
100
AcDbSpline
 62
7
  6
CONTINUOUS
 70
0
 71
3
 72
11
 73
7
 74
0
 42
0.0000001
 43
0.0000001
 44
0.0000000001
 40
0.0
 40
0.0
 40
0.0
 40
0.0
 40
0.2500139657
 40
0.500003507
 40
0.7499908108
 40
1.0
 40
1.0
 40
1.0
 40
1.0
 10
586.1971066087
 20
83.1687992036
 30
0.0
 10
586.0392203053
 20
83.1687992323
 30
0.0
 10
585.7221735177
 20
83.2067928036
 30
0.0
 10
585.274628271
 20
83.3747126037
 30
0.0
 10
584.8795393639
 20
83.6438207426
 30
0.0
 10
584.6661730745
 20
83.8814752227
 30
0.0
 10
584.5756148596
 20
84.0108055827
 30
0.0
  0
SPLINE
  5
571
100
AcDbEntity
  8
BEZUGSACHSEN
100
AcDbSpline
 62
7
  6
CONTINUOUS
 70
0
 71
3
 72
11
 73
7
 74
0
 42
0.0000001
 43
0.0000001
 44
0.0000000001
 40
0.0
 40
0.0
 40
0.0
 40
0.0
 40
0.250034634
 40
0.5000539361
 40
0.7500425615
 40
1.0
 40
1.0
 40
1.0
 40
1.0
 10
621.1873990988
 20
83.1688014087
 30
0.0
 10
621.4437222851
 20
83.1688011152
 30
0.0
 10
621.9618240331
 20
83.2696811482
 30
0.0
 10
622.6200004732
 20
83.7029571401
 30
0.0
 10
623.0641339864
 20
84.3543261376
 30
0.0
 10
623.1687989818
 20
84.8725714842
 30
0.0
 10
623.1687990198
 20
85.1288155335
 30
0.0
  0
SPLINE
  5
572
100
AcDbEntity
  8
RUNDUNGEN
100
AcDbSpline
 62
7
  6
CONTINUOUS
 70
0
 71
3
 72
8
 73
4
 74
0
 42
0.0000001
 43
0.0000001
 44
0.0000000001
 40
0.0
 40
0.0
 40
0.0
 40
0.0
 40
1.0
 40
1.0
 40
1.0
 40
1.0
 10
612.6895242209
 20
82.7202543984
 30
0.0
 10
612.7376537927
 20
82.5034331444
 30
0.0
 10
612.7600990949
 20
82.2798048602
 30
0.0
 10
612.7600990198
 20
82.0577059816
 30
0.0
  0
SPLINE
  5
573
100
AcDbEntity
  8
RUNDUNGEN
100
AcDbSpline
 62
7
  6
CONTINUOUS
 70
0
 71
3
 72
11
 73
7
 74
0
 42
0.0000001
 43
0.0000001
 44
0.0000000001
 40
0.0
 40
0.0
 40
0.0
 40
0.0
 40
0.2500129568
 40
0.5000131449
 40
0.7500058437
 40
1.0
 40
1.0
 40
1.0
 40
1.0
 10
591.1986721225
 20
76.6420997187
 30
0.0
 10
591.0007312207
 20
76.5747508138
 30
0.0
 10
590.6236891661
 20
76.3753413935
 30
0.0
 10
590.1822911031
 20
75.9152219447
 30
0.0
 10
589.9073248342
 20
75.3398573212
 30
0.0
 10
589.8549944167
 20
74.9163385935
 30
0.0
 10
589.8629689749
 20
74.7074216065
 30
0.0
  0
SPLINE
  5
574
100
AcDbEntity
  8
RUNDUNGEN
100
AcDbSpline
 62
7
  6
CONTINUOUS
 70
0
 71
3
 72
11
 73
7
 74
0
 42
0.0000001
 43
0.0000001
 44
0.0000000001
 40
0.0
 40
0.0
 40
0.0
 40
0.0
 40
0.2500346339
 40
0.500053936
 40
0.7500425614
 40
1.0
 40
1.0
 40
1.0
 40
1.0
 10
648.8101989408
 20
118.2115962084
 30
0.0
 10
648.5538757543
 20
118.211596502
 30
0.0
 10
648.0357740048
 20
118.1107164737
 30
0.0
 10
647.377597565
 20
117.6774404786
 30
0.0
 10
646.9334640523
 20
117.0260714802
 30
0.0
 10
646.8287990575
 20
116.5078261328
 30
0.0
 10
646.8287990198
 20
116.2515820832
 30
0.0
  0
SPLINE
  5
575
100
AcDbEntity
  8
RUNDUNGEN
100
AcDbSpline
 62
7
  6
CONTINUOUS
 70
0
 71
3
 72
11
 73
7
 74
0
 42
0.0000001
 43
0.0000001
 44
0.0000000001
 40
0.0
 40
0.0
 40
0.0
 40
0.0
 40
0.2500139657
 40
0.500003507
 40
0.7499908108
 40
1.0
 40
1.0
 40
1.0
 40
1.0
 10
683.8004914309
 20
118.2115984141
 30
0.0
 10
683.9583777343
 20
118.2115983853
 30
0.0
 10
684.2754245219
 20
118.1736048133
 30
0.0
 10
684.7229697686
 20
118.0056850133
 30
0.0
 10
685.1180586756
 20
117.7365768742
 30
0.0
 10
685.3314249651
 20
117.498922394
 30
0.0
 10
685.42198318
 20
117.369592034
 30
0.0
  0
SPLINE
  5
576
100
AcDbEntity
  8
BEZUGSACHSEN
100
AcDbSpline
 62
7
  6
CONTINUOUS
 70
0
 71
3
 72
32
 73
28
 74
0
 42
0.0000001
 43
0.0000001
 44
0.0000000001
 40
0.0
 40
0.0
 40
0.0
 40
0.0
 40
0.0125475668
 40
0.0248968091
 40
0.038869385
 40
0.0556696789
 40
0.075871356
 40
0.0996596014
 40
0.1270003707
 40
0.1577291478
 40
0.2282890884
 40
0.3087287886
 40
0.3958704616
 40
0.4862191025
 40
0.5761446069
 40
0.6620568515
 40
0.7406230643
 40
0.776265938
 40
0.8091202321
 40
0.8390366411
 40
0.8660150428
 40
0.8902733333
 40
0.9123334613
 40
0.9330898714
 40
0.9537641514
 40
0.9756861499
 40
1.0
 40
1.0
 40
1.0
 40
1.0
 10
675.5001890198
 20
110.2262801953
 30
0.0
 10
675.5001890198
 20
110.1414558728
 30
0.0
 10
675.4742483634
 20
109.9705115754
 30
0.0
 10
675.3317005531
 20
109.7421930748
 30
0.0
 10
675.0998318134
 20
109.5591436067
 30
0.0
 10
674.7875036273
 20
109.4097904459
 30
0.0
 10
674.3946751741
 20
109.2861427181
 30
0.0
 10
673.9229742978
 20
109.1840080597
 30
0.0
 10
673.37570268
 20
109.1004275217
 30
0.0
 10
672.5110513511
 20
109.0064185191
 30
0.0
 10
671.2843048472
 20
108.931108699
 30
0.0
 10
669.6749483743
 20
108.8855801082
 30
0.0
 10
667.9311674818
 20
108.8761111742
 30
0.0
 10
666.1234515509
 20
108.9012022824
 30
0.0
 10
664.324886496
 20
108.9647570269
 30
0.0
 10
662.6084078973
 20
109.0758978194
 30
0.0
 10
661.2626388569
 20
109.2234480784
 30
0.0
 10
660.2821476192
 20
109.3897836407
 30
0.0
 10
659.6324533815
 20
109.5348021228
 30
0.0
 10
659.0501703971
 20
109.7075047566
 30
0.0
 10
658.5400026456
 20
109.912105709
 30
0.0
 10
658.1054680881
 20
110.1538193315
 30
0.0
 10
657.7496112382
 20
110.439243765
 30
0.0
 10
657.4765071327
 20
110.7751620807
 30
0.0
 10
657.289841966
 20
111.1649244276
 30
0.0
 10
657.1873896009
 20
111.6084538764
 30
0.0
 10
657.1701090198
 20
111.9217633597
 30
0.0
 10
657.1701090198
 20
112.086130355
 30
0.0
  0
SPLINE
  5
577
100
AcDbEntity
  8
BEZUGSACHSEN
100
AcDbSpline
 62
7
  6
CONTINUOUS
 70
0
 71
3
 72
10
 73
6
 74
0
 42
0.0000001
 43
0.0000001
 44
0.0000000001
 40
0.0
 40
0.0
 40
0.0
 40
0.0
 40
0.2295473159
 40
0.4764965256
 40
1.0
 40
1.0
 40
1.0
 40
1.0
 10
594.4974090198
 20
97.5768643813
 30
0.0
 10
594.4974090198
 20
97.815118157
 30
0.0
 10
594.506021294
 20
98.3096661052
 30
0.0
 10
594.5342083576
 20
99.3471764404
 30
0.0
 10
594.5484597365
 20
100.1468394626
 30
0.0
 10
594.5484597365
 20
100.6901988083
 30
0.0
  0
SPLINE
  5
578
100
AcDbEntity
  8
BEZUGSACHSEN
100
AcDbSpline
 62
7
  6
CONTINUOUS
 70
0
 71
3
 72
32
 73
28
 74
0
 42
0.0000001
 43
0.0000001
 44
0.0000000001
 40
0.0
 40
0.0
 40
0.0
 40
0.0
 40
0.0125475668
 40
0.0248968091
 40
0.038869385
 40
0.0556696789
 40
0.075871356
 40
0.0996596014
 40
0.1270003707
 40
0.1577291478
 40
0.2282890884
 40
0.3087287886
 40
0.3958704616
 40
0.4862191025
 40
0.5761446069
 40
0.6620568515
 40
0.7406230643
 40
0.776265938
 40
0.8091202321
 40
0.8390366411
 40
0.8660150428
 40
0.8902733333
 40
0.9123334613
 40
0.9330898714
 40
0.9537641514
 40
0.9756861499
 40
1.0
 40
1.0
 40
1.0
 40
1.0
 10
594.4974090198
 20
91.1541174214
 30
0.0
 10
594.4974090198
 20
91.2389417439
 30
0.0
 10
594.5233496762
 20
91.4098860413
 30
0.0
 10
594.6658974865
 20
91.6382045419
 30
0.0
 10
594.8977662262
 20
91.82125401
 30
0.0
 10
595.2100944123
 20
91.9706071708
 30
0.0
 10
595.6029228655
 20
92.0942548986
 30
0.0
 10
596.0746237418
 20
92.196389557
 30
0.0
 10
596.6218953595
 20
92.279970095
 30
0.0
 10
597.4865466884
 20
92.3739790976
 30
0.0
 10
598.7132931924
 20
92.4492889177
 30
0.0
 10
600.3226496653
 20
92.4948175085
 30
0.0
 10
602.0664305578
 20
92.5042864425
 30
0.0
 10
603.8741464887
 20
92.4791953343
 30
0.0
 10
605.6727115435
 20
92.4156405898
 30
0.0
 10
607.3891901423
 20
92.3044997973
 30
0.0
 10
608.7349591826
 20
92.1569495383
 30
0.0
 10
609.7154504204
 20
91.990613976
 30
0.0
 10
610.3651446581
 20
91.8455954939
 30
0.0
 10
610.9474276425
 20
91.6728928601
 30
0.0
 10
611.457595394
 20
91.4682919077
 30
0.0
 10
611.8921299515
 20
91.2265782852
 30
0.0
 10
612.2479868014
 20
90.9411538517
 30
0.0
 10
612.5210909068
 20
90.605235536
 30
0.0
 10
612.7077560736
 20
90.2154731891
 30
0.0
 10
612.8102084387
 20
89.7719437403
 30
0.0
 10
612.8274890198
 20
89.458634257
 30
0.0
 10
612.8274890198
 20
89.2942672617
 30
0.0
  0
SPLINE
  5
579
100
AcDbEntity
  8
BEZUGSACHSEN
100
AcDbSpline
 62
7
  6
CONTINUOUS
 70
0
 71
3
 72
10
 73
6
 74
0
 42
0.0000001
 43
0.0000001
 44
0.0000000001
 40
0.0
 40
0.0
 40
0.0
 40
0.0
 40
0.5235034407
 40
0.7704525253
 40
1.0
 40
1.0
 40
1.0
 40
1.0
 10
657.2211597365
 20
100.6901988083
 30
0.0
 10
657.2211597365
 20
100.1468394976
 30
0.0
 10
657.2069083344
 20
99.3471766408
 30
0.0
 10
657.1787213295
 20
98.3096663045
 30
0.0
 10
657.1701090198
 20
97.8151183219
 30
0.0
 10
657.1701090198
 20
97.5768643813
 30
0.0
  0
SPLINE
  5
57A
100
AcDbEntity
  8
BEZUGSACHSEN
100
AcDbSpline
 62
7
  6
CONTINUOUS
 70
0
 71
3
 72
10
 73
6
 74
0
 42
0.0000001
 43
0.0000001
 44
0.0000000001
 40
0.0
 40
0.0
 40
0.0
 40
0.0
 40
0.5235034277
 40
0.7704525073
 40
1.0
 40
1.0
 40
1.0
 40
1.0
 10
675.4491383031
 20
100.6901988083
 30
0.0
 10
675.4491383031
 20
101.2335581056
 30
0.0
 10
675.463389682
 20
102.0332209442
 30
0.0
 10
675.491576718
 20
103.0707312799
 30
0.0
 10
675.5001890198
 20
103.5652792762
 30
0.0
 10
675.5001890198
 20
103.8035332354
 30
0.0
  0
SPLINE
  5
57B
100
AcDbEntity
  8
BEZUGSACHSEN
100
AcDbSpline
 62
7
  6
CONTINUOUS
 70
0
 71
3
 72
10
 73
6
 74
0
 42
0.0000001
 43
0.0000001
 44
0.0000000001
 40
0.0
 40
0.0
 40
0.0
 40
0.0
 40
0.2295474667
 40
0.4764965429
 40
1.0
 40
1.0
 40
1.0
 40
1.0
 10
657.1701090198
 20
103.8035332354
 30
0.0
 10
657.1701090198
 20
103.5652793032
 30
0.0
 10
657.1787213299
 20
103.0707313376
 30
0.0
 10
657.2069083321
 20
102.0332210012
 30
0.0
 10
657.2211597365
 20
101.2335581361
 30
0.0
 10
657.2211597365
 20
100.6901988083
 30
0.0
  0
SPLINE
  5
57C
100
AcDbEntity
  8
BEZUGSACHSEN
100
AcDbSpline
 62
7
  6
CONTINUOUS
 70
0
 71
3
 72
10
 73
6
 74
0
 42
0.0000001
 43
0.0000001
 44
0.0000000001
 40
0.0
 40
0.0
 40
0.0
 40
0.0
 40
0.5235035204
 40
0.770452713
 40
1.0
 40
1.0
 40
1.0
 40
1.0
 10
594.5484597365
 20
100.6901988083
 30
0.0
 10
594.5484597365
 20
101.2335582018
 30
0.0
 10
594.5342083439
 20
102.0332212538
 30
0.0
 10
594.5060212973
 20
103.0707315893
 30
0.0
 10
594.4974090198
 20
103.5652794897
 30
0.0
 10
594.4974090198
 20
103.8035332354
 30
0.0
  0
SPLINE
  5
57D
100
AcDbEntity
  8
BEZUGSACHSEN
100
AcDbSpline
 62
7
  6
CONTINUOUS
 70
0
 71
3
 72
10
 73
6
 74
0
 42
0.0000001
 43
0.0000001
 44
0.0000000001
 40
0.0
 40
0.0
 40
0.0
 40
0.0
 40
0.2295473059
 40
0.4764964958
 40
1.0
 40
1.0
 40
1.0
 40
1.0
 10
612.8274890198
 20
103.8035332354
 30
0.0
 10
612.8274890198
 20
103.5652794701
 30
0.0
 10
612.818876742
 20
103.0707315529
 30
0.0
 10
612.7906896908
 20
102.0332212175
 30
0.0
 10
612.7764383031
 20
101.233558185
 30
0.0
 10
612.7764383031
 20
100.6901988083
 30
0.0
  0
SPLINE
  5
57E
100
AcDbEntity
  8
BEZUGSACHSEN
100
AcDbSpline
 62
7
  6
CONTINUOUS
 70
0
 71
3
 72
10
 73
6
 74
0
 42
0.0000001
 43
0.0000001
 44
0.0000000001
 40
0.0
 40
0.0
 40
0.0
 40
0.0
 40
0.5235034592
 40
0.7704526662
 40
1.0
 40
1.0
 40
1.0
 40
1.0
 10
612.7764383031
 20
100.6901988083
 30
0.0
 10
612.7764383031
 20
100.1468394784
 30
0.0
 10
612.7906896775
 20
99.3471764746
 30
0.0
 10
612.8188767453
 20
98.3096661396
 30
0.0
 10
612.8274890198
 20
97.8151181756
 30
0.0
 10
612.8274890198
 20
97.5768643813
 30
0.0
  0
SPLINE
  5
57F
100
AcDbEntity
  8
BEZUGSACHSEN
100
AcDbSpline
 62
7
  6
CONTINUOUS
 70
0
 71
3
 72
10
 73
6
 74
0
 42
0.0000001
 43
0.0000001
 44
0.0000000001
 40
0.0
 40
0.0
 40
0.0
 40
0.0
 40
0.2295475004
 40
0.4764965879
 40
1.0
 40
1.0
 40
1.0
 40
1.0
 10
675.5001890198
 20
97.5768643813
 30
0.0
 10
675.5001890198
 20
97.8151183486
 30
0.0
 10
675.4915767183
 20
98.309666361
 30
0.0
 10
675.4633896799
 20
99.3471766966
 30
0.0
 10
675.4491383031
 20
100.1468395273
 30
0.0
 10
675.4491383031
 20
100.6901988083
 30
0.0
  0
ELLIPSE
  5
580
100
AcDbEntity
  8
KONSTRUKTIONSELEMENTE
100
AcDbEllipse
 62
7
  6
CONTINUOUS
 10
306.8999441191
 20
272.9197719273
 30
0.0
 11
13.5
 21
-0.0
 31
0.0
 40
0.334349582
 41
-0.3398369095
 42
0.0000224353
  0
ELLIPSE
  5
581
100
AcDbEntity
  8
KONSTRUKTIONSELEMENTE
100
AcDbEllipse
 62
7
  6
CONTINUOUS
 10
306.8999441191
 20
275.1606255106
 30
0.0
 11
13.5
 21
-0.0
 31
0.0
 40
0.334349582
 41
-0.0000224353
 42
0.3398369095
  0
ELLIPSE
  5
582
100
AcDbEntity
  8
KONSTRUKTIONSELEMENTE
100
AcDbEllipse
 62
7
  6
CONTINUOUS
 10
306.8999441191
 20
292.2042634122
 30
0.0
 11
13.5
 21
0.0
 31
0.0
 40
0.244790762
 41
0.1782473677
 42
0.2362336651
  0
ELLIPSE
  5
583
100
AcDbEntity
  8
KONSTRUKTIONSELEMENTE
100
AcDbEllipse
 62
7
  6
CONTINUOUS
 10
306.8999441191
 20
289.883941667
 30
0.0
 11
13.5
 21
-0.0
 31
0.0
 40
0.979168651
 41
0.2362336651
 42
0.2950421164
  0
ELLIPSE
  5
584
100
AcDbEntity
  8
KONSTRUKTIONSELEMENTE
100
AcDbEllipse
 62
7
  6
CONTINUOUS
 10
306.8999441191
 20
286.0402058044
 30
0.0
 11
0.0
 21
26.4374779388
 31
0.0
 40
0.510638724
 41
-1.2757542104
 42
-1.2459650002
  0
ELLIPSE
  5
585
100
AcDbEntity
  8
KONSTRUKTIONSELEMENTE
100
AcDbEllipse
 62
7
  6
CONTINUOUS
 10
306.8999441191
 20
277.6027128005
 30
0.0
 11
-0.0
 21
52.8749558777
 31
0.0
 40
0.255319362
 41
-1.2459650002
 42
-1.2309594173
  0
ELLIPSE
  5
586
100
AcDbEntity
  8
KONSTRUKTIONSELEMENTE
100
AcDbEllipse
 62
7
  6
CONTINUOUS
 10
306.8999441191
 20
318.1964682432
 30
0.0
 11
0.0
 21
66.0938083045
 31
0.0
 40
0.204255139
 41
-1.9106332362
 42
-1.8956276534
  0
ELLIPSE
  5
587
100
AcDbEntity
  8
KONSTRUKTIONSELEMENTE
100
AcDbEllipse
 62
7
  6
CONTINUOUS
 10
306.8999441191
 20
302.7276948595
 30
0.0
 11
-0.0
 21
17.6249852926
 31
0.0
 40
0.765958086
 41
-1.8956276534
 42
-1.8510461683
  0
ELLIPSE
  5
588
100
AcDbEntity
  8
KONSTRUKTIONSELEMENTE
100
AcDbEllipse
 62
7
  6
CONTINUOUS
 10
306.8999441191
 20
300.5948867023
 30
0.0
 11
13.5
 21
-0.0
 31
0.0
 40
0.7343750875
 41
-0.2802498415
 42
-0.2216690803
  0
ELLIPSE
  5
589
100
AcDbEntity
  8
KONSTRUKTIONSELEMENTE
100
AcDbEllipse
 62
7
  6
CONTINUOUS
 10
306.8999441191
 20
299.3839452879
 30
0.0
 11
13.5
 21
0.0
 31
0.0
 40
0.3263876827
 41
-0.2216690803
 42
-0.1782473677
  0
ELLIPSE
  5
58A
100
AcDbEntity
  8
KONSTRUKTIONSELEMENTE
100
AcDbEllipse
 62
7
  6
CONTINUOUS
 10
306.8999441191
 20
279.0089484295
 30
0.0
 11
13.5
 21
-0.0
 31
0.0
 40
0.1958336205
 41
0.1065846569
 42
0.1782473677
  0
ELLIPSE
  5
58B
100
AcDbEntity
  8
KONSTRUKTIONSELEMENTE
100
AcDbEllipse
 62
7
  6
CONTINUOUS
 10
306.8999441191
 20
278.3058250209
 30
0.0
 11
13.5
 21
0.0
 31
0.0
 40
0.4895829248
 41
0.1782473677
 42
0.2362336651
  0
ELLIPSE
  5
58C
100
AcDbEntity
  8
KONSTRUKTIONSELEMENTE
100
AcDbEllipse
 62
7
  6
CONTINUOUS
 10
306.8999441191
 20
276.7589468079
 30
0.0
 11
13.5
 21
-0.0
 31
0.0
 40
0.9791672503
 41
0.2362336651
 42
0.2950421164
  0
ELLIPSE
  5
58D
100
AcDbEntity
  8
KONSTRUKTIONSELEMENTE
100
AcDbEllipse
 62
7
  6
CONTINUOUS
 10
306.8999441191
 20
272.9152054468
 30
0.0
 11
0.0
 21
26.4374779388
 31
0.0
 40
0.510638724
 41
-1.2757542104
 42
-1.2459650002
  0
ELLIPSE
  5
58E
100
AcDbEntity
  8
KONSTRUKTIONSELEMENTE
100
AcDbEllipse
 62
7
  6
CONTINUOUS
 10
306.8999441191
 20
260.2589297311
 30
0.0
 11
-0.0
 21
66.0938083045
 31
0.0
 40
0.204255139
 41
-1.2459650002
 42
-1.2309594173
  0
ELLIPSE
  5
58F
100
AcDbEntity
  8
KONSTRUKTIONSELEMENTE
100
AcDbEllipse
 62
7
  6
CONTINUOUS
 10
306.8999441191
 20
306.0089433881
 30
0.0
 11
0.0
 21
66.0937326662
 31
0.0
 40
0.2042553727
 41
-1.9106332362
 42
-1.8956276534
  0
ELLIPSE
  5
590
100
AcDbEntity
  8
KONSTRUKTIONSELEMENTE
100
AcDbEllipse
 62
7
  6
CONTINUOUS
 10
306.8999441191
 20
293.3527038822
 30
0.0
 11
0.0
 21
26.437515758
 31
0.0
 40
0.5106379935
 41
-1.8956276534
 42
-1.8658384432
  0
ELLIPSE
  5
591
100
AcDbEntity
  8
KONSTRUKTIONSELEMENTE
100
AcDbEllipse
 62
7
  6
CONTINUOUS
 10
306.8999441191
 20
289.5089460256
 30
0.0
 11
13.5
 21
-0.0
 31
0.0
 40
0.9791658496
 41
-0.2950421164
 42
-0.2362336651
  0
ELLIPSE
  5
592
100
AcDbEntity
  8
KONSTRUKTIONSELEMENTE
100
AcDbEllipse
 62
7
  6
CONTINUOUS
 10
306.8999441191
 20
287.0339493893
 30
0.0
 11
13.5
 21
0.0
 31
0.0
 40
0.1958336205
 41
-0.2362336651
 42
-0.1638527432
  0
ELLIPSE
  5
593
100
AcDbEntity
  8
KONSTRUKTIONSELEMENTE
100
AcDbEllipse
 62
7
  6
CONTINUOUS
 10
306.8999441191
 20
300.3839500388
 30
0.0
 11
13.5
 21
0.0
 31
0.0
 40
0.1958324999
 41
0.1065846569
 42
0.1782473677
  0
ELLIPSE
  5
594
100
AcDbEntity
  8
KONSTRUKTIONSELEMENTE
100
AcDbEllipse
 62
7
  6
CONTINUOUS
 10
306.8999441191
 20
299.6808205953
 30
0.0
 11
13.5
 21
0.0
 31
0.0
 40
0.4895843255
 41
0.1782473677
 42
0.2362336651
  0
ELLIPSE
  5
595
100
AcDbEntity
  8
KONSTRUKTIONSELEMENTE
100
AcDbEllipse
 62
7
  6
CONTINUOUS
 10
306.8999441191
 20
298.1339512335
 30
0.0
 11
13.5
 21
-0.0
 31
0.0
 40
0.9791658496
 41
0.2362336651
 42
0.2950421164
  0
ELLIPSE
  5
596
100
AcDbEntity
  8
KONSTRUKTIONSELEMENTE
100
AcDbEllipse
 62
7
  6
CONTINUOUS
 10
306.8999441191
 20
294.2901823798
 30
0.0
 11
-0.0
 21
26.4375535771
 31
0.0
 40
0.510637263
 41
-1.2757542104
 42
-1.2459650002
  0
ELLIPSE
  5
597
100
AcDbEntity
  8
KONSTRUKTIONSELEMENTE
100
AcDbEllipse
 62
7
  6
CONTINUOUS
 10
306.8999441191
 20
281.6339790838
 30
0.0
 11
-0.0
 21
66.0936570279
 31
0.0
 40
0.2042556065
 41
-1.2459650002
 42
-1.2309594173
  0
ELLIPSE
  5
598
100
AcDbEntity
  8
KONSTRUKTIONSELEMENTE
100
AcDbEllipse
 62
7
  6
CONTINUOUS
 10
306.8999441191
 20
327.3839675279
 30
0.0
 11
0.0
 21
66.0938083045
 31
0.0
 40
0.204255139
 41
-1.9106332362
 42
-1.8956276534
  0
ELLIPSE
  5
599
100
AcDbEntity
  8
KONSTRUKTIONSELEMENTE
100
AcDbEllipse
 62
7
  6
CONTINUOUS
 10
306.8999441191
 20
314.7277159521
 30
0.0
 11
0.0
 21
26.4375535771
 31
0.0
 40
0.510637263
 41
-1.8956276534
 42
-1.8658384432
  0
ELLIPSE
  5
59A
100
AcDbEntity
  8
KONSTRUKTIONSELEMENTE
100
AcDbEllipse
 62
7
  6
CONTINUOUS
 10
306.8999441191
 20
310.8839361014
 30
0.0
 11
13.5
 21
-0.0
 31
0.0
 40
0.9791630482
 41
-0.2950421164
 42
-0.2362336651
  0
ELLIPSE
  5
59B
100
AcDbEntity
  8
KONSTRUKTIONSELEMENTE
100
AcDbEllipse
 62
7
  6
CONTINUOUS
 10
306.8999441191
 20
308.4089518569
 30
0.0
 11
13.5
 21
0.0
 31
0.0
 40
0.195834741
 41
-0.2362336651
 42
-0.1638527432
  0
ELLIPSE
  5
59C
100
AcDbEntity
  8
0
100
AcDbEllipse
 62
7
  6
CONTINUOUS
 10
578.9987990198
 20
100.6901988083
 30
0.0
 11
0.0
 21
5.8710168
 31
0.0
 40
0.1051042353
 41
-3.1415926536
 42
-0.0
  0
ELLIPSE
  5
59D
100
AcDbEntity
  8
0
100
AcDbEllipse
 62
7
  6
CONTINUOUS
 10
623.1687990198
 20
100.6901988083
 30
0.0
 11
0.0
 21
5.5
 31
0.0
 40
0.1583844403
 41
-0.0
 42
3.1415926536
  0
ELLIPSE
  5
59E
100
AcDbEntity
  8
KONSTRUKTIONSELEMENTE
100
AcDbEllipse
 62
7
  6
CONTINUOUS
 10
587.3866272565
 20
223.4425222899
 30
0.0
 11
1.9496756155
 21
0.5849900395
 31
0.0
 40
0.0607989098
 41
-2.7235007144
 42
-1.1527043876
  0
ELLIPSE
  5
59F
100
AcDbEntity
  8
KONSTRUKTIONSELEMENTE
100
AcDbEllipse
 62
7
  6
CONTINUOUS
 10
594.4219582902
 20
223.6143451369
 30
0.0
 11
1.9224508907
 21
-1.19390516
 31
0.0
 40
0.7424978488
 41
7.2982401868
 42
8.5011521339
  0
ELLIPSE
  5
5A0
100
AcDbEntity
  8
KONSTRUKTIONSELEMENTE
100
AcDbEllipse
 62
7
  6
CONTINUOUS
 10
587.3866272565
 20
226.9073455177
 30
0.0
 11
-0.7917340911
 21
2.6387195458
 31
0.0
 40
0.6753417036
 41
-4.6941486066
 42
-3.1233522798
  0
ELLIPSE
  5
5A1
100
AcDbEntity
  8
KONSTRUKTIONSELEMENTE
100
AcDbEllipse
 62
7
  6
CONTINUOUS
 10
594.4219582902
 20
227.1498790429
 30
0.0
 11
1.9224508907
 21
-1.19390516
 31
0.0
 40
0.7424978488
 41
1.0150548796
 42
2.5858512064
  0
ELLIPSE
  5
5A2
100
AcDbEntity
  8
BEZUGSACHSEN
100
AcDbEllipse
 62
7
  6
CONTINUOUS
 10
578.9987990198
 20
100.6901988083
 30
0.0
 11
0.0
 21
5.8710168
 31
0.0
 40
0.1051042353
 41
-3.1415926536
 42
-0.0
  0
ELLIPSE
  5
5A3
100
AcDbEntity
  8
0
100
AcDbEllipse
 62
7
  6
CONTINUOUS
 10
690.9987990198
 20
100.6901988083
 30
0.0
 11
-0.0
 21
5.8710168
 31
0.0
 40
0.1051042353
 41
0.0
 42
3.1415926536
  0
ELLIPSE
  5
5A4
100
AcDbEntity
  8
BEZUGSACHSEN
100
AcDbEllipse
 62
7
  6
CONTINUOUS
 10
623.1687990198
 20
100.6901988083
 30
0.0
 11
-0.0
 21
5.5
 31
0.0
 40
0.1583844403
 41
0.0
 42
3.1415926536
  0
ELLIPSE
  5
5A5
100
AcDbEntity
  8
0
100
AcDbEllipse
 62
7
  6
CONTINUOUS
 10
646.8287990198
 20
100.6901988083
 30
0.0
 11
-0.0
 21
5.5
 31
0.0
 40
0.1583844403
 41
-3.1415926536
 42
0.0
  0
ENDSEC
  0
SECTION
  2
OBJECTS
  0
DICTIONARY
  5
C
100
AcDbDictionary
280
0
281
1
  3
ACAD_GROUP
350
D
  3
ACAD_MLINESTYLE
350
17
  3
ACAD_LAYOUT
350
1A
  3
ACAD_PLOTSETTINGS
350
19
  3
ACAD_PLOTSTYLENAME
350
E
  0
DICTIONARY
  5
D
102
{ACAD_REACTORS
330
C
102
}
100
AcDbDictionary
280
0
281
1
  0
ACDBDICTIONARYWDFLT
  5
E
102
{ACAD_REACTORS
330
C
102
}
100
AcDbDictionary
281
1
  3
Normal
350
F
100
AcDbDictionaryWithDefault
340
F
  0
DICTIONARY
  5
17
102
{ACAD_REACTORS
330
C
102
}
100
AcDbDictionary
280
0
281
1
  3
Standard
350
18
  0
DICTIONARY
  5
19
102
{ACAD_REACTORS
330
C
102
}
100
AcDbDictionary
281
1
  0
DICTIONARY
  5
1A
102
{ACAD_REACTORS
330
C
102
}
100
AcDbDictionary
281
1
  3
Model
350
5A6
  3
Layout1
350
5A7
  0
ACDBPLACEHOLDER
  5
F
102
{ACAD_REACTORS
330
E
102
}
  0
MLINESTYLE
  5
18
102
{ACAD_REACTORS
330
17
102
}
100
AcDbMlineStyle
  2
STANDARD
 70
0
  3

 62
256
 51
90.0
 52
90.0
 71
2
 49
0.5
 62
256
  6
BYLAYER
 49
-0.5
 62
256
  6
BYLAYER
  0
LAYOUT
  5
5A6
102
{ACAD_REACTORS
330
1A
102
}
100
AcDbPlotSettings
  1

  2
none_device
  4
ISO_A1_(594.00_x_841.00_MM)
  6

 40
0.0
 41
0.0
 42
0.0
 43
0.0
 44
841.0
 45
594.0
 46
0.0
 47
0.0
 48
0.0
 49
0.0
140
0.0
141
0.0
142
1.0
143
1.0
 70
1024
 72
1
 73
0
 74
0
  7

 75
0
147
1.0
148
0.0
149
0.0
100
AcDbLayout
  1
Model
 70
0
 71
0
 10
0.0
 20
0.0
 11
841.0
 21
594.0
 12
0.0
 22
0.0
 32
0.0
 14
0.0
 24
0.0
 34
0.0
 15
0.0
 25
0.0
 35
0.0
146
0.0
 13
0.0
 23
0.0
 33
0.0
 16
1.0
 26
0.0
 36
0.0
 17
0.0
 27
1.0
 37
0.0
 76
0
330
20E
345
0
346
0
  0
LAYOUT
  5
5A7
102
{ACAD_REACTORS
330
1A
102
}
100
AcDbPlotSettings
  1

  2
none_device
  4
ISO_A1_(594.00_x_841.00_MM)
  6

 40
0.0
 41
0.0
 42
0.0
 43
0.0
 44
841.0
 45
594.0
 46
0.0
 47
0.0
 48
0.0
 49
0.0
140
0.0
141
0.0
142
1.0
143
1.0
 70
0
 72
1
 73
0
 74
0
  7

 75
0
147
1.0
148
0.0
149
0.0
100
AcDbLayout
  1
Layout1
 70
0
 71
1
 10
0.0
 20
0.0
 11
841.0
 21
594.0
 12
0.0
 22
0.0
 32
0.0
 14
0.0
 24
0.0
 34
0.0
 15
0.0
 25
0.0
 35
0.0
146
0.0
 13
0.0
 23
0.0
 33
0.0
 16
1.0
 26
0.0
 36
0.0
 17
0.0
 27
1.0
 37
0.0
 76
0
330
20F
345
0
346
0
  0
ENDSEC
  0
EOF
