999
DXF file: 001-m34927-p-3.dxf
999
Pro/ENGINEER 2011490 by Parametric Technology Corporation
  0
SECTION
  2
HEADER
  9
$ACADVER
  1
AC1015
  9
$DWGCODEPAGE
  3
ANSI_1252
  9
$EXTMAX
 10
841.0
 20
594.0
 30
0.0
  9
$EXTMIN
 10
0.0
 20
0.0
 30
0.0
  9
$LIMMIN
 10
0.0
 20
0.0
  9
$LIMMAX
 10
841.0
 20
594.0
  9
$VIEWCTR
 10
420.5
 20
297.0
  9
$VIEWSIZE
 40
594.0
  9
$CLAYER
  8
0
  9
$LTSCALE
 40
46.255
  9
$CELTYPE
  6
BYLAYER
  9
$DIMSCALE
 40
1.0
  9
$DIMASZ
 40
3.5
  9
$DIMEXO
 40
5.25625
  9
$DIMDLI
 40
31.958
  9
$DIMEXE
 40
15.138
  9
$DIMCEN
 40
7.569
  9
$DIMLFAC
 40
1.0
  9
$DIMBLK
  1
_FILLED
  9
$DIMTXT
 40
3.5
  9
$DIMTOL
 70
1
  9
$DIMLIM
 70
0
  9
$DIMTFAC
 40
1.0
  9
$DIMTP
 40
0.005
  9
$DIMTM
 40
0.005
  9
$PDMODE
 70
3
  9
$PDSIZE
 40
0.3125
  9
$HANDSEED
  5
647
  9
$TILEMODE
 70
1
  9
$MEASUREMENT
 70
1
  9
$INSUNITS
 70
4
  0
ENDSEC
  0
SECTION
  2
CLASSES
  0
CLASS
  1
ACDBDICTIONARYWDFLT
  2
AcDbDictionaryWithDefault
  3
AutoCAD 2000
 90
0
280
0
281
0
  0
CLASS
  1
ACDBPLACEHOLDER
  2
AcDbPlaceHolder
  3
AutoCAD 2000
 90
0
280
0
281
0
  0
CLASS
  1
LAYOUT
  2
AcDbLayout
  3
AutoCAD 2000
 90
0
280
0
281
0
  0
ENDSEC
  0
SECTION
  2
TABLES
  0
TABLE
  2
VPORT
  5
8
100
AcDbSymbolTable
 70
2
  0
VPORT
  5
1F4
100
AcDbSymbolTableRecord
100
AcDbViewportTableRecord
  2
*ACTIVE
 70
0
 10
0.0
 20
0.0
 11
1.0
 21
1.0
 12
420.5
 22
297.0
 13
0.0
 23
0.0
 14
1.0
 24
1.0
 15
0.0
 25
0.0
 16
0.0
 26
0.0
 36
1.0
 17
0.0
 27
0.0
 37
0.0
 40
594.0
 41
1.4158249158
 42
50.0
 43
0.0
 44
0.0
 50
0.0
 51
0.0
 71
0
 72
100
 73
1
 74
1
 75
0
 76
0
 77
0
 78
0
  0
ENDTAB
  0
TABLE
  2
LTYPE
  5
5
100
AcDbSymbolTable
 70
6
  0
LTYPE
  5
14
100
AcDbSymbolTableRecord
100
AcDbLinetypeTableRecord
  2
BYBLOCK
 70
0
  3

 72
65
 73
0
 40
0.0
  0
LTYPE
  5
15
100
AcDbSymbolTableRecord
100
AcDbLinetypeTableRecord
  2
BYLAYER
 70
0
  3

 72
65
 73
0
 40
0.0
  0
LTYPE
  5
16
100
AcDbSymbolTableRecord
100
AcDbLinetypeTableRecord
  2
CONTINUOUS
 70
64
  3
Solid line
 72
65
 73
0
 40
0.0
  0
LTYPE
  5
1F5
100
AcDbSymbolTableRecord
100
AcDbLinetypeTableRecord
  2
CENTER
 70
64
  3
____ _ ____ _ ____ _ ____ _ ____ _ ____ _ ____
 72
65
 73
4
 40
0.6
 49
0.375
 74
0
 49
-0.075
 74
0
 49
0.075
 74
0
 49
-0.075
 74
0
  0
LTYPE
  5
1F6
100
AcDbSymbolTableRecord
100
AcDbLinetypeTableRecord
  2
HIDDEN
 70
64
  3
- - - - - - - - - - - - - - - - - - - -
 72
65
 73
2
 40
0.2
 49
0.1
 74
0
 49
-0.1
 74
0
  0
LTYPE
  5
1F7
100
AcDbSymbolTableRecord
100
AcDbLinetypeTableRecord
  2
PHANTOM
 70
64
  3
_____ _ _ _____ _ _ _____ _ _ _____
 72
65
 73
6
 40
0.8
 49
0.45
 74
0
 49
-0.05
 74
0
 49
0.1
 74
0
 49
-0.05
 74
0
 49
0.1
 74
0
 49
-0.05
 74
0
  0
LTYPE
  5
1F8
100
AcDbSymbolTableRecord
100
AcDbLinetypeTableRecord
  2
DOT
 70
64
  3
. . . . . . . . . . . . . . . . . . . .
 72
65
 73
2
 40
0.2
 49
0.1
 74
0
 49
-0.1
 74
0
  0
LTYPE
  5
1F9
100
AcDbSymbolTableRecord
100
AcDbLinetypeTableRecord
  2
DASHED
 70
64
  3
- - - - - - - - - - - - - - - - - - - -
 72
65
 73
2
 40
0.2
 49
0.1
 74
0
 49
-0.1
 74
0
  0
ENDTAB
  0
TABLE
  2
LAYER
  5
2
100
AcDbSymbolTable
 70
36
  0
LAYER
  5
10
100
AcDbSymbolTableRecord
100
AcDbLayerTableRecord
  2
0
 70
0
 62
7
  6
CONTINUOUS
370
-3
390
F
  0
LAYER
  5
1FA
100
AcDbSymbolTableRecord
100
AcDbLayerTableRecord
  2
DEFAULT_1
 70
0
 62
7
  6
CENTER
370
-3
390
F
  0
LAYER
  5
1FB
100
AcDbSymbolTableRecord
100
AcDbLayerTableRecord
  2
DEFAULT_2
 70
0
 62
8
  6
HIDDEN
370
-3
390
F
  0
LAYER
  5
1FC
100
AcDbSymbolTableRecord
100
AcDbLayerTableRecord
  2
DEFAULT_3
 70
0
 62
7
  6
PHANTOM
370
-3
390
F
  0
LAYER
  5
1FD
100
AcDbSymbolTableRecord
100
AcDbLayerTableRecord
  2
AUSFORMSCHRAEGEN
 70
0
 62
7
  6
CONTINUOUS
370
-3
390
F
  0
LAYER
  5
1FE
100
AcDbSymbolTableRecord
100
AcDbLayerTableRecord
  2
BEZUGSACHSEN
 70
0
 62
7
  6
CONTINUOUS
370
-3
390
F
  0
LAYER
  5
1FF
100
AcDbSymbolTableRecord
100
AcDbLayerTableRecord
  2
BEZUGSEBENEN
 70
0
 62
7
  6
CONTINUOUS
370
-3
390
F
  0
LAYER
  5
200
100
AcDbSymbolTableRecord
100
AcDbLayerTableRecord
  2
BG_STARTBEZUEGE
 70
0
 62
7
  6
CONTINUOUS
370
-3
390
F
  0
LAYER
  5
201
100
AcDbSymbolTableRecord
100
AcDbLayerTableRecord
  2
FASEN
 70
0
 62
7
  6
CONTINUOUS
370
-3
390
F
  0
LAYER
  5
202
100
AcDbSymbolTableRecord
100
AcDbLayerTableRecord
  2
HILFEN
 70
0
 62
7
  6
CONTINUOUS
370
-3
390
F
  0
LAYER
  5
203
100
AcDbSymbolTableRecord
100
AcDbLayerTableRecord
  2
KONSTRUKTIONSELEMENTE
 70
0
 62
7
  6
CONTINUOUS
370
-3
390
F
  0
LAYER
  5
204
100
AcDbSymbolTableRecord
100
AcDbLayerTableRecord
  2
KURVEN
 70
0
 62
7
  6
CONTINUOUS
370
-3
390
F
  0
LAYER
  5
205
100
AcDbSymbolTableRecord
100
AcDbLayerTableRecord
  2
NORM
 70
0
 62
7
  6
CONTINUOUS
370
-3
390
F
  0
LAYER
  5
206
100
AcDbSymbolTableRecord
100
AcDbLayerTableRecord
  2
PLATZIERUNG
 70
0
 62
7
  6
CONTINUOUS
370
-3
390
F
  0
LAYER
  5
207
100
AcDbSymbolTableRecord
100
AcDbLayerTableRecord
  2
RUNDUNGEN
 70
0
 62
7
  6
CONTINUOUS
370
-3
390
F
  0
LAYER
  5
208
100
AcDbSymbolTableRecord
100
AcDbLayerTableRecord
  2
TEIL_STARTBEZUEGE
 70
0
 62
7
  6
CONTINUOUS
370
-3
390
F
  0
LAYER
  5
209
100
AcDbSymbolTableRecord
100
AcDbLayerTableRecord
  2
T_STARTBEZUEGE
 70
0
 62
7
  6
CONTINUOUS
370
-3
390
F
  0
LAYER
  5
20A
100
AcDbSymbolTableRecord
100
AcDbLayerTableRecord
  2
ZEICHNUNGSBEMASSUNGEN
 70
0
 62
7
  6
CONTINUOUS
370
-3
390
F
  0
ENDTAB
  0
TABLE
  2
STYLE
  5
3
100
AcDbSymbolTable
 70
1
  0
STYLE
  5
11
100
AcDbSymbolTableRecord
100
AcDbTextStyleTableRecord
  2
STANDARD
 70
0
 40
0.0
 41
0.7
 50
0.0
 71
0
 42
0.2
  3
txt
  4

  0
STYLE
  5
20B
100
AcDbSymbolTableRecord
100
AcDbTextStyleTableRecord
  2
TEXTSTYLE_1
 70
0
 40
0.0
 41
0.8
 50
0.0
 71
0
 42
0.2
  3
gdt
  4

  0
ENDTAB
  0
TABLE
  2
VIEW
  5
6
100
AcDbSymbolTable
 70
0
  0
ENDTAB
  0
TABLE
  2
UCS
  5
7
100
AcDbSymbolTable
 70
0
  0
ENDTAB
  0
TABLE
  2
APPID
  5
9
100
AcDbSymbolTable
 70
1
  0
APPID
  5
20C
100
AcDbSymbolTableRecord
100
AcDbRegAppTableRecord
  2
ACAD
 70
0
  0
ENDTAB
  0
TABLE
  2
BLOCK_RECORD
  5
1
100
AcDbSymbolTable
 70
0
  0
BLOCK_RECORD
  5
20D
100
AcDbSymbolTableRecord
100
AcDbBlockTableRecord
  2
*Model_Space
  0
BLOCK_RECORD
  5
20E
100
AcDbSymbolTableRecord
100
AcDbBlockTableRecord
  2
*Paper_Space
  0
ENDTAB
  0
TABLE
  2
DIMSTYLE
  5
A
100
AcDbSymbolTable
 70
1
100
AcDbDimStyleTable
 71
0
  0
DIMSTYLE
105
20F
100
AcDbSymbolTableRecord
100
AcDbDimStyleTableRecord
  2
STANDARD
 70
0
  3

  4

 40
1.0
 41
3.5
 42
0.0625
 43
0.38
 44
0.18
 45
0.0
 46
0.0
 47
0.005
 48
0.005
140
3.5
141
0.09
142
0.0
143
25.4
144
1.0
145
0.0
146
1.0
147
0.09
 71
1.0
 72
0.0
 73
0
 74
0
 75
0
 76
0
 77
1
 78
8
170
0
171
2
172
0
173
0
174
0
175
0
176
0
177
0
178
5
270
2
271
3
272
3
273
2
274
2
275
0
280
0
281
0
282
0
283
1
284
8
285
0
286
0
287
3
288
0
340
11
  0
ENDTAB
  0
ENDSEC
  0
SECTION
  2
BLOCKS
  0
BLOCK
  5
20
100
AcDbEntity
  8
0
100
AcDbBlockBegin
  2
*Model_Space
 70
0
 10
0.0
 20
0.0
 30
0.0
  3
*Model_Space
  1

  0
ENDBLK
  5
21
100
AcDbEntity
  8
0
100
AcDbBlockEnd
  0
BLOCK
  5
1C
100
AcDbEntity
  8
0
100
AcDbBlockBegin
  2
*Paper_Space
 70
0
 10
0.0
 20
0.0
 30
0.0
  3
*Paper_Space
  1

  0
ENDBLK
  5
1D
100
AcDbEntity
  8
0
100
AcDbBlockEnd
  0
ENDSEC
  0
SECTION
  2
ENTITIES
  0
MTEXT
  5
210
100
AcDbEntity
  8
0
100
AcDbMText
 62
5
  6
CONTINUOUS
  7
STANDARD
 71
1
 72
1
 10
283.6914240603
 20
307.6717313397
 30
0.0
 11
1.0
 21
0.0
 31
0.0
 44
0.9
  1
VWK-2S-10
 40
8.0
 41
60.1904761905
  0
MTEXT
  5
211
100
AcDbEntity
  8
0
100
AcDbMText
 62
5
  6
CONTINUOUS
  7
STANDARD
 71
1
 72
1
 10
626.939046614
 20
371.0367563392
 30
0.0
 11
0.0
 21
1.0
 31
0.0
 44
0.9
  1
VWK-2S-10
 40
8.0
 41
60.1904761905
  0
LINE
  5
212
100
AcDbEntity
  8
0
100
AcDbLine
 62
7
  6
CONTINUOUS
 10
0.0
 20
0.0
 11
0.0
 21
594.0
  0
LINE
  5
213
100
AcDbEntity
  8
0
100
AcDbLine
 62
7
  6
CONTINUOUS
 10
0.0
 20
0.0
 11
841.0
 21
0.0
  0
LINE
  5
214
100
AcDbEntity
  8
0
100
AcDbLine
 62
7
  6
CONTINUOUS
 10
0.0
 20
594.0
 11
841.0
 21
594.0
  0
LINE
  5
215
100
AcDbEntity
  8
0
100
AcDbLine
 62
7
  6
CONTINUOUS
 10
841.0
 20
0.0
 11
841.0
 21
594.0
  0
LINE
  5
216
100
AcDbEntity
  8
AUSFORMSCHRAEGEN
100
AcDbLine
 62
7
  6
CONTINUOUS
 10
407.8612484418
 20
73.5285219431
 11
411.9586769939
 21
73.9591790376
  0
LINE
  5
217
100
AcDbEntity
  8
BEZUGSACHSEN
100
AcDbLine
 62
7
  6
CONTINUOUS
 10
407.8612484418
 20
73.5285219431
 11
411.9586769939
 21
73.9591790376
  0
LINE
  5
218
100
AcDbEntity
  8
AUSFORMSCHRAEGEN
100
AcDbLine
 62
7
  6
CONTINUOUS
 10
227.8612484418
 20
73.5285219431
 11
231.9586769939
 21
73.9591790376
  0
LINE
  5
219
100
AcDbEntity
  8
BEZUGSACHSEN
100
AcDbLine
 62
7
  6
CONTINUOUS
 10
227.8612484418
 20
73.5285219431
 11
231.9586769939
 21
73.9591790376
  0
LINE
  5
21A
100
AcDbEntity
  8
BEZUGSACHSEN
100
AcDbLine
 62
7
  6
CONTINUOUS
 10
227.8612484418
 20
73.5285219431
 11
223.7638198897
 21
73.9591790376
  0
LINE
  5
21B
100
AcDbEntity
  8
BEZUGSACHSEN
100
AcDbLine
 62
7
  6
CONTINUOUS
 10
407.8612484418
 20
73.5285219431
 11
403.7638198897
 21
73.9591790376
  0
LINE
  5
21C
100
AcDbEntity
  8
KONSTRUKTIONSELEMENTE
100
AcDbLine
 62
7
  6
CONTINUOUS
 10
123.0533302249
 20
164.9935918203
 11
119.5177963189
 21
168.5291257262
  0
LINE
  5
21D
100
AcDbEntity
  8
KONSTRUKTIONSELEMENTE
100
AcDbLine
 62
7
  6
CONTINUOUS
 10
137.1954658486
 20
179.135727444
 11
133.6599319427
 21
182.6712613499
  0
LINE
  5
21E
100
AcDbEntity
  8
BEZUGSACHSEN
100
AcDbLine
 62
7
  6
CONTINUOUS
 10
218.7663608014
 20
111.6423663591
 11
217.7439666927
 21
112.6647604678
  0
LINE
  5
21F
100
AcDbEntity
  8
0
100
AcDbLine
 62
7
  6
CONTINUOUS
 10
327.9062477265
 20
166.3874694493
 11
327.1562484418
 21
166.1959801104
  0
LINE
  5
220
100
AcDbEntity
  8
0
100
AcDbLine
 62
7
  6
CONTINUOUS
 10
318.9062487994
 20
166.3874694493
 11
318.1562484418
 21
166.1959801104
  0
LINE
  5
221
100
AcDbEntity
  8
0
100
AcDbLine
 62
7
  6
CONTINUOUS
 10
327.1562484418
 20
165.0470439431
 11
328.093749157
 21
165.2385332987
  0
LINE
  5
222
100
AcDbEntity
  8
0
100
AcDbLine
 62
7
  6
CONTINUOUS
 10
318.1562484418
 20
165.0470439431
 11
319.0937480841
 21
165.2385332987
  0
LINE
  5
223
100
AcDbEntity
  8
BEZUGSACHSEN
100
AcDbLine
 62
7
  6
CONTINUOUS
 10
233.9827484418
 20
148.6844844227
 11
317.8612484418
 21
163.474527074
  0
LINE
  5
224
100
AcDbEntity
  8
0
100
AcDbLine
 62
7
  6
CONTINUOUS
 10
254.5025947457
 20
157.3798200255
 11
255.3232678243
 21
157.5245268316
  0
LINE
  5
225
100
AcDbEntity
  8
0
100
AcDbLine
 62
7
  6
CONTINUOUS
 10
258.6059601387
 20
158.103354056
 11
259.4266336575
 21
158.2480609397
  0
LINE
  5
226
100
AcDbEntity
  8
0
100
AcDbLine
 62
7
  6
CONTINUOUS
 10
261.0679795212
 20
158.5374745001
 11
261.8886530401
 21
158.6821813839
  0
LINE
  5
227
100
AcDbEntity
  8
0
100
AcDbLine
 62
7
  6
CONTINUOUS
 10
266.4023550457
 20
159.4780688303
 11
267.0178598913
 21
159.5865989414
  0
LINE
  5
228
100
AcDbEntity
  8
0
100
AcDbLine
 62
7
  6
CONTINUOUS
 10
278.9176194576
 20
161.6848476169
 11
279.7382941504
 21
161.8295547076
  0
LINE
  5
229
100
AcDbEntity
  8
0
100
AcDbLine
 62
7
  6
CONTINUOUS
 10
282.2003135329
 20
162.2636751517
 11
282.8158183786
 21
162.3722052628
  0
LINE
  5
22A
100
AcDbEntity
  8
0
100
AcDbLine
 62
7
  6
CONTINUOUS
 10
283.6364907234
 20
162.5169119395
 11
284.251995569
 21
162.6254420506
  0
LINE
  5
22B
100
AcDbEntity
  8
0
100
AcDbLine
 62
7
  6
CONTINUOUS
 10
263.2159549257
 20
160.7526302802
 11
264.6521321162
 21
161.005867068
  0
LINE
  5
22C
100
AcDbEntity
  8
0
100
AcDbLine
 62
7
  6
CONTINUOUS
 10
283.8640581453
 20
164.8255445087
 11
285.7105726822
 21
165.1511348418
  0
LINE
  5
22D
100
AcDbEntity
  8
0
100
AcDbLine
 62
7
  6
CONTINUOUS
 10
264.5597660493
 20
161.5297010635
 11
263.1235888588
 21
161.2764642757
  0
LINE
  5
22E
100
AcDbEntity
  8
0
100
AcDbLine
 62
7
  6
CONTINUOUS
 10
285.7023183567
 20
165.7978239502
 11
283.7532188962
 21
165.4541451272
  0
LINE
  5
22F
100
AcDbEntity
  8
0
100
AcDbLine
 62
7
  6
CONTINUOUS
 10
283.4761207216
 20
167.0256469669
 11
285.4252201821
 21
167.3693257898
  0
LINE
  5
230
100
AcDbEntity
  8
0
100
AcDbLine
 62
7
  6
CONTINUOUS
 10
285.2302692176
 20
167.8750711487
 11
282.7682498351
 21
167.4409507046
  0
LINE
  5
231
100
AcDbEntity
  8
0
100
AcDbLine
 62
7
  6
CONTINUOUS
 10
281.9475774902
 20
167.2962440279
 11
281.3320726446
 21
167.1877139168
  0
LINE
  5
232
100
AcDbEntity
  8
0
100
AcDbLine
 62
7
  6
CONTINUOUS
 10
280.5113979518
 20
167.0430068261
 11
279.8958931061
 21
166.934476715
  0
LINE
  5
233
100
AcDbEntity
  8
0
100
AcDbLine
 62
7
  6
CONTINUOUS
 10
277.0235387252
 20
166.4280031395
 11
276.4080338795
 21
166.3194730285
  0
LINE
  5
234
100
AcDbEntity
  8
0
100
AcDbLine
 62
7
  6
CONTINUOUS
 10
266.149619003
 20
164.5106377064
 11
265.5341141574
 21
164.4021075954
  0
LINE
  5
235
100
AcDbEntity
  8
0
100
AcDbLine
 62
7
  6
CONTINUOUS
 10
261.8410850836
 20
163.7509269291
 11
261.2255802379
 21
163.6423968181
  0
LINE
  5
236
100
AcDbEntity
  8
0
100
AcDbLine
 62
7
  6
CONTINUOUS
 10
259.7894024605
 20
163.3891599268
 11
258.9687289416
 21
163.2444530431
  0
LINE
  5
237
100
AcDbEntity
  8
0
100
AcDbLine
 62
7
  6
CONTINUOUS
 10
257.5325511641
 20
162.9912161519
 11
256.9170463185
 21
162.8826860408
  0
LINE
  5
238
100
AcDbEntity
  8
0
100
AcDbLine
 62
7
  6
CONTINUOUS
 10
256.0963730932
 20
162.7379792088
 11
255.4808682475
 21
162.6294490978
  0
LINE
  5
239
100
AcDbEntity
  8
0
100
AcDbLine
 62
7
  6
CONTINUOUS
 10
252.6085123991
 20
162.1229752635
 11
251.9930075534
 21
162.0144451525
  0
LINE
  5
23A
100
AcDbEntity
  8
BEZUGSACHSEN
100
AcDbLine
 62
7
  6
CONTINUOUS
 10
407.8612484418
 20
181.5455659431
 11
403.7638198897
 21
181.1149088486
  0
LINE
  5
23B
100
AcDbEntity
  8
0
100
AcDbLine
 62
7
  6
CONTINUOUS
 10
269.0510698916
 20
160.0531328261
 11
269.6850479471
 21
160.0568961582
  0
LINE
  5
23C
100
AcDbEntity
  8
0
100
AcDbLine
 62
7
  6
CONTINUOUS
 10
269.4507851125
 20
164.9846982646
 11
268.8168070587
 21
164.9809349233
  0
LINE
  5
23D
100
AcDbEntity
  8
0
100
AcDbLine
 62
7
  6
CONTINUOUS
 10
305.7812484418
 20
165.0470439431
 11
306.9062484418
 21
165.0470439431
  0
LINE
  5
23E
100
AcDbEntity
  8
0
100
AcDbLine
 62
7
  6
CONTINUOUS
 10
311.593748263
 20
165.0470439431
 11
312.9062486206
 21
165.0470439431
  0
LINE
  5
23F
100
AcDbEntity
  8
0
100
AcDbLine
 62
7
  6
CONTINUOUS
 10
317.4062480841
 20
165.0470439431
 11
318.1562484418
 21
165.0470439431
  0
LINE
  5
240
100
AcDbEntity
  8
0
100
AcDbLine
 62
7
  6
CONTINUOUS
 10
322.6562484418
 20
165.0470439431
 11
327.1562484418
 21
165.0470439431
  0
LINE
  5
241
100
AcDbEntity
  8
0
100
AcDbLine
 62
7
  6
CONTINUOUS
 10
327.1562484418
 20
166.1959801104
 11
323.7812484418
 21
166.1959801104
  0
LINE
  5
242
100
AcDbEntity
  8
0
100
AcDbLine
 62
7
  6
CONTINUOUS
 10
318.1562484418
 20
166.1959801104
 11
317.4062480841
 21
166.1959801104
  0
LINE
  5
243
100
AcDbEntity
  8
0
100
AcDbLine
 62
7
  6
CONTINUOUS
 10
306.9062484418
 20
169.0683205959
 11
310.0937483524
 21
169.0683205959
  0
LINE
  5
244
100
AcDbEntity
  8
0
100
AcDbLine
 62
7
  6
CONTINUOUS
 10
310.468748263
 20
170.2172566291
 11
306.9062484418
 21
170.2172566291
  0
LINE
  5
245
100
AcDbEntity
  8
0
100
AcDbLine
 62
7
  6
CONTINUOUS
 10
269.5926818932
 20
160.5807300803
 11
269.061287589
 21
160.5950550219
  0
LINE
  5
246
100
AcDbEntity
  8
0
100
AcDbLine
 62
7
  6
CONTINUOUS
 10
268.9091730997
 20
164.4571010746
 11
269.4405662299
 21
164.442775926
  0
LINE
  5
247
100
AcDbEntity
  8
0
100
AcDbLine
 62
7
  6
CONTINUOUS
 10
285.7616623478
 20
167.8607460002
 11
285.2302692176
 21
167.8750711487
  0
LINE
  5
248
100
AcDbEntity
  8
0
100
AcDbLine
 62
7
  6
CONTINUOUS
 10
285.4252201821
 20
167.3693257898
 11
285.7514458131
 21
167.3188240756
  0
LINE
  5
249
100
AcDbEntity
  8
0
100
AcDbLine
 62
7
  6
CONTINUOUS
 10
268.4827291662
 20
160.2769913347
 11
269.0510698916
 21
160.0531328261
  0
LINE
  5
24A
100
AcDbEntity
  8
0
100
AcDbLine
 62
7
  6
CONTINUOUS
 10
270.0191246591
 20
164.7608395765
 11
269.4507851125
 21
164.9846982646
  0
LINE
  5
24B
100
AcDbEntity
  8
0
100
AcDbLine
 62
7
  6
CONTINUOUS
 10
269.061287589
 20
160.5950550219
 11
268.7165887498
 21
160.7503235058
  0
LINE
  5
24C
100
AcDbEntity
  8
BEZUGSACHSEN
100
AcDbLine
 62
7
  6
CONTINUOUS
 10
236.9561360821
 20
143.4317215271
 11
237.9785301909
 21
142.4093274183
  0
LINE
  5
24D
100
AcDbEntity
  8
KONSTRUKTIONSELEMENTE
100
AcDbLine
 62
7
  6
CONTINUOUS
 10
173.0722791792
 20
215.0125407745
 11
169.5367452732
 21
218.5480746805
  0
LINE
  5
24E
100
AcDbEntity
  8
BEZUGSACHSEN
100
AcDbLine
 62
7
  6
CONTINUOUS
 10
227.8612484418
 20
181.5455659431
 11
223.7638198897
 21
181.1149088486
  0
LINE
  5
24F
100
AcDbEntity
  8
0
100
AcDbLine
 62
7
  6
CONTINUOUS
 10
323.7812484418
 20
172.8981079098
 11
327.1562484418
 21
172.8981079098
  0
LINE
  5
250
100
AcDbEntity
  8
0
100
AcDbLine
 62
7
  6
CONTINUOUS
 10
306.9062484418
 20
173.0895972487
 11
310.468748263
 21
173.0895972487
  0
LINE
  5
251
100
AcDbEntity
  8
0
100
AcDbLine
 62
7
  6
CONTINUOUS
 10
327.1562484418
 20
174.0470439431
 11
322.6562484418
 21
174.0470439431
  0
LINE
  5
252
100
AcDbEntity
  8
0
100
AcDbLine
 62
7
  6
CONTINUOUS
 10
321.1562487994
 20
174.0470439431
 11
320.0312487994
 21
174.0470439431
  0
LINE
  5
253
100
AcDbEntity
  8
0
100
AcDbLine
 62
7
  6
CONTINUOUS
 10
315.5312487994
 20
174.0470439431
 11
314.406248263
 21
174.0470439431
  0
LINE
  5
254
100
AcDbEntity
  8
0
100
AcDbLine
 62
7
  6
CONTINUOUS
 10
310.2812484418
 20
174.0470439431
 11
305.7812484418
 21
174.0470439431
  0
LINE
  5
255
100
AcDbEntity
  8
BEZUGSACHSEN
100
AcDbLine
 62
7
  6
CONTINUOUS
 10
227.8612484418
 20
181.5455659431
 11
231.9586769939
 21
181.1149088486
  0
LINE
  5
256
100
AcDbEntity
  8
BEZUGSACHSEN
100
AcDbLine
 62
7
  6
CONTINUOUS
 10
401.7397484418
 20
148.6844844227
 11
317.8612484418
 21
163.474527074
  0
LINE
  5
257
100
AcDbEntity
  8
0
100
AcDbLine
 62
7
  6
CONTINUOUS
 10
316.4687484418
 20
165.2385332987
 11
317.4062480841
 21
165.0470439431
  0
LINE
  5
258
100
AcDbEntity
  8
0
100
AcDbLine
 62
7
  6
CONTINUOUS
 10
311.2187486206
 20
173.8555546042
 11
310.2812484418
 21
174.0470439431
  0
LINE
  5
259
100
AcDbEntity
  8
0
100
AcDbLine
 62
7
  6
CONTINUOUS
 10
328.093749157
 20
173.8555546042
 11
327.1562484418
 21
174.0470439431
  0
LINE
  5
25A
100
AcDbEntity
  8
0
100
AcDbLine
 62
7
  6
CONTINUOUS
 10
317.4062480841
 20
166.1959801104
 11
316.6562487994
 21
166.3874694493
  0
LINE
  5
25B
100
AcDbEntity
  8
0
100
AcDbLine
 62
7
  6
CONTINUOUS
 10
327.1562484418
 20
172.8981079098
 11
327.9062477265
 21
172.706618571
  0
LINE
  5
25C
100
AcDbEntity
  8
0
100
AcDbLine
 62
7
  6
CONTINUOUS
 10
269.4405662299
 20
164.442775926
 11
269.7852650691
 21
164.287507442
  0
LINE
  5
25D
100
AcDbEntity
  8
0
100
AcDbLine
 62
7
  6
CONTINUOUS
 10
286.2274193188
 20
167.6187992363
 11
285.7616623478
 21
167.8607460002
  0
LINE
  5
25E
100
AcDbEntity
  8
0
100
AcDbLine
 62
7
  6
CONTINUOUS
 10
268.1195571123
 20
160.5370266251
 11
268.4827291662
 21
160.2769913347
  0
LINE
  5
25F
100
AcDbEntity
  8
0
100
AcDbLine
 62
7
  6
CONTINUOUS
 10
270.3822967065
 20
164.5008043228
 11
270.0191246591
 21
164.7608395765
  0
LINE
  5
260
100
AcDbEntity
  8
0
100
AcDbLine
 62
7
  6
CONTINUOUS
 10
314.8612484418
 20
202.5370439431
 11
292.8612484418
 21
202.5370439431
  0
LINE
  5
261
100
AcDbEntity
  8
BEZUGSACHSEN
100
AcDbLine
 62
7
  6
CONTINUOUS
 10
320.8612484418
 20
202.5370439431
 11
342.8612484418
 21
202.5370439431
  0
LINE
  5
262
100
AcDbEntity
  8
KONSTRUKTIONSELEMENTE
100
AcDbLine
 62
7
  6
CONTINUOUS
 10
317.4612484418
 20
203.7370439431
 11
318.2612484418
 21
203.7370439431
  0
LINE
  5
263
100
AcDbEntity
  8
BEZUGSACHSEN
100
AcDbLine
 62
7
  6
CONTINUOUS
 10
407.8612484418
 20
181.5455659431
 11
411.9586769939
 21
181.1149088486
  0
LINE
  5
264
100
AcDbEntity
  8
0
100
AcDbLine
 62
7
  6
CONTINUOUS
 10
310.468748263
 20
173.0895972487
 11
311.031248263
 21
172.8981079098
  0
LINE
  5
265
100
AcDbEntity
  8
0
100
AcDbLine
 62
7
  6
CONTINUOUS
 10
315.7187480841
 20
165.6215120268
 11
316.4687484418
 21
165.2385332987
  0
LINE
  5
266
100
AcDbEntity
  8
0
100
AcDbLine
 62
7
  6
CONTINUOUS
 10
285.7514458131
 20
167.3188240756
 11
285.9935597287
 21
167.1454671018
  0
LINE
  5
267
100
AcDbEntity
  8
BEZUGSACHSEN
100
AcDbLine
 62
7
  6
CONTINUOUS
 10
193.0569015623
 20
234.9971631577
 11
189.5213676564
 21
238.5326970637
  0
LINE
  5
268
100
AcDbEntity
  8
KONSTRUKTIONSELEMENTE
100
AcDbLine
 62
7
  6
CONTINUOUS
 10
193.7640083435
 20
234.6436097671
 11
197.2995422495
 21
231.1080758612
  0
LINE
  5
269
100
AcDbEntity
  8
KONSTRUKTIONSELEMENTE
100
AcDbLine
 62
7
  6
CONTINUOUS
 10
194.1175617341
 20
234.9971631577
 11
197.6530956401
 21
231.4616292518
  0
LINE
  5
26A
100
AcDbEntity
  8
0
100
AcDbLine
 62
7
  6
CONTINUOUS
 10
268.7165887498
 20
160.7503235058
 11
268.1954133153
 21
161.3065708593
  0
LINE
  5
26B
100
AcDbEntity
  8
0
100
AcDbLine
 62
7
  6
CONTINUOUS
 10
269.7852650691
 20
164.287507442
 11
270.3064417164
 21
163.7312600754
  0
LINE
  5
26C
100
AcDbEntity
  8
0
100
AcDbLine
 62
7
  6
CONTINUOUS
 10
328.8437484418
 20
173.4725759265
 11
328.093749157
 21
173.8555546042
  0
LINE
  5
26D
100
AcDbEntity
  8
0
100
AcDbLine
 62
7
  6
CONTINUOUS
 10
316.6562487994
 20
166.3874694493
 11
316.0937487994
 21
166.7704482612
  0
LINE
  5
26E
100
AcDbEntity
  8
0
100
AcDbLine
 62
7
  6
CONTINUOUS
 10
327.9062477265
 20
172.706618571
 11
328.4687477265
 21
172.3236398932
  0
LINE
  5
26F
100
AcDbEntity
  8
0
100
AcDbLine
 62
7
  6
CONTINUOUS
 10
311.9687484418
 20
173.2810865876
 11
311.2187486206
 21
173.8555546042
  0
LINE
  5
270
100
AcDbEntity
  8
0
100
AcDbLine
 62
7
  6
CONTINUOUS
 10
286.6090645744
 20
167.2539972129
 11
286.2274193188
 21
167.6187992363
  0
LINE
  5
271
100
AcDbEntity
  8
0
100
AcDbLine
 62
7
  6
CONTINUOUS
 10
267.8404955934
 20
160.9199170047
 11
268.1195571123
 21
160.5370266251
  0
LINE
  5
272
100
AcDbEntity
  8
0
100
AcDbLine
 62
7
  6
CONTINUOUS
 10
270.6613582125
 20
164.1179140165
 11
270.3822967065
 21
164.5008043228
  0
LINE
  5
273
100
AcDbEntity
  8
0
100
AcDbLine
 62
7
  6
CONTINUOUS
 10
254.8020919496
 20
158.0807741074
 11
252.6085123991
 21
162.1229752635
  0
LINE
  5
274
100
AcDbEntity
  8
0
100
AcDbLine
 62
7
  6
CONTINUOUS
 10
251.9930075534
 20
162.0144451525
 11
254.5025947457
 21
157.3798200255
  0
LINE
  5
275
100
AcDbEntity
  8
0
100
AcDbLine
 62
7
  6
CONTINUOUS
 10
267.6824922193
 20
161.2161290311
 11
267.8404955934
 21
160.9199170047
  0
LINE
  5
276
100
AcDbEntity
  8
RUNDUNGEN
100
AcDbLine
 62
7
  6
CONTINUOUS
 10
248.1265765078
 20
195.872870417
 11
256.2907283732
 21
180.5183339365
  0
LINE
  5
277
100
AcDbEntity
  8
BEZUGSACHSEN
100
AcDbLine
 62
7
  6
CONTINUOUS
 10
219.6197492347
 20
109.9307331123
 11
221.6664231359
 21
95.3678916046
  0
LWPOLYLINE
  5
278
100
AcDbEntity
  8
BEZUGSACHSEN
100
AcDbPolyline
 62
7
  6
CONTINUOUS
 90
4
 70
0
 10
221.7397484418
 20
140.5213237694
 10
221.7444982558
 20
140.4017933477
 10
221.7587180588
 20
140.2830145587
 10
221.7628860557
 20
140.2583161021
  0
LINE
  5
279
100
AcDbEntity
  8
BEZUGSACHSEN
100
AcDbLine
 62
7
  6
CONTINUOUS
 10
216.8612484418
 20
140.2782570452
 11
216.8612484418
 21
134.8521782939
  0
LINE
  5
27A
100
AcDbEntity
  8
RUNDUNGEN
100
AcDbLine
 62
7
  6
CONTINUOUS
 10
216.8612484418
 20
134.8521782939
 11
216.8612484418
 21
133.6283283854
  0
LINE
  5
27B
100
AcDbEntity
  8
BEZUGSACHSEN
100
AcDbLine
 62
7
  6
CONTINUOUS
 10
216.8612484418
 20
133.6283283854
 11
216.8612484418
 21
114.7958308409
  0
LINE
  5
27C
100
AcDbEntity
  8
BEZUGSACHSEN
100
AcDbLine
 62
7
  6
CONTINUOUS
 10
221.7397484418
 20
94.3192913307
 11
221.7397484418
 21
76.2071381185
  0
LINE
  5
27D
100
AcDbEntity
  8
BEZUGSACHSEN
100
AcDbLine
 62
7
  6
CONTINUOUS
 10
221.7397484418
 20
140.5212433349
 11
221.7397484418
 21
178.8669497676
  0
LINE
  5
27E
100
AcDbEntity
  8
0
100
AcDbLine
 62
7
  6
CONTINUOUS
 10
314.9687487994
 20
166.3874694493
 11
315.7187480841
 21
165.6215120268
  0
LINE
  5
27F
100
AcDbEntity
  8
0
100
AcDbLine
 62
7
  6
CONTINUOUS
 10
311.031248263
 20
172.8981079098
 11
311.4062484418
 21
172.5151292321
  0
LINE
  5
280
100
AcDbEntity
  8
0
100
AcDbLine
 62
7
  6
CONTINUOUS
 10
279.2171175419
 20
162.3858018541
 11
277.0235387252
 21
166.4280031395
  0
LINE
  5
281
100
AcDbEntity
  8
0
100
AcDbLine
 62
7
  6
CONTINUOUS
 10
276.4080338795
 20
166.3194730285
 11
278.9176194576
 21
161.6848476169
  0
LINE
  5
282
100
AcDbEntity
  8
0
100
AcDbLine
 62
7
  6
CONTINUOUS
 10
270.8193616384
 20
163.8217016966
 11
270.6613582125
 21
164.1179140165
  0
LINE
  5
283
100
AcDbEntity
  8
0
100
AcDbLine
 62
7
  6
CONTINUOUS
 10
285.9935597287
 20
167.1454671018
 11
286.1515642769
 21
166.8492552824
  0
LINE
  5
284
100
AcDbEntity
  8
0
100
AcDbLine
 62
7
  6
CONTINUOUS
 10
286.7670691225
 20
166.9577853935
 11
286.6090645744
 21
167.2539972129
  0
LINE
  5
285
100
AcDbEntity
  8
0
100
AcDbLine
 62
7
  6
CONTINUOUS
 10
261.2751109647
 20
159.762262556
 11
259.7894024605
 21
163.3891599268
  0
LINE
  5
286
100
AcDbEntity
  8
0
100
AcDbLine
 62
7
  6
CONTINUOUS
 10
259.5453245747
 20
162.3739055573
 11
261.0679795212
 21
158.5374745001
  0
LINE
  5
287
100
AcDbEntity
  8
0
100
AcDbLine
 62
7
  6
CONTINUOUS
 10
267.4875424028
 20
161.7218747438
 11
267.6824922193
 21
161.2161290311
  0
LINE
  5
288
100
AcDbEntity
  8
0
100
AcDbLine
 62
7
  6
CONTINUOUS
 10
271.0143126029
 20
163.3159563377
 11
270.8193616384
 21
163.8217016966
  0
LINE
  5
289
100
AcDbEntity
  8
0
100
AcDbLine
 62
7
  6
CONTINUOUS
 10
256.9170463185
 20
162.8826860408
 11
258.6059601387
 21
158.103354056
  0
LINE
  5
28A
100
AcDbEntity
  8
0
100
AcDbLine
 62
7
  6
CONTINUOUS
 10
258.8130915822
 20
159.3281421118
 11
257.5325511641
 21
162.9912161519
  0
LINE
  5
28B
100
AcDbEntity
  8
0
100
AcDbLine
 62
7
  6
CONTINUOUS
 10
268.1954133153
 20
161.3065708593
 11
267.9819891167
 21
161.9170831347
  0
LINE
  5
28C
100
AcDbEntity
  8
BEZUGSACHSEN
100
AcDbLine
 62
7
  6
CONTINUOUS
 10
235.5658434319
 20
148.9636267825
 11
236.1027482538
 21
145.1433504688
  0
LINE
  5
28D
100
AcDbEntity
  8
BEZUGSACHSEN
100
AcDbLine
 62
7
  6
CONTINUOUS
 10
233.9827484418
 20
178.8669497676
 11
233.9827484418
 21
140.5212697963
  0
LINE
  5
28E
100
AcDbEntity
  8
RUNDUNGEN
100
AcDbLine
 62
7
  6
CONTINUOUS
 10
233.9827484418
 20
94.3192913307
 11
233.9827484418
 21
76.2071381185
  0
LINE
  5
28F
100
AcDbEntity
  8
BEZUGSACHSEN
100
AcDbLine
 62
7
  6
CONTINUOUS
 10
238.8612484418
 20
140.2782570452
 11
238.8612484418
 21
134.8521782939
  0
LINE
  5
290
100
AcDbEntity
  8
RUNDUNGEN
100
AcDbLine
 62
7
  6
CONTINUOUS
 10
238.8612484418
 20
134.8521782939
 11
238.8612484418
 21
114.7958308409
  0
LINE
  5
291
100
AcDbEntity
  8
0
100
AcDbLine
 62
7
  6
CONTINUOUS
 10
241.8612484418
 20
363.3370439431
 11
241.8612484418
 21
443.3370439431
  0
LINE
  5
292
100
AcDbEntity
  8
BEZUGSACHSEN
100
AcDbLine
 62
7
  6
CONTINUOUS
 10
220.1778532259
 20
149.1144710148
 11
219.6197486297
 21
145.1433504688
  0
LINE
  5
293
100
AcDbEntity
  8
KONSTRUKTIONSELEMENTE
100
AcDbLine
 62
7
  6
CONTINUOUS
 10
323.6612484418
 20
253.3370439431
 11
312.0612484418
 21
253.3370439431
  0
LINE
  5
294
100
AcDbEntity
  8
BEZUGSACHSEN
100
AcDbLine
 62
7
  6
CONTINUOUS
 10
398.7663608014
 20
111.6423663591
 11
397.7439666927
 21
112.6647604678
  0
LINE
  5
295
100
AcDbEntity
  8
0
100
AcDbLine
 62
7
  6
CONTINUOUS
 10
329.5937477265
 20
172.706618571
 11
328.8437484418
 21
173.4725759265
  0
LINE
  5
296
100
AcDbEntity
  8
0
100
AcDbLine
 62
7
  6
CONTINUOUS
 10
312.5312484418
 20
172.5151292321
 11
311.9687484418
 21
173.2810865876
  0
LINE
  5
297
100
AcDbEntity
  8
0
100
AcDbLine
 62
7
  6
CONTINUOUS
 10
316.0937487994
 20
166.7704482612
 11
315.7187480841
 21
167.3449162778
  0
LINE
  5
298
100
AcDbEntity
  8
0
100
AcDbLine
 62
7
  6
CONTINUOUS
 10
270.3064417164
 20
163.7312600754
 11
270.5198647151
 21
163.1207477398
  0
LINE
  5
299
100
AcDbEntity
  8
0
100
AcDbLine
 62
7
  6
CONTINUOUS
 10
263.1235888588
 20
161.2764642757
 11
263.2159549257
 21
160.7526302802
  0
LINE
  5
29A
100
AcDbEntity
  8
0
100
AcDbLine
 62
7
  6
CONTINUOUS
 10
264.6521321162
 20
161.005867068
 11
264.5597660493
 21
161.5297010635
  0
LINE
  5
29B
100
AcDbEntity
  8
0
100
AcDbLine
 62
7
  6
CONTINUOUS
 10
265.047921769
 20
163.5602100961
 11
265.1957074863
 21
162.7220756447
  0
LINE
  5
29C
100
AcDbEntity
  8
0
100
AcDbLine
 62
7
  6
CONTINUOUS
 10
265.6818998229
 20
163.5639734374
 11
266.4023550457
 21
159.4780688303
  0
LINE
  5
29D
100
AcDbEntity
  8
0
100
AcDbLine
 62
7
  6
CONTINUOUS
 10
267.0178598913
 20
159.5865989414
 11
266.149619003
 21
164.5106377064
  0
LINE
  5
29E
100
AcDbEntity
  8
0
100
AcDbLine
 62
7
  6
CONTINUOUS
 10
261.2255802379
 20
163.6423968181
 11
261.2751109647
 21
159.762262556
  0
LINE
  5
29F
100
AcDbEntity
  8
0
100
AcDbLine
 62
7
  6
CONTINUOUS
 10
261.8886530401
 20
158.6821813839
 11
261.8410850836
 21
163.7509269291
  0
LWPOLYLINE
  5
2A0
100
AcDbEntity
  8
BEZUGSACHSEN
100
AcDbPolyline
 62
7
  6
CONTINUOUS
 90
4
 70
0
 10
233.9596106044
 20
140.2583120211
 10
233.963778657
 20
140.2830108862
 10
233.9779985825
 20
140.4017910846
 10
233.9827484418
 20
140.5213230013
  0
LINE
  5
2A1
100
AcDbEntity
  8
KONSTRUKTIONSELEMENTE
100
AcDbLine
 62
7
  6
CONTINUOUS
 10
246.0899101513
 20
303.2329675422
 11
240.0795025113
 21
297.2225599021
  0
LINE
  5
2A2
100
AcDbEntity
  8
KONSTRUKTIONSELEMENTE
100
AcDbLine
 62
7
  6
CONTINUOUS
 10
188.8142608752
 20
245.9573182661
 11
182.8038532351
 21
239.946910626
  0
LINE
  5
2A3
100
AcDbEntity
  8
KONSTRUKTIONSELEMENTE
100
AcDbLine
 62
7
  6
CONTINUOUS
 10
219.9269592474
 20
276.7164632477
 11
209.3203575296
 21
266.1098615299
  0
LINE
  5
2A4
100
AcDbEntity
  8
KONSTRUKTIONSELEMENTE
100
AcDbLine
 62
7
  6
CONTINUOUS
 10
223.1089397628
 20
273.5344827324
 11
212.502338045
 21
262.9278810146
  0
LINE
  5
2A5
100
AcDbEntity
  8
KONSTRUKTIONSELEMENTE
100
AcDbLine
 62
7
  6
CONTINUOUS
 10
249.2718906667
 20
299.6974336363
 11
282.459444854
 21
332.8849878236
  0
LINE
  5
2A6
100
AcDbEntity
  8
KONSTRUKTIONSELEMENTE
100
AcDbLine
 62
7
  6
CONTINUOUS
 10
248.5357815947
 20
298.6077711737
 11
243.6150364172
 21
293.6870259962
  0
LINE
  5
2A7
100
AcDbEntity
  8
KONSTRUKTIONSELEMENTE
100
AcDbLine
 62
7
  6
CONTINUOUS
 10
192.3497947812
 20
242.4217843602
 11
186.3393871411
 21
236.4113767201
  0
LINE
  5
2A8
100
AcDbEntity
  8
KONSTRUKTIONSELEMENTE
100
AcDbLine
 62
7
  6
CONTINUOUS
 10
119.5177963189
 20
168.5291257262
 11
188.4613612703
 21
237.4726906776
  0
LINE
  5
2A9
100
AcDbEntity
  8
BEZUGSACHSEN
100
AcDbLine
 62
7
  6
CONTINUOUS
 10
188.4613612703
 20
237.4726906776
 11
189.5211222289
 21
238.5324516361
  0
LINE
  5
2AA
100
AcDbEntity
  8
KONSTRUKTIONSELEMENTE
100
AcDbLine
 62
7
  6
CONTINUOUS
 10
193.7640083435
 20
242.4217843602
 11
212.4726933187
 21
261.1304693354
  0
LINE
  5
2AB
100
AcDbEntity
  8
KONSTRUKTIONSELEMENTE
100
AcDbLine
 62
7
  6
CONTINUOUS
 10
224.8767067157
 20
273.5344827324
 11
243.5853916909
 21
292.2431677076
  0
LINE
  5
2AC
100
AcDbEntity
  8
KONSTRUKTIONSELEMENTE
100
AcDbLine
 62
7
  6
CONTINUOUS
 10
119.8713497095
 20
168.1755723356
 11
134.0134853333
 21
182.3177079593
  0
LINE
  5
2AD
100
AcDbEntity
  8
KONSTRUKTIONSELEMENTE
100
AcDbLine
 62
7
  6
CONTINUOUS
 10
122.6997768343
 20
165.3471452108
 11
136.841912458
 21
179.4892808346
  0
LINE
  5
2AE
100
AcDbEntity
  8
KONSTRUKTIONSELEMENTE
100
AcDbLine
 62
7
  6
CONTINUOUS
 10
196.9459888589
 20
239.2398038448
 11
215.6546738341
 21
257.94848882
  0
LINE
  5
2AF
100
AcDbEntity
  8
KONSTRUKTIONSELEMENTE
100
AcDbLine
 62
7
  6
CONTINUOUS
 10
228.0586872311
 20
270.352502217
 11
246.7673722063
 21
289.0611871922
  0
LINE
  5
2B0
100
AcDbEntity
  8
KONSTRUKTIONSELEMENTE
100
AcDbLine
 62
7
  6
CONTINUOUS
 10
123.0533302249
 20
164.9935918203
 11
191.9968951763
 21
233.9371567716
  0
LINE
  5
2B1
100
AcDbEntity
  8
BEZUGSACHSEN
100
AcDbLine
 62
7
  6
CONTINUOUS
 10
191.9968951763
 20
233.9371567716
 11
193.0566561348
 21
234.9969177302
  0
LINE
  5
2B2
100
AcDbEntity
  8
KONSTRUKTIONSELEMENTE
100
AcDbLine
 62
7
  6
CONTINUOUS
 10
307.4612484418
 20
268.5370439431
 11
307.0612484418
 21
268.5370439431
  0
LINE
  5
2B3
100
AcDbEntity
  8
KONSTRUKTIONSELEMENTE
100
AcDbLine
 62
7
  6
CONTINUOUS
 10
307.4612484418
 20
270.3399319312
 11
307.0612484418
 21
270.3399319312
  0
LINE
  5
2B4
100
AcDbEntity
  8
KONSTRUKTIONSELEMENTE
100
AcDbLine
 62
7
  6
CONTINUOUS
 10
307.4612484418
 20
271.2413758446
 11
307.0612484418
 21
271.2413758446
  0
LINE
  5
2B5
100
AcDbEntity
  8
KONSTRUKTIONSELEMENTE
100
AcDbLine
 62
7
  6
CONTINUOUS
 10
307.4612484418
 20
271.7370439431
 11
307.0612484418
 21
271.7370439431
  0
LINE
  5
2B6
100
AcDbEntity
  8
KONSTRUKTIONSELEMENTE
100
AcDbLine
 62
7
  6
CONTINUOUS
 10
308.4378732503
 20
272.5498744592
 11
307.0612484418
 21
272.5498744592
  0
LINE
  5
2B7
100
AcDbEntity
  8
KONSTRUKTIONSELEMENTE
100
AcDbLine
 62
7
  6
CONTINUOUS
 10
308.4378732503
 20
273.3627049754
 11
307.0612484418
 21
273.3627049754
  0
LINE
  5
2B8
100
AcDbEntity
  8
KONSTRUKTIONSELEMENTE
100
AcDbLine
 62
7
  6
CONTINUOUS
 10
307.4612484418
 20
273.9457077462
 11
307.0612484418
 21
273.9457077462
  0
LINE
  5
2B9
100
AcDbEntity
  8
KONSTRUKTIONSELEMENTE
100
AcDbLine
 62
7
  6
CONTINUOUS
 10
307.509026812
 20
274.4464789324
 11
307.0612484418
 21
274.4464789324
  0
LINE
  5
2BA
100
AcDbEntity
  8
KONSTRUKTIONSELEMENTE
100
AcDbLine
 62
7
  6
CONTINUOUS
 10
307.6938492103
 20
274.5819507497
 11
307.0612484418
 21
274.5819507497
  0
LINE
  5
2BB
100
AcDbEntity
  8
KONSTRUKTIONSELEMENTE
100
AcDbLine
 62
7
  6
CONTINUOUS
 10
307.9149553747
 20
274.8528941904
 11
307.0612484418
 21
274.8528941904
  0
LINE
  5
2BC
100
AcDbEntity
  8
KONSTRUKTIONSELEMENTE
100
AcDbLine
 62
7
  6
CONTINUOUS
 10
308.1489916994
 20
275.2593096423
 11
307.0612484418
 21
275.2593096423
  0
LINE
  5
2BD
100
AcDbEntity
  8
KONSTRUKTIONSELEMENTE
100
AcDbLine
 62
7
  6
CONTINUOUS
 10
308.3602537618
 20
275.9366681474
 11
307.0612484418
 21
275.9366681474
  0
LINE
  5
2BE
100
AcDbEntity
  8
KONSTRUKTIONSELEMENTE
100
AcDbLine
 62
7
  6
CONTINUOUS
 10
308.4378732503
 20
276.6140270401
 11
307.0612484418
 21
276.6140270401
  0
LINE
  5
2BF
100
AcDbEntity
  8
KONSTRUKTIONSELEMENTE
100
AcDbLine
 62
7
  6
CONTINUOUS
 10
308.4378732503
 20
277.2913859327
 11
307.0612484418
 21
277.2913859327
  0
LINE
  5
2C0
100
AcDbEntity
  8
KONSTRUKTIONSELEMENTE
100
AcDbLine
 62
7
  6
CONTINUOUS
 10
308.3602537618
 20
277.9687444378
 11
307.0612484418
 21
277.9687444378
  0
LINE
  5
2C1
100
AcDbEntity
  8
KONSTRUKTIONSELEMENTE
100
AcDbLine
 62
7
  6
CONTINUOUS
 10
308.1489916994
 20
278.6461033305
 11
307.0612484418
 21
278.6461033305
  0
LINE
  5
2C2
100
AcDbEntity
  8
KONSTRUKTIONSELEMENTE
100
AcDbLine
 62
7
  6
CONTINUOUS
 10
307.9149553747
 20
279.0525185886
 11
307.0612484418
 21
279.0525185886
  0
LINE
  5
2C3
100
AcDbEntity
  8
KONSTRUKTIONSELEMENTE
100
AcDbLine
 62
7
  6
CONTINUOUS
 10
307.6938492103
 20
279.3234618356
 11
307.0612484418
 21
279.3234618356
  0
LINE
  5
2C4
100
AcDbEntity
  8
KONSTRUKTIONSELEMENTE
100
AcDbLine
 62
7
  6
CONTINUOUS
 10
307.4612484418
 20
279.3543715493
 11
307.0612484418
 21
279.3543715493
  0
LINE
  5
2C5
100
AcDbEntity
  8
KONSTRUKTIONSELEMENTE
100
AcDbLine
 62
7
  6
CONTINUOUS
 10
307.7319619654
 20
280.4072363739
 11
307.0612484418
 21
280.4072363739
  0
LINE
  5
2C6
100
AcDbEntity
  8
BEZUGSACHSEN
100
AcDbLine
 62
7
  6
CONTINUOUS
 10
364.0022739941
 20
214.0806849789
 11
385.5285402254
 21
202.6349661952
  0
LINE
  5
2C7
100
AcDbEntity
  8
BEZUGSACHSEN
100
AcDbLine
 62
7
  6
CONTINUOUS
 10
351.3186877168
 20
237.8132181901
 11
421.0064521998
 21
200.7595765431
  0
LINE
  5
2C8
100
AcDbEntity
  8
KONSTRUKTIONSELEMENTE
100
AcDbLine
 62
7
  6
CONTINUOUS
 10
251.0396576196
 20
291.9192590432
 11
254.5751915256
 21
288.3837251373
  0
LINE
  5
2C9
100
AcDbEntity
  8
KONSTRUKTIONSELEMENTE
100
AcDbLine
 62
7
  6
CONTINUOUS
 10
251.3932110102
 20
292.2728124338
 11
254.9287449162
 21
288.7372785279
  0
LINE
  5
2CA
100
AcDbEntity
  8
0
100
AcDbLine
 62
7
  6
CONTINUOUS
 10
328.4687477265
 20
172.3236398932
 11
328.8437484418
 21
171.7491713401
  0
LINE
  5
2CB
100
AcDbEntity
  8
0
100
AcDbLine
 62
7
  6
CONTINUOUS
 10
314.5937486206
 20
167.1534269389
 11
314.9687487994
 21
166.3874694493
  0
LINE
  5
2CC
100
AcDbEntity
  8
0
100
AcDbLine
 62
7
  6
CONTINUOUS
 10
267.3212835292
 20
162.6647756715
 11
267.4875424028
 21
161.7218747438
  0
LINE
  5
2CD
100
AcDbEntity
  8
0
100
AcDbLine
 62
7
  6
CONTINUOUS
 10
267.9819891167
 20
161.9170831347
 11
267.8526766594
 21
162.6504505229
  0
LINE
  5
2CE
100
AcDbEntity
  8
0
100
AcDbLine
 62
7
  6
CONTINUOUS
 10
270.5198647151
 20
163.1207477398
 11
270.6491771724
 21
162.3873803516
  0
LINE
  5
2CF
100
AcDbEntity
  8
0
100
AcDbLine
 62
7
  6
CONTINUOUS
 10
271.1805714766
 20
162.37305541
 11
271.0143126029
 21
163.3159563377
  0
LINE
  5
2D0
100
AcDbEntity
  8
0
100
AcDbLine
 62
7
  6
CONTINUOUS
 10
281.3320726446
 20
167.1877139168
 11
282.2003135329
 21
162.2636751517
  0
LINE
  5
2D1
100
AcDbEntity
  8
0
100
AcDbLine
 62
7
  6
CONTINUOUS
 10
282.8158183786
 20
162.3722052628
 11
281.9475774902
 21
167.2962440279
  0
LINE
  5
2D2
100
AcDbEntity
  8
0
100
AcDbLine
 62
7
  6
CONTINUOUS
 10
282.7682498351
 20
167.4409507046
 11
283.6364907234
 21
162.5169119395
  0
LINE
  5
2D3
100
AcDbEntity
  8
0
100
AcDbLine
 62
7
  6
CONTINUOUS
 10
284.251995569
 20
162.6254420506
 11
283.8640581453
 21
164.8255445087
  0
LINE
  5
2D4
100
AcDbEntity
  8
0
100
AcDbLine
 62
7
  6
CONTINUOUS
 10
283.7532188962
 20
165.4541451272
 11
283.4761207216
 21
167.0256469669
  0
LINE
  5
2D5
100
AcDbEntity
  8
0
100
AcDbLine
 62
7
  6
CONTINUOUS
 10
267.8526766594
 20
162.6504505229
 11
267.8444223338
 21
163.2971396313
  0
LINE
  5
2D6
100
AcDbEntity
  8
0
100
AcDbLine
 62
7
  6
CONTINUOUS
 10
270.6491771724
 20
162.3873803516
 11
270.6574326978
 21
161.7406913035
  0
LINE
  5
2D7
100
AcDbEntity
  8
0
100
AcDbLine
 62
7
  6
CONTINUOUS
 10
267.8612484418
 20
363.3370439431
 11
267.8612484418
 21
443.3370439431
  0
LINE
  5
2D8
100
AcDbEntity
  8
0
100
AcDbLine
 62
7
  6
CONTINUOUS
 10
267.3315012378
 20
163.2066978031
 11
267.3212835292
 21
162.6647756715
  0
LINE
  5
2D9
100
AcDbEntity
  8
0
100
AcDbLine
 62
7
  6
CONTINUOUS
 10
271.1703526199
 20
161.8311329247
 11
271.1805714766
 21
162.37305541
  0
LINE
  5
2DA
100
AcDbEntity
  8
0
100
AcDbLine
 62
7
  6
CONTINUOUS
 10
259.4266336575
 20
158.2480609397
 11
259.5453245747
 21
162.3739055573
  0
LINE
  5
2DB
100
AcDbEntity
  8
0
100
AcDbLine
 62
7
  6
CONTINUOUS
 10
258.9687289416
 20
163.2444530431
 11
258.8130915822
 21
159.3281421118
  0
LINE
  5
2DC
100
AcDbEntity
  8
RUNDUNGEN
100
AcDbLine
 62
7
  6
CONTINUOUS
 10
236.1027476488
 20
109.9307331123
 11
234.0560737477
 21
95.3678916046
  0
LINE
  5
2DD
100
AcDbEntity
  8
0
100
AcDbLine
 62
7
  6
CONTINUOUS
 10
255.3232678243
 20
157.5245268316
 11
256.0963730932
 21
162.7379792088
  0
LINE
  5
2DE
100
AcDbEntity
  8
0
100
AcDbLine
 62
7
  6
CONTINUOUS
 10
255.4808682475
 20
162.6294490978
 11
254.8020919496
 21
158.0807741074
  0
LINE
  5
2DF
100
AcDbEntity
  8
KONSTRUKTIONSELEMENTE
100
AcDbLine
 62
7
  6
CONTINUOUS
 10
190.9355812188
 20
231.8151826424
 11
193.7640083435
 21
234.6436097671
  0
LINE
  5
2E0
100
AcDbEntity
  8
KONSTRUKTIONSELEMENTE
100
AcDbLine
 62
7
  6
CONTINUOUS
 10
194.1175617341
 20
234.9971631577
 11
196.9459888589
 21
237.8255902825
  0
LINE
  5
2E1
100
AcDbEntity
  8
KONSTRUKTIONSELEMENTE
100
AcDbLine
 62
7
  6
CONTINUOUS
 10
248.2112304949
 20
289.0908319185
 11
251.0396576196
 21
291.9192590432
  0
LINE
  5
2E2
100
AcDbEntity
  8
KONSTRUKTIONSELEMENTE
100
AcDbLine
 62
7
  6
CONTINUOUS
 10
251.3932110102
 20
292.2728124338
 11
253.1319756724
 21
294.011577096
  0
LINE
  5
2E3
100
AcDbEntity
  8
KONSTRUKTIONSELEMENTE
100
AcDbLine
 62
7
  6
CONTINUOUS
 10
217.4520855133
 20
257.9781335463
 11
228.0586872311
 21
268.5847352641
  0
LINE
  5
2E4
100
AcDbEntity
  8
KONSTRUKTIONSELEMENTE
100
AcDbLine
 62
7
  6
CONTINUOUS
 10
254.221638135
 20
294.747686168
 11
287.4556568508
 21
327.9817048838
  0
LINE
  5
2E5
100
AcDbEntity
  8
KONSTRUKTIONSELEMENTE
100
AcDbLine
 62
7
  6
CONTINUOUS
 10
220.6340660286
 20
254.7961530309
 11
231.2406677464
 21
265.4027547487
  0
LINE
  5
2E6
100
AcDbEntity
  8
KONSTRUKTIONSELEMENTE
100
AcDbLine
 62
7
  6
CONTINUOUS
 10
194.4711151247
 20
228.2796487364
 11
197.2995422495
 21
231.1080758612
  0
LINE
  5
2E7
100
AcDbEntity
  8
KONSTRUKTIONSELEMENTE
100
AcDbLine
 62
7
  6
CONTINUOUS
 10
197.6530956401
 20
231.4616292518
 11
200.4815227648
 21
234.2900563765
  0
LINE
  5
2E8
100
AcDbEntity
  8
KONSTRUKTIONSELEMENTE
100
AcDbLine
 62
7
  6
CONTINUOUS
 10
251.7467644008
 20
285.5552980126
 11
254.5751915256
 21
288.3837251373
  0
LINE
  5
2E9
100
AcDbEntity
  8
KONSTRUKTIONSELEMENTE
100
AcDbLine
 62
7
  6
CONTINUOUS
 10
254.9287449162
 20
288.7372785279
 11
257.7571720409
 21
291.5657056526
  0
LINE
  5
2EA
100
AcDbEntity
  8
KONSTRUKTIONSELEMENTE
100
AcDbLine
 62
7
  6
CONTINUOUS
 10
307.8172708917
 20
280.813651632
 11
307.0612484418
 21
280.813651632
  0
LINE
  5
2EB
100
AcDbEntity
  8
KONSTRUKTIONSELEMENTE
100
AcDbLine
 62
7
  6
CONTINUOUS
 10
307.4612484418
 20
282.5747839002
 11
307.0612484418
 21
282.5747839002
  0
LINE
  5
2EC
100
AcDbEntity
  8
KONSTRUKTIONSELEMENTE
100
AcDbLine
 62
7
  6
CONTINUOUS
 10
307.4612484418
 20
282.8474664924
 11
307.0612484418
 21
282.8474664924
  0
LINE
  5
2ED
100
AcDbEntity
  8
KONSTRUKTIONSELEMENTE
100
AcDbLine
 62
7
  6
CONTINUOUS
 10
307.4612484418
 20
283.4108694017
 11
307.0612484418
 21
283.4108694017
  0
LINE
  5
2EE
100
AcDbEntity
  8
KONSTRUKTIONSELEMENTE
100
AcDbLine
 62
7
  6
CONTINUOUS
 10
307.4612484418
 20
283.6585584385
 11
307.0612484418
 21
283.6585584385
  0
LINE
  5
2EF
100
AcDbEntity
  8
KONSTRUKTIONSELEMENTE
100
AcDbLine
 62
7
  6
CONTINUOUS
 10
308.4378732503
 20
285.82610674
 11
307.0612484418
 21
285.82610674
  0
LINE
  5
2F0
100
AcDbEntity
  8
KONSTRUKTIONSELEMENTE
100
AcDbLine
 62
7
  6
CONTINUOUS
 10
308.4378732503
 20
286.909879728
 11
307.0612484418
 21
286.909879728
  0
LINE
  5
2F1
100
AcDbEntity
  8
KONSTRUKTIONSELEMENTE
100
AcDbLine
 62
7
  6
CONTINUOUS
 10
307.4612484418
 20
289.0774288047
 11
307.0612484418
 21
289.0774288047
  0
LINE
  5
2F2
100
AcDbEntity
  8
KONSTRUKTIONSELEMENTE
100
AcDbLine
 62
7
  6
CONTINUOUS
 10
308.4378732503
 20
290.1612017927
 11
307.0612484418
 21
290.1612017927
  0
LINE
  5
2F3
100
AcDbEntity
  8
KONSTRUKTIONSELEMENTE
100
AcDbLine
 62
7
  6
CONTINUOUS
 10
308.4378732503
 20
290.9740323088
 11
307.0612484418
 21
290.9740323088
  0
LINE
  5
2F4
100
AcDbEntity
  8
KONSTRUKTIONSELEMENTE
100
AcDbLine
 62
7
  6
CONTINUOUS
 10
308.4378732503
 20
292.0578068472
 11
307.0612484418
 21
292.0578068472
  0
LINE
  5
2F5
100
AcDbEntity
  8
KONSTRUKTIONSELEMENTE
100
AcDbLine
 62
7
  6
CONTINUOUS
 10
308.4378732503
 20
292.8706373633
 11
307.0612484418
 21
292.8706373633
  0
LINE
  5
2F6
100
AcDbEntity
  8
KONSTRUKTIONSELEMENTE
100
AcDbLine
 62
7
  6
CONTINUOUS
 10
307.4940647769
 20
295.3091289118
 11
307.0612484418
 21
295.3091289118
  0
LINE
  5
2F7
100
AcDbEntity
  8
KONSTRUKTIONSELEMENTE
100
AcDbLine
 62
7
  6
CONTINUOUS
 10
307.4819152815
 20
295.9864881921
 11
307.0612484418
 21
295.9864881921
  0
LINE
  5
2F8
100
AcDbEntity
  8
KONSTRUKTIONSELEMENTE
100
AcDbLine
 62
7
  6
CONTINUOUS
 10
307.4622548634
 20
296.5283746861
 11
307.0612484418
 21
296.5283746861
  0
LINE
  5
2F9
100
AcDbEntity
  8
KONSTRUKTIONSELEMENTE
100
AcDbLine
 62
7
  6
CONTINUOUS
 10
307.4750787136
 20
296.9347899442
 11
307.0612484418
 21
296.9347899442
  0
LINE
  5
2FA
100
AcDbEntity
  8
KONSTRUKTIONSELEMENTE
100
AcDbLine
 62
7
  6
CONTINUOUS
 10
307.4612484418
 20
297.0702611801
 11
307.0612484418
 21
297.0702611801
  0
LINE
  5
2FB
100
AcDbEntity
  8
BEZUGSACHSEN
100
AcDbLine
 62
7
  6
CONTINUOUS
 10
416.9561360821
 20
143.4317215271
 11
417.9785301909
 21
142.4093274183
  0
LINE
  5
2FC
100
AcDbEntity
  8
0
100
AcDbLine
 62
7
  6
CONTINUOUS
 10
329.9687484418
 20
171.9406612155
 11
329.5937477265
 21
172.706618571
  0
LINE
  5
2FD
100
AcDbEntity
  8
0
100
AcDbLine
 62
7
  6
CONTINUOUS
 10
312.9062486206
 20
165.0470439431
 11
311.2187486206
 21
169.4512992736
  0
LINE
  5
2FE
100
AcDbEntity
  8
0
100
AcDbLine
 62
7
  6
CONTINUOUS
 10
310.0937483524
 20
169.0683205959
 11
311.593748263
 21
165.0470439431
  0
LINE
  5
2FF
100
AcDbEntity
  8
0
100
AcDbLine
 62
7
  6
CONTINUOUS
 10
311.4062484418
 20
172.5151292321
 11
311.593748263
 21
171.9406612155
  0
LINE
  5
300
100
AcDbEntity
  8
0
100
AcDbLine
 62
7
  6
CONTINUOUS
 10
312.718748263
 20
171.9406612155
 11
312.5312484418
 21
172.5151292321
  0
LINE
  5
301
100
AcDbEntity
  8
0
100
AcDbLine
 62
7
  6
CONTINUOUS
 10
286.1515642769
 20
166.8492552824
 11
286.2069839532
 21
166.5349546797
  0
LINE
  5
302
100
AcDbEntity
  8
0
100
AcDbLine
 62
7
  6
CONTINUOUS
 10
286.840962007
 20
166.538718021
 11
286.7670691225
 21
166.9577853935
  0
LINE
  5
303
100
AcDbEntity
  8
KONSTRUKTIONSELEMENTE
100
AcDbLine
 62
7
  6
CONTINUOUS
 10
292.8604348811
 20
237.7005285498
 11
292.8612484418
 21
239.2814466919
  0
LINE
  5
304
100
AcDbEntity
  8
KONSTRUKTIONSELEMENTE
100
AcDbLine
 62
7
  6
CONTINUOUS
 10
292.8611270926
 20
236.7746618599
 11
292.8612484418
 21
228.3370439431
  0
LINE
  5
305
100
AcDbEntity
  8
KONSTRUKTIONSELEMENTE
100
AcDbLine
 62
7
  6
CONTINUOUS
 10
292.8670638552
 20
239.7536364853
 11
292.8615266977
 21
239.2772427934
  0
LINE
  5
306
100
AcDbEntity
  8
KONSTRUKTIONSELEMENTE
100
AcDbLine
 62
7
  6
CONTINUOUS
 10
292.8655974664
 20
239.5873918904
 11
292.8642915611
 21
239.5169462733
  0
LINE
  5
307
100
AcDbEntity
  8
0
100
AcDbLine
 62
7
  6
CONTINUOUS
 10
267.3786653111
 20
163.5390866886
 11
267.3315012378
 21
163.2066978031
  0
LINE
  5
308
100
AcDbEntity
  8
0
100
AcDbLine
 62
7
  6
CONTINUOUS
 10
271.1231884948
 20
161.4987443326
 11
271.1703526199
 21
161.8311329247
  0
LINE
  5
309
100
AcDbEntity
  8
BEZUGSACHSEN
100
AcDbLine
 62
7
  6
CONTINUOUS
 10
342.8612484418
 20
202.5370439431
 11
350.785317184
 21
186.6438208192
  0
LINE
  5
30A
100
AcDbEntity
  8
0
100
AcDbLine
 62
7
  6
CONTINUOUS
 10
315.7187480841
 20
167.3449162778
 11
315.5312487994
 21
168.1108736333
  0
LINE
  5
30B
100
AcDbEntity
  8
0
100
AcDbLine
 62
7
  6
CONTINUOUS
 10
328.8437484418
 20
171.7491713401
 11
329.0312477265
 21
170.9832139846
  0
LINE
  5
30C
100
AcDbEntity
  8
0
100
AcDbLine
 62
7
  6
CONTINUOUS
 10
314.406248263
 20
168.1108736333
 11
314.5937486206
 21
167.1534269389
  0
LINE
  5
30D
100
AcDbEntity
  8
KONSTRUKTIONSELEMENTE
100
AcDbLine
 62
7
  6
CONTINUOUS
 10
307.4612469759
 20
296.6147311454
 11
307.4622548634
 21
296.5283746861
  0
LINE
  5
30E
100
AcDbEntity
  8
KONSTRUKTIONSELEMENTE
100
AcDbLine
 62
7
  6
CONTINUOUS
 10
299.0612484418
 20
212.0091536936
 11
299.0612484418
 21
251.8060348663
  0
LINE
  5
30F
100
AcDbEntity
  8
0
100
AcDbLine
 62
7
  6
CONTINUOUS
 10
305.7812484418
 20
174.0470439431
 11
305.7812484418
 21
165.0470439431
  0
LINE
  5
310
100
AcDbEntity
  8
0
100
AcDbLine
 62
7
  6
CONTINUOUS
 10
306.9062484418
 20
165.0470439431
 11
306.9062484418
 21
169.0683205959
  0
LINE
  5
311
100
AcDbEntity
  8
0
100
AcDbLine
 62
7
  6
CONTINUOUS
 10
306.9062484418
 20
170.2172566291
 11
306.9062484418
 21
173.0895972487
  0
LINE
  5
312
100
AcDbEntity
  8
KONSTRUKTIONSELEMENTE
100
AcDbLine
 62
7
  6
CONTINUOUS
 10
307.0612484418
 20
268.5370439431
 11
307.0612484418
 21
273.3627049754
  0
LINE
  5
313
100
AcDbEntity
  8
KONSTRUKTIONSELEMENTE
100
AcDbLine
 62
7
  6
CONTINUOUS
 10
307.0612484418
 20
273.9457077462
 11
307.0612484418
 21
279.3234618356
  0
LINE
  5
314
100
AcDbEntity
  8
KONSTRUKTIONSELEMENTE
100
AcDbLine
 62
7
  6
CONTINUOUS
 10
307.0612484418
 20
279.3543715493
 11
307.0612484418
 21
289.0774288047
  0
LINE
  5
315
100
AcDbEntity
  8
KONSTRUKTIONSELEMENTE
100
AcDbLine
 62
7
  6
CONTINUOUS
 10
307.0612484418
 20
290.1612017927
 11
307.0612484418
 21
290.9740323088
  0
LINE
  5
316
100
AcDbEntity
  8
KONSTRUKTIONSELEMENTE
100
AcDbLine
 62
7
  6
CONTINUOUS
 10
307.0612484418
 20
292.0578068472
 11
307.0612484418
 21
297.0702611801
  0
LINE
  5
317
100
AcDbEntity
  8
KONSTRUKTIONSELEMENTE
100
AcDbLine
 62
7
  6
CONTINUOUS
 10
307.4612484418
 20
266.1370439431
 11
307.4612484418
 21
272.5498744592
  0
LINE
  5
318
100
AcDbEntity
  8
KONSTRUKTIONSELEMENTE
100
AcDbLine
 62
7
  6
CONTINUOUS
 10
307.4612484418
 20
273.3627049754
 11
307.4612484418
 21
274.4464789324
  0
LINE
  5
319
100
AcDbEntity
  8
KONSTRUKTIONSELEMENTE
100
AcDbLine
 62
7
  6
CONTINUOUS
 10
307.4612484418
 20
279.3234618356
 11
307.4612484418
 21
280.4072363739
  0
LINE
  5
31A
100
AcDbEntity
  8
KONSTRUKTIONSELEMENTE
100
AcDbLine
 62
7
  6
CONTINUOUS
 10
307.4612484418
 20
281.9296394218
 11
307.4612484418
 21
284.6343063819
  0
LINE
  5
31B
100
AcDbEntity
  8
KONSTRUKTIONSELEMENTE
100
AcDbLine
 62
7
  6
CONTINUOUS
 10
307.4612484418
 20
288.1016805124
 11
307.4612484418
 21
290.1612017927
  0
LINE
  5
31C
100
AcDbEntity
  8
KONSTRUKTIONSELEMENTE
100
AcDbLine
 62
7
  6
CONTINUOUS
 10
307.4612484418
 20
290.9740323088
 11
307.4612484418
 21
292.0578068472
  0
LINE
  5
31D
100
AcDbEntity
  8
KONSTRUKTIONSELEMENTE
100
AcDbLine
 62
7
  6
CONTINUOUS
 10
307.4612484418
 20
296.6147366277
 11
307.4612484418
 21
323.7370439431
  0
LINE
  5
31E
100
AcDbEntity
  8
KONSTRUKTIONSELEMENTE
100
AcDbLine
 62
7
  6
CONTINUOUS
 10
307.4940647769
 20
292.8706373633
 11
307.4940647769
 21
295.3091289118
  0
LINE
  5
31F
100
AcDbEntity
  8
KONSTRUKTIONSELEMENTE
100
AcDbLine
 62
7
  6
CONTINUOUS
 10
308.4378732503
 20
273.3627049754
 11
308.4378732503
 21
272.5498744592
  0
LINE
  5
320
100
AcDbEntity
  8
KONSTRUKTIONSELEMENTE
100
AcDbLine
 62
7
  6
CONTINUOUS
 10
308.4378732503
 20
276.6140270401
 11
308.4378732503
 21
277.2913859327
  0
LINE
  5
321
100
AcDbEntity
  8
KONSTRUKTIONSELEMENTE
100
AcDbLine
 62
7
  6
CONTINUOUS
 10
308.4378732503
 20
285.82610674
 11
308.4378732503
 21
286.909879728
  0
LINE
  5
322
100
AcDbEntity
  8
KONSTRUKTIONSELEMENTE
100
AcDbLine
 62
7
  6
CONTINUOUS
 10
308.4378732503
 20
290.1612017927
 11
308.4378732503
 21
290.9740323088
  0
LINE
  5
323
100
AcDbEntity
  8
KONSTRUKTIONSELEMENTE
100
AcDbLine
 62
7
  6
CONTINUOUS
 10
308.4378732503
 20
292.0578068472
 11
308.4378732503
 21
292.8706373633
  0
LINE
  5
324
100
AcDbEntity
  8
0
100
AcDbLine
 62
7
  6
CONTINUOUS
 10
311.593748263
 20
171.9406612155
 11
311.593748263
 21
171.3661926624
  0
LINE
  5
325
100
AcDbEntity
  8
0
100
AcDbLine
 62
7
  6
CONTINUOUS
 10
312.718748263
 20
171.1747033235
 11
312.718748263
 21
171.9406612155
  0
LINE
  5
326
100
AcDbEntity
  8
0
100
AcDbLine
 62
7
  6
CONTINUOUS
 10
314.406248263
 20
174.0470439431
 11
314.406248263
 21
168.1108736333
  0
LINE
  5
327
100
AcDbEntity
  8
0
100
AcDbLine
 62
7
  6
CONTINUOUS
 10
314.8612484418
 20
203.8765059109
 11
314.8612484418
 21
202.5370439431
  0
LINE
  5
328
100
AcDbEntity
  8
0
100
AcDbLine
 62
7
  6
CONTINUOUS
 10
315.5312487994
 20
168.1108736333
 11
315.5312487994
 21
174.0470439431
  0
LINE
  5
329
100
AcDbEntity
  8
0
100
AcDbLine
 62
7
  6
CONTINUOUS
 10
286.2069839532
 20
166.5349546797
 11
286.1598186542
 21
166.2025658806
  0
LINE
  5
32A
100
AcDbEntity
  8
0
100
AcDbLine
 62
7
  6
CONTINUOUS
 10
286.793796708
 20
166.2063292219
 11
286.840962007
 21
166.538718021
  0
LINE
  5
32B
100
AcDbEntity
  8
0
100
AcDbLine
 62
7
  6
CONTINUOUS
 10
279.7382941504
 20
161.8295547076
 11
280.5113979518
 21
167.0430068261
  0
LINE
  5
32C
100
AcDbEntity
  8
0
100
AcDbLine
 62
7
  6
CONTINUOUS
 10
279.8958931061
 20
166.934476715
 11
279.2171175419
 21
162.3858018541
  0
LINE
  5
32D
100
AcDbEntity
  8
0
100
AcDbLine
 62
7
  6
CONTINUOUS
 10
267.5099411516
 20
163.9943305403
 11
267.3786653111
 21
163.5390866886
  0
LINE
  5
32E
100
AcDbEntity
  8
0
100
AcDbLine
 62
7
  6
CONTINUOUS
 10
270.9919126673
 20
161.0435004076
 11
271.1231884948
 21
161.4987443326
  0
LINE
  5
32F
100
AcDbEntity
  8
BEZUGSACHSEN
100
AcDbLine
 62
7
  6
CONTINUOUS
 10
370.542358738
 20
180.6347026849
 11
357.1802443722
 21
207.434957949
  0
LINE
  5
330
100
AcDbEntity
  8
0
100
AcDbLine
 62
7
  6
CONTINUOUS
 10
330.1562477265
 20
170.9832139846
 11
329.9687484418
 21
171.9406612155
  0
LINE
  5
331
100
AcDbEntity
  8
BEZUGSACHSEN
100
AcDbLine
 62
7
  6
CONTINUOUS
 10
326.9777777693
 20
175.8346369099
 11
325.5017682591
 21
184.2055028105
  0
LINE
  5
332
100
AcDbEntity
  8
0
100
AcDbLine
 62
7
  6
CONTINUOUS
 10
320.0312487994
 20
174.0470439431
 11
320.0312487994
 21
168.1108736333
  0
LINE
  5
333
100
AcDbEntity
  8
BEZUGSACHSEN
100
AcDbLine
 62
7
  6
CONTINUOUS
 10
320.8612484418
 20
203.8765059109
 11
320.8612484418
 21
202.5370439431
  0
LINE
  5
334
100
AcDbEntity
  8
0
100
AcDbLine
 62
7
  6
CONTINUOUS
 10
321.1562487994
 20
168.1108736333
 11
321.1562487994
 21
174.0470439431
  0
LINE
  5
335
100
AcDbEntity
  8
0
100
AcDbLine
 62
7
  6
CONTINUOUS
 10
322.6562484418
 20
174.0470439431
 11
322.6562484418
 21
165.0470439431
  0
LINE
  5
336
100
AcDbEntity
  8
0
100
AcDbLine
 62
7
  6
CONTINUOUS
 10
323.7812484418
 20
166.1959801104
 11
323.7812484418
 21
172.8981079098
  0
LINE
  5
337
100
AcDbEntity
  8
KONSTRUKTIONSELEMENTE
100
AcDbLine
 62
7
  6
CONTINUOUS
 10
328.2612484418
 20
266.1370439431
 11
328.2612484418
 21
323.7370439431
  0
LINE
  5
338
100
AcDbEntity
  8
0
100
AcDbLine
 62
7
  6
CONTINUOUS
 10
329.0312477265
 20
170.9832139846
 11
329.0312477265
 21
168.1108736333
  0
LINE
  5
339
100
AcDbEntity
  8
0
100
AcDbLine
 62
7
  6
CONTINUOUS
 10
330.1562477265
 20
168.1108736333
 11
330.1562477265
 21
170.9832139846
  0
LINE
  5
33A
100
AcDbEntity
  8
0
100
AcDbLine
 62
7
  6
CONTINUOUS
 10
308.7447191143
 20
175.8346369099
 11
310.2207286244
 21
184.2055028105
  0
LINE
  5
33B
100
AcDbEntity
  8
0
100
AcDbLine
 62
7
  6
CONTINUOUS
 10
267.8444223338
 20
163.2971396313
 11
268.1439192054
 21
163.9980938816
  0
LINE
  5
33C
100
AcDbEntity
  8
0
100
AcDbLine
 62
7
  6
CONTINUOUS
 10
270.6574326978
 20
161.7406913035
 11
270.3579346135
 21
161.0397370663
  0
LINE
  5
33D
100
AcDbEntity
  8
RUNDUNGEN
100
AcDbLine
 62
7
  6
CONTINUOUS
 10
265.1801381455
 20
180.6347026849
 11
278.5422525114
 21
207.434957949
  0
LINE
  5
33E
100
AcDbEntity
  8
0
100
AcDbLine
 62
7
  6
CONTINUOUS
 10
292.8612484418
 20
202.5370439431
 11
284.9371796995
 21
186.6438208192
  0
LINE
  5
33F
100
AcDbEntity
  8
0
100
AcDbLine
 62
7
  6
CONTINUOUS
 10
265.5341141574
 20
164.4021075954
 11
265.047921769
 21
163.5602100961
  0
LINE
  5
340
100
AcDbEntity
  8
0
100
AcDbLine
 62
7
  6
CONTINUOUS
 10
265.1957074863
 20
162.7220756447
 11
265.6818998229
 21
163.5639734374
  0
LWPOLYLINE
  5
341
100
AcDbEntity
  8
KONSTRUKTIONSELEMENTE
100
AcDbPolyline
 62
7
  6
CONTINUOUS
 90
11
 70
0
 10
301.6212492504
 20
255.3946776036
 10
300.3809530677
 20
254.519591107
 10
298.9370375373
 20
253.2952328823
 10
297.6096884581
 20
251.9220317737
 10
296.420211369
 20
250.4165659202
 10
295.3851693344
 20
248.7968195961
 10
294.5179748043
 20
247.0832772701
 10
293.82849143
 20
245.2983149486
 10
293.3227823066
 20
243.4656044583
 10
293.0029574291
 20
241.6095292196
 10
292.8670638552
 20
239.7536364853
  0
LINE
  5
342
100
AcDbEntity
  8
BEZUGSACHSEN
100
AcDbLine
 62
7
  6
CONTINUOUS
 10
284.4038091667
 20
237.8132181901
 11
214.7160446838
 21
200.7595765431
  0
LINE
  5
343
100
AcDbEntity
  8
KONSTRUKTIONSELEMENTE
100
AcDbLine
 62
7
  6
CONTINUOUS
 10
342.8094737443
 20
240.668999099
 11
342.8007769062
 21
240.7841754758
  0
LINE
  5
344
100
AcDbEntity
  8
KONSTRUKTIONSELEMENTE
100
AcDbLine
 62
7
  6
CONTINUOUS
 10
342.8185542581
 20
240.5379450663
 11
342.8094737443
 21
240.668999099
  0
LINE
  5
345
100
AcDbEntity
  8
KONSTRUKTIONSELEMENTE
100
AcDbLine
 62
7
  6
CONTINUOUS
 10
342.827426227
 20
240.3956919143
 11
342.8185542581
 21
240.5379450663
  0
LINE
  5
346
100
AcDbEntity
  8
KONSTRUKTIONSELEMENTE
100
AcDbLine
 62
7
  6
CONTINUOUS
 10
342.8337751188
 20
240.2821179478
 11
342.8253194871
 21
240.4310467293
  0
LINE
  5
347
100
AcDbEntity
  8
KONSTRUKTIONSELEMENTE
100
AcDbLine
 62
7
  6
CONTINUOUS
 10
342.8390206792
 20
240.1778696227
 11
342.8315623719
 21
240.3230213124
  0
LINE
  5
348
100
AcDbEntity
  8
KONSTRUKTIONSELEMENTE
100
AcDbLine
 62
7
  6
CONTINUOUS
 10
342.8446829087
 20
240.0505479567
 11
342.8376792536
 21
240.2056414206
  0
LINE
  5
349
100
AcDbEntity
  8
KONSTRUKTIONSELEMENTE
100
AcDbLine
 62
7
  6
CONTINUOUS
 10
342.8481939225
 20
239.9602315502
 11
342.84234435
 21
240.105374426
  0
LINE
  5
34A
100
AcDbEntity
  8
KONSTRUKTIONSELEMENTE
100
AcDbLine
 62
7
  6
CONTINUOUS
 10
342.8529895805
 20
239.8143629627
 11
342.847741768
 21
239.9725529363
  0
LINE
  5
34B
100
AcDbEntity
  8
KONSTRUKTIONSELEMENTE
100
AcDbLine
 62
7
  6
CONTINUOUS
 10
342.8567292532
 20
239.6670185018
 11
342.8529195021
 21
239.8168512161
  0
LINE
  5
34C
100
AcDbEntity
  8
KONSTRUKTIONSELEMENTE
100
AcDbLine
 62
7
  6
CONTINUOUS
 10
342.8582865839
 20
239.587576766
 11
342.855031228
 21
239.73949285
  0
LINE
  5
34D
100
AcDbEntity
  8
KONSTRUKTIONSELEMENTE
100
AcDbLine
 62
7
  6
CONTINUOUS
 10
342.8603103
 20
239.4405387006
 11
342.858193635
 21
239.5927012897
  0
LINE
  5
34E
100
AcDbEntity
  8
KONSTRUKTIONSELEMENTE
100
AcDbLine
 62
7
  6
CONTINUOUS
 10
342.8611229406
 20
239.0722546651
 11
342.8598365499
 21
239.2351414917
  0
LINE
  5
34F
100
AcDbEntity
  8
KONSTRUKTIONSELEMENTE
100
AcDbLine
 62
7
  6
CONTINUOUS
 10
342.8612238302
 20
239.2893034796
 11
342.8602834057
 21
239.4429889567
  0
LINE
  5
350
100
AcDbEntity
  8
KONSTRUKTIONSELEMENTE
100
AcDbLine
 62
7
  6
CONTINUOUS
 10
342.861586894
 20
238.9034779886
 11
342.8610521527
 21
239.0859728318
  0
LINE
  5
351
100
AcDbEntity
  8
KONSTRUKTIONSELEMENTE
100
AcDbLine
 62
7
  6
CONTINUOUS
 10
336.6612484418
 20
212.0091536936
 11
336.6612484418
 21
251.8065120686
  0
LINE
  5
352
100
AcDbEntity
  8
KONSTRUKTIONSELEMENTE
100
AcDbLine
 62
7
  6
CONTINUOUS
 10
342.8611390868
 20
238.5250092132
 11
342.8611375266
 21
238.5481784137
  0
LINE
  5
353
100
AcDbEntity
  8
KONSTRUKTIONSELEMENTE
100
AcDbLine
 62
7
  6
CONTINUOUS
 10
342.8612484418
 20
228.3370439431
 11
342.8612484418
 21
236.7496802604
  0
LINE
  5
354
100
AcDbEntity
  8
KONSTRUKTIONSELEMENTE
100
AcDbLine
 62
7
  6
CONTINUOUS
 10
342.8623343835
 20
238.1042406348
 11
342.8612127175
 21
239.2976173861
  0
LINE
  5
355
100
AcDbEntity
  8
0
100
AcDbLine
 62
7
  6
CONTINUOUS
 10
320.9687484418
 20
167.1534269389
 11
321.1562487994
 21
168.1108736333
  0
LINE
  5
356
100
AcDbEntity
  8
0
100
AcDbLine
 62
7
  6
CONTINUOUS
 10
320.0312487994
 20
168.1108736333
 11
319.8437484418
 21
167.3449162778
  0
LINE
  5
357
100
AcDbEntity
  8
0
100
AcDbLine
 62
7
  6
CONTINUOUS
 10
311.593748263
 20
171.3661926624
 11
311.4062484418
 21
170.7917246458
  0
LINE
  5
358
100
AcDbEntity
  8
0
100
AcDbLine
 62
7
  6
CONTINUOUS
 10
312.5312484418
 20
170.6002353069
 11
312.718748263
 21
171.1747033235
  0
LINE
  5
359
100
AcDbEntity
  8
0
100
AcDbLine
 62
7
  6
CONTINUOUS
 10
286.5599371179
 20
165.7329970874
 11
286.793796708
 21
166.2063292219
  0
LINE
  5
35A
100
AcDbEntity
  8
0
100
AcDbLine
 62
7
  6
CONTINUOUS
 10
267.7622739498
 20
164.3628959051
 11
267.5099411516
 21
163.9943305403
  0
LINE
  5
35B
100
AcDbEntity
  8
0
100
AcDbLine
 62
7
  6
CONTINUOUS
 10
270.7395798755
 20
160.6749350061
 11
270.9919126673
 21
161.0435004076
  0
LINE
  5
35C
100
AcDbEntity
  8
BEZUGSACHSEN
100
AcDbLine
 62
7
  6
CONTINUOUS
 10
218.7663608014
 20
143.4317215271
 11
217.7439666927
 21
142.4093274183
  0
LINE
  5
35D
100
AcDbEntity
  8
RUNDUNGEN
100
AcDbLine
 62
7
  6
CONTINUOUS
 10
271.7202228894
 20
214.0806849789
 11
250.1939566581
 21
202.6349661952
  0
LINE
  5
35E
100
AcDbEntity
  8
0
100
AcDbLine
 62
7
  6
CONTINUOUS
 10
367.8612484418
 20
443.3370439431
 11
367.8612484418
 21
363.3370439431
  0
LINE
  5
35F
100
AcDbEntity
  8
0
100
AcDbLine
 62
7
  6
CONTINUOUS
 10
329.9687484418
 20
167.1534269389
 11
330.1562477265
 21
168.1108736333
  0
LINE
  5
360
100
AcDbEntity
  8
0
100
AcDbLine
 62
7
  6
CONTINUOUS
 10
329.0312477265
 20
168.1108736333
 11
328.8437484418
 21
167.3449162778
  0
LINE
  5
361
100
AcDbEntity
  8
0
100
AcDbLine
 62
7
  6
CONTINUOUS
 10
286.1598186542
 20
166.2025658806
 11
285.9915975713
 21
165.9568557754
  0
LINE
  5
362
100
AcDbEntity
  8
0
100
AcDbLine
 62
7
  6
CONTINUOUS
 10
268.1439192054
 20
163.9980938816
 11
268.4147252118
 21
164.2618924766
  0
LINE
  5
363
100
AcDbEntity
  8
0
100
AcDbLine
 62
7
  6
CONTINUOUS
 10
270.3579346135
 20
161.0397370663
 11
270.087128607
 21
160.7759384713
  0
LINE
  5
364
100
AcDbEntity
  8
0
100
AcDbLine
 62
7
  6
CONTINUOUS
 10
268.2197754213
 20
164.7676380425
 11
267.7622739498
 21
164.3628959051
  0
LINE
  5
365
100
AcDbEntity
  8
0
100
AcDbLine
 62
7
  6
CONTINUOUS
 10
320.5937487994
 20
166.3874694493
 11
320.9687484418
 21
167.1534269389
  0
LINE
  5
366
100
AcDbEntity
  8
0
100
AcDbLine
 62
7
  6
CONTINUOUS
 10
329.5937477265
 20
166.3874694493
 11
329.9687484418
 21
167.1534269389
  0
LINE
  5
367
100
AcDbEntity
  8
0
100
AcDbLine
 62
7
  6
CONTINUOUS
 10
319.8437484418
 20
167.3449162778
 11
319.4687487994
 21
166.7704482612
  0
LINE
  5
368
100
AcDbEntity
  8
0
100
AcDbLine
 62
7
  6
CONTINUOUS
 10
311.9687484418
 20
169.8342779514
 11
312.5312484418
 21
170.6002353069
  0
LINE
  5
369
100
AcDbEntity
  8
0
100
AcDbLine
 62
7
  6
CONTINUOUS
 10
286.2050193961
 20
165.3463432328
 11
286.5599371179
 21
165.7329970874
  0
LINE
  5
36A
100
AcDbEntity
  8
RUNDUNGEN
100
AcDbLine
 62
7
  6
CONTINUOUS
 10
237.9785301909
 20
112.6647604678
 11
236.9561360821
 21
111.6423663591
  0
LINE
  5
36B
100
AcDbEntity
  8
0
100
AcDbLine
 62
7
  6
CONTINUOUS
 10
270.2820795829
 20
160.2701930482
 11
270.7395798755
 21
160.6749350061
  0
LINE
  5
36C
100
AcDbEntity
  8
BEZUGSACHSEN
100
AcDbLine
 62
7
  6
CONTINUOUS
 10
399.6197492347
 20
109.9307331123
 11
401.6664231359
 21
95.3678916046
  0
LWPOLYLINE
  5
36D
100
AcDbEntity
  8
BEZUGSACHSEN
100
AcDbPolyline
 62
7
  6
CONTINUOUS
 90
4
 70
0
 10
401.7397484418
 20
140.5213237694
 10
401.7444982558
 20
140.4017933477
 10
401.7587180588
 20
140.2830145587
 10
401.7628860557
 20
140.2583161021
  0
LINE
  5
36E
100
AcDbEntity
  8
0
100
AcDbLine
 62
7
  6
CONTINUOUS
 10
393.8612484418
 20
443.3370439431
 11
393.8612484418
 21
363.3370439431
  0
LINE
  5
36F
100
AcDbEntity
  8
BEZUGSACHSEN
100
AcDbLine
 62
7
  6
CONTINUOUS
 10
396.8612484418
 20
140.2782570452
 11
396.8612484418
 21
134.8521782939
  0
LINE
  5
370
100
AcDbEntity
  8
RUNDUNGEN
100
AcDbLine
 62
7
  6
CONTINUOUS
 10
396.8612484418
 20
134.8521782939
 11
396.8612484418
 21
133.6283283854
  0
LINE
  5
371
100
AcDbEntity
  8
BEZUGSACHSEN
100
AcDbLine
 62
7
  6
CONTINUOUS
 10
396.8612484418
 20
133.6283283854
 11
396.8612484418
 21
114.7958308409
  0
LINE
  5
372
100
AcDbEntity
  8
BEZUGSACHSEN
100
AcDbLine
 62
7
  6
CONTINUOUS
 10
401.7397484418
 20
94.3192913307
 11
401.7397484418
 21
76.2071381185
  0
LINE
  5
373
100
AcDbEntity
  8
BEZUGSACHSEN
100
AcDbLine
 62
7
  6
CONTINUOUS
 10
401.7397484418
 20
140.5212433349
 11
401.7397484418
 21
178.8669497676
  0
LINE
  5
374
100
AcDbEntity
  8
0
100
AcDbLine
 62
7
  6
CONTINUOUS
 10
328.8437484418
 20
167.3449162778
 11
328.4687477265
 21
166.7704482612
  0
LINE
  5
375
100
AcDbEntity
  8
0
100
AcDbLine
 62
7
  6
CONTINUOUS
 10
311.4062484418
 20
170.7917246458
 11
311.031248263
 21
170.408745968
  0
LINE
  5
376
100
AcDbEntity
  8
0
100
AcDbLine
 62
7
  6
CONTINUOUS
 10
319.8437484418
 20
165.6215120268
 11
320.5937487994
 21
166.3874694493
  0
LINE
  5
377
100
AcDbEntity
  8
0
100
AcDbLine
 62
7
  6
CONTINUOUS
 10
328.8437484418
 20
165.6215120268
 11
329.5937477265
 21
166.3874694493
  0
LINE
  5
378
100
AcDbEntity
  8
0
100
AcDbLine
 62
7
  6
CONTINUOUS
 10
285.9915975713
 20
165.9568557754
 11
285.7023183567
 21
165.7978239502
  0
LINE
  5
379
100
AcDbEntity
  8
0
100
AcDbLine
 62
7
  6
CONTINUOUS
 10
311.2187486206
 20
169.4512992736
 11
311.9687484418
 21
169.8342779514
  0
LINE
  5
37A
100
AcDbEntity
  8
0
100
AcDbLine
 62
7
  6
CONTINUOUS
 10
268.4147252118
 20
164.2618924766
 11
268.9091730997
 21
164.4571010746
  0
LINE
  5
37B
100
AcDbEntity
  8
0
100
AcDbLine
 62
7
  6
CONTINUOUS
 10
270.087128607
 20
160.7759384713
 11
269.5926818932
 21
160.5807300803
  0
LINE
  5
37C
100
AcDbEntity
  8
0
100
AcDbLine
 62
7
  6
CONTINUOUS
 10
285.7105726822
 20
165.1511348418
 11
286.2050193961
 21
165.3463432328
  0
LINE
  5
37D
100
AcDbEntity
  8
0
100
AcDbLine
 62
7
  6
CONTINUOUS
 10
268.8168070587
 20
164.9809349233
 11
268.2197754213
 21
164.7676380425
  0
LINE
  5
37E
100
AcDbEntity
  8
0
100
AcDbLine
 62
7
  6
CONTINUOUS
 10
269.6850479471
 20
160.0568961582
 11
270.2820795829
 21
160.2701930482
  0
LINE
  5
37F
100
AcDbEntity
  8
BEZUGSACHSEN
100
AcDbLine
 62
7
  6
CONTINUOUS
 10
415.5446436576
 20
149.1144710148
 11
416.1027482538
 21
145.1433504688
  0
LINE
  5
380
100
AcDbEntity
  8
BEZUGSACHSEN
100
AcDbLine
 62
7
  6
CONTINUOUS
 10
407.8612484418
 20
146.5002386373
 11
407.8612484418
 21
146.5455659431
  0
LINE
  5
381
100
AcDbEntity
  8
BEZUGSACHSEN
100
AcDbLine
 62
7
  6
CONTINUOUS
 10
413.9827484418
 20
178.8669497676
 11
413.9827484418
 21
140.5212697963
  0
LINE
  5
382
100
AcDbEntity
  8
RUNDUNGEN
100
AcDbLine
 62
7
  6
CONTINUOUS
 10
413.9827484418
 20
94.3192913307
 11
413.9827484418
 21
76.2071381185
  0
LINE
  5
383
100
AcDbEntity
  8
BEZUGSACHSEN
100
AcDbLine
 62
7
  6
CONTINUOUS
 10
418.8612484418
 20
140.2782570452
 11
418.8612484418
 21
134.8521782939
  0
LINE
  5
384
100
AcDbEntity
  8
RUNDUNGEN
100
AcDbLine
 62
7
  6
CONTINUOUS
 10
418.8612484418
 20
134.8521782939
 11
418.8612484418
 21
114.7958308409
  0
LINE
  5
385
100
AcDbEntity
  8
BEZUGSACHSEN
100
AcDbLine
 62
7
  6
CONTINUOUS
 10
400.1566534516
 20
148.9636267825
 11
399.6197486297
 21
145.1433504688
  0
LINE
  5
386
100
AcDbEntity
  8
BEZUGSACHSEN
100
AcDbLine
 62
7
  6
CONTINUOUS
 10
387.5959203758
 20
195.872870417
 11
379.4317685103
 21
180.5183339365
  0
LINE
  5
387
100
AcDbEntity
  8
0
100
AcDbLine
 62
7
  6
CONTINUOUS
 10
319.4687487994
 20
166.7704482612
 11
318.9062487994
 21
166.3874694493
  0
LINE
  5
388
100
AcDbEntity
  8
0
100
AcDbLine
 62
7
  6
CONTINUOUS
 10
328.4687477265
 20
166.7704482612
 11
327.9062477265
 21
166.3874694493
  0
LINE
  5
389
100
AcDbEntity
  8
0
100
AcDbLine
 62
7
  6
CONTINUOUS
 10
319.0937480841
 20
165.2385332987
 11
319.8437484418
 21
165.6215120268
  0
LINE
  5
38A
100
AcDbEntity
  8
0
100
AcDbLine
 62
7
  6
CONTINUOUS
 10
328.093749157
 20
165.2385332987
 11
328.8437484418
 21
165.6215120268
  0
LINE
  5
38B
100
AcDbEntity
  8
0
100
AcDbLine
 62
7
  6
CONTINUOUS
 10
311.031248263
 20
170.408745968
 11
310.468748263
 21
170.2172566291
  0
LINE
  5
38C
100
AcDbEntity
  8
RUNDUNGEN
100
AcDbLine
 62
7
  6
CONTINUOUS
 10
416.1027476488
 20
109.9307331123
 11
414.0560737477
 21
95.3678916046
  0
LWPOLYLINE
  5
38D
100
AcDbEntity
  8
BEZUGSACHSEN
100
AcDbPolyline
 62
7
  6
CONTINUOUS
 90
4
 70
0
 10
413.9596106044
 20
140.2583120211
 10
413.963778657
 20
140.2830108862
 10
413.9779985825
 20
140.4017910846
 10
413.9827484418
 20
140.5213230013
  0
LINE
  5
38E
100
AcDbEntity
  8
BEZUGSACHSEN
100
AcDbLine
 62
7
  6
CONTINUOUS
 10
398.7663608014
 20
143.4317215271
 11
397.7439666927
 21
142.4093274183
  0
LINE
  5
38F
100
AcDbEntity
  8
RUNDUNGEN
100
AcDbLine
 62
7
  6
CONTINUOUS
 10
417.9785301909
 20
112.6647604678
 11
416.9561360821
 21
111.6423663591
  0
LINE
  5
390
100
AcDbEntity
  8
BEZUGSACHSEN
100
AcDbLine
 62
7
  6
CONTINUOUS
 10
619.4042347078
 20
114.0455659431
 11
613.7368069589
 21
114.0455659431
  0
LINE
  5
391
100
AcDbEntity
  8
BEZUGSACHSEN
100
AcDbLine
 62
7
  6
CONTINUOUS
 10
596.9937343349
 20
114.0455659431
 11
591.6726094903
 21
114.0455659431
  0
LINE
  5
392
100
AcDbEntity
  8
BEZUGSACHSEN
100
AcDbLine
 62
7
  6
CONTINUOUS
 10
650.3368144764
 20
115.6022749431
 11
661.852322577
 21
115.6022749431
  0
LINE
  5
393
100
AcDbEntity
  8
RUNDUNGEN
100
AcDbLine
 62
7
  6
CONTINUOUS
 10
612.9299126469
 20
116.1211779431
 11
612.5080702654
 21
116.1211779431
  0
LINE
  5
394
100
AcDbEntity
  8
BEZUGSACHSEN
100
AcDbLine
 62
7
  6
CONTINUOUS
 10
661.5371799349
 20
116.6400809431
 11
649.6368069589
 21
116.6400809431
  0
LINE
  5
395
100
AcDbEntity
  8
0
100
AcDbLine
 62
7
  6
CONTINUOUS
 10
663.3591966469
 20
123.3870439431
 11
663.0440742469
 21
123.3870439431
  0
LINE
  5
396
100
AcDbEntity
  8
0
100
AcDbLine
 62
7
  6
CONTINUOUS
 10
648.9299126469
 20
123.3870439431
 11
648.8299126469
 21
123.3870439431
  0
LINE
  5
397
100
AcDbEntity
  8
0
100
AcDbLine
 62
7
  6
CONTINUOUS
 10
640.9299126469
 20
123.3870439431
 11
620.9299126469
 21
123.3870439431
  0
LINE
  5
398
100
AcDbEntity
  8
0
100
AcDbLine
 62
7
  6
CONTINUOUS
 10
613.0299126469
 20
123.3870439431
 11
612.9299126469
 21
123.3870439431
  0
LINE
  5
399
100
AcDbEntity
  8
0
100
AcDbLine
 62
7
  6
CONTINUOUS
 10
598.8157510469
 20
123.3870439431
 11
598.5006286469
 21
123.3870439431
  0
LINE
  5
39A
100
AcDbEntity
  8
0
100
AcDbLine
 62
7
  6
CONTINUOUS
 10
663.3591966469
 20
131.6870439431
 11
663.0440742469
 21
131.6870439431
  0
LINE
  5
39B
100
AcDbEntity
  8
0
100
AcDbLine
 62
7
  6
CONTINUOUS
 10
648.9299126469
 20
131.6870439431
 11
648.8299126469
 21
131.6870439431
  0
LINE
  5
39C
100
AcDbEntity
  8
0
100
AcDbLine
 62
7
  6
CONTINUOUS
 10
640.9299126469
 20
131.6870439431
 11
620.9299126469
 21
131.6870439431
  0
LINE
  5
39D
100
AcDbEntity
  8
0
100
AcDbLine
 62
7
  6
CONTINUOUS
 10
613.0299126469
 20
131.6870439431
 11
612.9299126469
 21
131.6870439431
  0
LINE
  5
39E
100
AcDbEntity
  8
0
100
AcDbLine
 62
7
  6
CONTINUOUS
 10
598.8157510469
 20
131.6870439431
 11
598.5006286469
 21
131.6870439431
  0
LINE
  5
39F
100
AcDbEntity
  8
0
100
AcDbLine
 62
7
  6
CONTINUOUS
 10
599.5226453589
 20
138.4340069431
 11
611.4230183349
 21
138.4340069431
  0
LINE
  5
3A0
100
AcDbEntity
  8
BEZUGSACHSEN
100
AcDbLine
 62
7
  6
CONTINUOUS
 10
648.9299126469
 20
138.9529099431
 11
649.3517550284
 21
138.9529099431
  0
LINE
  5
3A1
100
AcDbEntity
  8
BEZUGSACHSEN
100
AcDbLine
 62
7
  6
CONTINUOUS
 10
611.5230108174
 20
139.4718129431
 11
600.0075027168
 21
139.4718129431
  0
LINE
  5
3A2
100
AcDbEntity
  8
BEZUGSACHSEN
100
AcDbLine
 62
7
  6
CONTINUOUS
 10
641.655590586
 20
141.0285219431
 11
647.3230183349
 21
141.0285219431
  0
LINE
  5
3A3
100
AcDbEntity
  8
BEZUGSACHSEN
100
AcDbLine
 62
7
  6
CONTINUOUS
 10
664.0660909589
 20
141.0285219431
 11
669.3872158035
 21
141.0285219431
  0
LINE
  5
3A4
100
AcDbEntity
  8
BEZUGSACHSEN
100
AcDbLine
 62
7
  6
CONTINUOUS
 10
618.4500235549
 20
148.0370439431
 11
642.6299126469
 21
148.0370439431
  0
LINE
  5
3A5
100
AcDbEntity
  8
KONSTRUKTIONSELEMENTE
100
AcDbLine
 62
7
  6
CONTINUOUS
 10
625.5799126469
 20
164.9935918203
 11
634.6799126469
 21
164.9935918203
  0
LINE
  5
3A6
100
AcDbEntity
  8
KONSTRUKTIONSELEMENTE
100
AcDbLine
 62
7
  6
CONTINUOUS
 10
625.0799126469
 20
165.3471452108
 11
625.5799126469
 21
165.3471452108
  0
LINE
  5
3A7
100
AcDbEntity
  8
KONSTRUKTIONSELEMENTE
100
AcDbLine
 62
7
  6
CONTINUOUS
 10
634.6799126469
 20
165.3471452108
 11
635.1799126469
 21
165.3471452108
  0
LINE
  5
3A8
100
AcDbEntity
  8
KONSTRUKTIONSELEMENTE
100
AcDbLine
 62
7
  6
CONTINUOUS
 10
625.0799126469
 20
168.1755723356
 11
625.5799126469
 21
168.1755723356
  0
LINE
  5
3A9
100
AcDbEntity
  8
KONSTRUKTIONSELEMENTE
100
AcDbLine
 62
7
  6
CONTINUOUS
 10
634.6799126469
 20
168.1755723356
 11
635.1799126469
 21
168.1755723356
  0
LINE
  5
3AA
100
AcDbEntity
  8
KONSTRUKTIONSELEMENTE
100
AcDbLine
 62
7
  6
CONTINUOUS
 10
625.5799126469
 20
168.5291257262
 11
634.6799126469
 21
168.5291257262
  0
LINE
  5
3AB
100
AcDbEntity
  8
BEZUGSACHSEN
100
AcDbLine
 62
7
  6
CONTINUOUS
 10
590.4240608436
 20
114.6939111594
 11
586.8074773207
 21
119.8589277087
  0
LINE
  5
3AC
100
AcDbEntity
  8
BEZUGSACHSEN
100
AcDbLine
 62
7
  6
CONTINUOUS
 10
591.2240608436
 20
114.6939111594
 11
587.6074773207
 21
119.8589277087
  0
LINE
  5
3AD
100
AcDbEntity
  8
KONSTRUKTIONSELEMENTE
100
AcDbLine
 62
7
  6
CONTINUOUS
 10
652.4906528456
 20
179.135727444
 11
638.7483689434
 21
179.135727444
  0
LINE
  5
3AE
100
AcDbEntity
  8
KONSTRUKTIONSELEMENTE
100
AcDbLine
 62
7
  6
CONTINUOUS
 10
621.5799126469
 20
179.135727444
 11
620.5292944336
 21
179.135727444
  0
LINE
  5
3AF
100
AcDbEntity
  8
KONSTRUKTIONSELEMENTE
100
AcDbLine
 62
7
  6
CONTINUOUS
 10
640.6799126469
 20
182.3177079593
 11
638.6799126469
 21
182.3177079593
  0
LINE
  5
3B0
100
AcDbEntity
  8
KONSTRUKTIONSELEMENTE
100
AcDbLine
 62
7
  6
CONTINUOUS
 10
621.5799126469
 20
182.3177079593
 11
620.5292944336
 21
182.3177079593
  0
LINE
  5
3B1
100
AcDbEntity
  8
KONSTRUKTIONSELEMENTE
100
AcDbLine
 62
7
  6
CONTINUOUS
 10
621.5799126469
 20
182.6712613499
 11
620.5292944336
 21
182.6712613499
  0
LINE
  5
3B2
100
AcDbEntity
  8
KONSTRUKTIONSELEMENTE
100
AcDbLine
 62
7
  6
CONTINUOUS
 10
638.6799126469
 20
182.6712613499
 11
652.4906528456
 21
182.6712613499
  0
LINE
  5
3B3
100
AcDbEntity
  8
KONSTRUKTIONSELEMENTE
100
AcDbLine
 62
7
  6
CONTINUOUS
 10
592.5299126469
 20
203.7370439431
 11
601.6008060807
 21
203.7370439431
  0
LINE
  5
3B4
100
AcDbEntity
  8
KONSTRUKTIONSELEMENTE
100
AcDbLine
 62
7
  6
CONTINUOUS
 10
658.6590192131
 20
203.7370439431
 11
682.1299126469
 21
203.7370439431
  0
LINE
  5
3B5
100
AcDbEntity
  8
KONSTRUKTIONSELEMENTE
100
AcDbLine
 62
7
  6
CONTINUOUS
 10
657.0405930169
 20
185.5770962042
 11
651.1495924011
 21
187.5195317559
  0
LINE
  5
3B6
100
AcDbEntity
  8
KONSTRUKTIONSELEMENTE
100
AcDbLine
 62
7
  6
CONTINUOUS
 10
592.5299126469
 20
207.8370439431
 11
586.1299126469
 21
207.8370439431
  0
LINE
  5
3B7
100
AcDbEntity
  8
KONSTRUKTIONSELEMENTE
100
AcDbLine
 62
7
  6
CONTINUOUS
 10
666.1299126469
 20
212.0091536936
 11
682.1299126469
 21
212.0091536936
  0
LINE
  5
3B8
100
AcDbEntity
  8
KONSTRUKTIONSELEMENTE
100
AcDbLine
 62
7
  6
CONTINUOUS
 10
592.5299126469
 20
215.746742631
 11
586.1299126469
 21
215.746742631
  0
LINE
  5
3B9
100
AcDbEntity
  8
KONSTRUKTIONSELEMENTE
100
AcDbLine
 62
7
  6
CONTINUOUS
 10
592.29954961
 20
218.194979728
 11
592.0882404791
 21
218.1618545285
  0
LINE
  5
3BA
100
AcDbEntity
  8
KONSTRUKTIONSELEMENTE
100
AcDbLine
 62
7
  6
CONTINUOUS
 10
672.9144328808
 20
216.9881015259
 11
678.8054334965
 21
215.0456659741
  0
LINE
  5
3BB
100
AcDbEntity
  8
KONSTRUKTIONSELEMENTE
100
AcDbLine
 62
7
  6
CONTINUOUS
 10
591.2430039556
 20
219.4435672926
 11
592.0882404791
 21
218.1618545285
  0
LINE
  5
3BC
100
AcDbEntity
  8
KONSTRUKTIONSELEMENTE
100
AcDbLine
 62
7
  6
CONTINUOUS
 10
597.7724560995
 20
209.5423361898
 11
616.4781685405
 21
181.1770801563
  0
LINE
  5
3BD
100
AcDbEntity
  8
KONSTRUKTIONSELEMENTE
100
AcDbLine
 62
7
  6
CONTINUOUS
 10
597.7724560995
 20
209.8958895804
 11
597.5611469686
 21
210.2163177714
  0
LINE
  5
3BE
100
AcDbEntity
  8
KONSTRUKTIONSELEMENTE
100
AcDbLine
 62
7
  6
CONTINUOUS
 10
597.7724560995
 20
212.7243167052
 11
597.5611469686
 21
213.0447448962
  0
LINE
  5
3BF
100
AcDbEntity
  8
KONSTRUKTIONSELEMENTE
100
AcDbLine
 62
7
  6
CONTINUOUS
 10
591.2430039556
 20
222.9791011985
 11
592.0882404791
 21
221.6973884344
  0
LINE
  5
3C0
100
AcDbEntity
  8
KONSTRUKTIONSELEMENTE
100
AcDbLine
 62
7
  6
CONTINUOUS
 10
597.7724560995
 20
213.0778700958
 11
616.4781685405
 21
184.7126140622
  0
LINE
  5
3C1
100
AcDbEntity
  8
KONSTRUKTIONSELEMENTE
100
AcDbLine
 62
7
  6
CONTINUOUS
 10
602.4540818753
 20
215.8283979462
 11
600.2352114916
 21
219.1930827578
  0
LINE
  5
3C2
100
AcDbEntity
  8
KONSTRUKTIONSELEMENTE
100
AcDbLine
 62
7
  6
CONTINUOUS
 10
604.3889910032
 20
216.0762911881
 11
603.5437544797
 21
217.3580039522
  0
LINE
  5
3C3
100
AcDbEntity
  8
KONSTRUKTIONSELEMENTE
100
AcDbLine
 62
7
  6
CONTINUOUS
 10
600.2352114916
 20
222.7286166637
 11
604.3889910032
 21
216.4298445787
  0
LINE
  5
3C4
100
AcDbEntity
  8
BEZUGSACHSEN
100
AcDbLine
 62
7
  6
CONTINUOUS
 10
617.6299126469
 20
237.8132181901
 11
624.5320115348
 21
237.8132181901
  0
LINE
  5
3C5
100
AcDbEntity
  8
BEZUGSACHSEN
100
AcDbLine
 62
7
  6
CONTINUOUS
 10
635.727813759
 20
237.8132181901
 11
642.6299126469
 21
237.8132181901
  0
LINE
  5
3C6
100
AcDbEntity
  8
BEZUGSACHSEN
100
AcDbLine
 62
7
  6
CONTINUOUS
 10
613.3299126469
 20
240.3370439431
 11
617.6299126469
 21
240.3370439431
  0
LINE
  5
3C7
100
AcDbEntity
  8
BEZUGSACHSEN
100
AcDbLine
 62
7
  6
CONTINUOUS
 10
642.6299126469
 20
240.3370439431
 11
646.9299126469
 21
240.3370439431
  0
LINE
  5
3C8
100
AcDbEntity
  8
KONSTRUKTIONSELEMENTE
100
AcDbLine
 62
7
  6
CONTINUOUS
 10
592.5299126469
 20
240.4654650398
 11
586.1299126469
 21
240.4654650398
  0
LINE
  5
3C9
100
AcDbEntity
  8
KONSTRUKTIONSELEMENTE
100
AcDbLine
 62
7
  6
CONTINUOUS
 10
682.1299126469
 20
248.266445912
 11
679.7931436216
 21
248.266445912
  0
LINE
  5
3CA
100
AcDbEntity
  8
KONSTRUKTIONSELEMENTE
100
AcDbLine
 62
7
  6
CONTINUOUS
 10
592.5299126469
 20
248.8370439431
 11
586.1299126469
 21
248.8370439431
  0
LINE
  5
3CB
100
AcDbEntity
  8
KONSTRUKTIONSELEMENTE
100
AcDbLine
 62
7
  6
CONTINUOUS
 10
672.9144328808
 20
220.5236354318
 11
678.8054334965
 21
218.58119988
  0
LINE
  5
3CC
100
AcDbEntity
  8
KONSTRUKTIONSELEMENTE
100
AcDbLine
 62
7
  6
CONTINUOUS
 10
636.8918048347
 20
237.4726906776
 11
677.4740671562
 21
224.0915294377
  0
LINE
  5
3CD
100
AcDbEntity
  8
RUNDUNGEN
100
AcDbLine
 62
7
  6
CONTINUOUS
 10
670.6357644502
 20
140.3801767268
 11
674.252347973
 21
135.2151601775
  0
LINE
  5
3CE
100
AcDbEntity
  8
KONSTRUKTIONSELEMENTE
100
AcDbLine
 62
7
  6
CONTINUOUS
 10
592.0882404791
 20
221.6973884344
 11
592.29954961
 21
221.0234068528
  0
LINE
  5
3CF
100
AcDbEntity
  8
BEZUGSACHSEN
100
AcDbLine
 62
7
  6
CONTINUOUS
 10
586.1299126469
 20
135.3953402382
 11
586.1299126469
 21
132.0577268791
  0
LINE
  5
3D0
100
AcDbEntity
  8
BEZUGSACHSEN
100
AcDbLine
 62
7
  6
CONTINUOUS
 10
586.1299126469
 20
123.0163610071
 11
586.1299126469
 21
122.0078883065
  0
LINE
  5
3D1
100
AcDbEntity
  8
KONSTRUKTIONSELEMENTE
100
AcDbLine
 62
7
  6
CONTINUOUS
 10
586.1299126469
 20
207.8370439431
 11
586.1299126469
 21
248.8370439431
  0
LINE
  5
3D2
100
AcDbEntity
  8
BEZUGSACHSEN
100
AcDbLine
 62
7
  6
CONTINUOUS
 10
586.9299126469
 20
135.3953402382
 11
586.9299126469
 21
132.0577268791
  0
LINE
  5
3D3
100
AcDbEntity
  8
BEZUGSACHSEN
100
AcDbLine
 62
7
  6
CONTINUOUS
 10
586.9299126469
 20
123.0163610071
 11
586.9299126469
 21
122.0078883065
  0
LINE
  5
3D4
100
AcDbEntity
  8
KONSTRUKTIONSELEMENTE
100
AcDbLine
 62
7
  6
CONTINUOUS
 10
590.7745428908
 20
224.4732823922
 11
590.7745428908
 21
220.9377484862
  0
LINE
  5
3D5
100
AcDbEntity
  8
KONSTRUKTIONSELEMENTE
100
AcDbLine
 62
7
  6
CONTINUOUS
 10
592.5299126469
 20
218.2405155972
 11
592.5299126469
 21
203.7370439431
  0
LINE
  5
3D6
100
AcDbEntity
  8
KONSTRUKTIONSELEMENTE
100
AcDbLine
 62
7
  6
CONTINUOUS
 10
592.5299126469
 20
227.1588350343
 11
592.5299126469
 21
297.3370439431
  0
LINE
  5
3D7
100
AcDbEntity
  8
RUNDUNGEN
100
AcDbLine
 62
7
  6
CONTINUOUS
 10
595.1299126469
 20
108.5738492489
 11
595.1299126469
 21
108.5285219431
  0
LINE
  5
3D8
100
AcDbEntity
  8
KONSTRUKTIONSELEMENTE
100
AcDbLine
 62
7
  6
CONTINUOUS
 10
659.8575722061
 20
275.3947812658
 11
659.3469339691
 21
275.2593096423
  0
LINE
  5
3D9
100
AcDbEntity
  8
KONSTRUKTIONSELEMENTE
100
AcDbLine
 62
7
  6
CONTINUOUS
 10
682.1299126469
 20
253.3370439431
 11
679.7932160549
 21
253.3370439431
  0
LINE
  5
3DA
100
AcDbEntity
  8
BEZUGSACHSEN
100
AcDbLine
 62
7
  6
CONTINUOUS
 10
617.6299126469
 20
262.5370439431
 11
627.8799126469
 21
262.5370439431
  0
LINE
  5
3DB
100
AcDbEntity
  8
BEZUGSACHSEN
100
AcDbLine
 62
7
  6
CONTINUOUS
 10
632.3799126469
 20
262.5370439431
 11
642.6299126469
 21
262.5370439431
  0
LINE
  5
3DC
100
AcDbEntity
  8
KONSTRUKTIONSELEMENTE
100
AcDbLine
 62
7
  6
CONTINUOUS
 10
599.3299126469
 20
272.3681806962
 11
606.3086360537
 21
270.7906538073
  0
LINE
  5
3DD
100
AcDbEntity
  8
RUNDUNGEN
100
AcDbLine
 62
7
  6
CONTINUOUS
 10
595.9299126469
 20
108.5738492489
 11
595.9299126469
 21
108.5285219431
  0
LINE
  5
3DE
100
AcDbEntity
  8
KONSTRUKTIONSELEMENTE
100
AcDbLine
 62
7
  6
CONTINUOUS
 10
597.4206086492
 20
213.4929992543
 11
597.4206086492
 21
210.6645721295
  0
LINE
  5
3DF
100
AcDbEntity
  8
KONSTRUKTIONSELEMENTE
100
AcDbLine
 62
7
  6
CONTINUOUS
 10
597.7724560995
 20
213.0778700958
 11
597.7724560995
 21
212.7243167052
  0
LINE
  5
3E0
100
AcDbEntity
  8
KONSTRUKTIONSELEMENTE
100
AcDbLine
 62
7
  6
CONTINUOUS
 10
597.7724560995
 20
209.5423361898
 11
597.7724560995
 21
209.8958895804
  0
LINE
  5
3E1
100
AcDbEntity
  8
BEZUGSACHSEN
100
AcDbLine
 62
7
  6
CONTINUOUS
 10
598.5006286469
 20
137.9649186311
 11
598.5006286469
 21
115.5524602551
  0
LINE
  5
3E2
100
AcDbEntity
  8
0
100
AcDbLine
 62
7
  6
CONTINUOUS
 10
598.8157510469
 20
121.2505676071
 11
598.8157510469
 21
125.2933491089
  0
LINE
  5
3E3
100
AcDbEntity
  8
BEZUGSACHSEN
100
AcDbLine
 62
7
  6
CONTINUOUS
 10
598.8157510469
 20
120.6891731841
 11
598.8157510469
 21
125.2933491089
  0
LINE
  5
3E4
100
AcDbEntity
  8
0
100
AcDbLine
 62
7
  6
CONTINUOUS
 10
598.8157510469
 20
129.7807387772
 11
598.8157510469
 21
136.253984718
  0
LINE
  5
3E5
100
AcDbEntity
  8
BEZUGSACHSEN
100
AcDbLine
 62
7
  6
CONTINUOUS
 10
598.8157510469
 20
129.7807387772
 11
598.8157510469
 21
136.2540199912
  0
LINE
  5
3E6
100
AcDbEntity
  8
RUNDUNGEN
100
AcDbLine
 62
7
  6
CONTINUOUS
 10
598.8157510469
 20
136.253984718
 11
598.8157510469
 21
136.9270786348
  0
LINE
  5
3E7
100
AcDbEntity
  8
KONSTRUKTIONSELEMENTE
100
AcDbLine
 62
7
  6
CONTINUOUS
 10
599.3299126469
 20
296.7071687774
 11
599.3299126469
 21
296.031085802
  0
LINE
  5
3E8
100
AcDbEntity
  8
KONSTRUKTIONSELEMENTE
100
AcDbLine
 62
7
  6
CONTINUOUS
 10
599.3299126469
 20
292.8760310572
 11
599.3299126469
 21
292.1999480818
  0
LINE
  5
3E9
100
AcDbEntity
  8
KONSTRUKTIONSELEMENTE
100
AcDbLine
 62
7
  6
CONTINUOUS
 10
599.3299126469
 20
289.7209776019
 11
599.3299126469
 21
288.7068531388
  0
LINE
  5
3EA
100
AcDbEntity
  8
KONSTRUKTIONSELEMENTE
100
AcDbLine
 62
7
  6
CONTINUOUS
 10
599.3299126469
 20
284.1996324431
 11
599.3299126469
 21
283.6362308233
  0
LINE
  5
3EB
100
AcDbEntity
  8
KONSTRUKTIONSELEMENTE
100
AcDbLine
 62
7
  6
CONTINUOUS
 10
599.3299126469
 20
278.4529277971
 11
599.3299126469
 21
277.7768448217
  0
LINE
  5
3EC
100
AcDbEntity
  8
KONSTRUKTIONSELEMENTE
100
AcDbLine
 62
7
  6
CONTINUOUS
 10
599.3299126469
 20
274.6217907216
 11
599.3299126469
 21
273.9457077462
  0
LINE
  5
3ED
100
AcDbEntity
  8
KONSTRUKTIONSELEMENTE
100
AcDbLine
 62
7
  6
CONTINUOUS
 10
599.3299126469
 20
273.0442636716
 11
599.3299126469
 21
272.3681806962
  0
LINE
  5
3EE
100
AcDbEntity
  8
KONSTRUKTIONSELEMENTE
100
AcDbLine
 62
7
  6
CONTINUOUS
 10
599.3299126469
 20
269.2131269185
 11
599.3299126469
 21
268.5370439431
  0
LINE
  5
3EF
100
AcDbEntity
  8
KONSTRUKTIONSELEMENTE
100
AcDbLine
 62
7
  6
CONTINUOUS
 10
600.3511891209
 20
283.6362308233
 11
600.3511891209
 21
284.3123137987
  0
LINE
  5
3F0
100
AcDbEntity
  8
KONSTRUKTIONSELEMENTE
100
AcDbLine
 62
7
  6
CONTINUOUS
 10
600.3511891209
 20
288.7068531388
 11
600.3511891209
 21
289.7209776019
  0
LINE
  5
3F1
100
AcDbEntity
  8
KONSTRUKTIONSELEMENTE
100
AcDbLine
 62
7
  6
CONTINUOUS
 10
601.2022528492
 20
284.9883967741
 11
601.2022528492
 21
285.6644797495
  0
LINE
  5
3F2
100
AcDbEntity
  8
KONSTRUKTIONSELEMENTE
100
AcDbLine
 62
7
  6
CONTINUOUS
 10
601.3724660717
 20
290.6224219989
 11
601.3724660717
 21
291.2985049743
  0
LINE
  5
3F3
100
AcDbEntity
  8
KONSTRUKTIONSELEMENTE
100
AcDbLine
 62
7
  6
CONTINUOUS
 10
602.5639552914
 20
296.031085802
 11
602.5639552914
 21
292.8760310572
  0
LINE
  5
3F4
100
AcDbEntity
  8
KONSTRUKTIONSELEMENTE
100
AcDbLine
 62
7
  6
CONTINUOUS
 10
602.7341680371
 20
284.3123137987
 11
602.7341680371
 21
283.6362308233
  0
LINE
  5
3F5
100
AcDbEntity
  8
KONSTRUKTIONSELEMENTE
100
AcDbLine
 62
7
  6
CONTINUOUS
 10
603.5852317654
 20
280.9318989218
 11
603.5852317654
 21
279.3543715493
  0
LINE
  5
3F6
100
AcDbEntity
  8
KONSTRUKTIONSELEMENTE
100
AcDbLine
 62
7
  6
CONTINUOUS
 10
603.5852317654
 20
292.8760310572
 11
603.5852317654
 21
296.031085802
  0
LINE
  5
3F7
100
AcDbEntity
  8
KONSTRUKTIONSELEMENTE
100
AcDbLine
 62
7
  6
CONTINUOUS
 10
603.7554445111
 20
283.6362308233
 11
603.7554445111
 21
284.3123137987
  0
LINE
  5
3F8
100
AcDbEntity
  8
KONSTRUKTIONSELEMENTE
100
AcDbLine
 62
7
  6
CONTINUOUS
 10
604.4362957321
 20
279.3543715493
 11
604.4362957321
 21
280.9318989218
  0
LINE
  5
3F9
100
AcDbEntity
  8
KONSTRUKTIONSELEMENTE
100
AcDbLine
 62
7
  6
CONTINUOUS
 10
605.1171467148
 20
282.5094250047
 11
605.1171467148
 21
281.8333420293
  0
LINE
  5
3FA
100
AcDbEntity
  8
KONSTRUKTIONSELEMENTE
100
AcDbLine
 62
7
  6
CONTINUOUS
 10
605.2873594605
 20
291.2985049743
 11
605.2873594605
 21
290.6224219989
  0
LINE
  5
3FB
100
AcDbEntity
  8
KONSTRUKTIONSELEMENTE
100
AcDbLine
 62
7
  6
CONTINUOUS
 10
606.3086360537
 20
289.7209776019
 11
606.3086360537
 21
288.7068531388
  0
LINE
  5
3FC
100
AcDbEntity
  8
KONSTRUKTIONSELEMENTE
100
AcDbLine
 62
7
  6
CONTINUOUS
 10
606.3086360537
 20
284.3123137987
 11
606.3086360537
 21
283.4108694017
  0
LINE
  5
3FD
100
AcDbEntity
  8
KONSTRUKTIONSELEMENTE
100
AcDbLine
 62
7
  6
CONTINUOUS
 10
607.3299126469
 20
270.3399319312
 11
607.3299126469
 21
271.2413758446
  0
LINE
  5
3FE
100
AcDbEntity
  8
KONSTRUKTIONSELEMENTE
100
AcDbLine
 62
7
  6
CONTINUOUS
 10
607.3299126469
 20
275.7485958955
 11
607.3299126469
 21
276.6500396478
  0
LINE
  5
3FF
100
AcDbEntity
  8
KONSTRUKTIONSELEMENTE
100
AcDbLine
 62
7
  6
CONTINUOUS
 10
607.3299126469
 20
283.4108694017
 11
607.3299126469
 21
284.3123137987
  0
LINE
  5
400
100
AcDbEntity
  8
KONSTRUKTIONSELEMENTE
100
AcDbLine
 62
7
  6
CONTINUOUS
 10
607.3299126469
 20
288.7068531388
 11
607.3299126469
 21
289.7209776019
  0
LINE
  5
401
100
AcDbEntity
  8
KONSTRUKTIONSELEMENTE
100
AcDbLine
 62
7
  6
CONTINUOUS
 10
607.3299126469
 20
292.1999480818
 11
607.3299126469
 21
292.8760310572
  0
LINE
  5
402
100
AcDbEntity
  8
KONSTRUKTIONSELEMENTE
100
AcDbLine
 62
7
  6
CONTINUOUS
 10
607.3299126469
 20
296.031085802
 11
607.3299126469
 21
296.7071687774
  0
LINE
  5
403
100
AcDbEntity
  8
KONSTRUKTIONSELEMENTE
100
AcDbLine
 62
7
  6
CONTINUOUS
 10
599.5001253926
 20
290.2843805112
 11
599.3299126469
 21
289.7209776019
  0
LINE
  5
404
100
AcDbEntity
  8
KONSTRUKTIONSELEMENTE
100
AcDbLine
 62
7
  6
CONTINUOUS
 10
599.5001253926
 20
284.7630353525
 11
599.3299126469
 21
284.1996324431
  0
LINE
  5
405
100
AcDbEntity
  8
KONSTRUKTIONSELEMENTE
100
AcDbLine
 62
7
  6
CONTINUOUS
 10
602.9043807827
 20
284.8757154185
 11
602.7341680371
 21
284.3123137987
  0
LINE
  5
406
100
AcDbEntity
  8
KONSTRUKTIONSELEMENTE
100
AcDbLine
 62
7
  6
CONTINUOUS
 10
607.1596998863
 20
288.1434502294
 11
607.3299126469
 21
288.7068531388
  0
LINE
  5
407
100
AcDbEntity
  8
KONSTRUKTIONSELEMENTE
100
AcDbLine
 62
7
  6
CONTINUOUS
 10
600.3511891209
 20
289.7209776019
 11
600.5214018666
 21
290.1716991556
  0
LINE
  5
408
100
AcDbEntity
  8
KONSTRUKTIONSELEMENTE
100
AcDbLine
 62
7
  6
CONTINUOUS
 10
603.7554445111
 20
284.3123137987
 11
603.9256572567
 21
284.7630353525
  0
LINE
  5
409
100
AcDbEntity
  8
KONSTRUKTIONSELEMENTE
100
AcDbLine
 62
7
  6
CONTINUOUS
 10
603.5852317654
 20
283.1855079801
 11
603.7554445111
 21
283.6362308233
  0
LINE
  5
40A
100
AcDbEntity
  8
KONSTRUKTIONSELEMENTE
100
AcDbLine
 62
7
  6
CONTINUOUS
 10
606.3086360537
 20
288.7068531388
 11
606.138423308
 21
288.2561302955
  0
LINE
  5
40B
100
AcDbEntity
  8
KONSTRUKTIONSELEMENTE
100
AcDbLine
 62
7
  6
CONTINUOUS
 10
600.3511891209
 20
284.3123137987
 11
600.5214018666
 21
284.6503552864
  0
LINE
  5
40C
100
AcDbEntity
  8
KONSTRUKTIONSELEMENTE
100
AcDbLine
 62
7
  6
CONTINUOUS
 10
599.8405508839
 20
290.7351007754
 11
599.5001253926
 21
290.2843805112
  0
LINE
  5
40D
100
AcDbEntity
  8
KONSTRUKTIONSELEMENTE
100
AcDbLine
 62
7
  6
CONTINUOUS
 10
660.7086360537
 20
286.367993234
 11
653.7299126469
 21
284.4713889547
  0
LINE
  5
40E
100
AcDbEntity
  8
KONSTRUKTIONSELEMENTE
100
AcDbLine
 62
7
  6
CONTINUOUS
 10
653.7299126469
 20
283.6585584385
 11
661.7299126469
 21
285.82610674
  0
LINE
  5
40F
100
AcDbEntity
  8
KONSTRUKTIONSELEMENTE
100
AcDbLine
 62
7
  6
CONTINUOUS
 10
658.3256572567
 20
278.5106313194
 11
658.8362957321
 21
278.6461033305
  0
LINE
  5
410
100
AcDbEntity
  8
KONSTRUKTIONSELEMENTE
100
AcDbLine
 62
7
  6
CONTINUOUS
 10
655.6022528492
 20
279.0525185886
 11
655.0916146122
 21
278.9170465775
  0
LINE
  5
411
100
AcDbEntity
  8
KONSTRUKTIONSELEMENTE
100
AcDbLine
 62
7
  6
CONTINUOUS
 10
606.3086360537
 20
270.7906538073
 11
599.3299126469
 21
269.2131269185
  0
LINE
  5
412
100
AcDbEntity
  8
KONSTRUKTIONSELEMENTE
100
AcDbLine
 62
7
  6
CONTINUOUS
 10
606.3086360537
 20
276.1993174493
 11
599.3299126469
 21
274.6217907216
  0
LINE
  5
413
100
AcDbEntity
  8
KONSTRUKTIONSELEMENTE
100
AcDbLine
 62
7
  6
CONTINUOUS
 10
599.3299126469
 20
268.5370439431
 11
607.3299126469
 21
270.3399319312
  0
LINE
  5
414
100
AcDbEntity
  8
KONSTRUKTIONSELEMENTE
100
AcDbLine
 62
7
  6
CONTINUOUS
 10
599.3299126469
 20
273.9457077462
 11
607.3299126469
 21
275.7485958955
  0
LINE
  5
415
100
AcDbEntity
  8
KONSTRUKTIONSELEMENTE
100
AcDbLine
 62
7
  6
CONTINUOUS
 10
658.3256572567
 20
274.4464789324
 11
659.5171467148
 21
274.5819507497
  0
LINE
  5
416
100
AcDbEntity
  8
KONSTRUKTIONSELEMENTE
100
AcDbLine
 62
7
  6
CONTINUOUS
 10
654.9214018666
 20
271.7370439431
 11
656.2831043087
 21
271.7370439431
  0
LINE
  5
417
100
AcDbEntity
  8
KONSTRUKTIONSELEMENTE
100
AcDbLine
 62
7
  6
CONTINUOUS
 10
655.0916146122
 20
272.5498744592
 11
661.7299126469
 21
272.5498744592
  0
LINE
  5
418
100
AcDbEntity
  8
KONSTRUKTIONSELEMENTE
100
AcDbLine
 62
7
  6
CONTINUOUS
 10
661.7299126469
 20
273.3627049754
 11
653.7299126469
 21
273.3627049754
  0
LINE
  5
419
100
AcDbEntity
  8
KONSTRUKTIONSELEMENTE
100
AcDbLine
 62
7
  6
CONTINUOUS
 10
657.1341680371
 20
274.4464789324
 11
658.3256572567
 21
274.4464789324
  0
LINE
  5
41A
100
AcDbEntity
  8
KONSTRUKTIONSELEMENTE
100
AcDbLine
 62
7
  6
CONTINUOUS
 10
657.4745935284
 20
275.1238376312
 11
657.1341680371
 21
275.1238376312
  0
LINE
  5
41B
100
AcDbEntity
  8
KONSTRUKTIONSELEMENTE
100
AcDbLine
 62
7
  6
CONTINUOUS
 10
659.3469339691
 20
275.2593096423
 11
658.8362957321
 21
275.2593096423
  0
LINE
  5
41C
100
AcDbEntity
  8
KONSTRUKTIONSELEMENTE
100
AcDbLine
 62
7
  6
CONTINUOUS
 10
658.8362957321
 20
278.6461033305
 11
659.3469339691
 21
278.6461033305
  0
LINE
  5
41D
100
AcDbEntity
  8
KONSTRUKTIONSELEMENTE
100
AcDbLine
 62
7
  6
CONTINUOUS
 10
659.5171467148
 20
279.3234618356
 11
658.6660827481
 21
279.3234618356
  0
LINE
  5
41E
100
AcDbEntity
  8
KONSTRUKTIONSELEMENTE
100
AcDbLine
 62
7
  6
CONTINUOUS
 10
603.5852317654
 20
279.3543715493
 11
604.4362957321
 21
279.3543715493
  0
LINE
  5
41F
100
AcDbEntity
  8
KONSTRUKTIONSELEMENTE
100
AcDbLine
 62
7
  6
CONTINUOUS
 10
604.4362957321
 20
280.9318989218
 11
603.5852317654
 21
280.9318989218
  0
LINE
  5
420
100
AcDbEntity
  8
KONSTRUKTIONSELEMENTE
100
AcDbLine
 62
7
  6
CONTINUOUS
 10
601.2022528492
 20
282.171383517
 11
601.8831043087
 21
282.171383517
  0
LINE
  5
421
100
AcDbEntity
  8
KONSTRUKTIONSELEMENTE
100
AcDbLine
 62
7
  6
CONTINUOUS
 10
601.7128915631
 20
282.8474664924
 11
601.3724660717
 21
282.8474664924
  0
LINE
  5
422
100
AcDbEntity
  8
KONSTRUKTIONSELEMENTE
100
AcDbLine
 62
7
  6
CONTINUOUS
 10
655.9426788174
 20
274.5819507497
 11
657.1341680371
 21
274.4464789324
  0
LINE
  5
423
100
AcDbEntity
  8
KONSTRUKTIONSELEMENTE
100
AcDbLine
 62
7
  6
CONTINUOUS
 10
657.1341680371
 20
275.1238376312
 11
656.1128915631
 21
275.2593096423
  0
LINE
  5
424
100
AcDbEntity
  8
KONSTRUKTIONSELEMENTE
100
AcDbLine
 62
7
  6
CONTINUOUS
 10
600.5214018666
 20
282.2840648726
 11
601.2022528492
 21
282.171383517
  0
LINE
  5
425
100
AcDbEntity
  8
KONSTRUKTIONSELEMENTE
100
AcDbLine
 62
7
  6
CONTINUOUS
 10
601.3724660717
 20
282.8474664924
 11
600.8618273579
 21
282.9601478479
  0
LINE
  5
426
100
AcDbEntity
  8
KONSTRUKTIONSELEMENTE
100
AcDbLine
 62
7
  6
CONTINUOUS
 10
607.3299126469
 20
271.2413758446
 11
599.3299126469
 21
273.0442636716
  0
LINE
  5
427
100
AcDbEntity
  8
KONSTRUKTIONSELEMENTE
100
AcDbLine
 62
7
  6
CONTINUOUS
 10
607.3299126469
 20
276.6500396478
 11
599.3299126469
 21
278.4529277971
  0
LINE
  5
428
100
AcDbEntity
  8
KONSTRUKTIONSELEMENTE
100
AcDbLine
 62
7
  6
CONTINUOUS
 10
599.3299126469
 20
277.7768448217
 11
606.3086360537
 21
276.1993174493
  0
LINE
  5
429
100
AcDbEntity
  8
KONSTRUKTIONSELEMENTE
100
AcDbLine
 62
7
  6
CONTINUOUS
 10
600.5214018666
 20
287.2420058324
 11
601.2022528492
 21
287.0166457003
  0
LINE
  5
42A
100
AcDbEntity
  8
KONSTRUKTIONSELEMENTE
100
AcDbLine
 62
7
  6
CONTINUOUS
 10
606.138423308
 20
285.7771598156
 11
605.4575722061
 21
286.0025212372
  0
LINE
  5
42B
100
AcDbEntity
  8
KONSTRUKTIONSELEMENTE
100
AcDbLine
 62
7
  6
CONTINUOUS
 10
605.2873594605
 20
285.3264382618
 11
605.7979976975
 21
285.1010768402
  0
LINE
  5
42C
100
AcDbEntity
  8
KONSTRUKTIONSELEMENTE
100
AcDbLine
 62
7
  6
CONTINUOUS
 10
601.3724660717
 20
287.6927286757
 11
600.8618273579
 21
287.9180888078
  0
LINE
  5
42D
100
AcDbEntity
  8
KONSTRUKTIONSELEMENTE
100
AcDbLine
 62
7
  6
CONTINUOUS
 10
599.8405508839
 20
282.7347864263
 11
600.5214018666
 21
282.2840648726
  0
LINE
  5
42E
100
AcDbEntity
  8
KONSTRUKTIONSELEMENTE
100
AcDbLine
 62
7
  6
CONTINUOUS
 10
599.8405508839
 20
287.6927286757
 11
600.5214018666
 21
287.2420058324
  0
LINE
  5
42F
100
AcDbEntity
  8
KONSTRUKTIONSELEMENTE
100
AcDbLine
 62
7
  6
CONTINUOUS
 10
606.8192743503
 20
285.3264382618
 11
606.138423308
 21
285.7771598156
  0
LINE
  5
430
100
AcDbEntity
  8
KONSTRUKTIONSELEMENTE
100
AcDbLine
 62
7
  6
CONTINUOUS
 10
606.8192743503
 20
290.7351007754
 11
606.138423308
 21
291.1858236187
  0
LINE
  5
431
100
AcDbEntity
  8
KONSTRUKTIONSELEMENTE
100
AcDbLine
 62
7
  6
CONTINUOUS
 10
600.8618273579
 20
282.9601478479
 11
600.5214018666
 21
283.2981893356
  0
LINE
  5
432
100
AcDbEntity
  8
KONSTRUKTIONSELEMENTE
100
AcDbLine
 62
7
  6
CONTINUOUS
 10
600.8618273579
 20
287.9180888078
 11
600.5214018666
 21
288.2561302955
  0
LINE
  5
433
100
AcDbEntity
  8
KONSTRUKTIONSELEMENTE
100
AcDbLine
 62
7
  6
CONTINUOUS
 10
605.7979976975
 20
285.1010768402
 11
606.138423308
 21
284.7630353525
  0
LINE
  5
434
100
AcDbEntity
  8
KONSTRUKTIONSELEMENTE
100
AcDbLine
 62
7
  6
CONTINUOUS
 10
605.7979976975
 20
290.5097406433
 11
606.138423308
 21
290.1716991556
  0
LINE
  5
435
100
AcDbEntity
  8
KONSTRUKTIONSELEMENTE
100
AcDbLine
 62
7
  6
CONTINUOUS
 10
599.5001253926
 20
283.1855079801
 11
599.8405508839
 21
282.7347864263
  0
LINE
  5
436
100
AcDbEntity
  8
KONSTRUKTIONSELEMENTE
100
AcDbLine
 62
7
  6
CONTINUOUS
 10
599.5001253926
 20
288.1434502294
 11
599.8405508839
 21
287.6927286757
  0
LINE
  5
437
100
AcDbEntity
  8
KONSTRUKTIONSELEMENTE
100
AcDbLine
 62
7
  6
CONTINUOUS
 10
607.1596998863
 20
284.8757154185
 11
606.8192743503
 21
285.3264382618
  0
LINE
  5
438
100
AcDbEntity
  8
KONSTRUKTIONSELEMENTE
100
AcDbLine
 62
7
  6
CONTINUOUS
 10
607.1596998863
 20
290.2843805112
 11
606.8192743503
 21
290.7351007754
  0
LINE
  5
439
100
AcDbEntity
  8
KONSTRUKTIONSELEMENTE
100
AcDbLine
 62
7
  6
CONTINUOUS
 10
600.5214018666
 20
283.2981893356
 11
600.3511891209
 21
283.6362308233
  0
LINE
  5
43A
100
AcDbEntity
  8
KONSTRUKTIONSELEMENTE
100
AcDbLine
 62
7
  6
CONTINUOUS
 10
599.3299126469
 20
283.6362308233
 11
599.5001253926
 21
283.1855079801
  0
LINE
  5
43B
100
AcDbEntity
  8
KONSTRUKTIONSELEMENTE
100
AcDbLine
 62
7
  6
CONTINUOUS
 10
600.5214018666
 20
288.2561302955
 11
600.3511891209
 21
288.7068531388
  0
LINE
  5
43C
100
AcDbEntity
  8
KONSTRUKTIONSELEMENTE
100
AcDbLine
 62
7
  6
CONTINUOUS
 10
606.138423308
 20
284.7630353525
 11
606.3086360537
 21
284.3123137987
  0
LINE
  5
43D
100
AcDbEntity
  8
KONSTRUKTIONSELEMENTE
100
AcDbLine
 62
7
  6
CONTINUOUS
 10
606.138423308
 20
290.1716991556
 11
606.3086360537
 21
289.7209776019
  0
LINE
  5
43E
100
AcDbEntity
  8
KONSTRUKTIONSELEMENTE
100
AcDbLine
 62
7
  6
CONTINUOUS
 10
599.3299126469
 20
288.7068531388
 11
599.5001253926
 21
288.1434502294
  0
LINE
  5
43F
100
AcDbEntity
  8
KONSTRUKTIONSELEMENTE
100
AcDbLine
 62
7
  6
CONTINUOUS
 10
607.3299126469
 20
284.3123137987
 11
607.1596998863
 21
284.8757154185
  0
LINE
  5
440
100
AcDbEntity
  8
KONSTRUKTIONSELEMENTE
100
AcDbLine
 62
7
  6
CONTINUOUS
 10
607.3299126469
 20
289.7209776019
 11
607.1596998863
 21
290.2843805112
  0
LINE
  5
441
100
AcDbEntity
  8
RUNDUNGEN
100
AcDbLine
 62
7
  6
CONTINUOUS
 10
612.9299126469
 20
136.9270786481
 11
612.9299126469
 21
136.2540179389
  0
LINE
  5
442
100
AcDbEntity
  8
0
100
AcDbLine
 62
7
  6
CONTINUOUS
 10
612.9299126469
 20
116.1211779431
 11
612.9299126469
 21
108.5285219431
  0
LINE
  5
443
100
AcDbEntity
  8
BEZUGSACHSEN
100
AcDbLine
 62
7
  6
CONTINUOUS
 10
612.9299126469
 20
116.1211779431
 11
612.9299126469
 21
125.2933491089
  0
LINE
  5
444
100
AcDbEntity
  8
BEZUGSACHSEN
100
AcDbLine
 62
7
  6
CONTINUOUS
 10
612.9299126469
 20
129.7807387772
 11
612.9299126469
 21
136.2540179389
  0
LINE
  5
445
100
AcDbEntity
  8
BEZUGSACHSEN
100
AcDbLine
 62
7
  6
CONTINUOUS
 10
613.0299126469
 20
115.5524602551
 11
613.0299126469
 21
137.9649186311
  0
LINE
  5
446
100
AcDbEntity
  8
KONSTRUKTIONSELEMENTE
100
AcDbLine
 62
7
  6
CONTINUOUS
 10
613.3299126469
 20
234.1628323431
 11
613.3299126469
 21
297.3370439431
  0
LINE
  5
447
100
AcDbEntity
  8
0
100
AcDbLine
 62
7
  6
CONTINUOUS
 10
617.1299126469
 20
303.9485474475
 11
617.1299126469
 21
506.3370439431
  0
LINE
  5
448
100
AcDbEntity
  8
BEZUGSACHSEN
100
AcDbLine
 62
7
  6
CONTINUOUS
 10
617.6299126469
 20
180.0681651305
 11
617.6299126469
 21
148.0371950576
  0
LINE
  5
449
100
AcDbEntity
  8
BEZUGSACHSEN
100
AcDbLine
 62
7
  6
CONTINUOUS
 10
617.6299126469
 20
235.580668364
 11
617.6299126469
 21
262.5368670976
  0
LINE
  5
44A
100
AcDbEntity
  8
KONSTRUKTIONSELEMENTE
100
AcDbLine
 62
7
  6
CONTINUOUS
 10
620.5292944336
 20
182.6712613499
 11
620.5292944336
 21
182.3177079593
  0
LINE
  5
44B
100
AcDbEntity
  8
KONSTRUKTIONSELEMENTE
100
AcDbLine
 62
7
  6
CONTINUOUS
 10
620.5292944336
 20
179.4892808346
 11
620.5292944336
 21
179.135727444
  0
LINE
  5
44C
100
AcDbEntity
  8
BEZUGSACHSEN
100
AcDbLine
 62
7
  6
CONTINUOUS
 10
620.9299126469
 20
115.5547788215
 11
620.9299126469
 21
123.3870439431
  0
LINE
  5
44D
100
AcDbEntity
  8
BEZUGSACHSEN
100
AcDbLine
 62
7
  6
CONTINUOUS
 10
620.9299126469
 20
131.6870439431
 11
620.9299126469
 21
140.9390233991
  0
LINE
  5
44E
100
AcDbEntity
  8
KONSTRUKTIONSELEMENTE
100
AcDbLine
 62
7
  6
CONTINUOUS
 10
622.1299126469
 20
286.6159581843
 11
622.1299126469
 21
276.0093564665
  0
LINE
  5
44F
100
AcDbEntity
  8
KONSTRUKTIONSELEMENTE
100
AcDbLine
 62
7
  6
CONTINUOUS
 10
622.1299126469
 20
255.5032598121
 11
622.1299126469
 21
244.8966580943
  0
LINE
  5
450
100
AcDbEntity
  8
KONSTRUKTIONSELEMENTE
100
AcDbLine
 62
7
  6
CONTINUOUS
 10
623.5799126469
 20
166.4078053826
 11
623.5799126469
 21
179.5701022541
  0
LINE
  5
451
100
AcDbEntity
  8
KONSTRUKTIONSELEMENTE
100
AcDbLine
 62
7
  6
CONTINUOUS
 10
625.5799126469
 20
164.9935918203
 11
625.5799126469
 21
165.3471452108
  0
LINE
  5
452
100
AcDbEntity
  8
KONSTRUKTIONSELEMENTE
100
AcDbLine
 62
7
  6
CONTINUOUS
 10
625.5799126469
 20
168.1755723356
 11
625.5799126469
 21
179.8428342252
  0
LINE
  5
453
100
AcDbEntity
  8
KONSTRUKTIONSELEMENTE
100
AcDbLine
 62
7
  6
CONTINUOUS
 10
607.1596998863
 20
282.8474664924
 11
607.3299126469
 21
283.4108694017
  0
LINE
  5
454
100
AcDbEntity
  8
KONSTRUKTIONSELEMENTE
100
AcDbLine
 62
7
  6
CONTINUOUS
 10
606.3086360537
 20
283.4108694017
 11
606.138423308
 21
282.9601478479
  0
LINE
  5
455
100
AcDbEntity
  8
KONSTRUKTIONSELEMENTE
100
AcDbLine
 62
7
  6
CONTINUOUS
 10
602.7341680371
 20
283.6362308233
 11
602.5639552914
 21
283.2981893356
  0
LINE
  5
456
100
AcDbEntity
  8
KONSTRUKTIONSELEMENTE
100
AcDbLine
 62
7
  6
CONTINUOUS
 10
603.2448062741
 20
285.3264382618
 11
602.9043807827
 21
284.8757154185
  0
LINE
  5
457
100
AcDbEntity
  8
KONSTRUKTIONSELEMENTE
100
AcDbLine
 62
7
  6
CONTINUOUS
 10
606.8192743503
 20
287.6927286757
 11
607.1596998863
 21
288.1434502294
  0
LINE
  5
458
100
AcDbEntity
  8
KONSTRUKTIONSELEMENTE
100
AcDbLine
 62
7
  6
CONTINUOUS
 10
603.2448062741
 20
282.7347864263
 11
603.5852317654
 21
283.1855079801
  0
LINE
  5
459
100
AcDbEntity
  8
KONSTRUKTIONSELEMENTE
100
AcDbLine
 62
7
  6
CONTINUOUS
 10
606.6490616046
 20
282.2840648726
 11
607.1596998863
 21
282.8474664924
  0
LINE
  5
45A
100
AcDbEntity
  8
KONSTRUKTIONSELEMENTE
100
AcDbLine
 62
7
  6
CONTINUOUS
 10
600.5214018666
 20
290.1716991556
 11
600.8618273579
 21
290.5097406433
  0
LINE
  5
45B
100
AcDbEntity
  8
KONSTRUKTIONSELEMENTE
100
AcDbLine
 62
7
  6
CONTINUOUS
 10
606.138423308
 20
288.2561302955
 11
605.7979976975
 21
287.9180888078
  0
LINE
  5
45C
100
AcDbEntity
  8
KONSTRUKTIONSELEMENTE
100
AcDbLine
 62
7
  6
CONTINUOUS
 10
603.9256572567
 20
284.7630353525
 11
604.2660827481
 21
285.1010768402
  0
LINE
  5
45D
100
AcDbEntity
  8
KONSTRUKTIONSELEMENTE
100
AcDbLine
 62
7
  6
CONTINUOUS
 10
602.5639552914
 20
283.2981893356
 11
602.2235298001
 21
282.9601478479
  0
LINE
  5
45E
100
AcDbEntity
  8
KONSTRUKTIONSELEMENTE
100
AcDbLine
 62
7
  6
CONTINUOUS
 10
600.0107636296
 20
285.2137569062
 11
599.5001253926
 21
284.7630353525
  0
LINE
  5
45F
100
AcDbEntity
  8
KONSTRUKTIONSELEMENTE
100
AcDbLine
 62
7
  6
CONTINUOUS
 10
600.5214018666
 20
291.1858236187
 11
599.8405508839
 21
290.7351007754
  0
LINE
  5
460
100
AcDbEntity
  8
KONSTRUKTIONSELEMENTE
100
AcDbLine
 62
7
  6
CONTINUOUS
 10
600.5214018666
 20
284.6503552864
 11
600.8618273579
 21
284.8757154185
  0
LINE
  5
461
100
AcDbEntity
  8
KONSTRUKTIONSELEMENTE
100
AcDbLine
 62
7
  6
CONTINUOUS
 10
606.138423308
 20
287.2420058324
 11
606.8192743503
 21
287.6927286757
  0
LINE
  5
462
100
AcDbEntity
  8
KONSTRUKTIONSELEMENTE
100
AcDbLine
 62
7
  6
CONTINUOUS
 10
603.9256572567
 20
285.7771598156
 11
603.2448062741
 21
285.3264382618
  0
LINE
  5
463
100
AcDbEntity
  8
KONSTRUKTIONSELEMENTE
100
AcDbLine
 62
7
  6
CONTINUOUS
 10
602.5639552914
 20
282.2840648726
 11
603.2448062741
 21
282.7347864263
  0
LINE
  5
464
100
AcDbEntity
  8
KONSTRUKTIONSELEMENTE
100
AcDbLine
 62
7
  6
CONTINUOUS
 10
606.138423308
 20
282.9601478479
 11
605.6277849518
 21
282.6221063603
  0
LINE
  5
465
100
AcDbEntity
  8
KONSTRUKTIONSELEMENTE
100
AcDbLine
 62
7
  6
CONTINUOUS
 10
600.6916146122
 20
285.5517983939
 11
600.0107636296
 21
285.2137569062
  0
LINE
  5
466
100
AcDbEntity
  8
KONSTRUKTIONSELEMENTE
100
AcDbLine
 62
7
  6
CONTINUOUS
 10
605.7979976975
 20
287.9180888078
 11
605.2873594605
 21
287.6927286757
  0
LINE
  5
467
100
AcDbEntity
  8
KONSTRUKTIONSELEMENTE
100
AcDbLine
 62
7
  6
CONTINUOUS
 10
655.0916146122
 20
296.121959428
 11
655.6022528492
 21
296.2574306639
  0
LINE
  5
468
100
AcDbEntity
  8
KONSTRUKTIONSELEMENTE
100
AcDbLine
 62
7
  6
CONTINUOUS
 10
655.6022528492
 20
297.0702611801
 11
655.0916146122
 21
296.9347899442
  0
LINE
  5
469
100
AcDbEntity
  8
KONSTRUKTIONSELEMENTE
100
AcDbLine
 62
7
  6
CONTINUOUS
 10
605.6277849518
 20
282.6221063603
 11
605.1171467148
 21
282.5094250047
  0
LINE
  5
46A
100
AcDbEntity
  8
KONSTRUKTIONSELEMENTE
100
AcDbLine
 62
7
  6
CONTINUOUS
 10
602.2235298001
 20
282.9601478479
 11
601.7128915631
 21
282.8474664924
  0
LINE
  5
46B
100
AcDbEntity
  8
KONSTRUKTIONSELEMENTE
100
AcDbLine
 62
7
  6
CONTINUOUS
 10
601.2022528492
 20
285.6644797495
 11
600.6916146122
 21
285.5517983939
  0
LINE
  5
46C
100
AcDbEntity
  8
KONSTRUKTIONSELEMENTE
100
AcDbLine
 62
7
  6
CONTINUOUS
 10
600.8618273579
 20
290.5097406433
 11
601.3724660717
 21
290.6224219989
  0
LINE
  5
46D
100
AcDbEntity
  8
KONSTRUKTIONSELEMENTE
100
AcDbLine
 62
7
  6
CONTINUOUS
 10
605.1171467148
 20
281.8333420293
 11
605.7979976975
 21
281.9460233849
  0
LINE
  5
46E
100
AcDbEntity
  8
KONSTRUKTIONSELEMENTE
100
AcDbLine
 62
7
  6
CONTINUOUS
 10
601.8831043087
 20
282.171383517
 11
602.5639552914
 21
282.2840648726
  0
LINE
  5
46F
100
AcDbEntity
  8
KONSTRUKTIONSELEMENTE
100
AcDbLine
 62
7
  6
CONTINUOUS
 10
605.2873594605
 20
287.6927286757
 11
604.6065084778
 21
287.5800473201
  0
LINE
  5
470
100
AcDbEntity
  8
KONSTRUKTIONSELEMENTE
100
AcDbLine
 62
7
  6
CONTINUOUS
 10
604.6065084778
 20
286.9039643447
 11
605.4575722061
 21
287.0166457003
  0
LINE
  5
471
100
AcDbEntity
  8
KONSTRUKTIONSELEMENTE
100
AcDbLine
 62
7
  6
CONTINUOUS
 10
601.3724660717
 20
291.2985049743
 11
600.5214018666
 21
291.1858236187
  0
LINE
  5
472
100
AcDbEntity
  8
KONSTRUKTIONSELEMENTE
100
AcDbLine
 62
7
  6
CONTINUOUS
 10
604.7767212235
 20
285.3264382618
 11
605.2873594605
 21
285.3264382618
  0
LINE
  5
473
100
AcDbEntity
  8
KONSTRUKTIONSELEMENTE
100
AcDbLine
 62
7
  6
CONTINUOUS
 10
605.4575722061
 20
286.0025212372
 11
604.6065084778
 21
286.0025212372
  0
LINE
  5
474
100
AcDbEntity
  8
KONSTRUKTIONSELEMENTE
100
AcDbLine
 62
7
  6
CONTINUOUS
 10
602.0533170544
 20
286.9039643447
 11
604.6065084778
 21
286.9039643447
  0
LINE
  5
475
100
AcDbEntity
  8
KONSTRUKTIONSELEMENTE
100
AcDbLine
 62
7
  6
CONTINUOUS
 10
604.6065084778
 20
287.5800473201
 11
602.0533170544
 21
287.5800473201
  0
LINE
  5
476
100
AcDbEntity
  8
KONSTRUKTIONSELEMENTE
100
AcDbLine
 62
7
  6
CONTINUOUS
 10
653.7299126469
 20
290.1612017927
 11
661.7299126469
 21
290.1612017927
  0
LINE
  5
477
100
AcDbEntity
  8
KONSTRUKTIONSELEMENTE
100
AcDbLine
 62
7
  6
CONTINUOUS
 10
661.7299126469
 20
290.9740323088
 11
653.7299126469
 21
290.9740323088
  0
LINE
  5
478
100
AcDbEntity
  8
KONSTRUKTIONSELEMENTE
100
AcDbLine
 62
7
  6
CONTINUOUS
 10
653.7299126469
 20
292.0578068472
 11
661.7299126469
 21
292.0578068472
  0
LINE
  5
479
100
AcDbEntity
  8
KONSTRUKTIONSELEMENTE
100
AcDbLine
 62
7
  6
CONTINUOUS
 10
599.3299126469
 20
292.1999480818
 11
607.3299126469
 21
292.1999480818
  0
LINE
  5
47A
100
AcDbEntity
  8
KONSTRUKTIONSELEMENTE
100
AcDbLine
 62
7
  6
CONTINUOUS
 10
661.7299126469
 20
292.8706373633
 11
658.1554445111
 21
292.8706373633
  0
LINE
  5
47B
100
AcDbEntity
  8
KONSTRUKTIONSELEMENTE
100
AcDbLine
 62
7
  6
CONTINUOUS
 10
657.1341680371
 20
292.8706373633
 11
654.5809763752
 21
292.8706373633
  0
LINE
  5
47C
100
AcDbEntity
  8
KONSTRUKTIONSELEMENTE
100
AcDbLine
 62
7
  6
CONTINUOUS
 10
607.3299126469
 20
292.8760310572
 11
603.5852317654
 21
292.8760310572
  0
LINE
  5
47D
100
AcDbEntity
  8
KONSTRUKTIONSELEMENTE
100
AcDbLine
 62
7
  6
CONTINUOUS
 10
602.5639552914
 20
292.8760310572
 11
599.3299126469
 21
292.8760310572
  0
LINE
  5
47E
100
AcDbEntity
  8
KONSTRUKTIONSELEMENTE
100
AcDbLine
 62
7
  6
CONTINUOUS
 10
599.3299126469
 20
296.031085802
 11
602.5639552914
 21
296.031085802
  0
LINE
  5
47F
100
AcDbEntity
  8
KONSTRUKTIONSELEMENTE
100
AcDbLine
 62
7
  6
CONTINUOUS
 10
603.5852317654
 20
296.031085802
 11
607.3299126469
 21
296.031085802
  0
LINE
  5
480
100
AcDbEntity
  8
KONSTRUKTIONSELEMENTE
100
AcDbLine
 62
7
  6
CONTINUOUS
 10
655.6022528492
 20
296.2574306639
 11
656.1128915631
 21
296.2574306639
  0
LINE
  5
481
100
AcDbEntity
  8
KONSTRUKTIONSELEMENTE
100
AcDbLine
 62
7
  6
CONTINUOUS
 10
607.3299126469
 20
296.7071687774
 11
599.3299126469
 21
296.7071687774
  0
LINE
  5
482
100
AcDbEntity
  8
KONSTRUKTIONSELEMENTE
100
AcDbLine
 62
7
  6
CONTINUOUS
 10
656.2831043087
 20
297.0702611801
 11
655.6022528492
 21
297.0702611801
  0
LINE
  5
483
100
AcDbEntity
  8
KONSTRUKTIONSELEMENTE
100
AcDbLine
 62
7
  6
CONTINUOUS
 10
601.2022528492
 20
287.0166457003
 11
602.0533170544
 21
286.9039643447
  0
LINE
  5
484
100
AcDbEntity
  8
KONSTRUKTIONSELEMENTE
100
AcDbLine
 62
7
  6
CONTINUOUS
 10
606.138423308
 20
291.1858236187
 11
605.2873594605
 21
291.2985049743
  0
LINE
  5
485
100
AcDbEntity
  8
KONSTRUKTIONSELEMENTE
100
AcDbLine
 62
7
  6
CONTINUOUS
 10
602.0533170544
 20
287.5800473201
 11
601.3724660717
 21
287.6927286757
  0
LINE
  5
486
100
AcDbEntity
  8
KONSTRUKTIONSELEMENTE
100
AcDbLine
 62
7
  6
CONTINUOUS
 10
605.2873594605
 20
290.6224219989
 11
605.7979976975
 21
290.5097406433
  0
LINE
  5
487
100
AcDbEntity
  8
KONSTRUKTIONSELEMENTE
100
AcDbLine
 62
7
  6
CONTINUOUS
 10
656.1128915631
 20
275.2593096423
 11
655.6022528492
 21
275.3947812658
  0
LINE
  5
488
100
AcDbEntity
  8
KONSTRUKTIONSELEMENTE
100
AcDbLine
 62
7
  6
CONTINUOUS
 10
658.8362957321
 20
275.2593096423
 11
658.3256572567
 21
275.3947812658
  0
LINE
  5
489
100
AcDbEntity
  8
KONSTRUKTIONSELEMENTE
100
AcDbLine
 62
7
  6
CONTINUOUS
 10
659.3469339691
 20
278.6461033305
 11
659.8575722061
 21
278.5106313194
  0
LINE
  5
48A
100
AcDbEntity
  8
KONSTRUKTIONSELEMENTE
100
AcDbLine
 62
7
  6
CONTINUOUS
 10
661.7299126469
 20
286.909879728
 11
653.7299126469
 21
289.0774288047
  0
LINE
  5
48B
100
AcDbEntity
  8
KONSTRUKTIONSELEMENTE
100
AcDbLine
 62
7
  6
CONTINUOUS
 10
653.7299126469
 20
288.2645982885
 11
660.7086360537
 21
286.367993234
  0
LINE
  5
48C
100
AcDbEntity
  8
KONSTRUKTIONSELEMENTE
100
AcDbLine
 62
7
  6
CONTINUOUS
 10
655.0916146122
 20
274.8528941904
 11
655.9426788174
 21
274.5819507497
  0
LINE
  5
48D
100
AcDbEntity
  8
KONSTRUKTIONSELEMENTE
100
AcDbLine
 62
7
  6
CONTINUOUS
 10
660.3682105624
 20
279.0525185886
 11
659.5171467148
 21
279.3234618356
  0
LINE
  5
48E
100
AcDbEntity
  8
KONSTRUKTIONSELEMENTE
100
AcDbLine
 62
7
  6
CONTINUOUS
 10
655.4320401036
 20
282.1683686421
 11
659.6873594605
 21
280.4072363739
  0
LINE
  5
48F
100
AcDbEntity
  8
KONSTRUKTIONSELEMENTE
100
AcDbLine
 62
7
  6
CONTINUOUS
 10
660.0277849518
 20
280.813651632
 11
655.7724660717
 21
282.5747839002
  0
LINE
  5
490
100
AcDbEntity
  8
KONSTRUKTIONSELEMENTE
100
AcDbLine
 62
7
  6
CONTINUOUS
 10
655.6022528492
 20
275.3947812658
 11
655.0916146122
 21
275.6657249004
  0
LINE
  5
491
100
AcDbEntity
  8
KONSTRUKTIONSELEMENTE
100
AcDbLine
 62
7
  6
CONTINUOUS
 10
659.8575722061
 20
278.5106313194
 11
660.3682105624
 21
278.2396880724
  0
LINE
  5
492
100
AcDbEntity
  8
KONSTRUKTIONSELEMENTE
100
AcDbLine
 62
7
  6
CONTINUOUS
 10
654.4107636296
 20
275.2593096423
 11
655.0916146122
 21
274.8528941904
  0
LINE
  5
493
100
AcDbEntity
  8
KONSTRUKTIONSELEMENTE
100
AcDbLine
 62
7
  6
CONTINUOUS
 10
653.7299126469
 20
272.5498744592
 11
654.9214018666
 21
271.7370439431
  0
LINE
  5
494
100
AcDbEntity
  8
KONSTRUKTIONSELEMENTE
100
AcDbLine
 62
7
  6
CONTINUOUS
 10
656.2831043087
 20
271.7370439431
 11
655.0916146122
 21
272.5498744592
  0
LINE
  5
495
100
AcDbEntity
  8
KONSTRUKTIONSELEMENTE
100
AcDbLine
 62
7
  6
CONTINUOUS
 10
626.6299126469
 20
286.6159581843
 11
626.6299126469
 21
276.0093564665
  0
LINE
  5
496
100
AcDbEntity
  8
KONSTRUKTIONSELEMENTE
100
AcDbLine
 62
7
  6
CONTINUOUS
 10
626.6299126469
 20
255.5032598121
 11
626.6299126469
 21
244.8966580943
  0
LINE
  5
497
100
AcDbEntity
  8
KONSTRUKTIONSELEMENTE
100
AcDbLine
 62
7
  6
CONTINUOUS
 10
627.6299126469
 20
303.1346862564
 11
627.6299126469
 21
285.6535792983
  0
LINE
  5
498
100
AcDbEntity
  8
KONSTRUKTIONSELEMENTE
100
AcDbLine
 62
7
  6
CONTINUOUS
 10
627.6299126469
 20
245.8590369803
 11
627.6299126469
 21
228.3779300222
  0
LINE
  5
499
100
AcDbEntity
  8
KONSTRUKTIONSELEMENTE
100
AcDbLine
 62
7
  6
CONTINUOUS
 10
627.8799126469
 20
276.8096089982
 11
627.8799126469
 21
254.7030072804
  0
LINE
  5
49A
100
AcDbEntity
  8
KONSTRUKTIONSELEMENTE
100
AcDbLine
 62
7
  6
CONTINUOUS
 10
632.3799126469
 20
276.8096089982
 11
632.3799126469
 21
254.7030072804
  0
LINE
  5
49B
100
AcDbEntity
  8
KONSTRUKTIONSELEMENTE
100
AcDbLine
 62
7
  6
CONTINUOUS
 10
632.6299126469
 20
303.1346862564
 11
632.6299126469
 21
285.6535792983
  0
LINE
  5
49C
100
AcDbEntity
  8
KONSTRUKTIONSELEMENTE
100
AcDbLine
 62
7
  6
CONTINUOUS
 10
632.6299126469
 20
245.8590369803
 11
632.6299126469
 21
228.3779300222
  0
LINE
  5
49D
100
AcDbEntity
  8
KONSTRUKTIONSELEMENTE
100
AcDbLine
 62
7
  6
CONTINUOUS
 10
633.6299126469
 20
244.8966580943
 11
633.6299126469
 21
255.5032598121
  0
LINE
  5
49E
100
AcDbEntity
  8
KONSTRUKTIONSELEMENTE
100
AcDbLine
 62
7
  6
CONTINUOUS
 10
633.6299126469
 20
276.0093564665
 11
633.6299126469
 21
286.6159581843
  0
LINE
  5
49F
100
AcDbEntity
  8
KONSTRUKTIONSELEMENTE
100
AcDbLine
 62
7
  6
CONTINUOUS
 10
634.6799126469
 20
164.9935918203
 11
634.6799126469
 21
165.3471452108
  0
LINE
  5
4A0
100
AcDbEntity
  8
KONSTRUKTIONSELEMENTE
100
AcDbLine
 62
7
  6
CONTINUOUS
 10
634.6799126469
 20
168.1755723356
 11
634.6799126469
 21
179.8428342252
  0
LINE
  5
4A1
100
AcDbEntity
  8
KONSTRUKTIONSELEMENTE
100
AcDbLine
 62
7
  6
CONTINUOUS
 10
636.6799126469
 20
166.4078053826
 11
636.6799126469
 21
179.4892808346
  0
LINE
  5
4A2
100
AcDbEntity
  8
KONSTRUKTIONSELEMENTE
100
AcDbLine
 62
7
  6
CONTINUOUS
 10
638.1299126469
 20
244.8966580943
 11
638.1299126469
 21
255.5032598121
  0
LINE
  5
4A3
100
AcDbEntity
  8
KONSTRUKTIONSELEMENTE
100
AcDbLine
 62
7
  6
CONTINUOUS
 10
638.1299126469
 20
276.0093564665
 11
638.1299126469
 21
286.6159581843
  0
LINE
  5
4A4
100
AcDbEntity
  8
0
100
AcDbLine
 62
7
  6
CONTINUOUS
 10
640.1299126469
 20
139.5193090647
 11
640.1299126469
 21
131.6870439431
  0
LINE
  5
4A5
100
AcDbEntity
  8
0
100
AcDbLine
 62
7
  6
CONTINUOUS
 10
640.1299126469
 20
123.3870439431
 11
640.1299126469
 21
114.135064487
  0
LINE
  5
4A6
100
AcDbEntity
  8
0
100
AcDbLine
 62
7
  6
CONTINUOUS
 10
640.9299126469
 20
139.5193090647
 11
640.9299126469
 21
131.6870439431
  0
LINE
  5
4A7
100
AcDbEntity
  8
0
100
AcDbLine
 62
7
  6
CONTINUOUS
 10
640.9299126469
 20
123.3870439431
 11
640.9299126469
 21
114.135064487
  0
LINE
  5
4A8
100
AcDbEntity
  8
KONSTRUKTIONSELEMENTE
100
AcDbLine
 62
7
  6
CONTINUOUS
 10
655.0916146122
 20
296.9347899442
 11
654.4107636296
 21
296.5283746861
  0
LINE
  5
4A9
100
AcDbEntity
  8
KONSTRUKTIONSELEMENTE
100
AcDbLine
 62
7
  6
CONTINUOUS
 10
604.2660827481
 20
285.1010768402
 11
604.7767212235
 21
285.3264382618
  0
LINE
  5
4AA
100
AcDbEntity
  8
KONSTRUKTIONSELEMENTE
100
AcDbLine
 62
7
  6
CONTINUOUS
 10
605.7979976975
 20
281.9460233849
 11
606.6490616046
 21
282.2840648726
  0
LINE
  5
4AB
100
AcDbEntity
  8
KONSTRUKTIONSELEMENTE
100
AcDbLine
 62
7
  6
CONTINUOUS
 10
605.4575722061
 20
287.0166457003
 11
606.138423308
 21
287.2420058324
  0
LINE
  5
4AC
100
AcDbEntity
  8
KONSTRUKTIONSELEMENTE
100
AcDbLine
 62
7
  6
CONTINUOUS
 10
600.8618273579
 20
284.8757154185
 11
601.2022528492
 21
284.9883967741
  0
LINE
  5
4AD
100
AcDbEntity
  8
KONSTRUKTIONSELEMENTE
100
AcDbLine
 62
7
  6
CONTINUOUS
 10
604.6065084778
 20
286.0025212372
 11
603.9256572567
 21
285.7771598156
  0
LINE
  5
4AE
100
AcDbEntity
  8
KONSTRUKTIONSELEMENTE
100
AcDbLine
 62
7
  6
CONTINUOUS
 10
656.1128915631
 20
296.2574306639
 11
656.6235298001
 21
296.121959428
  0
LINE
  5
4AF
100
AcDbEntity
  8
KONSTRUKTIONSELEMENTE
100
AcDbLine
 62
7
  6
CONTINUOUS
 10
656.7937425457
 20
296.9347899442
 11
656.2831043087
 21
297.0702611801
  0
LINE
  5
4B0
100
AcDbEntity
  8
KONSTRUKTIONSELEMENTE
100
AcDbLine
 62
7
  6
CONTINUOUS
 10
661.0490616046
 20
278.6461033305
 11
660.3682105624
 21
279.0525185886
  0
LINE
  5
4B1
100
AcDbEntity
  8
KONSTRUKTIONSELEMENTE
100
AcDbLine
 62
7
  6
CONTINUOUS
 10
657.4745935284
 20
296.5283746861
 11
656.7937425457
 21
296.9347899442
  0
LINE
  5
4B2
100
AcDbEntity
  8
KONSTRUKTIONSELEMENTE
100
AcDbLine
 62
7
  6
CONTINUOUS
 10
658.3256572567
 20
275.3947812658
 11
657.9852317654
 21
275.6657249004
  0
LINE
  5
4B3
100
AcDbEntity
  8
KONSTRUKTIONSELEMENTE
100
AcDbLine
 62
7
  6
CONTINUOUS
 10
655.0916146122
 20
275.6657249004
 11
654.7511891209
 21
276.0721401585
  0
LINE
  5
4B4
100
AcDbEntity
  8
KONSTRUKTIONSELEMENTE
100
AcDbLine
 62
7
  6
CONTINUOUS
 10
656.7937425457
 20
275.9366681474
 11
657.4745935284
 21
275.1238376312
  0
LINE
  5
4B5
100
AcDbEntity
  8
KONSTRUKTIONSELEMENTE
100
AcDbLine
 62
7
  6
CONTINUOUS
 10
657.9852317654
 20
275.6657249004
 11
657.6448062741
 21
276.0721401585
  0
LINE
  5
4B6
100
AcDbEntity
  8
KONSTRUKTIONSELEMENTE
100
AcDbLine
 62
7
  6
CONTINUOUS
 10
660.3682105624
 20
278.2396880724
 11
660.7086360537
 21
277.8332728143
  0
LINE
  5
4B7
100
AcDbEntity
  8
KONSTRUKTIONSELEMENTE
100
AcDbLine
 62
7
  6
CONTINUOUS
 10
653.9001253926
 20
275.9366681474
 11
654.4107636296
 21
275.2593096423
  0
LINE
  5
4B8
100
AcDbEntity
  8
BEZUGSACHSEN
100
AcDbLine
 62
7
  6
CONTINUOUS
 10
642.6299126469
 20
262.5368670976
 11
642.6299126469
 21
235.580668364
  0
LINE
  5
4B9
100
AcDbEntity
  8
BEZUGSACHSEN
100
AcDbLine
 62
7
  6
CONTINUOUS
 10
642.6299126469
 20
179.135727444
 11
642.6299126469
 21
148.0371950576
  0
LINE
  5
4BA
100
AcDbEntity
  8
0
100
AcDbLine
 62
7
  6
CONTINUOUS
 10
643.1299126469
 20
303.9478678041
 11
643.1299126469
 21
506.3370439431
  0
LINE
  5
4BB
100
AcDbEntity
  8
KONSTRUKTIONSELEMENTE
100
AcDbLine
 62
7
  6
CONTINUOUS
 10
646.9299126469
 20
234.1628323431
 11
646.9299126469
 21
297.3370439431
  0
LINE
  5
4BC
100
AcDbEntity
  8
BEZUGSACHSEN
100
AcDbLine
 62
7
  6
CONTINUOUS
 10
648.1299126469
 20
140.7934072301
 11
648.1299126469
 21
146.5455659431
  0
LINE
  5
4BD
100
AcDbEntity
  8
RUNDUNGEN
100
AcDbLine
 62
7
  6
CONTINUOUS
 10
648.8299126469
 20
139.5216276311
 11
648.8299126469
 21
117.1091692551
  0
LINE
  5
4BE
100
AcDbEntity
  8
BEZUGSACHSEN
100
AcDbLine
 62
7
  6
CONTINUOUS
 10
648.9299126469
 20
118.1470092381
 11
648.9299126469
 21
125.2933491089
  0
LINE
  5
4BF
100
AcDbEntity
  8
BEZUGSACHSEN
100
AcDbLine
 62
7
  6
CONTINUOUS
 10
648.9299126469
 20
129.7807387772
 11
648.9299126469
 21
146.5455659431
  0
LINE
  5
4C0
100
AcDbEntity
  8
KONSTRUKTIONSELEMENTE
100
AcDbLine
 62
7
  6
CONTINUOUS
 10
653.7299126469
 20
295.3091289118
 11
653.7299126469
 21
292.0578068472
  0
LINE
  5
4C1
100
AcDbEntity
  8
KONSTRUKTIONSELEMENTE
100
AcDbLine
 62
7
  6
CONTINUOUS
 10
653.7299126469
 20
290.9740323088
 11
653.7299126469
 21
290.1612017927
  0
LINE
  5
4C2
100
AcDbEntity
  8
KONSTRUKTIONSELEMENTE
100
AcDbLine
 62
7
  6
CONTINUOUS
 10
653.7299126469
 20
289.0774288047
 11
653.7299126469
 21
288.2645982885
  0
LINE
  5
4C3
100
AcDbEntity
  8
KONSTRUKTIONSELEMENTE
100
AcDbLine
 62
7
  6
CONTINUOUS
 10
653.7299126469
 20
284.4713889547
 11
653.7299126469
 21
283.6585584385
  0
LINE
  5
4C4
100
AcDbEntity
  8
KONSTRUKTIONSELEMENTE
100
AcDbLine
 62
7
  6
CONTINUOUS
 10
653.7299126469
 20
277.1559139216
 11
653.7299126469
 21
276.6140270401
  0
LINE
  5
4C5
100
AcDbEntity
  8
KONSTRUKTIONSELEMENTE
100
AcDbLine
 62
7
  6
CONTINUOUS
 10
653.7299126469
 20
273.3627049754
 11
653.7299126469
 21
272.5498744592
  0
LINE
  5
4C6
100
AcDbEntity
  8
KONSTRUKTIONSELEMENTE
100
AcDbLine
 62
7
  6
CONTINUOUS
 10
654.5809763752
 20
276.4785554166
 11
654.5809763752
 21
277.2913859327
  0
LINE
  5
4C7
100
AcDbEntity
  8
KONSTRUKTIONSELEMENTE
100
AcDbLine
 62
7
  6
CONTINUOUS
 10
654.5809763752
 20
292.8706373633
 11
654.5809763752
 21
295.4446001477
  0
LINE
  5
4C8
100
AcDbEntity
  8
KONSTRUKTIONSELEMENTE
100
AcDbLine
 62
7
  6
CONTINUOUS
 10
655.6022528492
 20
278.3751600835
 11
655.6022528492
 21
279.0525185886
  0
LINE
  5
4C9
100
AcDbEntity
  8
KONSTRUKTIONSELEMENTE
100
AcDbLine
 62
7
  6
CONTINUOUS
 10
656.6235298001
 20
277.2913859327
 11
656.6235298001
 21
276.6140270401
  0
LINE
  5
4CA
100
AcDbEntity
  8
KONSTRUKTIONSELEMENTE
100
AcDbLine
 62
7
  6
CONTINUOUS
 10
653.9001253926
 20
295.9864881921
 11
653.7299126469
 21
295.3091289118
  0
LINE
  5
4CB
100
AcDbEntity
  8
KONSTRUKTIONSELEMENTE
100
AcDbLine
 62
7
  6
CONTINUOUS
 10
654.5809763752
 20
295.4446001477
 11
654.7511891209
 21
295.8510154058
  0
LINE
  5
4CC
100
AcDbEntity
  8
KONSTRUKTIONSELEMENTE
100
AcDbLine
 62
7
  6
CONTINUOUS
 10
654.4107636296
 20
296.5283746861
 11
653.9001253926
 21
295.9864881921
  0
LINE
  5
4CD
100
AcDbEntity
  8
KONSTRUKTIONSELEMENTE
100
AcDbLine
 62
7
  6
CONTINUOUS
 10
654.7511891209
 20
295.8510154058
 11
655.0916146122
 21
296.121959428
  0
LINE
  5
4CE
100
AcDbEntity
  8
KONSTRUKTIONSELEMENTE
100
AcDbLine
 62
7
  6
CONTINUOUS
 10
655.0916146122
 20
278.9170465775
 11
654.4107636296
 21
278.5106313194
  0
LINE
  5
4CF
100
AcDbEntity
  8
KONSTRUKTIONSELEMENTE
100
AcDbLine
 62
7
  6
CONTINUOUS
 10
655.0916146122
 20
278.1042164489
 11
655.6022528492
 21
278.3751600835
  0
LINE
  5
4D0
100
AcDbEntity
  8
KONSTRUKTIONSELEMENTE
100
AcDbLine
 62
7
  6
CONTINUOUS
 10
658.6660827481
 20
279.3234618356
 11
657.8150190197
 21
279.0525185886
  0
LINE
  5
4D1
100
AcDbEntity
  8
KONSTRUKTIONSELEMENTE
100
AcDbLine
 62
7
  6
CONTINUOUS
 10
659.5171467148
 20
274.5819507497
 11
660.3682105624
 21
274.8528941904
  0
LINE
  5
4D2
100
AcDbEntity
  8
KONSTRUKTIONSELEMENTE
100
AcDbLine
 62
7
  6
CONTINUOUS
 10
656.6235298001
 20
296.121959428
 11
656.9639552914
 21
295.8510154058
  0
LINE
  5
4D3
100
AcDbEntity
  8
KONSTRUKTIONSELEMENTE
100
AcDbLine
 62
7
  6
CONTINUOUS
 10
657.9852317654
 20
295.9864881921
 11
657.4745935284
 21
296.5283746861
  0
LINE
  5
4D4
100
AcDbEntity
  8
KONSTRUKTIONSELEMENTE
100
AcDbLine
 62
7
  6
CONTINUOUS
 10
661.5596998863
 20
277.9687444378
 11
661.0490616046
 21
278.6461033305
  0
LINE
  5
4D5
100
AcDbEntity
  8
KONSTRUKTIONSELEMENTE
100
AcDbLine
 62
7
  6
CONTINUOUS
 10
654.7511891209
 20
276.0721401585
 11
654.5809763752
 21
276.4785554166
  0
LINE
  5
4D6
100
AcDbEntity
  8
KONSTRUKTIONSELEMENTE
100
AcDbLine
 62
7
  6
CONTINUOUS
 10
657.6448062741
 20
276.0721401585
 11
657.4745935284
 21
276.4785554166
  0
LINE
  5
4D7
100
AcDbEntity
  8
KONSTRUKTIONSELEMENTE
100
AcDbLine
 62
7
  6
CONTINUOUS
 10
660.7086360537
 20
277.8332728143
 11
660.8788487994
 21
277.4268575562
  0
LINE
  5
4D8
100
AcDbEntity
  8
KONSTRUKTIONSELEMENTE
100
AcDbLine
 62
7
  6
CONTINUOUS
 10
656.9639552914
 20
295.8510154058
 11
657.1341680371
 21
295.4446001477
  0
LINE
  5
4D9
100
AcDbEntity
  8
KONSTRUKTIONSELEMENTE
100
AcDbLine
 62
7
  6
CONTINUOUS
 10
653.7299126469
 20
276.6140270401
 11
653.9001253926
 21
275.9366681474
  0
LINE
  5
4DA
100
AcDbEntity
  8
KONSTRUKTIONSELEMENTE
100
AcDbLine
 62
7
  6
CONTINUOUS
 10
656.6235298001
 20
276.6140270401
 11
656.7937425457
 21
275.9366681474
  0
LINE
  5
4DB
100
AcDbEntity
  8
KONSTRUKTIONSELEMENTE
100
AcDbLine
 62
7
  6
CONTINUOUS
 10
661.7299126469
 20
277.2913859327
 11
661.5596998863
 21
277.9687444378
  0
LINE
  5
4DC
100
AcDbEntity
  8
KONSTRUKTIONSELEMENTE
100
AcDbLine
 62
7
  6
CONTINUOUS
 10
657.1341680371
 20
295.4446001477
 11
657.1341680371
 21
292.8706373633
  0
LINE
  5
4DD
100
AcDbEntity
  8
KONSTRUKTIONSELEMENTE
100
AcDbLine
 62
7
  6
CONTINUOUS
 10
657.329283886
 20
181.7211341072
 11
657.329283886
 21
185.2566680131
  0
LINE
  5
4DE
100
AcDbEntity
  8
KONSTRUKTIONSELEMENTE
100
AcDbLine
 62
7
  6
CONTINUOUS
 10
657.4745935284
 20
276.4785554166
 11
657.4745935284
 21
277.4268575562
  0
LINE
  5
4DF
100
AcDbEntity
  8
KONSTRUKTIONSELEMENTE
100
AcDbLine
 62
7
  6
CONTINUOUS
 10
658.1554445111
 20
292.8706373633
 11
658.1554445111
 21
295.3091289118
  0
LINE
  5
4E0
100
AcDbEntity
  8
KONSTRUKTIONSELEMENTE
100
AcDbLine
 62
7
  6
CONTINUOUS
 10
660.8788487994
 20
277.4268575562
 11
660.8788487994
 21
276.4785554166
  0
LINE
  5
4E1
100
AcDbEntity
  8
KONSTRUKTIONSELEMENTE
100
AcDbLine
 62
7
  6
CONTINUOUS
 10
661.7299126469
 20
272.5498744592
 11
661.7299126469
 21
273.3627049754
  0
LINE
  5
4E2
100
AcDbEntity
  8
KONSTRUKTIONSELEMENTE
100
AcDbLine
 62
7
  6
CONTINUOUS
 10
661.7299126469
 20
276.6140270401
 11
661.7299126469
 21
277.2913859327
  0
LINE
  5
4E3
100
AcDbEntity
  8
KONSTRUKTIONSELEMENTE
100
AcDbLine
 62
7
  6
CONTINUOUS
 10
661.7299126469
 20
285.82610674
 11
661.7299126469
 21
286.909879728
  0
LINE
  5
4E4
100
AcDbEntity
  8
KONSTRUKTIONSELEMENTE
100
AcDbLine
 62
7
  6
CONTINUOUS
 10
661.7299126469
 20
290.1612017927
 11
661.7299126469
 21
290.9740323088
  0
LINE
  5
4E5
100
AcDbEntity
  8
KONSTRUKTIONSELEMENTE
100
AcDbLine
 62
7
  6
CONTINUOUS
 10
661.7299126469
 20
292.0578068472
 11
661.7299126469
 21
292.8706373633
  0
LINE
  5
4E6
100
AcDbEntity
  8
RUNDUNGEN
100
AcDbLine
 62
7
  6
CONTINUOUS
 10
662.5591966469
 20
134.8760747651
 11
662.5591966469
 21
139.5216276311
  0
LINE
  5
4E7
100
AcDbEntity
  8
BEZUGSACHSEN
100
AcDbLine
 62
7
  6
CONTINUOUS
 10
663.0440742469
 20
134.384914702
 11
663.0440742469
 21
129.7807387772
  0
LINE
  5
4E8
100
AcDbEntity
  8
BEZUGSACHSEN
100
AcDbLine
 62
7
  6
CONTINUOUS
 10
663.0440742469
 20
125.2933491089
 11
663.0440742469
 21
118.1470092513
  0
LINE
  5
4E9
100
AcDbEntity
  8
RUNDUNGEN
100
AcDbLine
 62
7
  6
CONTINUOUS
 10
663.3591966469
 20
117.1091692551
 11
663.3591966469
 21
139.5216276311
  0
LINE
  5
4EA
100
AcDbEntity
  8
BEZUGSACHSEN
100
AcDbLine
 62
7
  6
CONTINUOUS
 10
665.9299126469
 20
146.5002386373
 11
665.9299126469
 21
146.5455659431
  0
LINE
  5
4EB
100
AcDbEntity
  8
KONSTRUKTIONSELEMENTE
100
AcDbLine
 62
7
  6
CONTINUOUS
 10
666.1299126469
 20
215.0658722739
 11
666.1299126469
 21
212.0091536936
  0
LINE
  5
4EC
100
AcDbEntity
  8
KONSTRUKTIONSELEMENTE
100
AcDbLine
 62
7
  6
CONTINUOUS
 10
666.1299126469
 20
227.8320296448
 11
666.1299126469
 21
251.8060348663
  0
LINE
  5
4ED
100
AcDbEntity
  8
KONSTRUKTIONSELEMENTE
100
AcDbLine
 62
7
  6
CONTINUOUS
 10
667.7299126469
 20
266.1370439431
 11
667.7299126469
 21
297.3370439431
  0
LINE
  5
4EE
100
AcDbEntity
  8
KONSTRUKTIONSELEMENTE
100
AcDbLine
 62
7
  6
CONTINUOUS
 10
653.9001253926
 20
277.8332728143
 11
653.7299126469
 21
277.1559139216
  0
LINE
  5
4EF
100
AcDbEntity
  8
KONSTRUKTIONSELEMENTE
100
AcDbLine
 62
7
  6
CONTINUOUS
 10
656.7937425457
 20
277.9687444378
 11
656.6235298001
 21
277.2913859327
  0
LINE
  5
4F0
100
AcDbEntity
  8
KONSTRUKTIONSELEMENTE
100
AcDbLine
 62
7
  6
CONTINUOUS
 10
661.5596998863
 20
275.9366681474
 11
661.7299126469
 21
276.6140270401
  0
LINE
  5
4F1
100
AcDbEntity
  8
KONSTRUKTIONSELEMENTE
100
AcDbLine
 62
7
  6
CONTINUOUS
 10
654.5809763752
 20
277.2913859327
 11
654.7511891209
 21
277.6978011908
  0
LINE
  5
4F2
100
AcDbEntity
  8
KONSTRUKTIONSELEMENTE
100
AcDbLine
 62
7
  6
CONTINUOUS
 10
657.4745935284
 20
277.4268575562
 11
657.6448062741
 21
277.8332728143
  0
LINE
  5
4F3
100
AcDbEntity
  8
KONSTRUKTIONSELEMENTE
100
AcDbLine
 62
7
  6
CONTINUOUS
 10
660.8788487994
 20
276.4785554166
 11
660.7086360537
 21
276.0721401585
  0
LINE
  5
4F4
100
AcDbEntity
  8
KONSTRUKTIONSELEMENTE
100
AcDbLine
 62
7
  6
CONTINUOUS
 10
654.4107636296
 20
278.5106313194
 11
653.9001253926
 21
277.8332728143
  0
LINE
  5
4F5
100
AcDbEntity
  8
KONSTRUKTIONSELEMENTE
100
AcDbLine
 62
7
  6
CONTINUOUS
 10
657.3043807827
 20
278.6461033305
 11
656.7937425457
 21
277.9687444378
  0
LINE
  5
4F6
100
AcDbEntity
  8
KONSTRUKTIONSELEMENTE
100
AcDbLine
 62
7
  6
CONTINUOUS
 10
661.0490616046
 20
275.2593096423
 11
661.5596998863
 21
275.9366681474
  0
LINE
  5
4F7
100
AcDbEntity
  8
KONSTRUKTIONSELEMENTE
100
AcDbLine
 62
7
  6
CONTINUOUS
 10
655.7724660717
 20
282.5747839002
 11
655.4320401036
 21
282.1683686421
  0
LINE
  5
4F8
100
AcDbEntity
  8
KONSTRUKTIONSELEMENTE
100
AcDbLine
 62
7
  6
CONTINUOUS
 10
654.7511891209
 20
277.6978011908
 11
655.0916146122
 21
278.1042164489
  0
LINE
  5
4F9
100
AcDbEntity
  8
KONSTRUKTIONSELEMENTE
100
AcDbLine
 62
7
  6
CONTINUOUS
 10
659.6873594605
 20
280.4072363739
 11
660.0277849518
 21
280.813651632
  0
LINE
  5
4FA
100
AcDbEntity
  8
KONSTRUKTIONSELEMENTE
100
AcDbLine
 62
7
  6
CONTINUOUS
 10
657.6448062741
 20
277.8332728143
 11
657.9852317654
 21
278.2396880724
  0
LINE
  5
4FB
100
AcDbEntity
  8
KONSTRUKTIONSELEMENTE
100
AcDbLine
 62
7
  6
CONTINUOUS
 10
660.7086360537
 20
276.0721401585
 11
660.3682105624
 21
275.6657249004
  0
LINE
  5
4FC
100
AcDbEntity
  8
KONSTRUKTIONSELEMENTE
100
AcDbLine
 62
7
  6
CONTINUOUS
 10
657.8150190197
 20
279.0525185886
 11
657.3043807827
 21
278.6461033305
  0
LINE
  5
4FD
100
AcDbEntity
  8
KONSTRUKTIONSELEMENTE
100
AcDbLine
 62
7
  6
CONTINUOUS
 10
657.9852317654
 20
278.2396880724
 11
658.3256572567
 21
278.5106313194
  0
LINE
  5
4FE
100
AcDbEntity
  8
KONSTRUKTIONSELEMENTE
100
AcDbLine
 62
7
  6
CONTINUOUS
 10
660.3682105624
 20
274.8528941904
 11
661.0490616046
 21
275.2593096423
  0
LINE
  5
4FF
100
AcDbEntity
  8
KONSTRUKTIONSELEMENTE
100
AcDbLine
 62
7
  6
CONTINUOUS
 10
660.3682105624
 20
275.6657249004
 11
659.8575722061
 21
275.3947812658
  0
LINE
  5
500
100
AcDbEntity
  8
KONSTRUKTIONSELEMENTE
100
AcDbLine
 62
7
  6
CONTINUOUS
 10
658.1554445111
 20
295.3091289118
 11
657.9852317654
 21
295.9864881921
  0
LINE
  5
501
100
AcDbEntity
  8
0
100
AcDbLine
 62
7
  6
CONTINUOUS
 10
674.9299126469
 20
119.6787476479
 11
674.9299126469
 21
123.0163610071
  0
LINE
  5
502
100
AcDbEntity
  8
0
100
AcDbLine
 62
7
  6
CONTINUOUS
 10
674.9299126469
 20
132.0577268791
 11
674.9299126469
 21
133.0661995796
  0
LINE
  5
503
100
AcDbEntity
  8
KONSTRUKTIONSELEMENTE
100
AcDbLine
 62
7
  6
CONTINUOUS
 10
680.3609758475
 20
217.3517136215
 11
680.3609758475
 21
220.8872475274
  0
LINE
  5
504
100
AcDbEntity
  8
KONSTRUKTIONSELEMENTE
100
AcDbLine
 62
7
  6
CONTINUOUS
 10
682.1299126469
 20
203.7370439431
 11
682.1299126469
 21
253.3370439431
  0
LINE
  5
505
100
AcDbEntity
  8
BEZUGSACHSEN
100
AcDbLine
 62
7
  6
CONTINUOUS
 10
604.6702329212
 20
167.3894368268
 11
587.2643590899
 21
139.3712602815
  0
LINE
  5
506
100
AcDbEntity
  8
BEZUGSACHSEN
100
AcDbLine
 62
7
  6
CONTINUOUS
 10
605.4702329212
 20
167.3894368268
 11
588.0643590899
 21
139.3712602815
  0
LINE
  5
507
100
AcDbEntity
  8
KONSTRUKTIONSELEMENTE
100
AcDbLine
 62
7
  6
CONTINUOUS
 10
623.368020459
 20
237.4726906776
 11
593.6614515821
 21
227.6775643025
  0
LINE
  5
508
100
AcDbEntity
  8
KONSTRUKTIONSELEMENTE
100
AcDbLine
 62
7
  6
CONTINUOUS
 10
597.9792410948
 20
223.6398239862
 11
592.0882404791
 21
221.6973884344
  0
LINE
  5
509
100
AcDbEntity
  8
KONSTRUKTIONSELEMENTE
100
AcDbLine
 62
7
  6
CONTINUOUS
 10
648.7311447746
 20
192.2179948598
 11
666.2698026369
 21
218.8135347152
  0
LINE
  5
50A
100
AcDbEntity
  8
KONSTRUKTIONSELEMENTE
100
AcDbLine
 62
7
  6
CONTINUOUS
 10
594.2929386831
 20
219.449716466
 11
598.8244776183
 21
220.9438976597
  0
LINE
  5
50B
100
AcDbEntity
  8
KONSTRUKTIONSELEMENTE
100
AcDbLine
 62
7
  6
CONTINUOUS
 10
598.8244776183
 20
220.2367908785
 11
594.2929386831
 21
218.7426096848
  0
LINE
  5
50C
100
AcDbEntity
  8
KONSTRUKTIONSELEMENTE
100
AcDbLine
 62
7
  6
CONTINUOUS
 10
598.2866812566
 20
214.4542838274
 11
602.8182201918
 21
215.948465021
  0
LINE
  5
50D
100
AcDbEntity
  8
KONSTRUKTIONSELEMENTE
100
AcDbLine
 62
7
  6
CONTINUOUS
 10
597.7724560995
 20
213.0778700958
 11
603.6634567152
 21
215.0203056475
  0
LINE
  5
50E
100
AcDbEntity
  8
KONSTRUKTIONSELEMENTE
100
AcDbLine
 62
7
  6
CONTINUOUS
 10
648.9234186031
 20
188.9740241001
 11
666.2698026369
 21
215.2780008092
  0
LINE
  5
50F
100
AcDbEntity
  8
KONSTRUKTIONSELEMENTE
100
AcDbLine
 62
7
  6
CONTINUOUS
 10
657.0221917808
 20
184.7126140622
 11
657.2824377795
 21
185.1072498938
  0
LINE
  5
510
100
AcDbEntity
  8
KONSTRUKTIONSELEMENTE
100
AcDbLine
 62
7
  6
CONTINUOUS
 10
679.4698965209
 20
218.7522099517
 11
679.8925147826
 21
219.3930663338
  0
LINE
  5
511
100
AcDbEntity
  8
KONSTRUKTIONSELEMENTE
100
AcDbLine
 62
7
  6
CONTINUOUS
 10
657.0221917808
 20
181.1770801563
 11
657.2824377795
 21
181.5717159878
  0
LINE
  5
512
100
AcDbEntity
  8
KONSTRUKTIONSELEMENTE
100
AcDbLine
 62
7
  6
CONTINUOUS
 10
679.4698965209
 20
215.2166760458
 11
679.8925147826
 21
215.8575324278
  0
LINE
  5
513
100
AcDbEntity
  8
BEZUGSACHSEN
100
AcDbLine
 62
7
  6
CONTINUOUS
 10
656.3895923726
 20
87.6846510593
 11
673.7954662039
 21
115.7028276047
  0
ARC
  5
514
100
AcDbEntity
  8
BEZUGSACHSEN
100
AcDbCircle
 62
7
  6
CONTINUOUS
 10
214.2052768818
 20
94.3192933672
 40
7.53447156
100
AcDbArc
 50
359.9999845132
 51
8.0000189394
  0
ARC
  5
515
100
AcDbEntity
  8
BEZUGSACHSEN
100
AcDbCircle
 62
7
  6
CONTINUOUS
 10
216.6352904283
 20
109.511295986
 40
3.013788624
100
AcDbArc
 50
7.9999773045
 51
45.0001724276
  0
ARC
  5
516
100
AcDbEntity
  8
BEZUGSACHSEN
100
AcDbCircle
 62
7
  6
CONTINUOUS
 10
215.456508798
 20
139.1400809431
 40
6.4047396438
100
AcDbArc
 50
4.219192616
 51
10.0736309795
  0
ARC
  5
517
100
AcDbEntity
  8
BEZUGSACHSEN
100
AcDbCircle
 62
7
  6
CONTINUOUS
 10
216.6352904283
 20
145.5627919001
 40
3.013788624
100
AcDbArc
 50
315.0000290573
 51
351.9999400466
  0
ARC
  5
518
100
AcDbEntity
  8
BEZUGSACHSEN
100
AcDbCircle
 62
7
  6
CONTINUOUS
 10
219.8750370658
 20
140.2782570452
 40
3.013788624
100
AcDbArc
 50
135.0
 51
180.0
  0
ARC
  5
519
100
AcDbEntity
  8
BEZUGSACHSEN
100
AcDbCircle
 62
7
  6
CONTINUOUS
 10
219.8750370658
 20
114.7958308409
 40
3.013788624
100
AcDbArc
 50
179.9993135547
 51
225.0002909742
  0
ARC
  5
51A
100
AcDbEntity
  8
RUNDUNGEN
100
AcDbCircle
 62
7
  6
CONTINUOUS
 10
218.3681427538
 20
134.8521782939
 40
1.506894312
100
AcDbArc
 50
142.3831110937
 51
180.0
  0
ARC
  5
51B
100
AcDbEntity
  8
BEZUGSACHSEN
100
AcDbCircle
 62
7
  6
CONTINUOUS
 10
224.0000899098
 20
76.2071381185
 40
2.260341468
100
AcDbArc
 50
180.0
 51
264.0
  0
ARC
  5
51C
100
AcDbEntity
  8
RUNDUNGEN
100
AcDbCircle
 62
7
  6
CONTINUOUS
 10
227.8612484418
 20
127.5370439431
 40
13.491478
100
AcDbArc
 50
37.6168889063
 51
142.3831110937
  0
CIRCLE
  5
51D
100
AcDbEntity
  8
0
100
AcDbCircle
 62
7
  6
CONTINUOUS
 10
227.8612484418
 20
127.5370439431
 40
4.520682936
  0
ARC
  5
51E
100
AcDbEntity
  8
KONSTRUKTIONSELEMENTE
100
AcDbCircle
 62
7
  6
CONTINUOUS
 10
194.64789182
 20
240.1236873213
 40
8.25
100
AcDbArc
 50
315.0
 51
29.1578555427
  0
ARC
  5
51F
100
AcDbEntity
  8
KONSTRUKTIONSELEMENTE
100
AcDbCircle
 62
7
  6
CONTINUOUS
 10
194.64789182
 20
240.1236873213
 40
8.25
100
AcDbArc
 50
60.8421444573
 51
135.0
  0
ARC
  5
520
100
AcDbEntity
  8
KONSTRUKTIONSELEMENTE
100
AcDbCircle
 62
7
  6
CONTINUOUS
 10
188.6374841799
 20
234.1132796812
 40
8.25
100
AcDbArc
 50
135.0
 51
207.3328695803
  0
ARC
  5
521
100
AcDbEntity
  8
KONSTRUKTIONSELEMENTE
100
AcDbCircle
 62
7
  6
CONTINUOUS
 10
188.6374841799
 20
234.1132796812
 40
8.25
100
AcDbArc
 50
242.6671304197
 51
315.0
  0
ARC
  5
522
100
AcDbEntity
  8
KONSTRUKTIONSELEMENTE
100
AcDbCircle
 62
7
  6
CONTINUOUS
 10
194.64789182
 20
240.1236873213
 40
3.25
100
AcDbArc
 50
315.0
 51
1.1162428201
  0
ARC
  5
523
100
AcDbEntity
  8
KONSTRUKTIONSELEMENTE
100
AcDbCircle
 62
7
  6
CONTINUOUS
 10
194.64789182
 20
240.1236873213
 40
3.25
100
AcDbArc
 50
88.8837571799
 51
135.0
  0
ARC
  5
524
100
AcDbEntity
  8
KONSTRUKTIONSELEMENTE
100
AcDbCircle
 62
7
  6
CONTINUOUS
 10
188.6374841799
 20
234.1132796812
 40
3.25
100
AcDbArc
 50
135.0
 51
174.5945904425
  0
ARC
  5
525
100
AcDbEntity
  8
KONSTRUKTIONSELEMENTE
100
AcDbCircle
 62
7
  6
CONTINUOUS
 10
188.6374841799
 20
234.1132796812
 40
3.25
100
AcDbArc
 50
275.4054095575
 51
315.0
  0
ARC
  5
526
100
AcDbEntity
  8
KONSTRUKTIONSELEMENTE
100
AcDbCircle
 62
7
  6
CONTINUOUS
 10
195.3549986012
 20
240.8307941025
 40
2.25
100
AcDbArc
 50
135.0
 51
315.0
  0
ARC
  5
527
100
AcDbEntity
  8
BEZUGSACHSEN
100
AcDbCircle
 62
7
  6
CONTINUOUS
 10
227.8612484418
 20
176.0370439431
 40
28.0
100
AcDbArc
 50
118.0
 51
257.3693300954
  0
ARC
  5
528
100
AcDbEntity
  8
RUNDUNGEN
100
AcDbCircle
 62
7
  6
CONTINUOUS
 10
227.8612484418
 20
176.0370439431
 40
11.5
100
AcDbArc
 50
302.1758808665
 51
237.8241191245
  0
ARC
  5
529
100
AcDbEntity
  8
BEZUGSACHSEN
100
AcDbCircle
 62
7
  6
CONTINUOUS
 10
224.0000899098
 20
178.8669497676
 40
2.260341468
100
AcDbArc
 50
96.0
 51
180.0
  0
ARC
  5
52A
100
AcDbEntity
  8
KONSTRUKTIONSELEMENTE
100
AcDbCircle
 62
7
  6
CONTINUOUS
 10
214.0933283026
 20
259.569123804
 40
2.25
100
AcDbArc
 50
315.0
 51
135.0
  0
ARC
  5
52B
100
AcDbEntity
  8
RUNDUNGEN
100
AcDbCircle
 62
7
  6
CONTINUOUS
 10
241.5172200018
 20
94.3192933672
 40
7.53447156
100
AcDbArc
 50
171.9999810606
 51
180.0000154868
  0
ARC
  5
52C
100
AcDbEntity
  8
BEZUGSACHSEN
100
AcDbCircle
 62
7
  6
CONTINUOUS
 10
240.2659880855
 20
139.1400809431
 40
6.4047396438
100
AcDbArc
 50
169.9260705562
 51
175.7869758778
  0
ARC
  5
52D
100
AcDbEntity
  8
RUNDUNGEN
100
AcDbCircle
 62
7
  6
CONTINUOUS
 10
239.0872064552
 20
109.511295986
 40
3.013788624
100
AcDbArc
 50
134.9998275724
 51
172.0000226955
  0
ARC
  5
52E
100
AcDbEntity
  8
RUNDUNGEN
100
AcDbCircle
 62
7
  6
CONTINUOUS
 10
235.8474598178
 20
114.7958308409
 40
3.013788624
100
AcDbArc
 50
314.9997090258
 51
0.0006864453
  0
ARC
  5
52F
100
AcDbEntity
  8
BEZUGSACHSEN
100
AcDbCircle
 62
7
  6
CONTINUOUS
 10
239.0872064552
 20
145.5627919001
 40
3.013788624
100
AcDbArc
 50
188.0000599534
 51
224.9999709427
  0
ARC
  5
530
100
AcDbEntity
  8
BEZUGSACHSEN
100
AcDbCircle
 62
7
  6
CONTINUOUS
 10
235.8474598178
 20
140.2782570452
 40
3.013788624
100
AcDbArc
 50
0.0
 51
45.0
  0
ARC
  5
531
100
AcDbEntity
  8
RUNDUNGEN
100
AcDbCircle
 62
7
  6
CONTINUOUS
 10
231.7224069738
 20
76.2071381185
 40
2.260341468
100
AcDbArc
 50
276.0
 51
360.0
  0
ARC
  5
532
100
AcDbEntity
  8
RUNDUNGEN
100
AcDbCircle
 62
7
  6
CONTINUOUS
 10
237.3543528508
 20
134.8521801852
 40
1.5068943298
100
AcDbArc
 50
359.9999280903
 51
37.6168022636
  0
ARC
  5
533
100
AcDbEntity
  8
RUNDUNGEN
100
AcDbCircle
 62
7
  6
CONTINUOUS
 10
260.7054663375
 20
182.8656917504
 40
5.0
100
AcDbArc
 50
208.0
 51
333.5
  0
ARC
  5
534
100
AcDbEntity
  8
RUNDUNGEN
100
AcDbCircle
 62
7
  6
CONTINUOUS
 10
252.5413144721
 20
198.2202282309
 40
5.0
100
AcDbArc
 50
118.0
 51
208.0
  0
ARC
  5
535
100
AcDbEntity
  8
RUNDUNGEN
100
AcDbCircle
 62
7
  6
CONTINUOUS
 10
274.0675807034
 20
209.6659470146
 40
5.0
100
AcDbArc
 50
333.5
 51
118.0
  0
ARC
  5
536
100
AcDbEntity
  8
BEZUGSACHSEN
100
AcDbCircle
 62
7
  6
CONTINUOUS
 10
231.7224069738
 20
178.8669497676
 40
2.260341468
100
AcDbArc
 50
0.0
 51
84.0
  0
ARC
  5
537
100
AcDbEntity
  8
KONSTRUKTIONSELEMENTE
100
AcDbCircle
 62
7
  6
CONTINUOUS
 10
214.9772117791
 20
260.4530072804
 40
8.0
100
AcDbArc
 50
135.0
 51
208.6357041722
  0
ARC
  5
538
100
AcDbEntity
  8
KONSTRUKTIONSELEMENTE
100
AcDbCircle
 62
7
  6
CONTINUOUS
 10
214.9772117791
 20
260.4530072804
 40
8.0
100
AcDbArc
 50
241.3642958278
 51
315.0
  0
ARC
  5
539
100
AcDbEntity
  8
KONSTRUKTIONSELEMENTE
100
AcDbCircle
 62
7
  6
CONTINUOUS
 10
225.5838134969
 20
271.0596089982
 40
8.0
100
AcDbArc
 50
315.0
 51
28.6357041722
  0
ARC
  5
53A
100
AcDbEntity
  8
KONSTRUKTIONSELEMENTE
100
AcDbCircle
 62
7
  6
CONTINUOUS
 10
225.5838134969
 20
271.0596089982
 40
8.0
100
AcDbArc
 50
61.3642958278
 51
135.0
  0
ARC
  5
53B
100
AcDbEntity
  8
KONSTRUKTIONSELEMENTE
100
AcDbCircle
 62
7
  6
CONTINUOUS
 10
214.9772117791
 20
260.4530072804
 40
3.5
100
AcDbArc
 50
135.0
 51
184.8461224921
  0
ARC
  5
53C
100
AcDbEntity
  8
KONSTRUKTIONSELEMENTE
100
AcDbCircle
 62
7
  6
CONTINUOUS
 10
214.9772117791
 20
260.4530072804
 40
3.5
100
AcDbArc
 50
265.1538775079
 51
315.0
  0
ARC
  5
53D
100
AcDbEntity
  8
KONSTRUKTIONSELEMENTE
100
AcDbCircle
 62
7
  6
CONTINUOUS
 10
225.5838134969
 20
271.0596089982
 40
3.5
100
AcDbArc
 50
315.0
 51
4.8461224921
  0
ARC
  5
53E
100
AcDbEntity
  8
KONSTRUKTIONSELEMENTE
100
AcDbCircle
 62
7
  6
CONTINUOUS
 10
225.5838134969
 20
271.0596089982
 40
3.5
100
AcDbArc
 50
85.1538775079
 51
135.0
  0
ARC
  5
53F
100
AcDbEntity
  8
KONSTRUKTIONSELEMENTE
100
AcDbCircle
 62
7
  6
CONTINUOUS
 10
226.4676969734
 20
271.9434924747
 40
2.25
100
AcDbArc
 50
135.0
 51
315.0
  0
ARC
  5
540
100
AcDbEntity
  8
KONSTRUKTIONSELEMENTE
100
AcDbCircle
 62
7
  6
CONTINUOUS
 10
245.913133456
 20
291.3889289573
 40
8.25
100
AcDbArc
 50
135.0
 51
209.1578555427
  0
ARC
  5
541
100
AcDbEntity
  8
KONSTRUKTIONSELEMENTE
100
AcDbCircle
 62
7
  6
CONTINUOUS
 10
245.913133456
 20
291.3889289573
 40
8.25
100
AcDbArc
 50
240.8421444573
 51
315.0
  0
ARC
  5
542
100
AcDbEntity
  8
KONSTRUKTIONSELEMENTE
100
AcDbCircle
 62
7
  6
CONTINUOUS
 10
245.913133456
 20
291.3889289573
 40
3.25
100
AcDbArc
 50
135.0
 51
181.1162428201
  0
ARC
  5
543
100
AcDbEntity
  8
KONSTRUKTIONSELEMENTE
100
AcDbCircle
 62
7
  6
CONTINUOUS
 10
245.913133456
 20
291.3889289573
 40
3.25
100
AcDbArc
 50
268.8837571799
 51
315.0
  0
ARC
  5
544
100
AcDbEntity
  8
KONSTRUKTIONSELEMENTE
100
AcDbCircle
 62
7
  6
CONTINUOUS
 10
245.2060266749
 20
290.6818221762
 40
2.25
100
AcDbArc
 50
315.0
 51
135.0
  0
ARC
  5
545
100
AcDbEntity
  8
KONSTRUKTIONSELEMENTE
100
AcDbCircle
 62
7
  6
CONTINUOUS
 10
251.9235410961
 20
297.3993365974
 40
8.25
100
AcDbArc
 50
315.0
 51
19.8777931302
  0
ARC
  5
546
100
AcDbEntity
  8
KONSTRUKTIONSELEMENTE
100
AcDbCircle
 62
7
  6
CONTINUOUS
 10
251.9235410961
 20
297.3993365974
 40
8.25
100
AcDbArc
 50
70.1222068698
 51
135.0
  0
ARC
  5
547
100
AcDbEntity
  8
KONSTRUKTIONSELEMENTE
100
AcDbCircle
 62
7
  6
CONTINUOUS
 10
251.7467644008
 20
297.2225599021
 40
3.5
100
AcDbArc
 50
156.6630838942
 51
293.3369161058
  0
ARC
  5
548
100
AcDbEntity
  8
KONSTRUKTIONSELEMENTE
100
AcDbCircle
 62
7
  6
CONTINUOUS
 10
294.6612484418
 20
266.1370439431
 40
12.8
100
AcDbArc
 50
302.9323143325
 51
360.0
  0
ARC
  5
549
100
AcDbEntity
  8
KONSTRUKTIONSELEMENTE
100
AcDbCircle
 62
7
  6
CONTINUOUS
 10
284.9807831166
 20
330.4565786179
 40
3.5
100
AcDbArc
 50
315.0
 51
135.0
  0
ARC
  5
54A
100
AcDbEntity
  8
BEZUGSACHSEN
100
AcDbCircle
 62
7
  6
CONTINUOUS
 10
317.8612484418
 20
227.5370439431
 40
52.5
100
AcDbArc
 50
280.0
 51
308.8383360769
  0
ARC
  5
54B
100
AcDbEntity
  8
0
100
AcDbCircle
 62
7
  6
CONTINUOUS
 10
317.8612484418
 20
227.5370439431
 40
52.5
100
AcDbArc
 50
231.1616639231
 51
260.0
  0
ARC
  5
54C
100
AcDbEntity
  8
BEZUGSACHSEN
100
AcDbCircle
 62
7
  6
CONTINUOUS
 10
317.8612484418
 20
227.5370439431
 40
44.0
100
AcDbArc
 50
260.0
 51
280.0
  0
ARC
  5
54D
100
AcDbEntity
  8
BEZUGSACHSEN
100
AcDbCircle
 62
7
  6
CONTINUOUS
 10
317.8612484418
 20
227.5370439431
 40
35.0
100
AcDbArc
 50
17.0739046171
 51
70.4431557627
  0
ARC
  5
54E
100
AcDbEntity
  8
BEZUGSACHSEN
100
AcDbCircle
 62
7
  6
CONTINUOUS
 10
317.8612484418
 20
227.5370439431
 40
35.0
100
AcDbArc
 50
109.5568442373
 51
162.9260953829
  0
ARC
  5
54F
100
AcDbEntity
  8
KONSTRUKTIONSELEMENTE
100
AcDbCircle
 62
7
  6
CONTINUOUS
 10
317.4612484418
 20
228.3370439431
 40
24.6
100
AcDbArc
 50
180.0
 51
270.0
  0
ARC
  5
550
100
AcDbEntity
  8
KONSTRUKTIONSELEMENTE
100
AcDbCircle
 62
7
  6
CONTINUOUS
 10
318.2612484418
 20
228.3370439431
 40
24.6
100
AcDbArc
 50
270.0
 51
360.0
  0
ARC
  5
551
100
AcDbEntity
  8
KONSTRUKTIONSELEMENTE
100
AcDbCircle
 62
7
  6
CONTINUOUS
 10
314.5856133369
 20
236.7475947952
 40
21.7243649284
100
AcDbArc
 50
178.7805421979
 51
179.9813537431
  0
ARC
  5
552
100
AcDbEntity
  8
KONSTRUKTIONSELEMENTE
100
AcDbCircle
 62
7
  6
CONTINUOUS
 10
312.0612484418
 20
234.1370439431
 40
19.2
100
AcDbArc
 50
90.0
 51
132.6161427095
  0
ARC
  5
553
100
AcDbEntity
  8
KONSTRUKTIONSELEMENTE
100
AcDbCircle
 62
7
  6
CONTINUOUS
 10
323.6612484418
 20
234.1370439431
 40
19.2
100
AcDbArc
 50
47.3838572905
 51
90.0
  0
ARC
  5
554
100
AcDbEntity
  8
KONSTRUKTIONSELEMENTE
100
AcDbCircle
 62
7
  6
CONTINUOUS
 10
323.6612484418
 20
239.2811830216
 40
19.1996996938
100
AcDbArc
 50
4.4825855381
 51
57.0606662116
  0
CIRCLE
  5
555
100
AcDbEntity
  8
BEZUGSACHSEN
100
AcDbCircle
 62
7
  6
CONTINUOUS
 10
317.8612484418
 20
228.3370439431
 40
13.6
  0
ARC
  5
556
100
AcDbEntity
  8
BEZUGSACHSEN
100
AcDbCircle
 62
7
  6
CONTINUOUS
 10
361.6549161802
 20
209.6659470146
 40
5.0
100
AcDbArc
 50
62.0
 51
206.5
  0
ARC
  5
557
100
AcDbEntity
  8
BEZUGSACHSEN
100
AcDbCircle
 62
7
  6
CONTINUOUS
 10
394.2052768818
 20
94.3192933672
 40
7.53447156
100
AcDbArc
 50
359.9999845132
 51
8.0000189394
  0
ARC
  5
558
100
AcDbEntity
  8
BEZUGSACHSEN
100
AcDbCircle
 62
7
  6
CONTINUOUS
 10
396.6352904283
 20
109.511295986
 40
3.013788624
100
AcDbArc
 50
7.9999773045
 51
45.0001724276
  0
ARC
  5
559
100
AcDbEntity
  8
BEZUGSACHSEN
100
AcDbCircle
 62
7
  6
CONTINUOUS
 10
404.0000899098
 20
76.2071381185
 40
2.260341468
100
AcDbArc
 50
180.0
 51
264.0
  0
ARC
  5
55A
100
AcDbEntity
  8
BEZUGSACHSEN
100
AcDbCircle
 62
7
  6
CONTINUOUS
 10
395.456508798
 20
139.1400809431
 40
6.4047396438
100
AcDbArc
 50
4.219192616
 51
10.0736309795
  0
ARC
  5
55B
100
AcDbEntity
  8
BEZUGSACHSEN
100
AcDbCircle
 62
7
  6
CONTINUOUS
 10
396.6352904283
 20
145.5627919001
 40
3.013788624
100
AcDbArc
 50
315.0000290573
 51
351.9999400466
  0
ARC
  5
55C
100
AcDbEntity
  8
BEZUGSACHSEN
100
AcDbCircle
 62
7
  6
CONTINUOUS
 10
399.8750370658
 20
140.2782570452
 40
3.013788624
100
AcDbArc
 50
135.0
 51
180.0
  0
ARC
  5
55D
100
AcDbEntity
  8
BEZUGSACHSEN
100
AcDbCircle
 62
7
  6
CONTINUOUS
 10
399.8750370658
 20
114.7958308409
 40
3.013788624
100
AcDbArc
 50
179.9993135547
 51
225.0002909742
  0
ARC
  5
55E
100
AcDbEntity
  8
RUNDUNGEN
100
AcDbCircle
 62
7
  6
CONTINUOUS
 10
398.3681427538
 20
134.8521782939
 40
1.506894312
100
AcDbArc
 50
142.3831110937
 51
180.0
  0
ARC
  5
55F
100
AcDbEntity
  8
RUNDUNGEN
100
AcDbCircle
 62
7
  6
CONTINUOUS
 10
421.5172200018
 20
94.3192933672
 40
7.53447156
100
AcDbArc
 50
171.9999810606
 51
180.0000154868
  0
ARC
  5
560
100
AcDbEntity
  8
RUNDUNGEN
100
AcDbCircle
 62
7
  6
CONTINUOUS
 10
419.0872064552
 20
109.511295986
 40
3.013788624
100
AcDbArc
 50
134.9998275724
 51
172.0000226955
  0
ARC
  5
561
100
AcDbEntity
  8
RUNDUNGEN
100
AcDbCircle
 62
7
  6
CONTINUOUS
 10
411.7224069738
 20
76.2071381185
 40
2.260341468
100
AcDbArc
 50
276.0
 51
360.0
  0
ARC
  5
562
100
AcDbEntity
  8
RUNDUNGEN
100
AcDbCircle
 62
7
  6
CONTINUOUS
 10
407.8612484418
 20
127.5370439431
 40
13.491478
100
AcDbArc
 50
37.6168889063
 51
142.3831110937
  0
CIRCLE
  5
563
100
AcDbEntity
  8
0
100
AcDbCircle
 62
7
  6
CONTINUOUS
 10
407.8612484418
 20
127.5370439431
 40
4.520682936
  0
ARC
  5
564
100
AcDbEntity
  8
RUNDUNGEN
100
AcDbCircle
 62
7
  6
CONTINUOUS
 10
415.8474598178
 20
114.7958308409
 40
3.013788624
100
AcDbArc
 50
314.9997090258
 51
0.0006864453
  0
ARC
  5
565
100
AcDbEntity
  8
BEZUGSACHSEN
100
AcDbCircle
 62
7
  6
CONTINUOUS
 10
420.2659880855
 20
139.1400809431
 40
6.4047396438
100
AcDbArc
 50
169.9260705562
 51
175.7869758778
  0
ARC
  5
566
100
AcDbEntity
  8
BEZUGSACHSEN
100
AcDbCircle
 62
7
  6
CONTINUOUS
 10
419.0872064552
 20
145.5627919001
 40
3.013788624
100
AcDbArc
 50
188.0000599534
 51
224.9999709427
  0
ARC
  5
567
100
AcDbEntity
  8
BEZUGSACHSEN
100
AcDbCircle
 62
7
  6
CONTINUOUS
 10
415.8474598178
 20
140.2782570452
 40
3.013788624
100
AcDbArc
 50
0.0
 51
45.0
  0
ARC
  5
568
100
AcDbEntity
  8
RUNDUNGEN
100
AcDbCircle
 62
7
  6
CONTINUOUS
 10
417.3543528508
 20
134.8521801852
 40
1.5068943298
100
AcDbArc
 50
359.9999280903
 51
37.6168022636
  0
ARC
  5
569
100
AcDbEntity
  8
BEZUGSACHSEN
100
AcDbCircle
 62
7
  6
CONTINUOUS
 10
407.8612484418
 20
176.0370439431
 40
28.0
100
AcDbArc
 50
282.6306699046
 51
62.0
  0
ARC
  5
56A
100
AcDbEntity
  8
BEZUGSACHSEN
100
AcDbCircle
 62
7
  6
CONTINUOUS
 10
407.8612484418
 20
176.0370439431
 40
11.5
100
AcDbArc
 50
302.1758808755
 51
237.8241191335
  0
ARC
  5
56B
100
AcDbEntity
  8
BEZUGSACHSEN
100
AcDbCircle
 62
7
  6
CONTINUOUS
 10
375.017030546
 20
182.8656917504
 40
5.0
100
AcDbArc
 50
206.5
 51
332.0
  0
ARC
  5
56C
100
AcDbEntity
  8
BEZUGSACHSEN
100
AcDbCircle
 62
7
  6
CONTINUOUS
 10
383.1811824115
 20
198.2202282309
 40
5.0
100
AcDbArc
 50
332.0
 51
62.0
  0
ARC
  5
56D
100
AcDbEntity
  8
BEZUGSACHSEN
100
AcDbCircle
 62
7
  6
CONTINUOUS
 10
404.0000899098
 20
178.8669497676
 40
2.260341468
100
AcDbArc
 50
96.0
 51
180.0
  0
ARC
  5
56E
100
AcDbEntity
  8
BEZUGSACHSEN
100
AcDbCircle
 62
7
  6
CONTINUOUS
 10
411.7224069738
 20
178.8669497676
 40
2.260341468
100
AcDbArc
 50
0.0
 51
84.0
  0
ARC
  5
56F
100
AcDbEntity
  8
0
100
AcDbCircle
 62
7
  6
CONTINUOUS
 10
317.8612484418
 20
363.3370439431
 40
76.0
100
AcDbArc
 50
277.8659905038
 51
360.0
  0
ARC
  5
570
100
AcDbEntity
  8
0
100
AcDbCircle
 62
7
  6
CONTINUOUS
 10
317.8612484418
 20
363.3370439431
 40
76.0
100
AcDbArc
 50
227.6403165894
 51
261.8302762547
  0
ARC
  5
571
100
AcDbEntity
  8
0
100
AcDbCircle
 62
7
  6
CONTINUOUS
 10
317.8612484418
 20
363.3370439431
 40
76.0
100
AcDbArc
 50
180.0
 51
222.3596834106
  0
ARC
  5
572
100
AcDbEntity
  8
0
100
AcDbCircle
 62
7
  6
CONTINUOUS
 10
317.8612484418
 20
443.3370439431
 40
76.0
100
AcDbArc
 50
0.0
 51
180.0
  0
ARC
  5
573
100
AcDbEntity
  8
0
100
AcDbCircle
 62
7
  6
CONTINUOUS
 10
317.8612484418
 20
363.3370439431
 40
50.0
100
AcDbArc
 50
282.0070806831
 51
360.0
  0
ARC
  5
574
100
AcDbEntity
  8
0
100
AcDbCircle
 62
7
  6
CONTINUOUS
 10
317.8612484418
 20
363.3370439431
 40
50.0
100
AcDbArc
 50
229.0140852861
 51
257.9929193169
  0
ARC
  5
575
100
AcDbEntity
  8
0
100
AcDbCircle
 62
7
  6
CONTINUOUS
 10
317.8612484418
 20
363.3370439431
 40
50.0
100
AcDbArc
 50
180.0
 51
220.9859147139
  0
ARC
  5
576
100
AcDbEntity
  8
0
100
AcDbCircle
 62
7
  6
CONTINUOUS
 10
317.8612484418
 20
443.3370439431
 40
50.0
100
AcDbArc
 50
0.0
 51
180.0
  0
ARC
  5
577
100
AcDbEntity
  8
KONSTRUKTIONSELEMENTE
100
AcDbCircle
 62
7
  6
CONTINUOUS
 10
341.0612484418
 20
266.1370439431
 40
12.8
100
AcDbArc
 50
180.0
 51
237.0812708556
  0
ARC
  5
578
100
AcDbEntity
  8
KONSTRUKTIONSELEMENTE
100
AcDbCircle
 62
7
  6
CONTINUOUS
 10
317.8612484418
 20
323.7370439431
 40
10.4
100
AcDbArc
 50
0.0
 51
180.0
  0
ARC
  5
579
100
AcDbEntity
  8
BEZUGSACHSEN
100
AcDbCircle
 62
7
  6
CONTINUOUS
 10
593.6643842069
 20
135.3953402382
 40
7.53447156
100
AcDbArc
 50
148.15
 51
180.0
  0
ARC
  5
57A
100
AcDbEntity
  8
BEZUGSACHSEN
100
AcDbCircle
 62
7
  6
CONTINUOUS
 10
594.4643842069
 20
135.3953402382
 40
7.53447156
100
AcDbArc
 50
148.15
 51
180.0
  0
ARC
  5
57B
100
AcDbEntity
  8
BEZUGSACHSEN
100
AcDbCircle
 62
7
  6
CONTINUOUS
 10
593.7251730031
 20
115.9340069431
 40
6.4047396438
100
AcDbArc
 50
291.6581766403
 51
41.7617929027
  0
ARC
  5
57C
100
AcDbEntity
  8
BEZUGSACHSEN
100
AcDbCircle
 62
7
  6
CONTINUOUS
 10
594.5251730031
 20
115.9340069431
 40
6.4047396438
100
AcDbArc
 50
291.6581766403
 51
48.0119403212
  0
ARC
  5
57D
100
AcDbEntity
  8
BEZUGSACHSEN
100
AcDbCircle
 62
7
  6
CONTINUOUS
 10
589.8756051493
 20
122.0076026566
 40
3.7456925133
100
AcDbArc
 50
179.9956305717
 51
215.0043694283
  0
ARC
  5
57E
100
AcDbEntity
  8
BEZUGSACHSEN
100
AcDbCircle
 62
7
  6
CONTINUOUS
 10
590.6756051493
 20
122.0076026566
 40
3.7456925133
100
AcDbArc
 50
179.9956305717
 51
215.0043694283
  0
CIRCLE
  5
57F
100
AcDbEntity
  8
BEZUGSACHSEN
100
AcDbCircle
 62
7
  6
CONTINUOUS
 10
595.6105537849
 20
127.5370439431
 40
1.8843194701
  0
ARC
  5
580
100
AcDbEntity
  8
RUNDUNGEN
100
AcDbCircle
 62
7
  6
CONTINUOUS
 10
599.5226453589
 20
136.9271126311
 40
1.506894312
100
AcDbArc
 50
90.0
 51
132.6091175216
  0
ARC
  5
581
100
AcDbEntity
  8
BEZUGSACHSEN
100
AcDbCircle
 62
7
  6
CONTINUOUS
 10
596.9937343349
 20
115.5524602551
 40
1.506894312
100
AcDbArc
 50
270.0
 51
360.0
  0
ARC
  5
582
100
AcDbEntity
  8
BEZUGSACHSEN
100
AcDbCircle
 62
7
  6
CONTINUOUS
 10
600.0075229589
 20
137.9649186311
 40
1.506894312
100
AcDbArc
 50
90.0007696529
 51
180.0
  0
ARC
  5
583
100
AcDbEntity
  8
RUNDUNGEN
100
AcDbCircle
 62
7
  6
CONTINUOUS
 10
600.3226453589
 20
136.9271126311
 40
1.506894312
100
AcDbArc
 50
90.0
 51
180.0
  0
ARC
  5
584
100
AcDbEntity
  8
KONSTRUKTIONSELEMENTE
100
AcDbCircle
 62
7
  6
CONTINUOUS
 10
586.1299126469
 20
228.3370439431
 40
20.5
100
AcDbArc
 50
90.0
 51
270.0
  0
CIRCLE
  5
585
100
AcDbEntity
  8
BEZUGSACHSEN
100
AcDbCircle
 62
7
  6
CONTINUOUS
 10
602.9299126469
 20
239.5370439431
 40
4.0
  0
ARC
  5
586
100
AcDbEntity
  8
KONSTRUKTIONSELEMENTE
100
AcDbCircle
 62
7
  6
CONTINUOUS
 10
599.2554154157
 20
218.9241331702
 40
1.3815851926
100
AcDbArc
 50
98.816572065
 51
108.1747037042
  0
ARC
  5
587
100
AcDbEntity
  8
KONSTRUKTIONSELEMENTE
100
AcDbCircle
 62
7
  6
CONTINUOUS
 10
603.7191662938
 20
215.6146331551
 40
0.8119349819
100
AcDbArc
 50
13.4753960075
 51
21.9722612622
  0
ARC
  5
588
100
AcDbEntity
  8
BEZUGSACHSEN
100
AcDbCircle
 62
7
  6
CONTINUOUS
 10
610.7230183349
 20
137.9649186311
 40
1.506894312
100
AcDbArc
 50
9.4767329653
 51
90.0002858319
  0
ARC
  5
589
100
AcDbEntity
  8
RUNDUNGEN
100
AcDbCircle
 62
7
  6
CONTINUOUS
 10
611.4230183349
 20
136.9271126311
 40
1.506894312
100
AcDbArc
 50
0.0
 51
90.0
  0
ARC
  5
58A
100
AcDbEntity
  8
BEZUGSACHSEN
100
AcDbCircle
 62
7
  6
CONTINUOUS
 10
611.5230183349
 20
137.9649186311
 40
1.506894312
100
AcDbArc
 50
0.0
 51
90.0002858319
  0
ARC
  5
58B
100
AcDbEntity
  8
BEZUGSACHSEN
100
AcDbCircle
 62
7
  6
CONTINUOUS
 10
613.7368069589
 20
115.5524602551
 40
1.506894312
100
AcDbArc
 50
237.6060300661
 51
270.0
  0
ARC
  5
58C
100
AcDbEntity
  8
BEZUGSACHSEN
100
AcDbCircle
 62
7
  6
CONTINUOUS
 10
614.5368069589
 20
115.5524602551
 40
1.506894312
100
AcDbArc
 50
180.0
 51
270.0
  0
ARC
  5
58D
100
AcDbEntity
  8
BEZUGSACHSEN
100
AcDbCircle
 62
7
  6
CONTINUOUS
 10
613.3954410869
 20
140.9390233991
 40
7.53447156
100
AcDbArc
 50
0.0
 51
31.2351644984
  0
ARC
  5
58E
100
AcDbEntity
  8
KONSTRUKTIONSELEMENTE
100
AcDbCircle
 62
7
  6
CONTINUOUS
 10
619.5953373184
 20
173.7259050158
 40
5.4898501434
100
AcDbArc
 50
80.2049516589
 51
83.5150100897
  0
ARC
  5
58F
100
AcDbEntity
  8
KONSTRUKTIONSELEMENTE
100
AcDbCircle
 62
7
  6
CONTINUOUS
 10
619.5953373184
 20
177.2614389217
 40
5.4898501434
100
AcDbArc
 50
80.2049516589
 51
83.5150100897
  0
ARC
  5
590
100
AcDbEntity
  8
KONSTRUKTIONSELEMENTE
100
AcDbCircle
 62
7
  6
CONTINUOUS
 10
619.8332925602
 20
174.91289159
 40
4.6210716211
100
AcDbArc
 50
67.5044606388
 51
67.7583455523
  0
ARC
  5
591
100
AcDbEntity
  8
KONSTRUKTIONSELEMENTE
100
AcDbCircle
 62
7
  6
CONTINUOUS
 10
619.8594058887
 20
174.9752811793
 40
4.5534380451
100
AcDbArc
 50
65.9597420947
 51
67.5076739907
  0
ARC
  5
592
100
AcDbEntity
  8
BEZUGSACHSEN
100
AcDbCircle
 62
7
  6
CONTINUOUS
 10
630.1299126469
 20
108.5285219431
 40
35.0
100
AcDbArc
 50
180.0
 51
270.0
  0
ARC
  5
593
100
AcDbEntity
  8
BEZUGSACHSEN
100
AcDbCircle
 62
7
  6
CONTINUOUS
 10
630.9299126469
 20
108.5285219431
 40
35.0
100
AcDbArc
 50
180.0
 51
270.0
  0
ARC
  5
594
100
AcDbEntity
  8
BEZUGSACHSEN
100
AcDbCircle
 62
7
  6
CONTINUOUS
 10
630.1299126469
 20
103.5010969431
 40
29.972575
100
AcDbArc
 50
270.0
 51
270.7561686777
  0
ARC
  5
595
100
AcDbEntity
  8
BEZUGSACHSEN
100
AcDbCircle
 62
7
  6
CONTINUOUS
 10
630.9299126469
 20
103.5010969431
 40
29.972575
100
AcDbArc
 50
270.0
 51
328.15
  0
ARC
  5
596
100
AcDbEntity
  8
BEZUGSACHSEN
100
AcDbCircle
 62
7
  6
CONTINUOUS
 10
630.9299126469
 20
108.5285219431
 40
18.0
100
AcDbArc
 50
180.0
 51
270.0
  0
ARC
  5
597
100
AcDbEntity
  8
BEZUGSACHSEN
100
AcDbCircle
 62
7
  6
CONTINUOUS
 10
630.1299126469
 20
103.5010969431
 40
12.972575
100
AcDbArc
 50
271.7014146415
 51
31.2351644984
  0
ARC
  5
598
100
AcDbEntity
  8
BEZUGSACHSEN
100
AcDbCircle
 62
7
  6
CONTINUOUS
 10
630.9299126469
 20
103.5010969431
 40
12.972575
100
AcDbArc
 50
270.0
 51
31.2351644984
  0
ARC
  5
599
100
AcDbEntity
  8
BEZUGSACHSEN
100
AcDbCircle
 62
7
  6
CONTINUOUS
 10
630.9299126469
 20
146.5455659431
 40
35.0
100
AcDbArc
 50
0.0
 51
68.6177870381
  0
ARC
  5
59A
100
AcDbEntity
  8
BEZUGSACHSEN
100
AcDbCircle
 62
7
  6
CONTINUOUS
 10
630.1299126469
 20
151.5729909431
 40
29.972575
100
AcDbArc
 50
114.6518030943
 51
148.15
  0
ARC
  5
59B
100
AcDbEntity
  8
BEZUGSACHSEN
100
AcDbCircle
 62
7
  6
CONTINUOUS
 10
630.9299126469
 20
151.5729909431
 40
29.972575
100
AcDbArc
 50
116.3454321529
 51
148.15
  0
ARC
  5
59C
100
AcDbEntity
  8
BEZUGSACHSEN
100
AcDbCircle
 62
7
  6
CONTINUOUS
 10
630.1299126469
 20
146.5455659431
 40
18.0
100
AcDbArc
 50
0.0
 51
45.9745674697
  0
ARC
  5
59D
100
AcDbEntity
  8
BEZUGSACHSEN
100
AcDbCircle
 62
7
  6
CONTINUOUS
 10
630.9299126469
 20
146.5455659431
 40
18.0
100
AcDbArc
 50
0.0
 51
49.4439668723
  0
ARC
  5
59E
100
AcDbEntity
  8
BEZUGSACHSEN
100
AcDbCircle
 62
7
  6
CONTINUOUS
 10
630.9299126469
 20
151.5729909431
 40
12.972575
100
AcDbArc
 50
195.8190099818
 51
211.2351644984
  0
ARC
  5
59F
100
AcDbEntity
  8
KONSTRUKTIONSELEMENTE
100
AcDbCircle
 62
7
  6
CONTINUOUS
 10
621.5798631344
 20
173.5011986018
 40
5.6345288424
100
AcDbArc
 50
88.6547589228
 51
89.9994965225
  0
ARC
  5
5A0
100
AcDbEntity
  8
KONSTRUKTIONSELEMENTE
100
AcDbCircle
 62
7
  6
CONTINUOUS
 10
623.5299472068
 20
179.4832266065
 40
2.0503141109
100
AcDbArc
 50
9.1122156592
 51
9.8872067215
  0
ARC
  5
5A1
100
AcDbEntity
  8
KONSTRUKTIONSELEMENTE
100
AcDbCircle
 62
7
  6
CONTINUOUS
 10
623.5645369497
 20
179.4881832509
 40
2.015375996
100
AcDbArc
 50
0.0312035642
 51
9.1288137427
  0
ARC
  5
5A2
100
AcDbEntity
  8
KONSTRUKTIONSELEMENTE
100
AcDbCircle
 62
7
  6
CONTINUOUS
 10
629.3299126469
 20
297.3370439431
 40
36.8
100
AcDbArc
 50
109.3628212195
 51
180.0
  0
ARC
  5
5A3
100
AcDbEntity
  8
KONSTRUKTIONSELEMENTE
100
AcDbCircle
 62
7
  6
CONTINUOUS
 10
630.9299126469
 20
297.3370439431
 40
36.8
100
AcDbArc
 50
0.0
 51
70.6371787805
  0
ARC
  5
5A4
100
AcDbEntity
  8
KONSTRUKTIONSELEMENTE
100
AcDbCircle
 62
7
  6
CONTINUOUS
 10
629.3299126469
 20
297.3370439431
 40
16.0
100
AcDbArc
 50
139.7279134157
 51
151.013907471
  0
ARC
  5
5A5
100
AcDbEntity
  8
KONSTRUKTIONSELEMENTE
100
AcDbCircle
 62
7
  6
CONTINUOUS
 10
629.3299126469
 20
297.3370439431
 40
16.0
100
AcDbArc
 50
177.4565844349
 51
180.0
  0
ARC
  5
5A6
100
AcDbEntity
  8
KONSTRUKTIONSELEMENTE
100
AcDbCircle
 62
7
  6
CONTINUOUS
 10
630.9299126469
 20
297.3370439431
 40
16.0
100
AcDbArc
 50
0.0
 51
2.5394298898
  0
ARC
  5
5A7
100
AcDbEntity
  8
KONSTRUKTIONSELEMENTE
100
AcDbCircle
 62
7
  6
CONTINUOUS
 10
630.9299126469
 20
297.3370439431
 40
16.0
100
AcDbArc
 50
28.9968747328
 51
40.2720865843
  0
ARC
  5
5A8
100
AcDbEntity
  8
0
100
AcDbCircle
 62
7
  6
CONTINUOUS
 10
630.1299126469
 20
300.3370439431
 40
13.0
100
AcDbArc
 50
303.3519198309
 51
339.93910315
  0
ARC
  5
5A9
100
AcDbEntity
  8
0
100
AcDbCircle
 62
7
  6
CONTINUOUS
 10
630.1299126469
 20
300.3370439431
 40
13.0
100
AcDbArc
 50
281.0908279213
 51
282.3337953865
  0
ARC
  5
5AA
100
AcDbEntity
  8
0
100
AcDbCircle
 62
7
  6
CONTINUOUS
 10
630.1299126469
 20
300.3370439431
 40
13.0
100
AcDbArc
 50
257.6666426773
 51
258.9091720787
  0
ARC
  5
5AB
100
AcDbEntity
  8
0
100
AcDbCircle
 62
7
  6
CONTINUOUS
 10
630.1299126469
 20
300.3370439431
 40
13.0
100
AcDbArc
 50
200.1002519013
 51
236.6398815154
  0
ARC
  5
5AC
100
AcDbEntity
  8
KONSTRUKTIONSELEMENTE
100
AcDbCircle
 62
7
  6
CONTINUOUS
 10
630.1299126469
 20
303.1493365974
 40
2.5
100
AcDbArc
 50
0.0
 51
180.0
  0
ARC
  5
5AD
100
AcDbEntity
  8
KONSTRUKTIONSELEMENTE
100
AcDbCircle
 62
7
  6
CONTINUOUS
 10
630.1299126469
 20
285.6389289573
 40
2.5
100
AcDbArc
 50
180.0
 51
360.0
  0
ARC
  5
5AE
100
AcDbEntity
  8
KONSTRUKTIONSELEMENTE
100
AcDbCircle
 62
7
  6
CONTINUOUS
 10
630.1299126469
 20
245.8736873213
 40
2.5
100
AcDbArc
 50
0.0
 51
180.0
  0
ARC
  5
5AF
100
AcDbEntity
  8
KONSTRUKTIONSELEMENTE
100
AcDbCircle
 62
7
  6
CONTINUOUS
 10
630.1299126469
 20
228.3632796812
 40
2.5
100
AcDbArc
 50
180.0
 51
188.6135533102
  0
ARC
  5
5B0
100
AcDbEntity
  8
KONSTRUKTIONSELEMENTE
100
AcDbCircle
 62
7
  6
CONTINUOUS
 10
630.1299126469
 20
228.3632796812
 40
2.5
100
AcDbArc
 50
351.3864466898
 51
360.0
  0
ARC
  5
5B1
100
AcDbEntity
  8
KONSTRUKTIONSELEMENTE
100
AcDbCircle
 62
7
  6
CONTINUOUS
 10
630.1299126469
 20
254.7030072804
 40
2.25
100
AcDbArc
 50
180.0
 51
360.0
  0
ARC
  5
5B2
100
AcDbEntity
  8
KONSTRUKTIONSELEMENTE
100
AcDbCircle
 62
7
  6
CONTINUOUS
 10
630.1299126469
 20
276.8096089982
 40
2.25
100
AcDbArc
 50
0.0
 51
180.0
  0
ARC
  5
5B3
100
AcDbEntity
  8
0
100
AcDbCircle
 62
7
  6
CONTINUOUS
 10
630.1299126469
 20
506.3370439431
 40
13.0
100
AcDbArc
 50
0.0
 51
180.0
  0
ARC
  5
5B4
100
AcDbEntity
  8
BEZUGSACHSEN
100
AcDbCircle
 62
7
  6
CONTINUOUS
 10
647.6643842069
 20
114.135064487
 40
7.53447156
100
AcDbArc
 50
180.0
 51
211.2351644984
  0
ARC
  5
5B5
100
AcDbEntity
  8
BEZUGSACHSEN
100
AcDbCircle
 62
7
  6
CONTINUOUS
 10
648.4643842069
 20
114.135064487
 40
7.53447156
100
AcDbArc
 50
180.0
 51
211.2351644984
  0
ARC
  5
5B6
100
AcDbEntity
  8
KONSTRUKTIONSELEMENTE
100
AcDbCircle
 62
7
  6
CONTINUOUS
 10
640.446541943
 20
174.7820187858
 40
4.6749602767
100
AcDbArc
 50
111.3149175254
 51
112.0930351416
  0
ARC
  5
5B7
100
AcDbEntity
  8
BEZUGSACHSEN
100
AcDbCircle
 62
7
  6
CONTINUOUS
 10
650.1802052734
 20
135.8523552136
 40
2.1980546818
100
AcDbArc
 50
232.0566286485
 51
235.2488404473
  0
ARC
  5
5B8
100
AcDbEntity
  8
KONSTRUKTIONSELEMENTE
100
AcDbCircle
 62
7
  6
CONTINUOUS
 10
636.7298780869
 20
179.4832266065
 40
2.0503141107
100
AcDbArc
 50
170.1127932785
 51
170.8877843408
  0
ARC
  5
5B9
100
AcDbEntity
  8
KONSTRUKTIONSELEMENTE
100
AcDbCircle
 62
7
  6
CONTINUOUS
 10
636.695288344
 20
179.4881832509
 40
2.015375996
100
AcDbArc
 50
170.8711862573
 51
179.9687964359
  0
ARC
  5
5BA
100
AcDbEntity
  8
BEZUGSACHSEN
100
AcDbCircle
 62
7
  6
CONTINUOUS
 10
649.6368069589
 20
118.1469752551
 40
1.506894312
100
AcDbArc
 50
238.5739471961
 51
270.0
  0
ARC
  5
5BB
100
AcDbEntity
  8
BEZUGSACHSEN
100
AcDbCircle
 62
7
  6
CONTINUOUS
 10
650.4368069589
 20
118.1469752551
 40
1.506894312
100
AcDbArc
 50
180.0
 51
270.0
  0
ARC
  5
5BC
100
AcDbEntity
  8
RUNDUNGEN
100
AcDbCircle
 62
7
  6
CONTINUOUS
 10
647.3230183349
 20
139.5216276311
 40
1.506894312
100
AcDbArc
 50
0.0
 51
90.0
  0
ARC
  5
5BD
100
AcDbEntity
  8
BEZUGSACHSEN
100
AcDbCircle
 62
7
  6
CONTINUOUS
 10
650.3368069589
 20
117.1091692551
 40
1.506894312
100
AcDbArc
 50
180.0
 51
270.0002858319
  0
ARC
  5
5BE
100
AcDbEntity
  8
BEZUGSACHSEN
100
AcDbCircle
 62
7
  6
CONTINUOUS
 10
661.0523023349
 20
117.1091692551
 40
1.506894312
100
AcDbArc
 50
270.0007696529
 51
357.3206361841
  0
ARC
  5
5BF
100
AcDbEntity
  8
BEZUGSACHSEN
100
AcDbCircle
 62
7
  6
CONTINUOUS
 10
661.5371799349
 20
118.1469752551
 40
1.506894312
100
AcDbArc
 50
270.0
 51
360.0
  0
ARC
  5
5C0
100
AcDbEntity
  8
BEZUGSACHSEN
100
AcDbCircle
 62
7
  6
CONTINUOUS
 10
661.8523023349
 20
117.1091692551
 40
1.506894312
100
AcDbArc
 50
270.0007696529
 51
360.0
  0
ARC
  5
5C1
100
AcDbEntity
  8
RUNDUNGEN
100
AcDbCircle
 62
7
  6
CONTINUOUS
 10
664.0660909589
 20
139.5216276311
 40
1.506894312
100
AcDbArc
 50
90.0
 51
180.0
  0
ARC
  5
5C2
100
AcDbEntity
  8
RUNDUNGEN
100
AcDbCircle
 62
7
  6
CONTINUOUS
 10
664.8660909589
 20
139.5216276311
 40
1.506894312
100
AcDbArc
 50
90.0
 51
180.0
  0
ARC
  5
5C3
100
AcDbEntity
  8
BEZUGSACHSEN
100
AcDbCircle
 62
7
  6
CONTINUOUS
 10
667.3954410869
 20
119.6787476479
 40
7.53447156
100
AcDbArc
 50
328.15
 51
360.0
  0
CIRCLE
  5
5C4
100
AcDbEntity
  8
BEZUGSACHSEN
100
AcDbCircle
 62
7
  6
CONTINUOUS
 10
666.2492715089
 20
127.5370439431
 40
1.8843194701
  0
ARC
  5
5C5
100
AcDbEntity
  8
BEZUGSACHSEN
100
AcDbCircle
 62
7
  6
CONTINUOUS
 10
667.3346522907
 20
139.1400809431
 40
6.4047396438
100
AcDbArc
 50
111.6581766403
 51
228.0119403212
  0
ARC
  5
5C6
100
AcDbEntity
  8
BEZUGSACHSEN
100
AcDbCircle
 62
7
  6
CONTINUOUS
 10
671.1842201445
 20
133.0664852296
 40
3.7456925133
100
AcDbArc
 50
359.9956305717
 51
35.0043694283
  0
ARC
  5
5C7
100
AcDbEntity
  8
KONSTRUKTIONSELEMENTE
100
AcDbCircle
 62
7
  6
CONTINUOUS
 10
680.5299126469
 20
266.1370439431
 40
12.8
100
AcDbArc
 50
180.0
 51
266.7058347198
  0
SPLINE
  5
5C8
100
AcDbEntity
  8
KONSTRUKTIONSELEMENTE
100
AcDbSpline
 62
7
  6
CONTINUOUS
 70
0
 71
3
 72
10
 73
6
 74
0
 42
0.0000001
 43
0.0000001
 44
0.0000000001
 40
0.0
 40
0.0
 40
0.0
 40
0.0
 40
0.4988729357
 40
0.7494091174
 40
1.0
 40
1.0
 40
1.0
 40
1.0
 10
292.866168679
 20
237.2099315761
 30
0.0
 10
292.9234869669
 20
239.9031053989
 30
0.0
 10
293.7773728655
 20
243.9872621213
 30
0.0
 10
296.344437669
 20
248.7642630236
 30
0.0
 10
298.0909678528
 20
250.8628997241
 30
0.0
 10
299.0612484418
 20
251.8060348663
 30
0.0
  0
SPLINE
  5
5C9
100
AcDbEntity
  8
KONSTRUKTIONSELEMENTE
100
AcDbSpline
 62
7
  6
CONTINUOUS
 70
0
 71
3
 72
11
 73
7
 74
0
 42
0.0000001
 43
0.0000001
 44
0.0000000001
 40
0.0
 40
0.0
 40
0.0
 40
0.0
 40
0.2499656269
 40
0.4999539453
 40
0.7499794875
 40
1.0
 40
1.0
 40
1.0
 40
1.0
 10
336.6612484418
 20
251.8065120686
 30
0.0
 10
337.6586336468
 20
250.8370623935
 30
0.0
 10
339.4484829914
 20
248.675040149
 30
0.0
 10
341.4023473314
 20
244.9567584985
 30
0.0
 10
342.5924033649
 20
240.9304145503
 30
0.0
 10
342.8612484418
 20
238.1408882145
 30
0.0
 10
342.8612484418
 20
236.7496802548
 30
0.0
  0
SPLINE
  5
5CA
100
AcDbEntity
  8
KONSTRUKTIONSELEMENTE
100
AcDbSpline
 62
7
  6
CONTINUOUS
 70
0
 71
3
 72
13
 73
9
 74
0
 42
0.0000001
 43
0.0000001
 44
0.0000000001
 40
0.0
 40
0.0
 40
0.0
 40
0.0
 40
0.1197290731
 40
0.2397365246
 40
0.3609040964
 40
0.4836831257
 40
0.7359942557
 40
1.0
 40
1.0
 40
1.0
 40
1.0
 10
638.1299126469
 20
286.6159581843
 30
0.0
 10
638.1299126469
 20
286.9651718864
 30
0.0
 10
638.0578090251
 20
287.6665129225
 30
0.0
 10
637.7395236903
 20
288.6767311706
 30
0.0
 10
637.2301401487
 20
289.6153093893
 30
0.0
 10
636.3183396201
 20
290.7480838959
 30
0.0
 10
634.8024483545
 20
291.885227312
 30
0.0
 10
633.3795615045
 20
292.431773036
 30
0.0
 10
632.6333369828
 20
292.6217415266
 30
0.0
  0
SPLINE
  5
5CB
100
AcDbEntity
  8
KONSTRUKTIONSELEMENTE
100
AcDbSpline
 62
7
  6
CONTINUOUS
 70
0
 71
3
 72
13
 73
9
 74
0
 42
0.0000001
 43
0.0000001
 44
0.0000000001
 40
0.0
 40
0.0
 40
0.0
 40
0.0
 40
0.2640112835
 40
0.5163080567
 40
0.6390830379
 40
0.7602378991
 40
0.8802701562
 40
1.0
 40
1.0
 40
1.0
 40
1.0
 10
627.6255848444
 20
292.621494337
 30
0.0
 10
626.8794450221
 20
292.4314597357
 30
0.0
 10
625.4567685807
 20
291.8848931045
 30
0.0
 10
623.9411785136
 20
290.7477477636
 30
0.0
 10
623.0295882362
 20
289.615132255
 30
0.0
 10
622.5201973203
 20
288.6766549684
 30
0.0
 10
622.2020606013
 20
287.6664668653
 30
0.0
 10
622.1299126469
 20
286.9651369818
 30
0.0
 10
622.1299126469
 20
286.6159581843
 30
0.0
  0
SPLINE
  5
5CC
100
AcDbEntity
  8
KONSTRUKTIONSELEMENTE
100
AcDbSpline
 62
7
  6
CONTINUOUS
 70
0
 71
3
 72
10
 73
6
 74
0
 42
0.0000001
 43
0.0000001
 44
0.0000000001
 40
0.0
 40
0.0
 40
0.0
 40
0.0
 40
0.3192646009
 40
0.6086079864
 40
1.0
 40
1.0
 40
1.0
 40
1.0
 10
633.6299126469
 20
286.6159581843
 30
0.0
 10
633.6299126469
 20
286.7876979595
 30
0.0
 10
633.4878968603
 20
287.1085491745
 30
0.0
 10
633.1220908457
 20
287.5019015139
 30
0.0
 10
632.818803013
 20
287.7149414272
 30
0.0
 10
632.6362667119
 20
287.8198560236
 30
0.0
  0
SPLINE
  5
5CD
100
AcDbEntity
  8
KONSTRUKTIONSELEMENTE
100
AcDbSpline
 62
7
  6
CONTINUOUS
 70
0
 71
3
 72
10
 73
6
 74
0
 42
0.0000001
 43
0.0000001
 44
0.0000000001
 40
0.0
 40
0.0
 40
0.0
 40
0.0
 40
0.3914026107
 40
0.6807340322
 40
1.0
 40
1.0
 40
1.0
 40
1.0
 10
627.6234670458
 20
287.8198035525
 30
0.0
 10
627.4409398024
 20
287.714888143
 30
0.0
 10
627.1377002216
 20
287.5018290715
 30
0.0
 10
626.771879517
 20
287.1085307109
 30
0.0
 10
626.6299126469
 20
286.78768797
 30
0.0
 10
626.6299126469
 20
286.6159581843
 30
0.0
  0
SPLINE
  5
5CE
100
AcDbEntity
  8
KONSTRUKTIONSELEMENTE
100
AcDbSpline
 62
7
  6
CONTINUOUS
 70
0
 71
3
 72
10
 73
6
 74
0
 42
0.0000001
 43
0.0000001
 44
0.0000000001
 40
0.0
 40
0.0
 40
0.0
 40
0.0
 40
0.3116645009
 40
0.6060899939
 40
1.0
 40
1.0
 40
1.0
 40
1.0
 10
626.6299126469
 20
276.0093564665
 30
0.0
 10
626.6299126469
 20
275.8122016201
 30
0.0
 10
626.8174412034
 20
275.4408754254
 30
0.0
 10
627.2747604731
 20
275.0070023356
 30
0.0
 10
627.6531617853
 20
274.7795923022
 30
0.0
 10
627.8779207586
 20
274.6720041712
 30
0.0
  0
SPLINE
  5
5CF
100
AcDbEntity
  8
KONSTRUKTIONSELEMENTE
100
AcDbSpline
 62
7
  6
CONTINUOUS
 70
0
 71
3
 72
10
 73
6
 74
0
 42
0.0000001
 43
0.0000001
 44
0.0000000001
 40
0.0
 40
0.0
 40
0.0
 40
0.0
 40
0.3939255147
 40
0.6883533687
 40
1.0
 40
1.0
 40
1.0
 40
1.0
 10
632.3816618824
 20
274.6718922432
 30
0.0
 10
632.6064697884
 20
274.7794821438
 30
0.0
 10
632.98493231
 20
275.0069277121
 30
0.0
 10
633.4423738277
 20
275.4408054555
 30
0.0
 10
633.6299126469
 20
275.8121851627
 30
0.0
 10
633.6299126469
 20
276.0093564665
 30
0.0
  0
SPLINE
  5
5D0
100
AcDbEntity
  8
KONSTRUKTIONSELEMENTE
100
AcDbSpline
 62
7
  6
CONTINUOUS
 70
0
 71
3
 72
13
 73
9
 74
0
 42
0.0000001
 43
0.0000001
 44
0.0000000001
 40
0.0
 40
0.0
 40
0.0
 40
0.0
 40
0.1194785188
 40
0.2392741704
 40
0.3602835725
 40
0.4830059608
 40
0.7355440041
 40
1.0
 40
1.0
 40
1.0
 40
1.0
 10
622.1299126469
 20
276.0093564665
 30
0.0
 10
622.1299126469
 20
275.6507168553
 30
0.0
 10
622.2060081301
 20
274.9302102263
 30
0.0
 10
622.5415843577
 20
273.8947144706
 30
0.0
 10
623.077568823
 20
272.9363947914
 30
0.0
 10
624.0352643887
 20
271.7860150306
 30
0.0
 10
625.6215830314
 20
270.6466725113
 30
0.0
 10
627.1016364738
 20
270.1191464909
 30
0.0
 10
627.8758003264
 20
269.9435903459
 30
0.0
  0
SPLINE
  5
5D1
100
AcDbEntity
  8
KONSTRUKTIONSELEMENTE
100
AcDbSpline
 62
7
  6
CONTINUOUS
 70
0
 71
3
 72
13
 73
9
 74
0
 42
0.0000001
 43
0.0000001
 44
0.0000000001
 40
0.0
 40
0.0
 40
0.0
 40
0.0
 40
0.2644681654
 40
0.5169944072
 40
0.6397129492
 40
0.760706397
 40
0.8805228501
 40
1.0
 40
1.0
 40
1.0
 40
1.0
 10
632.3820834257
 20
269.9431591336
 30
0.0
 10
633.1564807522
 20
270.1186392378
 30
0.0
 10
634.6369715998
 20
270.6459599665
 30
0.0
 10
636.2238220069
 20
271.7853124299
 30
0.0
 10
637.1817939662
 20
272.9357549787
 30
0.0
 10
637.7181107239
 20
273.8941767653
 30
0.0
 10
638.0537250605
 20
274.9299301777
 30
0.0
 10
638.1299126469
 20
275.6506421962
 30
0.0
 10
638.1299126469
 20
276.0093564665
 30
0.0
  0
SPLINE
  5
5D2
100
AcDbEntity
  8
KONSTRUKTIONSELEMENTE
100
AcDbSpline
 62
7
  6
CONTINUOUS
 70
0
 71
3
 72
13
 73
9
 74
0
 42
0.0000001
 43
0.0000001
 44
0.0000000001
 40
0.0
 40
0.0
 40
0.0
 40
0.0
 40
0.1194785188
 40
0.2392741704
 40
0.3602835725
 40
0.4830059608
 40
0.7355440041
 40
1.0
 40
1.0
 40
1.0
 40
1.0
 10
638.1299126469
 20
255.5032598121
 30
0.0
 10
638.1299126469
 20
255.8618994233
 30
0.0
 10
638.0538171637
 20
256.5824060524
 30
0.0
 10
637.7182409361
 20
257.6179018081
 30
0.0
 10
637.1822564708
 20
258.5762214872
 30
0.0
 10
636.2245609051
 20
259.7266012481
 30
0.0
 10
634.6382422624
 20
260.8659437674
 30
0.0
 10
633.15818882
 20
261.3934697877
 30
0.0
 10
632.3840249674
 20
261.5690259328
 30
0.0
  0
SPLINE
  5
5D3
100
AcDbEntity
  8
KONSTRUKTIONSELEMENTE
100
AcDbSpline
 62
7
  6
CONTINUOUS
 70
0
 71
3
 72
13
 73
9
 74
0
 42
0.0000001
 43
0.0000001
 44
0.0000000001
 40
0.0
 40
0.0
 40
0.0
 40
0.0
 40
0.2644681654
 40
0.5169944072
 40
0.6397129492
 40
0.760706397
 40
0.8805228501
 40
1.0
 40
1.0
 40
1.0
 40
1.0
 10
627.8777418681
 20
261.5694571451
 30
0.0
 10
627.1033445416
 20
261.3939770409
 30
0.0
 10
625.622853694
 20
260.8666563122
 30
0.0
 10
624.0360032869
 20
259.7273038488
 30
0.0
 10
623.0780313276
 20
258.5768612999
 30
0.0
 10
622.5417145699
 20
257.6184395134
 30
0.0
 10
622.2061002333
 20
256.5826861009
 30
0.0
 10
622.1299126469
 20
255.8619740824
 30
0.0
 10
622.1299126469
 20
255.5032598121
 30
0.0
  0
SPLINE
  5
5D4
100
AcDbEntity
  8
KONSTRUKTIONSELEMENTE
100
AcDbSpline
 62
7
  6
CONTINUOUS
 70
0
 71
3
 72
10
 73
6
 74
0
 42
0.0000001
 43
0.0000001
 44
0.0000000001
 40
0.0
 40
0.0
 40
0.0
 40
0.0
 40
0.3116645009
 40
0.6060899939
 40
1.0
 40
1.0
 40
1.0
 40
1.0
 10
633.6299126469
 20
255.5032598121
 30
0.0
 10
633.6299126469
 20
255.7004146586
 30
0.0
 10
633.4423840904
 20
256.0717408532
 30
0.0
 10
632.9850648207
 20
256.505613943
 30
0.0
 10
632.6066635085
 20
256.7330239765
 30
0.0
 10
632.3819045352
 20
256.8406121075
 30
0.0
  0
SPLINE
  5
5D5
100
AcDbEntity
  8
KONSTRUKTIONSELEMENTE
100
AcDbSpline
 62
7
  6
CONTINUOUS
 70
0
 71
3
 72
10
 73
6
 74
0
 42
0.0000001
 43
0.0000001
 44
0.0000000001
 40
0.0
 40
0.0
 40
0.0
 40
0.0
 40
0.3939255147
 40
0.6883533687
 40
1.0
 40
1.0
 40
1.0
 40
1.0
 10
627.8781634114
 20
256.8407240355
 30
0.0
 10
627.6533555054
 20
256.7331341349
 30
0.0
 10
627.2748929838
 20
256.5056885666
 30
0.0
 10
626.8174514661
 20
256.0718108232
 30
0.0
 10
626.6299126469
 20
255.700431116
 30
0.0
 10
626.6299126469
 20
255.5032598121
 30
0.0
  0
SPLINE
  5
5D6
100
AcDbEntity
  8
KONSTRUKTIONSELEMENTE
100
AcDbSpline
 62
7
  6
CONTINUOUS
 70
0
 71
3
 72
10
 73
6
 74
0
 42
0.0000001
 43
0.0000001
 44
0.0000000001
 40
0.0
 40
0.0
 40
0.0
 40
0.0
 40
0.3192646009
 40
0.6086079864
 40
1.0
 40
1.0
 40
1.0
 40
1.0
 10
626.6299126469
 20
244.8966580943
 30
0.0
 10
626.6299126469
 20
244.7249183191
 30
0.0
 10
626.7719284335
 20
244.4040671042
 30
0.0
 10
627.1377344481
 20
244.0107147648
 30
0.0
 10
627.4410222808
 20
243.7976748515
 30
0.0
 10
627.6235585819
 20
243.6927602551
 30
0.0
  0
SPLINE
  5
5D7
100
AcDbEntity
  8
KONSTRUKTIONSELEMENTE
100
AcDbSpline
 62
7
  6
CONTINUOUS
 70
0
 71
3
 72
10
 73
6
 74
0
 42
0.0000001
 43
0.0000001
 44
0.0000000001
 40
0.0
 40
0.0
 40
0.0
 40
0.0
 40
0.3914026107
 40
0.6807340322
 40
1.0
 40
1.0
 40
1.0
 40
1.0
 10
632.636358248
 20
243.6928127262
 30
0.0
 10
632.8188854914
 20
243.7977281357
 30
0.0
 10
633.1221250722
 20
244.0107872072
 30
0.0
 10
633.4879457768
 20
244.4040855678
 30
0.0
 10
633.6299126469
 20
244.7249283087
 30
0.0
 10
633.6299126469
 20
244.8966580943
 30
0.0
  0
SPLINE
  5
5D8
100
AcDbEntity
  8
KONSTRUKTIONSELEMENTE
100
AcDbSpline
 62
7
  6
CONTINUOUS
 70
0
 71
3
 72
13
 73
9
 74
0
 42
0.0000001
 43
0.0000001
 44
0.0000000001
 40
0.0
 40
0.0
 40
0.0
 40
0.0
 40
0.1197290731
 40
0.2397365246
 40
0.3609040964
 40
0.4836831257
 40
0.7359942557
 40
1.0
 40
1.0
 40
1.0
 40
1.0
 10
622.1299126469
 20
244.8966580943
 30
0.0
 10
622.1299126469
 20
244.5474443922
 30
0.0
 10
622.2020162687
 20
243.8461033562
 30
0.0
 10
622.5203016034
 20
242.835885108
 30
0.0
 10
623.0296851451
 20
241.8973068894
 30
0.0
 10
623.9414856737
 20
240.7645323827
 30
0.0
 10
625.4573769393
 20
239.6273889666
 30
0.0
 10
626.8802637893
 20
239.0808432427
 30
0.0
 10
627.626488311
 20
238.8908747521
 30
0.0
  0
SPLINE
  5
5D9
100
AcDbEntity
  8
KONSTRUKTIONSELEMENTE
100
AcDbSpline
 62
7
  6
CONTINUOUS
 70
0
 71
3
 72
13
 73
9
 74
0
 42
0.0000001
 43
0.0000001
 44
0.0000000001
 40
0.0
 40
0.0
 40
0.0
 40
0.0
 40
0.2640112835
 40
0.5163080567
 40
0.6390830379
 40
0.7602378991
 40
0.8802701562
 40
1.0
 40
1.0
 40
1.0
 40
1.0
 10
632.6342404494
 20
238.8911219416
 30
0.0
 10
633.3803802717
 20
239.0811565429
 30
0.0
 10
634.8030567131
 20
239.6277231741
 30
0.0
 10
636.3186467802
 20
240.7648685151
 30
0.0
 10
637.2302370576
 20
241.8974840237
 30
0.0
 10
637.7396279735
 20
242.8359613102
 30
0.0
 10
638.0577646925
 20
243.8461494134
 30
0.0
 10
638.1299126469
 20
244.5474792969
 30
0.0
 10
638.1299126469
 20
244.8966580943
 30
0.0
  0
SPLINE
  5
5DA
100
AcDbEntity
  8
KONSTRUKTIONSELEMENTE
100
AcDbSpline
 62
7
  6
CONTINUOUS
 70
0
 71
3
 72
12
 73
8
 74
0
 42
0.0000001
 43
0.0000001
 44
0.0000000001
 40
0.0
 40
0.0
 40
0.0
 40
0.0
 40
0.1039281128
 40
0.2109973605
 40
0.4414932215
 40
0.7038840096
 40
1.0
 40
1.0
 40
1.0
 40
1.0
 10
650.1299126469
 20
313.83956926
 30
0.0
 10
650.1299126469
 20
314.278308591
 30
0.0
 10
650.0578061551
 20
315.170632541
 30
0.0
 10
649.6167428018
 20
316.9883189561
 30
0.0
 10
648.4431510016
 20
319.2768584347
 30
0.0
 10
646.1779007022
 20
321.7601312833
 30
0.0
 10
644.2272107022
 20
323.1194698942
 30
0.0
 10
643.1410076675
 20
323.7382150464
 30
0.0
  0
SPLINE
  5
5DB
100
AcDbEntity
  8
KONSTRUKTIONSELEMENTE
100
AcDbSpline
 62
7
  6
CONTINUOUS
 70
0
 71
3
 72
12
 73
8
 74
0
 42
0.0000001
 43
0.0000001
 44
0.0000000001
 40
0.0
 40
0.0
 40
0.0
 40
0.0
 40
0.2961194109
 40
0.5585131029
 40
0.7890066651
 40
0.8960778095
 40
1.0
 40
1.0
 40
1.0
 40
1.0
 10
617.1193611504
 20
323.7385306073
 30
0.0
 10
616.033073683
 20
323.1197803421
 30
0.0
 10
614.0822296773
 20
321.7604073515
 30
0.0
 10
611.8168084081
 20
319.2770461691
 30
0.0
 10
610.6430984202
 20
316.9884078142
 30
0.0
 10
610.2020299509
 20
315.1706547057
 30
0.0
 10
610.1299126469
 20
314.2783051575
 30
0.0
 10
610.1299126469
 20
313.83956926
 30
0.0
  0
SPLINE
  5
5DC
100
AcDbEntity
  8
KONSTRUKTIONSELEMENTE
100
AcDbSpline
 62
7
  6
CONTINUOUS
 70
0
 71
3
 72
14
 73
10
 74
0
 42
0.0000001
 43
0.0000001
 44
0.0000000001
 40
0.0
 40
0.0
 40
0.0
 40
0.0
 40
0.1163704785
 40
0.2336807864
 40
0.3528830378
 40
0.4748279521
 40
0.6002330901
 40
0.7295706066
 40
1.0
 40
1.0
 40
1.0
 40
1.0
 10
657.1299126469
 20
313.83956926
 30
0.0
 10
657.1299126469
 20
314.7660030386
 30
0.0
 10
656.9589207722
 20
316.6307106591
 30
0.0
 10
656.2004729005
 20
319.3502263087
 30
0.0
 10
654.9678353383
 20
321.9389909113
 30
0.0
 10
653.2991950826
 20
324.347090854
 30
0.0
 10
651.2370369996
 20
326.5389606864
 30
0.0
 10
647.9773998483
 20
329.1722278342
 30
0.0
 10
645.1347793102
 20
330.6869740104
 30
0.0
 10
643.1397918634
 20
331.49631794
 30
0.0
  0
SPLINE
  5
5DD
100
AcDbEntity
  8
KONSTRUKTIONSELEMENTE
100
AcDbSpline
 62
7
  6
CONTINUOUS
 70
0
 71
3
 72
14
 73
10
 74
0
 42
0.0000001
 43
0.0000001
 44
0.0000000001
 40
0.0
 40
0.0
 40
0.0
 40
0.0
 40
0.2704306472
 40
0.399768186
 40
0.5251724376
 40
0.6471164381
 40
0.7663175451
 40
0.8836285601
 40
1.0
 40
1.0
 40
1.0
 40
1.0
 10
617.1220275068
 20
331.4971329229
 30
0.0
 10
615.126792288
 20
330.6878579394
 30
0.0
 10
612.2838121696
 20
329.1731408592
 30
0.0
 10
609.0237200496
 20
326.5398328857
 30
0.0
 10
606.9612626098
 20
324.3478904386
 30
0.0
 10
605.2923730086
 20
321.9396706429
 30
0.0
 10
604.059516215
 20
319.3507341078
 30
0.0
 10
603.3009433992
 20
316.6309824017
 30
0.0
 10
603.1299126469
 20
314.7660940463
 30
0.0
 10
603.1299126469
 20
313.83956926
 30
0.0
  0
SPLINE
  5
5DE
100
AcDbEntity
  8
KONSTRUKTIONSELEMENTE
100
AcDbSpline
 62
7
  6
CONTINUOUS
 70
0
 71
3
 72
14
 73
10
 74
0
 42
0.0000001
 43
0.0000001
 44
0.0000000001
 40
0.0
 40
0.0
 40
0.0
 40
0.0
 40
0.0917564881
 40
0.1897281682
 40
0.2981683621
 40
0.4187955144
 40
0.551304225
 40
0.6940972983
 40
1.0
 40
1.0
 40
1.0
 40
1.0
 10
610.1299126469
 20
313.83956926
 30
0.0
 10
610.1299126469
 20
313.1150516375
 30
0.0
 10
610.3320712537
 20
311.6103672922
 30
0.0
 10
611.2368312789
 20
309.4126313686
 30
0.0
 10
612.7507301293
 20
307.2955362386
 30
0.0
 10
614.854361393
 20
305.340875775
 30
0.0
 10
617.4929972799
 20
303.6368269126
 30
0.0
 10
621.6980165498
 20
301.7667168111
 30
0.0
 10
625.2209697635
 20
301.0323966905
 30
0.0
 10
627.6277632511
 20
300.828252677
 30
0.0
  0
SPLINE
  5
5DF
100
AcDbEntity
  8
KONSTRUKTIONSELEMENTE
100
AcDbSpline
 62
7
  6
CONTINUOUS
 70
0
 71
3
 72
14
 73
10
 74
0
 42
0.0000001
 43
0.0000001
 44
0.0000000001
 40
0.0
 40
0.0
 40
0.0
 40
0.0
 40
0.3059013242
 40
0.4486952755
 40
0.5812052129
 40
0.7018334124
 40
0.8102733427
 40
0.9082452977
 40
1.0
 40
1.0
 40
1.0
 40
1.0
 10
632.6320386506
 20
300.8282575942
 30
0.0
 10
635.0388245887
 20
301.0323917336
 30
0.0
 10
638.5617782266
 20
301.7667103837
 30
0.0
 10
642.7668116666
 20
303.6368127613
 30
0.0
 10
645.4054758636
 20
305.3408726098
 30
0.0
 10
647.5091101558
 20
307.2955565697
 30
0.0
 10
649.0230215214
 20
309.4126574938
 30
0.0
 10
649.9277536903
 20
311.6103929631
 30
0.0
 10
650.1299126469
 20
313.1150649828
 30
0.0
 10
650.1299126469
 20
313.83956926
 30
0.0
  0
SPLINE
  5
5E0
100
AcDbEntity
  8
KONSTRUKTIONSELEMENTE
100
AcDbSpline
 62
7
  6
CONTINUOUS
 70
0
 71
3
 72
14
 73
10
 74
0
 42
0.0000001
 43
0.0000001
 44
0.0000000001
 40
0.0
 40
0.0
 40
0.0
 40
0.0
 40
0.1117689353
 40
0.2253264709
 40
0.342329432
 40
0.4640987427
 40
0.591309557
 40
0.7238376038
 40
1.0
 40
1.0
 40
1.0
 40
1.0
 10
603.1299126469
 20
313.83956926
 30
0.0
 10
603.1299126469
 20
312.5482768367
 30
0.0
 10
603.466421891
 20
309.9335589439
 30
0.0
 10
604.9361420032
 20
306.2227650922
 30
0.0
 10
607.2733045379
 20
302.8504820002
 30
0.0
 10
610.3557533738
 20
299.9188907225
 30
0.0
 10
614.0621927246
 20
297.4925987513
 30
0.0
 10
619.7357331981
 20
294.9678210358
 30
0.0
 10
624.4452520949
 20
294.0256357552
 30
0.0
 10
627.6283853174
 20
293.80794729
 30
0.0
  0
SPLINE
  5
5E1
100
AcDbEntity
  8
KONSTRUKTIONSELEMENTE
100
AcDbSpline
 62
7
  6
CONTINUOUS
 70
0
 71
3
 72
14
 73
10
 74
0
 42
0.0000001
 43
0.0000001
 44
0.0000000001
 40
0.0
 40
0.0
 40
0.0
 40
0.0
 40
0.2761649589
 40
0.4086929702
 40
0.5359028664
 40
0.657670879
 40
0.7746727641
 40
0.888229544
 40
1.0
 40
1.0
 40
1.0
 40
1.0
 10
632.6304631779
 20
293.8078838265
 30
0.0
 10
635.8137192136
 20
294.0255243175
 30
0.0
 10
640.5234249742
 20
294.9676073018
 30
0.0
 10
646.197194034
 20
297.4923533108
 30
0.0
 10
649.9037570369
 20
299.9186351842
 30
0.0
 10
652.9863166295
 20
302.8502293502
 30
0.0
 10
655.3235674303
 20
306.2225471251
 30
0.0
 10
656.7933840679
 20
309.9334204695
 30
0.0
 10
657.1299126469
 20
312.5482229862
 30
0.0
 10
657.1299126469
 20
313.83956926
 30
0.0
  0
SPLINE
  5
5E2
100
AcDbEntity
  8
BEZUGSACHSEN
100
AcDbSpline
 62
7
  6
CONTINUOUS
 70
0
 71
3
 72
11
 73
7
 74
0
 42
0.0000001
 43
0.0000001
 44
0.0000000001
 40
0.0
 40
0.0
 40
0.0
 40
0.0
 40
0.2500139668
 40
0.5000035064
 40
0.749990811
 40
1.0
 40
1.0
 40
1.0
 40
1.0
 10
591.6726094903
 20
114.0455663536
 30
0.0
 10
591.5510370429
 20
114.0455663688
 30
0.0
 10
591.3069110425
 20
114.0748215028
 30
0.0
 10
590.9623011957
 20
114.2041196439
 30
0.0
 10
590.6580827341
 20
114.41133288
 30
0.0
 10
590.4937906765
 20
114.5943267958
 30
0.0
 10
590.4240608436
 20
114.6939111594
 30
0.0
  0
SPLINE
  5
5E3
100
AcDbEntity
  8
RUNDUNGEN
100
AcDbSpline
 62
7
  6
CONTINUOUS
 70
0
 71
3
 72
11
 73
7
 74
0
 42
0.0000001
 43
0.0000001
 44
0.0000000001
 40
0.0
 40
0.0
 40
0.0
 40
0.0
 40
0.2500346306
 40
0.5000539342
 40
0.7500425608
 40
1.0
 40
1.0
 40
1.0
 40
1.0
 10
641.655590586
 20
141.0285197932
 30
0.0
 10
641.4582217542
 20
141.0285199459
 30
0.0
 10
641.0592834526
 20
140.9508423795
 30
0.0
 10
640.5524876767
 20
140.6172198364
 30
0.0
 10
640.2105048205
 20
140.1156658346
 30
0.0
 10
640.1299127108
 20
139.7166169642
 30
0.0
 10
640.1299126469
 20
139.5193090647
 30
0.0
  0
SPLINE
  5
5E4
100
AcDbEntity
  8
RUNDUNGEN
100
AcDbSpline
 62
7
  6
CONTINUOUS
 70
0
 71
3
 72
11
 73
7
 74
0
 42
0.0000001
 43
0.0000001
 44
0.0000000001
 40
0.0
 40
0.0
 40
0.0
 40
0.0
 40
0.25001079
 40
0.5000108943
 40
0.7500048976
 40
1.0
 40
1.0
 40
1.0
 40
1.0
 10
596.0889610351
 20
109.9814256575
 30
0.0
 10
595.9494057765
 20
109.9260078815
 30
0.0
 10
595.6851491478
 20
109.7726836109
 30
0.0
 10
595.3745645164
 20
109.4375709559
 30
0.0
 10
595.1756088942
 20
109.0262033639
 30
0.0
 10
595.1299127517
 20
108.7239957463
 30
0.0
 10
595.1299126469
 20
108.5738492489
 30
0.0
  0
SPLINE
  5
5E5
100
AcDbEntity
  8
BEZUGSACHSEN
100
AcDbSpline
 62
7
  6
CONTINUOUS
 70
0
 71
3
 72
9
 73
5
 74
0
 42
0.0000001
 43
0.0000001
 44
0.0000000001
 40
0.0
 40
0.0
 40
0.0
 40
0.0
 40
0.230822815
 40
1.0
 40
1.0
 40
1.0
 40
1.0
 10
598.498065434
 20
121.7591255109
 30
0.0
 10
598.5218686046
 20
121.7679419052
 30
0.0
 10
598.6257760125
 20
121.8040222285
 30
0.0
 10
598.7321757589
 20
121.8325946705
 30
0.0
 10
598.8145264142
 20
121.8519119519
 30
0.0
  0
SPLINE
  5
5E6
100
AcDbEntity
  8
BEZUGSACHSEN
100
AcDbSpline
 62
7
  6
CONTINUOUS
 70
0
 71
3
 72
9
 73
5
 74
0
 42
0.0000001
 43
0.0000001
 44
0.0000000001
 40
0.0
 40
0.0
 40
0.0
 40
0.0
 40
0.4742784426
 40
1.0
 40
1.0
 40
1.0
 40
1.0
 10
625.232296996
 20
229.6957313928
 30
0.0
 10
625.5069576327
 20
230.0756936313
 30
0.0
 10
626.2426986917
 20
230.7668339153
 30
0.0
 10
627.1385121115
 20
231.212605145
 30
0.0
 10
627.6272664311
 20
231.3892370212
 30
0.0
  0
SPLINE
  5
5E7
100
AcDbEntity
  8
BEZUGSACHSEN
100
AcDbSpline
 62
7
  6
CONTINUOUS
 70
0
 71
3
 72
9
 73
5
 74
0
 42
0.0000001
 43
0.0000001
 44
0.0000000001
 40
0.0
 40
0.0
 40
0.0
 40
0.0
 40
0.5257215574
 40
1.0
 40
1.0
 40
1.0
 40
1.0
 10
632.6325588627
 20
231.3892370212
 30
0.0
 10
633.1213131823
 20
231.212605145
 30
0.0
 10
634.0171266021
 20
230.7668339153
 30
0.0
 10
634.7528676611
 20
230.0756936313
 30
0.0
 10
635.0275282978
 20
229.6957313928
 30
0.0
  0
SPLINE
  5
5E8
100
AcDbEntity
  8
KONSTRUKTIONSELEMENTE
100
AcDbSpline
 62
7
  6
CONTINUOUS
 70
0
 71
3
 72
11
 73
7
 74
0
 42
0.0000001
 43
0.0000001
 44
0.0000000001
 40
0.0
 40
0.0
 40
0.0
 40
0.0
 40
0.2729767978
 40
0.5353848362
 40
0.7789285996
 40
1.0
 40
1.0
 40
1.0
 40
1.0
 10
652.4906528456
 20
179.135727444
 30
0.0
 10
652.9594049839
 20
179.135727444
 30
0.0
 10
653.8815382829
 20
179.2267448817
 30
0.0
 10
655.167495655
 20
179.6302067037
 30
0.0
 10
656.2529700445
 20
180.2709149377
 30
0.0
 10
656.8132001058
 20
180.8601661446
 30
0.0
 10
657.0221917808
 20
181.1770801563
 30
0.0
  0
SPLINE
  5
5E9
100
AcDbEntity
  8
KONSTRUKTIONSELEMENTE
100
AcDbSpline
 62
7
  6
CONTINUOUS
 70
0
 71
3
 72
9
 73
5
 74
0
 42
0.0000001
 43
0.0000001
 44
0.0000000001
 40
0.0
 40
0.0
 40
0.0
 40
0.0
 40
0.2605100871
 40
1.0
 40
1.0
 40
1.0
 40
1.0
 10
657.2824377795
 20
181.5717159878
 30
0.0
 10
657.28998132
 20
181.5831549779
 30
0.0
 10
657.3161547913
 20
181.6288026082
 30
0.0
 10
657.3292799971
 20
181.6821952682
 30
0.0
 10
657.3292822799
 20
181.7210911874
 30
0.0
  0
SPLINE
  5
5EA
100
AcDbEntity
  8
KONSTRUKTIONSELEMENTE
100
AcDbSpline
 62
7
  6
CONTINUOUS
 70
0
 71
3
 72
9
 73
5
 74
0
 42
0.0000001
 43
0.0000001
 44
0.0000000001
 40
0.0
 40
0.0
 40
0.0
 40
0.0
 40
0.5322168521
 40
1.0
 40
1.0
 40
1.0
 40
1.0
 10
678.8054334965
 20
215.0456659741
 30
0.0
 10
678.9265213308
 20
215.0057397664
 30
0.0
 10
679.1771478909
 20
214.9954442062
 30
0.0
 10
679.4082020026
 20
215.1231227629
 30
0.0
 10
679.4698965209
 20
215.2166760458
 30
0.0
  0
SPLINE
  5
5EB
100
AcDbEntity
  8
KONSTRUKTIONSELEMENTE
100
AcDbSpline
 62
7
  6
CONTINUOUS
 70
0
 71
3
 72
9
 73
5
 74
0
 42
0.0000001
 43
0.0000001
 44
0.0000000001
 40
0.0
 40
0.0
 40
0.0
 40
0.0
 40
0.5108269807
 40
1.0
 40
1.0
 40
1.0
 40
1.0
 10
679.8925147826
 20
215.8575324278
 30
0.0
 10
680.0408970216
 20
216.0825385703
 30
0.0
 10
680.2770736193
 20
216.5629917622
 30
0.0
 10
680.3609712793
 20
217.0935491134
 30
0.0
 10
680.3609758776
 20
217.3516513036
 30
0.0
  0
SPLINE
  5
5EC
100
AcDbEntity
  8
KONSTRUKTIONSELEMENTE
100
AcDbSpline
 62
7
  6
CONTINUOUS
 70
0
 71
3
 72
11
 73
7
 74
0
 42
0.0000001
 43
0.0000001
 44
0.0000000001
 40
0.0
 40
0.0
 40
0.0
 40
0.0
 40
0.2200436456
 40
0.4557793627
 40
0.7157728079
 40
1.0
 40
1.0
 40
1.0
 40
1.0
 10
597.4206099742
 20
213.4932355624
 30
0.0
 10
597.4206377481
 20
213.5941421429
 30
0.0
 10
597.4649523081
 20
213.8050444409
 30
0.0
 10
597.6503060164
 20
214.0834758572
 30
0.0
 10
597.9329346841
 20
214.3099509366
 30
0.0
 10
598.1628970948
 20
214.4134685615
 30
0.0
 10
598.2866812566
 20
214.4542838274
 30
0.0
  0
SPLINE
  5
5ED
100
AcDbEntity
  8
BEZUGSACHSEN
100
AcDbSpline
 62
7
  6
CONTINUOUS
 70
0
 71
3
 72
19
 73
15
 74
0
 42
0.0000001
 43
0.0000001
 44
0.0000000001
 40
0.0
 40
0.0
 40
0.0
 40
0.0
 40
0.0517234907
 40
0.1053372095
 40
0.1622487312
 40
0.2232163938
 40
0.3564752704
 40
0.5
 40
0.6435247296
 40
0.7767836062
 40
0.8377512688
 40
0.8946627905
 40
0.9482765093
 40
1.0
 40
1.0
 40
1.0
 40
1.0
 10
635.6299126469
 20
231.4616292518
 30
0.0
 10
635.6299126469
 20
231.2063030677
 30
0.0
 10
635.5557620657
 20
230.6836801354
 30
0.0
 10
635.2315762668
 20
229.9420587463
 30
0.0
 10
634.7113041743
 20
229.2648103529
 30
0.0
 10
633.7607373048
 20
228.4573673928
 30
0.0
 10
632.2107568129
 20
227.7570457393
 30
0.0
 10
630.1299126469
 20
227.4768684575
 30
0.0
 10
628.0490684809
 20
227.7570457393
 30
0.0
 10
626.499087989
 20
228.4573673928
 30
0.0
 10
625.5485211195
 20
229.2648103529
 30
0.0
 10
625.028249027
 20
229.9420587463
 30
0.0
 10
624.7040632281
 20
230.6836801354
 30
0.0
 10
624.6299126469
 20
231.2063030677
 30
0.0
 10
624.6299126469
 20
231.4616292518
 30
0.0
  0
SPLINE
  5
5EE
100
AcDbEntity
  8
KONSTRUKTIONSELEMENTE
100
AcDbSpline
 62
7
  6
CONTINUOUS
 70
0
 71
3
 72
11
 73
7
 74
0
 42
0.0000001
 43
0.0000001
 44
0.0000000001
 40
0.0
 40
0.0
 40
0.0
 40
0.0
 40
0.2842271921
 40
0.5442206373
 40
0.7799563544
 40
1.0
 40
1.0
 40
1.0
 40
1.0
 10
603.6634567152
 20
215.0203056475
 30
0.0
 10
603.787240877
 20
215.0611209134
 30
0.0
 10
604.0172032877
 20
215.1646385383
 30
0.0
 10
604.2998319554
 20
215.3911136177
 30
0.0
 10
604.4851856637
 20
215.6695450339
 30
0.0
 10
604.5295002237
 20
215.880447332
 30
0.0
 10
604.5295279976
 20
215.9813539124
 30
0.0
  0
SPLINE
  5
5EF
100
AcDbEntity
  8
BEZUGSACHSEN
100
AcDbSpline
 62
7
  6
CONTINUOUS
 70
0
 71
3
 72
9
 73
5
 74
0
 42
0.0000001
 43
0.0000001
 44
0.0000000001
 40
0.0
 40
0.0
 40
0.0
 40
0.0
 40
0.2459480989
 40
1.0
 40
1.0
 40
1.0
 40
1.0
 10
636.8918048347
 20
237.4726906776
 30
0.0
 10
636.5535898696
 20
237.5842100637
 30
0.0
 10
635.1662662319
 20
238.0001059531
 30
0.0
 10
633.7355600896
 20
238.2690231769
 30
0.0
 10
632.6505948257
 20
238.3914175007
 30
0.0
  0
LINE
  5
5F0
100
AcDbEntity
  8
BEZUGSACHSEN
100
AcDbLine
 62
7
  6
CONTINUOUS
 10
632.6505948257
 20
238.3914175007
 11
632.6314867963
 21
238.3935646935
  0
LINE
  5
5F1
100
AcDbEntity
  8
BEZUGSACHSEN
100
AcDbLine
 62
7
  6
CONTINUOUS
 10
627.6283384975
 20
238.3935646935
 11
627.6092304681
 21
238.3914175007
  0
SPLINE
  5
5F2
100
AcDbEntity
  8
BEZUGSACHSEN
100
AcDbSpline
 62
7
  6
CONTINUOUS
 70
0
 71
3
 72
9
 73
5
 74
0
 42
0.0000001
 43
0.0000001
 44
0.0000000001
 40
0.0
 40
0.0
 40
0.0
 40
0.0
 40
0.2536911427
 40
1.0
 40
1.0
 40
1.0
 40
1.0
 10
627.6092304681
 20
238.3914175007
 30
0.0
 10
627.2442144287
 20
238.3502402457
 30
0.0
 10
625.8097255921
 20
238.152323298
 30
0.0
 10
624.3942865861
 20
237.8110806966
 30
0.0
 10
623.368020459
 20
237.4726906776
 30
0.0
  0
SPLINE
  5
5F3
100
AcDbEntity
  8
KONSTRUKTIONSELEMENTE
100
AcDbSpline
 62
7
  6
CONTINUOUS
 70
0
 71
3
 72
11
 73
7
 74
0
 42
0.0000001
 43
0.0000001
 44
0.0000000001
 40
0.0
 40
0.0
 40
0.0
 40
0.0
 40
0.2094829334
 40
0.4446557434
 40
0.7120095299
 40
1.0
 40
1.0
 40
1.0
 40
1.0
 10
623.5799126469
 20
166.4078053826
 30
0.0
 10
623.5799126469
 20
166.2672442952
 30
0.0
 10
623.6712000762
 20
165.9653506508
 30
0.0
 10
624.0207222975
 20
165.6196493905
 30
0.0
 10
624.5116968577
 20
165.3976683786
 30
0.0
 10
624.8866737372
 20
165.3471452108
 30
0.0
 10
625.0799126469
 20
165.3471452108
 30
0.0
  0
SPLINE
  5
5F4
100
AcDbEntity
  8
KONSTRUKTIONSELEMENTE
100
AcDbSpline
 62
7
  6
CONTINUOUS
 70
0
 71
3
 72
10
 73
6
 74
0
 42
0.0000001
 43
0.0000001
 44
0.0000000001
 40
0.0
 40
0.0
 40
0.0
 40
0.0
 40
0.2210513433
 40
0.4578290806
 40
1.0
 40
1.0
 40
1.0
 40
1.0
 10
657.3292822799
 20
185.2566250933
 30
0.0
 10
657.3292842546
 20
185.2902720871
 30
0.0
 10
657.3145208904
 20
185.3606279678
 30
0.0
 10
657.228790569
 20
185.4895764548
 30
0.0
 10
657.1189681174
 20
185.5512536366
 30
0.0
 10
657.0405930169
 20
185.5770962042
 30
0.0
  0
SPLINE
  5
5F5
100
AcDbEntity
  8
KONSTRUKTIONSELEMENTE
100
AcDbSpline
 62
7
  6
CONTINUOUS
 70
0
 71
3
 72
11
 73
7
 74
0
 42
0.0000001
 43
0.0000001
 44
0.0000000001
 40
0.0
 40
0.0
 40
0.0
 40
0.0
 40
0.220058334
 40
0.4557781708
 40
0.71578719
 40
1.0
 40
1.0
 40
1.0
 40
1.0
 10
680.3609758776
 20
220.8871852096
 30
0.0
 10
680.3609818716
 20
221.223625869
 30
0.0
 10
680.2135117692
 20
221.9268290153
 30
0.0
 10
679.5956482578
 20
222.8552359475
 30
0.0
 10
678.6534070984
 20
223.6102985043
 30
0.0
 10
677.8867373341
 20
223.9554599858
 30
0.0
 10
677.4740671562
 20
224.0915294377
 30
0.0
  0
SPLINE
  5
5F6
100
AcDbEntity
  8
KONSTRUKTIONSELEMENTE
100
AcDbSpline
 62
7
  6
CONTINUOUS
 70
0
 71
3
 72
11
 73
7
 74
0
 42
0.0000001
 43
0.0000001
 44
0.0000000001
 40
0.0
 40
0.0
 40
0.0
 40
0.0
 40
0.2842268035
 40
0.5442239761
 40
0.7799400332
 40
1.0
 40
1.0
 40
1.0
 40
1.0
 10
651.1495924011
 20
187.5195317559
 30
0.0
 10
650.7369083241
 20
187.6556057907
 30
0.0
 10
649.9702469611
 20
188.0007675951
 30
0.0
 10
649.0280320359
 20
188.7558192662
 30
0.0
 10
648.4101706131
 20
189.6841923048
 30
0.0
 10
648.2627346281
 20
190.3873755082
 30
0.0
 10
648.2626982327
 20
190.723813429
 30
0.0
  0
SPLINE
  5
5F7
100
AcDbEntity
  8
KONSTRUKTIONSELEMENTE
100
AcDbSpline
 62
7
  6
CONTINUOUS
 70
0
 71
3
 72
13
 73
9
 74
0
 42
0.0000001
 43
0.0000001
 44
0.0000000001
 40
0.0
 40
0.0
 40
0.0
 40
0.0
 40
0.2637729944
 40
0.3981079932
 40
0.5304590913
 40
0.6584573598
 40
0.7801901214
 40
1.0
 40
1.0
 40
1.0
 40
1.0
 10
672.9144328808
 20
216.9881015259
 30
0.0
 10
672.305623472
 20
217.1888438304
 30
0.0
 10
671.3340458725
 20
217.35076266
 30
0.0
 10
670.0433626576
 20
217.3011735013
 30
0.0
 10
669.0958860707
 20
217.1313998686
 30
0.0
 10
668.2116191949
 20
216.8342028016
 30
0.0
 10
667.1989731457
 20
216.304755094
 30
0.0
 10
666.5638981156
 20
215.7239658362
 30
0.0
 10
666.2698026369
 20
215.2780008092
 30
0.0
  0
SPLINE
  5
5F8
100
AcDbEntity
  8
KONSTRUKTIONSELEMENTE
100
AcDbSpline
 62
7
  6
CONTINUOUS
 70
0
 71
3
 72
11
 73
7
 74
0
 42
0.0000001
 43
0.0000001
 44
0.0000000001
 40
0.0
 40
0.0
 40
0.0
 40
0.0
 40
0.2734021419
 40
0.5341050701
 40
0.7768911277
 40
1.0
 40
1.0
 40
1.0
 40
1.0
 10
620.2153770153
 20
179.1806282326
 30
0.0
 10
619.8205858477
 20
179.2255476841
 30
0.0
 10
619.0549105834
 20
179.3795445862
 30
0.0
 10
618.0011718938
 20
179.8042139055
 30
0.0
 10
617.1170948433
 20
180.3966345509
 30
0.0
 10
616.6566751868
 20
180.9063935015
 30
0.0
 10
616.4781685405
 20
181.1770801563
 30
0.0
  0
SPLINE
  5
5F9
100
AcDbEntity
  8
KONSTRUKTIONSELEMENTE
100
AcDbSpline
 62
7
  6
CONTINUOUS
 70
0
 71
3
 72
11
 73
7
 74
0
 42
0.0000001
 43
0.0000001
 44
0.0000000001
 40
0.0
 40
0.0
 40
0.0
 40
0.0
 40
0.2842240174
 40
0.5442187073
 40
0.779940343
 40
1.0
 40
1.0
 40
1.0
 40
1.0
 10
593.6614515821
 20
227.6775643025
 30
0.0
 10
593.2487610674
 20
227.541488145
 30
0.0
 10
592.4820884624
 20
227.1963187414
 30
0.0
 10
591.539852115
 20
226.4412430359
 30
0.0
 10
590.9219905611
 20
225.5128271119
 30
0.0
 10
590.7745772589
 20
224.8096103245
 30
0.0
 10
590.7745576138
 20
224.4731643298
 30
0.0
  0
SPLINE
  5
5FA
100
AcDbEntity
  8
KONSTRUKTIONSELEMENTE
100
AcDbSpline
 62
7
  6
CONTINUOUS
 70
0
 71
3
 72
9
 73
5
 74
0
 42
0.0000001
 43
0.0000001
 44
0.0000000001
 40
0.0
 40
0.0
 40
0.0
 40
0.0
 40
0.5108316005
 40
1.0
 40
1.0
 40
1.0
 40
1.0
 10
591.2430039556
 20
219.4435672926
 30
0.0
 10
591.0946146624
 20
219.6685841322
 30
0.0
 10
590.8584294013
 20
220.1490536474
 30
0.0
 10
590.7745294916
 20
220.6796390362
 30
0.0
 10
590.7745574136
 20
220.9377487235
 30
0.0
  0
SPLINE
  5
5FB
100
AcDbEntity
  8
KONSTRUKTIONSELEMENTE
100
AcDbSpline
 62
7
  6
CONTINUOUS
 70
0
 71
3
 72
9
 73
5
 74
0
 42
0.0000001
 43
0.0000001
 44
0.0000000001
 40
0.0
 40
0.0
 40
0.0
 40
0.0
 40
0.2553888241
 40
1.0
 40
1.0
 40
1.0
 40
1.0
 10
640.6799126469
 20
179.4892808346
 30
0.0
 10
640.5121483151
 20
179.4892808346
 30
0.0
 10
639.8557895541
 20
179.4601236865
 30
0.0
 10
639.2028953353
 20
179.3149994785
 30
0.0
 10
638.7472228988
 20
179.1371959779
 30
0.0
  0
SPLINE
  5
5FC
100
AcDbEntity
  8
KONSTRUKTIONSELEMENTE
100
AcDbSpline
 62
7
  6
CONTINUOUS
 70
0
 71
3
 72
11
 73
7
 74
0
 42
0.0000001
 43
0.0000001
 44
0.0000000001
 40
0.0
 40
0.0
 40
0.0
 40
0.0
 40
0.2820767698
 40
0.5407553301
 40
0.7772666753
 40
1.0
 40
1.0
 40
1.0
 40
1.0
 10
638.6882350047
 20
179.1137171016
 30
0.0
 10
638.3962869305
 20
178.9952056746
 30
0.0
 10
637.8570192268
 20
178.7101857615
 30
0.0
 10
637.2027930937
 20
178.1240266987
 30
0.0
 10
636.7796070167
 20
177.4268479708
 30
0.0
 10
636.6799126469
 20
176.9096510766
 30
0.0
 10
636.6799126469
 20
176.6608537098
 30
0.0
  0
SPLINE
  5
5FD
100
AcDbEntity
  8
KONSTRUKTIONSELEMENTE
100
AcDbSpline
 62
7
  6
CONTINUOUS
 70
0
 71
3
 72
11
 73
7
 74
0
 42
0.0000001
 43
0.0000001
 44
0.0000000001
 40
0.0
 40
0.0
 40
0.0
 40
0.0
 40
0.2842271921
 40
0.5442206373
 40
0.7799563544
 40
1.0
 40
1.0
 40
1.0
 40
1.0
 10
602.8182201918
 20
215.948465021
 30
0.0
 10
602.9420043536
 20
215.9892802869
 30
0.0
 10
603.1719667642
 20
216.0927979118
 30
0.0
 10
603.4545954319
 20
216.3192729912
 30
0.0
 10
603.6399491403
 20
216.5977044074
 30
0.0
 10
603.6842637002
 20
216.8086067055
 30
0.0
 10
603.6842914741
 20
216.909513286
 30
0.0
  0
SPLINE
  5
5FE
100
AcDbEntity
  8
KONSTRUKTIONSELEMENTE
100
AcDbSpline
 62
7
  6
CONTINUOUS
 70
0
 71
3
 72
11
 73
7
 74
0
 42
0.0000001
 43
0.0000001
 44
0.0000000001
 40
0.0
 40
0.0
 40
0.0
 40
0.0
 40
0.2879904701
 40
0.5553442566
 40
0.7905170666
 40
1.0
 40
1.0
 40
1.0
 40
1.0
 10
635.1799126469
 20
165.3471452108
 30
0.0
 10
635.3731515566
 20
165.3471452108
 30
0.0
 10
635.7481284361
 20
165.3976683786
 30
0.0
 10
636.2391029963
 20
165.6196493905
 30
0.0
 10
636.5886252176
 20
165.9653506508
 30
0.0
 10
636.6799126469
 20
166.2672442952
 30
0.0
 10
636.6799126469
 20
166.4078053826
 30
0.0
  0
SPLINE
  5
5FF
100
AcDbEntity
  8
KONSTRUKTIONSELEMENTE
100
AcDbSpline
 62
7
  6
CONTINUOUS
 70
0
 71
3
 72
9
 73
5
 74
0
 42
0.0000001
 43
0.0000001
 44
0.0000000001
 40
0.0
 40
0.0
 40
0.0
 40
0.0
 40
0.254679268
 40
1.0
 40
1.0
 40
1.0
 40
1.0
 10
620.5292944336
 20
179.4892808346
 30
0.0
 10
620.6209778654
 20
179.47344112
 30
0.0
 10
620.9792716959
 20
179.4019561918
 30
0.0
 10
621.3304043838
 20
179.2932001557
 30
0.0
 10
621.5824319467
 20
179.1901353677
 30
0.0
  0
SPLINE
  5
600
100
AcDbEntity
  8
KONSTRUKTIONSELEMENTE
100
AcDbSpline
 62
7
  6
CONTINUOUS
 70
0
 71
3
 72
11
 73
7
 74
0
 42
0.0000001
 43
0.0000001
 44
0.0000000001
 40
0.0
 40
0.0
 40
0.0
 40
0.0
 40
0.2808713938
 40
0.5389210953
 40
0.7759033082
 40
1.0
 40
1.0
 40
1.0
 40
1.0
 10
621.7143783298
 20
179.1337514838
 30
0.0
 10
621.9877314915
 20
179.0117973241
 30
0.0
 10
622.4913320968
 20
178.7245597343
 30
0.0
 10
623.0983744809
 20
178.1494734661
 30
0.0
 10
623.4885357477
 20
177.4756609376
 30
0.0
 10
623.5799126469
 20
176.9804943413
 30
0.0
 10
623.5799126469
 20
176.7416751293
 30
0.0
  0
SPLINE
  5
601
100
AcDbEntity
  8
KONSTRUKTIONSELEMENTE
100
AcDbSpline
 62
7
  6
CONTINUOUS
 70
0
 71
3
 72
9
 73
5
 74
0
 42
0.0000001
 43
0.0000001
 44
0.0000000001
 40
0.0
 40
0.0
 40
0.0
 40
0.0
 40
0.5107012964
 40
1.0
 40
1.0
 40
1.0
 40
1.0
 10
597.5611469686
 20
210.2163177714
 30
0.0
 10
597.5166201431
 20
210.2838380443
 30
0.0
 10
597.445765401
 20
210.4280650281
 30
0.0
 10
597.4205886454
 20
210.5873176768
 30
0.0
 10
597.4206099742
 20
210.6648084377
 30
0.0
  0
SPLINE
  5
602
100
AcDbEntity
  8
KONSTRUKTIONSELEMENTE
100
AcDbSpline
 62
7
  6
CONTINUOUS
 70
0
 71
3
 72
9
 73
5
 74
0
 42
0.0000001
 43
0.0000001
 44
0.0000000001
 40
0.0
 40
0.0
 40
0.0
 40
0.0
 40
0.4892987036
 40
1.0
 40
1.0
 40
1.0
 40
1.0
 10
603.6842914741
 20
216.909513286
 30
0.0
 10
603.6843128029
 20
216.9870040468
 30
0.0
 10
603.6591360473
 20
217.1462566955
 30
0.0
 10
603.5882813053
 20
217.2904836794
 30
0.0
 10
603.5437544797
 20
217.3580039522
 30
0.0
  0
SPLINE
  5
603
100
AcDbEntity
  8
KONSTRUKTIONSELEMENTE
100
AcDbSpline
 62
7
  6
CONTINUOUS
 70
0
 71
3
 72
11
 73
7
 74
0
 42
0.0000001
 43
0.0000001
 44
0.0000000001
 40
0.0
 40
0.0
 40
0.0
 40
0.0
 40
0.2729767978
 40
0.5353848362
 40
0.7789285996
 40
1.0
 40
1.0
 40
1.0
 40
1.0
 10
652.4906528456
 20
182.6712613499
 30
0.0
 10
652.9594049839
 20
182.6712613499
 30
0.0
 10
653.8815382829
 20
182.7622787876
 30
0.0
 10
655.167495655
 20
183.1657406097
 30
0.0
 10
656.2529700445
 20
183.8064488437
 30
0.0
 10
656.8132001058
 20
184.3957000505
 30
0.0
 10
657.0221917808
 20
184.7126140622
 30
0.0
  0
SPLINE
  5
604
100
AcDbEntity
  8
KONSTRUKTIONSELEMENTE
100
AcDbSpline
 62
7
  6
CONTINUOUS
 70
0
 71
3
 72
13
 73
9
 74
0
 42
0.0000001
 43
0.0000001
 44
0.0000000001
 40
0.0
 40
0.0
 40
0.0
 40
0.0
 40
0.2870489256
 40
0.5535682914
 40
0.6755020148
 40
0.789331082
 40
0.8965440086
 40
1.0
 40
1.0
 40
1.0
 40
1.0
 10
638.6799126469
 20
182.6712613499
 30
0.0
 10
638.1646456875
 20
182.6712613499
 30
0.0
 10
637.1658944408
 20
182.53709274
 30
0.0
 10
636.0393846626
 20
182.0277542012
 30
0.0
 10
635.3479352776
 20
181.4405423397
 30
0.0
 10
634.9696384518
 20
180.947969731
 30
0.0
 10
634.7338064079
 20
180.4086327086
 30
0.0
 10
634.6799126469
 20
180.0285428252
 30
0.0
 10
634.6799126469
 20
179.8428342252
 30
0.0
  0
SPLINE
  5
605
100
AcDbEntity
  8
KONSTRUKTIONSELEMENTE
100
AcDbSpline
 62
7
  6
CONTINUOUS
 70
0
 71
3
 72
8
 73
4
 74
0
 42
0.0000001
 43
0.0000001
 44
0.0000000001
 40
0.0
 40
0.0
 40
0.0
 40
0.0
 40
1.0
 40
1.0
 40
1.0
 40
1.0
 10
604.4721264636
 20
215.918424856
 30
0.0
 10
604.4499207189
 20
215.9735967366
 30
0.0
 10
604.4217324873
 20
216.0266421526
 30
0.0
 10
604.3889910032
 20
216.0762911881
 30
0.0
  0
SPLINE
  5
606
100
AcDbEntity
  8
KONSTRUKTIONSELEMENTE
100
AcDbSpline
 62
7
  6
CONTINUOUS
 70
0
 71
3
 72
13
 73
9
 74
0
 42
0.0000001
 43
0.0000001
 44
0.0000000001
 40
0.0
 40
0.0
 40
0.0
 40
0.0
 40
0.1034559914
 40
0.210668918
 40
0.3244979852
 40
0.4464317086
 40
0.7129510744
 40
1.0
 40
1.0
 40
1.0
 40
1.0
 10
625.5799126469
 20
179.8428342252
 30
0.0
 10
625.5799126469
 20
180.0285428252
 30
0.0
 10
625.5260188859
 20
180.4086327086
 30
0.0
 10
625.290186842
 20
180.947969731
 30
0.0
 10
624.9118900162
 20
181.4405423397
 30
0.0
 10
624.2204406312
 20
182.0277542012
 30
0.0
 10
623.093930853
 20
182.53709274
 30
0.0
 10
622.0951796063
 20
182.6712613499
 30
0.0
 10
621.5799126469
 20
182.6712613499
 30
0.0
  0
SPLINE
  5
607
100
AcDbEntity
  8
KONSTRUKTIONSELEMENTE
100
AcDbSpline
 62
7
  6
CONTINUOUS
 70
0
 71
3
 72
9
 73
5
 74
0
 42
0.0000001
 43
0.0000001
 44
0.0000000001
 40
0.0
 40
0.0
 40
0.0
 40
0.0
 40
0.4891683995
 40
1.0
 40
1.0
 40
1.0
 40
1.0
 10
648.2626982327
 20
190.723813429
 30
0.0
 10
648.2626703107
 20
190.9819231163
 30
0.0
 10
648.3465702203
 20
191.512508505
 30
0.0
 10
648.5827554814
 20
191.9929780203
 30
0.0
 10
648.7311447746
 20
192.2179948598
 30
0.0
  0
SPLINE
  5
608
100
AcDbEntity
  8
KONSTRUKTIONSELEMENTE
100
AcDbSpline
 62
7
  6
CONTINUOUS
 70
0
 71
3
 72
11
 73
7
 74
0
 42
0.0000001
 43
0.0000001
 44
0.0000000001
 40
0.0
 40
0.0
 40
0.0
 40
0.0
 40
0.2094829334
 40
0.4446557434
 40
0.7120095299
 40
1.0
 40
1.0
 40
1.0
 40
1.0
 10
623.5799126469
 20
169.2362325074
 30
0.0
 10
623.5799126469
 20
169.09567142
 30
0.0
 10
623.6712000762
 20
168.7937777755
 30
0.0
 10
624.0207222975
 20
168.4480765152
 30
0.0
 10
624.5116968577
 20
168.2260955033
 30
0.0
 10
624.8866737372
 20
168.1755723356
 30
0.0
 10
625.0799126469
 20
168.1755723356
 30
0.0
  0
SPLINE
  5
609
100
AcDbEntity
  8
KONSTRUKTIONSELEMENTE
100
AcDbSpline
 62
7
  6
CONTINUOUS
 70
0
 71
3
 72
9
 73
5
 74
0
 42
0.0000001
 43
0.0000001
 44
0.0000000001
 40
0.0
 40
0.0
 40
0.0
 40
0.0
 40
0.4891681133
 40
1.0
 40
1.0
 40
1.0
 40
1.0
 10
590.7745576138
 20
224.4731643298
 30
0.0
 10
590.7745425438
 20
224.2150738707
 30
0.0
 10
590.8584535061
 20
223.6845322076
 30
0.0
 10
591.0946255475
 20
223.2041015319
 30
0.0
 10
591.2430039556
 20
222.9791011985
 30
0.0
  0
SPLINE
  5
60A
100
AcDbEntity
  8
KONSTRUKTIONSELEMENTE
100
AcDbSpline
 62
7
  6
CONTINUOUS
 70
0
 71
3
 72
13
 73
9
 74
0
 42
0.0000001
 43
0.0000001
 44
0.0000000001
 40
0.0
 40
0.0
 40
0.0
 40
0.0
 40
0.2198121251
 40
0.3415455497
 40
0.4695397045
 40
0.6018885822
 40
0.736224413
 40
1.0
 40
1.0
 40
1.0
 40
1.0
 10
666.2698026369
 20
218.8135347152
 30
0.0
 10
666.5639011081
 20
219.2595042799
 30
0.0
 10
667.1989830825
 20
219.8402975894
 30
0.0
 10
668.2116286423
 20
220.3697397169
 30
0.0
 10
669.0958822593
 20
220.6669317317
 30
0.0
 10
670.043345122
 20
220.8367051377
 30
0.0
 10
671.3340310616
 20
220.8862989148
 30
0.0
 10
672.3056175156
 20
220.7243797004
 30
0.0
 10
672.9144328808
 20
220.5236354318
 30
0.0
  0
SPLINE
  5
60B
100
AcDbEntity
  8
KONSTRUKTIONSELEMENTE
100
AcDbSpline
 62
7
  6
CONTINUOUS
 70
0
 71
3
 72
9
 73
5
 74
0
 42
0.0000001
 43
0.0000001
 44
0.0000000001
 40
0.0
 40
0.0
 40
0.0
 40
0.0
 40
0.4892987036
 40
1.0
 40
1.0
 40
1.0
 40
1.0
 10
604.5295279976
 20
215.9813539124
 30
0.0
 10
604.5295493264
 20
216.0588446733
 30
0.0
 10
604.5043725708
 20
216.218097322
 30
0.0
 10
604.4335178287
 20
216.3623243059
 30
0.0
 10
604.3889910032
 20
216.4298445787
 30
0.0
  0
SPLINE
  5
60C
100
AcDbEntity
  8
KONSTRUKTIONSELEMENTE
100
AcDbSpline
 62
7
  6
CONTINUOUS
 70
0
 71
3
 72
13
 73
9
 74
0
 42
0.0000001
 43
0.0000001
 44
0.0000000001
 40
0.0
 40
0.0
 40
0.0
 40
0.0
 40
0.1037033436
 40
0.212323527
 40
0.3277710209
 40
0.4507608463
 40
0.7166544849
 40
1.0
 40
1.0
 40
1.0
 40
1.0
 10
625.5498094184
 20
179.835284271
 30
0.0
 10
625.5198846718
 20
180.0069754758
 30
0.0
 10
625.412788555
 20
180.3518452954
 30
0.0
 10
625.1280430543
 20
180.8284388767
 30
0.0
 10
624.7285603451
 20
181.2587032408
 30
0.0
 10
624.0443433499
 20
181.7656092188
 30
0.0
 10
622.9831511728
 20
182.2022461398
 30
0.0
 10
622.0560913898
 20
182.3177079593
 30
0.0
 10
621.5799126469
 20
182.3177079593
 30
0.0
  0
SPLINE
  5
60D
100
AcDbEntity
  8
KONSTRUKTIONSELEMENTE
100
AcDbSpline
 62
7
  6
CONTINUOUS
 70
0
 71
3
 72
11
 73
7
 74
0
 42
0.0000001
 43
0.0000001
 44
0.0000000001
 40
0.0
 40
0.0
 40
0.0
 40
0.0
 40
0.2231088723
 40
0.4658949299
 40
0.7265978581
 40
1.0
 40
1.0
 40
1.0
 40
1.0
 10
616.4781685405
 20
184.7126140622
 30
0.0
 10
616.6566751868
 20
184.4419274075
 30
0.0
 10
617.1170948433
 20
183.9321684569
 30
0.0
 10
618.0011718938
 20
183.3397478114
 30
0.0
 10
619.0549105834
 20
182.9150784921
 30
0.0
 10
619.8205858477
 20
182.76108159
 30
0.0
 10
620.2153770153
 20
182.7161621385
 30
0.0
  0
SPLINE
  5
60E
100
AcDbEntity
  8
KONSTRUKTIONSELEMENTE
100
AcDbSpline
 62
7
  6
CONTINUOUS
 70
0
 71
3
 72
9
 73
5
 74
0
 42
0.0000001
 43
0.0000001
 44
0.0000000001
 40
0.0
 40
0.0
 40
0.0
 40
0.0
 40
0.5108269807
 40
1.0
 40
1.0
 40
1.0
 40
1.0
 10
679.8925147826
 20
219.3930663338
 30
0.0
 10
680.0408970216
 20
219.6180724762
 30
0.0
 10
680.2770736193
 20
220.0985256681
 30
0.0
 10
680.3609712793
 20
220.6290830193
 30
0.0
 10
680.3609758776
 20
220.8871852096
 30
0.0
  0
SPLINE
  5
60F
100
AcDbEntity
  8
KONSTRUKTIONSELEMENTE
100
AcDbSpline
 62
7
  6
CONTINUOUS
 70
0
 71
3
 72
9
 73
5
 74
0
 42
0.0000001
 43
0.0000001
 44
0.0000000001
 40
0.0
 40
0.0
 40
0.0
 40
0.0
 40
0.5322168521
 40
1.0
 40
1.0
 40
1.0
 40
1.0
 10
678.8054334965
 20
218.58119988
 30
0.0
 10
678.9265213308
 20
218.5412736723
 30
0.0
 10
679.1771478909
 20
218.5309781121
 30
0.0
 10
679.4082020026
 20
218.6586566689
 30
0.0
 10
679.4698965209
 20
218.7522099517
 30
0.0
  0
SPLINE
  5
610
100
AcDbEntity
  8
BEZUGSACHSEN
100
AcDbSpline
 62
7
  6
CONTINUOUS
 70
0
 71
3
 72
11
 73
7
 74
0
 42
0.0000001
 43
0.0000001
 44
0.0000000001
 40
0.0
 40
0.0
 40
0.0
 40
0.0
 40
0.221185816
 40
0.4572071684
 40
0.716647289
 40
1.0
 40
1.0
 40
1.0
 40
1.0
 10
624.6299126469
 20
231.4616292518
 30
0.0
 10
624.6299126469
 20
231.8198217595
 30
0.0
 10
624.7811279037
 20
232.5667282272
 30
0.0
 10
625.4184494982
 20
233.5617829664
 30
0.0
 10
626.3959435263
 20
234.382978619
 30
0.0
 10
627.1957162432
 20
234.7688121635
 30
0.0
 10
627.6272664311
 20
234.9247709271
 30
0.0
  0
SPLINE
  5
611
100
AcDbEntity
  8
BEZUGSACHSEN
100
AcDbSpline
 62
7
  6
CONTINUOUS
 70
0
 71
3
 72
11
 73
7
 74
0
 42
0.0000001
 43
0.0000001
 44
0.0000000001
 40
0.0
 40
0.0
 40
0.0
 40
0.0
 40
0.283352711
 40
0.5427928316
 40
0.778814184
 40
1.0
 40
1.0
 40
1.0
 40
1.0
 10
632.6325588627
 20
234.9247709271
 30
0.0
 10
633.0641090506
 20
234.7688121635
 30
0.0
 10
633.8638817675
 20
234.382978619
 30
0.0
 10
634.8413757955
 20
233.5617829664
 30
0.0
 10
635.4786973901
 20
232.5667282272
 30
0.0
 10
635.6299126469
 20
231.8198217595
 30
0.0
 10
635.6299126469
 20
231.4616292518
 30
0.0
  0
SPLINE
  5
612
100
AcDbEntity
  8
KONSTRUKTIONSELEMENTE
100
AcDbSpline
 62
7
  6
CONTINUOUS
 70
0
 71
3
 72
9
 73
5
 74
0
 42
0.0000001
 43
0.0000001
 44
0.0000000001
 40
0.0
 40
0.0
 40
0.0
 40
0.0
 40
0.2605100871
 40
1.0
 40
1.0
 40
1.0
 40
1.0
 10
657.2824377795
 20
185.1072498938
 30
0.0
 10
657.28998132
 20
185.1186888838
 30
0.0
 10
657.3161547913
 20
185.1643365141
 30
0.0
 10
657.3292799971
 20
185.2177291741
 30
0.0
 10
657.3292822799
 20
185.2566250933
 30
0.0
  0
SPLINE
  5
613
100
AcDbEntity
  8
KONSTRUKTIONSELEMENTE
100
AcDbSpline
 62
7
  6
CONTINUOUS
 70
0
 71
3
 72
11
 73
7
 74
0
 42
0.0000001
 43
0.0000001
 44
0.0000000001
 40
0.0
 40
0.0
 40
0.0
 40
0.0
 40
0.2445537072
 40
0.4957655095
 40
0.7496099133
 40
1.0
 40
1.0
 40
1.0
 40
1.0
 10
600.8178666915
 20
219.2844208353
 30
0.0
 10
600.744778945
 20
219.4459038101
 30
0.0
 10
600.5428926338
 20
219.7512372661
 30
0.0
 10
600.1153531529
 20
220.099417303
 30
0.0
 10
599.5976093019
 20
220.3036748512
 30
0.0
 10
599.2229677138
 20
220.3173930978
 30
0.0
 10
599.0436575568
 20
220.2893936778
 30
0.0
  0
SPLINE
  5
614
100
AcDbEntity
  8
KONSTRUKTIONSELEMENTE
100
AcDbSpline
 62
7
  6
CONTINUOUS
 70
0
 71
3
 72
11
 73
7
 74
0
 42
0.0000001
 43
0.0000001
 44
0.0000000001
 40
0.0
 40
0.0
 40
0.0
 40
0.0
 40
0.1794231642
 40
0.4196341704
 40
0.7047772544
 40
1.0
 40
1.0
 40
1.0
 40
1.0
 10
600.8178666915
 20
220.8702072729
 30
0.0
 10
600.7231107493
 20
220.9482246715
 30
0.0
 10
600.4493449293
 20
221.0619596514
 30
0.0
 10
599.9698183324
 20
221.124621549
 30
0.0
 10
599.4060566461
 20
221.094288787
 30
0.0
 10
599.0162784399
 20
221.0071400117
 30
0.0
 10
598.8244776183
 20
220.9438976597
 30
0.0
  0
SPLINE
  5
615
100
AcDbEntity
  8
KONSTRUKTIONSELEMENTE
100
AcDbSpline
 62
7
  6
CONTINUOUS
 70
0
 71
3
 72
9
 73
5
 74
0
 42
0.0000001
 43
0.0000001
 44
0.0000000001
 40
0.0
 40
0.0
 40
0.0
 40
0.0
 40
0.5107012964
 40
1.0
 40
1.0
 40
1.0
 40
1.0
 10
597.5611469686
 20
213.0447448962
 30
0.0
 10
597.5166201431
 20
213.112265169
 30
0.0
 10
597.445765401
 20
213.2564921529
 30
0.0
 10
597.4205886454
 20
213.4157448016
 30
0.0
 10
597.4206099742
 20
213.4932355624
 30
0.0
  0
SPLINE
  5
616
100
AcDbEntity
  8
KONSTRUKTIONSELEMENTE
100
AcDbSpline
 62
7
  6
CONTINUOUS
 70
0
 71
3
 72
12
 73
8
 74
0
 42
0.0000001
 43
0.0000001
 44
0.0000000001
 40
0.0
 40
0.0
 40
0.0
 40
0.0
 40
0.2870657329
 40
0.5499484279
 40
0.784313774
 40
0.893576856
 40
1.0
 40
1.0
 40
1.0
 40
1.0
 10
620.5292944336
 20
182.3177079593
 30
0.0
 10
620.947211021
 20
182.2455064794
 30
0.0
 10
621.7361851318
 20
182.0126332665
 30
0.0
 10
622.7343650195
 20
181.3939604329
 30
0.0
 10
623.3119455555
 20
180.6765519817
 30
0.0
 10
623.5416411832
 20
180.0471937698
 30
0.0
 10
623.5799126469
 20
179.7273306097
 30
0.0
 10
623.5799126469
 20
179.5701022541
 30
0.0
  0
SPLINE
  5
617
100
AcDbEntity
  8
KONSTRUKTIONSELEMENTE
100
AcDbSpline
 62
7
  6
CONTINUOUS
 70
0
 71
3
 72
13
 73
9
 74
0
 42
0.0000001
 43
0.0000001
 44
0.0000000001
 40
0.0
 40
0.0
 40
0.0
 40
0.0
 40
0.2833455151
 40
0.5492391537
 40
0.6722289791
 40
0.787676473
 40
0.8962966564
 40
1.0
 40
1.0
 40
1.0
 40
1.0
 10
638.6799126469
 20
182.3177079593
 30
0.0
 10
638.203733904
 20
182.3177079593
 30
0.0
 10
637.276674121
 20
182.2022461398
 30
0.0
 10
636.2154819438
 20
181.7656092188
 30
0.0
 10
635.5312649487
 20
181.2587032408
 30
0.0
 10
635.1317822395
 20
180.8284388767
 30
0.0
 10
634.8470367388
 20
180.3518452954
 30
0.0
 10
634.739940622
 20
180.0069754758
 30
0.0
 10
634.7100158754
 20
179.835284271
 30
0.0
  0
SPLINE
  5
618
100
AcDbEntity
  8
KONSTRUKTIONSELEMENTE
100
AcDbSpline
 62
7
  6
CONTINUOUS
 70
0
 71
3
 72
13
 73
9
 74
0
 42
0.0000001
 43
0.0000001
 44
0.0000000001
 40
0.0
 40
0.0
 40
0.0
 40
0.0
 40
0.2870489256
 40
0.5535682914
 40
0.6755020148
 40
0.789331082
 40
0.8965440086
 40
1.0
 40
1.0
 40
1.0
 40
1.0
 10
640.6799126469
 20
182.3177079593
 30
0.0
 10
640.1646456875
 20
182.3177079593
 30
0.0
 10
639.1658944408
 20
182.1835393494
 30
0.0
 10
638.0393846626
 20
181.6742008106
 30
0.0
 10
637.3479352776
 20
181.0869889491
 30
0.0
 10
636.9696384518
 20
180.5944163404
 30
0.0
 10
636.7338064079
 20
180.055079318
 30
0.0
 10
636.6799126469
 20
179.6749894346
 30
0.0
 10
636.6799126469
 20
179.4892808346
 30
0.0
  0
SPLINE
  5
619
100
AcDbEntity
  8
KONSTRUKTIONSELEMENTE
100
AcDbSpline
 62
7
  6
CONTINUOUS
 70
0
 71
3
 72
11
 73
7
 74
0
 42
0.0000001
 43
0.0000001
 44
0.0000000001
 40
0.0
 40
0.0
 40
0.0
 40
0.0
 40
0.2879904701
 40
0.5553442566
 40
0.7905170666
 40
1.0
 40
1.0
 40
1.0
 40
1.0
 10
635.1799126469
 20
168.1755723356
 30
0.0
 10
635.3731515566
 20
168.1755723356
 30
0.0
 10
635.7481284361
 20
168.2260955033
 30
0.0
 10
636.2391029963
 20
168.4480765152
 30
0.0
 10
636.5886252176
 20
168.7937777755
 30
0.0
 10
636.6799126469
 20
169.09567142
 30
0.0
 10
636.6799126469
 20
169.2362325074
 30
0.0
  0
SPLINE
  5
61A
100
AcDbEntity
  8
BEZUGSACHSEN
100
AcDbSpline
 62
7
  6
CONTINUOUS
 70
0
 71
3
 72
11
 73
7
 74
0
 42
0.0000001
 43
0.0000001
 44
0.0000000001
 40
0.0
 40
0.0
 40
0.0
 40
0.0
 40
0.2500346306
 40
0.5000539342
 40
0.7500425608
 40
1.0
 40
1.0
 40
1.0
 40
1.0
 10
619.4042347078
 20
114.045568093
 30
0.0
 10
619.6016035396
 20
114.0455679402
 30
0.0
 10
620.0005418412
 20
114.1232455066
 30
0.0
 10
620.5073376171
 20
114.4568680497
 30
0.0
 10
620.8493204733
 20
114.9584220516
 30
0.0
 10
620.929912583
 20
115.3574709219
 30
0.0
 10
620.9299126469
 20
115.5547788215
 30
0.0
  0
SPLINE
  5
61B
100
AcDbEntity
  8
BEZUGSACHSEN
100
AcDbSpline
 62
7
  6
CONTINUOUS
 70
0
 71
3
 72
11
 73
7
 74
0
 42
0.0000001
 43
0.0000001
 44
0.0000000001
 40
0.0
 40
0.0
 40
0.0
 40
0.0
 40
0.2500139668
 40
0.5000035064
 40
0.749990811
 40
1.0
 40
1.0
 40
1.0
 40
1.0
 10
592.4726094903
 20
114.0455663536
 30
0.0
 10
592.3510370429
 20
114.0455663688
 30
0.0
 10
592.1069110425
 20
114.0748215028
 30
0.0
 10
591.7623011957
 20
114.2041196439
 30
0.0
 10
591.4580827341
 20
114.41133288
 30
0.0
 10
591.2937906765
 20
114.5943267958
 30
0.0
 10
591.2240608436
 20
114.6939111594
 30
0.0
  0
SPLINE
  5
61C
100
AcDbEntity
  8
BEZUGSACHSEN
100
AcDbSpline
 62
7
  6
CONTINUOUS
 70
0
 71
3
 72
11
 73
7
 74
0
 42
0.0000001
 43
0.0000001
 44
0.0000000001
 40
0.0
 40
0.0
 40
0.0
 40
0.0
 40
0.25001079
 40
0.5000108943
 40
0.7500048976
 40
1.0
 40
1.0
 40
1.0
 40
1.0
 10
664.9708642587
 20
145.0926622286
 30
0.0
 10
665.1104195173
 20
145.1480800047
 30
0.0
 10
665.374676146
 20
145.3014042752
 30
0.0
 10
665.6852607774
 20
145.6365169302
 30
0.0
 10
665.8842163996
 20
146.0478845222
 30
0.0
 10
665.9299125421
 20
146.3500921399
 30
0.0
 10
665.9299126469
 20
146.5002386373
 30
0.0
  0
SPLINE
  5
61D
100
AcDbEntity
  8
RUNDUNGEN
100
AcDbSpline
 62
7
  6
CONTINUOUS
 70
0
 71
3
 72
11
 73
7
 74
0
 42
0.0000001
 43
0.0000001
 44
0.0000000001
 40
0.0
 40
0.0
 40
0.0
 40
0.0
 40
0.2500346306
 40
0.5000539342
 40
0.7500425608
 40
1.0
 40
1.0
 40
1.0
 40
1.0
 10
642.455590586
 20
141.0285197932
 30
0.0
 10
642.2582217542
 20
141.0285199459
 30
0.0
 10
641.8592834526
 20
140.9508423795
 30
0.0
 10
641.3524876767
 20
140.6172198364
 30
0.0
 10
641.0105048205
 20
140.1156658346
 30
0.0
 10
640.9299127108
 20
139.7166169642
 30
0.0
 10
640.9299126469
 20
139.5193090647
 30
0.0
  0
SPLINE
  5
61E
100
AcDbEntity
  8
RUNDUNGEN
100
AcDbSpline
 62
7
  6
CONTINUOUS
 70
0
 71
3
 72
11
 73
7
 74
0
 42
0.0000001
 43
0.0000001
 44
0.0000000001
 40
0.0
 40
0.0
 40
0.0
 40
0.0
 40
0.2500139668
 40
0.5000035064
 40
0.749990811
 40
1.0
 40
1.0
 40
1.0
 40
1.0
 10
669.3872158035
 20
141.0285215326
 30
0.0
 10
669.5087882509
 20
141.0285215174
 30
0.0
 10
669.7529142513
 20
140.9992663834
 30
0.0
 10
670.0975240981
 20
140.8699682422
 30
0.0
 10
670.4017425597
 20
140.6627550061
 30
0.0
 10
670.5660346173
 20
140.4797610904
 30
0.0
 10
670.6357644502
 20
140.3801767268
 30
0.0
  0
SPLINE
  5
61F
100
AcDbEntity
  8
RUNDUNGEN
100
AcDbSpline
 62
7
  6
CONTINUOUS
 70
0
 71
3
 72
11
 73
7
 74
0
 42
0.0000001
 43
0.0000001
 44
0.0000000001
 40
0.0
 40
0.0
 40
0.0
 40
0.0
 40
0.25001079
 40
0.5000108943
 40
0.7500048976
 40
1.0
 40
1.0
 40
1.0
 40
1.0
 10
596.8889610351
 20
109.9814256575
 30
0.0
 10
596.7494057765
 20
109.9260078815
 30
0.0
 10
596.4851491478
 20
109.7726836109
 30
0.0
 10
596.1745645164
 20
109.4375709559
 30
0.0
 10
595.9756088942
 20
109.0262033639
 30
0.0
 10
595.9299127517
 20
108.7239957463
 30
0.0
 10
595.9299126469
 20
108.5738492489
 30
0.0
  0
LINE
  5
620
100
AcDbEntity
  8
BEZUGSACHSEN
100
AcDbLine
 62
7
  6
CONTINUOUS
 10
649.3512030312
 20
138.9529273049
 11
649.3792349784
 21
138.9529099431
  0
SPLINE
  5
621
100
AcDbEntity
  8
BEZUGSACHSEN
100
AcDbSpline
 62
7
  6
CONTINUOUS
 70
0
 71
3
 72
32
 73
28
 74
0
 42
0.0000001
 43
0.0000001
 44
0.0000000001
 40
0.0
 40
0.0
 40
0.0
 40
0.0
 40
0.010906715
 40
0.0220461144
 40
0.0352964658
 40
0.0517222742
 40
0.0717539377
 40
0.0954823889
 40
0.1228166695
 40
0.1535575482
 40
0.2241202703
 40
0.3044594242
 40
0.3913500342
 40
0.4812704285
 40
0.5705780085
 40
0.6556884216
 40
0.7333168658
 40
0.7684825426
 40
0.8008972958
 40
0.8304693979
 40
0.857286053
 40
0.8816875034
 40
0.9043439445
 40
0.9262780037
 40
0.9487450823
 40
0.9729875615
 40
1.0
 40
1.0
 40
1.0
 40
1.0
 10
598.8157510469
 20
121.2505676071
 30
0.0
 10
598.8157510469
 20
121.3079035469
 30
0.0
 10
598.837548678
 20
121.4261595816
 30
0.0
 10
598.9528534123
 20
121.5781946189
 30
0.0
 10
599.1346353555
 20
121.6967644008
 30
0.0
 10
599.3784819804
 20
121.7932610936
 30
0.0
 10
599.6853282525
 20
121.8724836215
 30
0.0
 10
600.0536576117
 20
121.93719744
 30
0.0
 10
600.4806607519
 20
121.9893167438
 30
0.0
 10
601.1545630373
 20
122.0467063716
 30
0.0
 10
602.1087552662
 20
122.0901039162
 30
0.0
 10
603.3586941248
 20
122.111865151
 30
0.0
 10
604.7106047336
 20
122.1078828292
 30
0.0
 10
606.109323795
 20
122.0775167739
 30
0.0
 10
607.4977594037
 20
122.0158532105
 30
0.0
 10
608.8190552309
 20
121.913813241
 30
0.0
 10
609.8519033282
 20
121.780980146
 30
0.0
 10
610.601014915
 20
121.6325275306
 30
0.0
 10
611.0956080216
 20
121.5036234274
 30
0.0
 10
611.5372855387
 20
121.3504947555
 30
0.0
 10
611.9225804846
 20
121.1693634629
 30
0.0
 10
612.2487844188
 20
120.9556058582
 30
0.0
 10
612.5131853227
 20
120.7038497737
 30
0.0
 10
612.7126380551
 20
120.4097073136
 30
0.0
 10
612.8461859262
 20
120.0716537131
 30
0.0
 10
612.9181161403
 20
119.6890502112
 30
0.0
 10
612.9299126469
 20
119.4191789491
 30
0.0
 10
612.9299126469
 20
119.2771761972
 30
0.0
  0
SPLINE
  5
622
100
AcDbEntity
  8
BEZUGSACHSEN
100
AcDbSpline
 62
7
  6
CONTINUOUS
 70
0
 71
3
 72
9
 73
5
 74
0
 42
0.0000001
 43
0.0000001
 44
0.0000000001
 40
0.0
 40
0.0
 40
0.0
 40
0.0
 40
0.4788957548
 40
1.0
 40
1.0
 40
1.0
 40
1.0
 10
598.8157510469
 20
125.2933491089
 30
0.0
 10
598.8157510469
 20
125.6515489738
 30
0.0
 10
598.8358065853
 20
126.3993469548
 30
0.0
 10
598.8465707634
 20
127.1472733754
 30
0.0
 10
598.8465707634
 20
127.5370439431
 30
0.0
  0
SPLINE
  5
623
100
AcDbEntity
  8
BEZUGSACHSEN
100
AcDbSpline
 62
7
  6
CONTINUOUS
 70
0
 71
3
 72
32
 73
28
 74
0
 42
0.0000001
 43
0.0000001
 44
0.0000000001
 40
0.0
 40
0.0
 40
0.0
 40
0.0
 40
0.010906715
 40
0.0220461144
 40
0.0352964658
 40
0.0517222742
 40
0.0717539377
 40
0.0954823889
 40
0.1228166695
 40
0.1535575482
 40
0.2241202703
 40
0.3044594242
 40
0.3913500342
 40
0.4812704285
 40
0.5705780085
 40
0.6556884216
 40
0.7333168658
 40
0.7684825426
 40
0.8008972958
 40
0.8304693979
 40
0.857286053
 40
0.8816875034
 40
0.9043439445
 40
0.9262780037
 40
0.9487450823
 40
0.9729875615
 40
1.0
 40
1.0
 40
1.0
 40
1.0
 10
663.0440742469
 20
133.823520279
 30
0.0
 10
663.0440742469
 20
133.7661843393
 30
0.0
 10
663.0222766158
 20
133.6479283046
 30
0.0
 10
662.9069718815
 20
133.4958932672
 30
0.0
 10
662.7251899383
 20
133.3773234853
 30
0.0
 10
662.4813433134
 20
133.2808267926
 30
0.0
 10
662.1744970413
 20
133.2016042647
 30
0.0
 10
661.8061676821
 20
133.1368904461
 30
0.0
 10
661.3791645419
 20
133.0847711423
 30
0.0
 10
660.7052622565
 20
133.0273815146
 30
0.0
 10
659.7510700276
 20
132.9839839699
 30
0.0
 10
658.501131169
 20
132.9622227351
 30
0.0
 10
657.1492205602
 20
132.966205057
 30
0.0
 10
655.7505014988
 20
132.9965711123
 30
0.0
 10
654.3620658901
 20
133.0582346756
 30
0.0
 10
653.0407700629
 20
133.1602746452
 30
0.0
 10
652.0079219656
 20
133.2931077402
 30
0.0
 10
651.2588103788
 20
133.4415603556
 30
0.0
 10
650.7642172722
 20
133.5704644588
 30
0.0
 10
650.3225397551
 20
133.7235931307
 30
0.0
 10
649.9372448092
 20
133.9047244233
 30
0.0
 10
649.611040875
 20
134.118482028
 30
0.0
 10
649.3466399711
 20
134.3702381125
 30
0.0
 10
649.1471872387
 20
134.6643805725
 30
0.0
 10
649.0136393676
 20
135.0024341731
 30
0.0
 10
648.9417091535
 20
135.3850376749
 30
0.0
 10
648.9299126469
 20
135.654908937
 30
0.0
 10
648.9299126469
 20
135.796911689
 30
0.0
  0
SPLINE
  5
624
100
AcDbEntity
  8
BEZUGSACHSEN
100
AcDbSpline
 62
7
  6
CONTINUOUS
 70
0
 71
3
 72
9
 73
5
 74
0
 42
0.0000001
 43
0.0000001
 44
0.0000000001
 40
0.0
 40
0.0
 40
0.0
 40
0.0
 40
0.521104291
 40
1.0
 40
1.0
 40
1.0
 40
1.0
 10
598.8465707634
 20
127.5370439431
 30
0.0
 10
598.8465707634
 20
127.926814545
 30
0.0
 10
598.8358065793
 20
128.6747409656
 30
0.0
 10
598.8157510469
 20
129.4225389466
 30
0.0
 10
598.8157510469
 20
129.7807387772
 30
0.0
  0
SPLINE
  5
625
100
AcDbEntity
  8
BEZUGSACHSEN
100
AcDbSpline
 62
7
  6
CONTINUOUS
 70
0
 71
3
 72
9
 73
5
 74
0
 42
0.0000001
 43
0.0000001
 44
0.0000000001
 40
0.0
 40
0.0
 40
0.0
 40
0.0
 40
0.4788957216
 40
1.0
 40
1.0
 40
1.0
 40
1.0
 10
612.9299126469
 20
129.7807387772
 30
0.0
 10
612.9299126469
 20
129.4225389372
 30
0.0
 10
612.9098571121
 20
128.6747409562
 30
0.0
 10
612.8990929304
 20
127.9268145356
 30
0.0
 10
612.8990929304
 20
127.5370439431
 30
0.0
  0
SPLINE
  5
626
100
AcDbEntity
  8
BEZUGSACHSEN
100
AcDbSpline
 62
7
  6
CONTINUOUS
 70
0
 71
3
 72
9
 73
5
 74
0
 42
0.0000001
 43
0.0000001
 44
0.0000000001
 40
0.0
 40
0.0
 40
0.0
 40
0.0
 40
0.5211042335
 40
1.0
 40
1.0
 40
1.0
 40
1.0
 10
612.8990929304
 20
127.5370439431
 30
0.0
 10
612.8990929304
 20
127.1472733841
 30
0.0
 10
612.9098571062
 20
126.3993469635
 30
0.0
 10
612.9299126469
 20
125.6515489826
 30
0.0
 10
612.9299126469
 20
125.2933491089
 30
0.0
  0
LINE
  5
627
100
AcDbEntity
  8
RUNDUNGEN
100
AcDbLine
 62
7
  6
CONTINUOUS
 10
612.5086222626
 20
116.1211605813
 11
612.4805903154
 21
116.1211779431
  0
SPLINE
  5
628
100
AcDbEntity
  8
BEZUGSACHSEN
100
AcDbSpline
 62
7
  6
CONTINUOUS
 70
0
 71
3
 72
9
 73
5
 74
0
 42
0.0000001
 43
0.0000001
 44
0.0000000001
 40
0.0
 40
0.0
 40
0.0
 40
0.0
 40
0.4788957789
 40
1.0
 40
1.0
 40
1.0
 40
1.0
 10
648.9299126469
 20
129.7807387772
 30
0.0
 10
648.9299126469
 20
129.4225388943
 30
0.0
 10
648.9499681811
 20
128.6747409133
 30
0.0
 10
648.9607323634
 20
127.9268144927
 30
0.0
 10
648.9607323634
 20
127.5370439431
 30
0.0
  0
SPLINE
  5
629
100
AcDbEntity
  8
BEZUGSACHSEN
100
AcDbSpline
 62
7
  6
CONTINUOUS
 70
0
 71
3
 72
9
 73
5
 74
0
 42
0.0000001
 43
0.0000001
 44
0.0000000001
 40
0.0
 40
0.0
 40
0.0
 40
0.0
 40
0.521104204
 40
1.0
 40
1.0
 40
1.0
 40
1.0
 10
663.0132545304
 20
127.5370439431
 30
0.0
 10
663.0132545304
 20
127.9268144799
 30
0.0
 10
663.0240187014
 20
128.6747409007
 30
0.0
 10
663.0440742469
 20
129.4225388815
 30
0.0
 10
663.0440742469
 20
129.7807387772
 30
0.0
  0
SPLINE
  5
62A
100
AcDbEntity
  8
BEZUGSACHSEN
100
AcDbSpline
 62
7
  6
CONTINUOUS
 70
0
 71
3
 72
9
 73
5
 74
0
 42
0.0000001
 43
0.0000001
 44
0.0000000001
 40
0.0
 40
0.0
 40
0.0
 40
0.0
 40
0.521104206
 40
1.0
 40
1.0
 40
1.0
 40
1.0
 10
648.9607323634
 20
127.5370439431
 30
0.0
 10
648.9607323634
 20
127.1472734047
 30
0.0
 10
648.949968182
 20
126.3993469842
 30
0.0
 10
648.9299126469
 20
125.6515490032
 30
0.0
 10
648.9299126469
 20
125.2933491089
 30
0.0
  0
SPLINE
  5
62B
100
AcDbEntity
  8
BEZUGSACHSEN
100
AcDbSpline
 62
7
  6
CONTINUOUS
 70
0
 71
3
 72
9
 73
5
 74
0
 42
0.0000001
 43
0.0000001
 44
0.0000000001
 40
0.0
 40
0.0
 40
0.0
 40
0.0
 40
0.4788958106
 40
1.0
 40
1.0
 40
1.0
 40
1.0
 10
663.0440742469
 20
125.2933491089
 30
0.0
 10
663.0440742469
 20
125.6515490155
 30
0.0
 10
663.0240187006
 20
126.3993469964
 30
0.0
 10
663.0132545304
 20
127.1472734171
 30
0.0
 10
663.0132545304
 20
127.5370439431
 30
0.0
  0
SPLINE
  5
62C
100
AcDbEntity
  8
KONSTRUKTIONSELEMENTE
100
AcDbSpline
 62
7
  6
CONTINUOUS
 70
0
 71
3
 72
10
 73
6
 74
0
 42
0.0000001
 43
0.0000001
 44
0.0000000001
 40
0.0
 40
0.0
 40
0.0
 40
0.0
 40
0.4999897493
 40
0.749980272
 40
1.0
 40
1.0
 40
1.0
 40
1.0
 10
666.1299126469
 20
251.8060348663
 30
0.0
 10
668.3690712267
 20
251.0427879884
 30
0.0
 10
671.6375389172
 20
249.6342899227
 30
0.0
 10
676.240342835
 20
248.4786874714
 30
0.0
 10
678.6101928905
 20
248.2664514999
 30
0.0
 10
679.7931436216
 20
248.266445912
 30
0.0
  0
ELLIPSE
  5
62D
100
AcDbEntity
  8
KONSTRUKTIONSELEMENTE
100
AcDbEllipse
 62
7
  6
CONTINUOUS
 10
317.8612484418
 20
280.8661467609
 30
0.0
 11
10.4
 21
0.0
 31
0.0
 40
0.5969224292
 41
-2.8451247493
 42
-2.7758847477
  0
ELLIPSE
  5
62E
100
AcDbEntity
  8
KONSTRUKTIONSELEMENTE
100
AcDbEllipse
 62
7
  6
CONTINUOUS
 10
317.8612484418
 20
283.5795341169
 30
0.0
 11
-0.0
 21
13.7955432175
 31
0.0
 40
0.7538666536
 41
-4.3466810745
 42
-4.2935387832
  0
ELLIPSE
  5
62F
100
AcDbEntity
  8
KONSTRUKTIONSELEMENTE
100
AcDbEllipse
 62
7
  6
CONTINUOUS
 10
317.8612484418
 20
294.8011038434
 30
0.0
 11
0.0
 21
41.3866059708
 31
0.0
 40
0.2512890283
 41
-4.2935387832
 42
-4.2755505308
  0
ELLIPSE
  5
630
100
AcDbEntity
  8
KONSTRUKTIONSELEMENTE
100
AcDbEllipse
 62
7
  6
CONTINUOUS
 10
317.8612484418
 20
284.6339551742
 30
0.0
 11
10.4
 21
-0.0
 31
0.0
 40
0.2709435377
 41
2.7047542041
 42
3.1414627224
  0
ELLIPSE
  5
631
100
AcDbEntity
  8
KONSTRUKTIONSELEMENTE
100
AcDbEllipse
 62
7
  6
CONTINUOUS
 10
317.8612484418
 20
259.1042991102
 30
0.0
 11
0.0
 21
41.3866296524
 31
0.0
 40
0.2512888845
 41
1.1339578773
 42
1.1519461296
  0
ELLIPSE
  5
632
100
AcDbEntity
  8
KONSTRUKTIONSELEMENTE
100
AcDbEllipse
 62
7
  6
CONTINUOUS
 10
317.8612484418
 20
270.3258816789
 30
0.0
 11
-0.0
 21
13.7955353236
 31
0.0
 40
0.753867085
 41
1.1519461296
 42
1.2050884209
  0
ELLIPSE
  5
633
100
AcDbEntity
  8
KONSTRUKTIONSELEMENTE
100
AcDbEllipse
 62
7
  6
CONTINUOUS
 10
317.8612484418
 20
273.0392651533
 30
0.0
 11
10.4
 21
0.0
 31
0.0
 40
0.5969227138
 41
2.7758847477
 42
2.8451247493
  0
ELLIPSE
  5
634
100
AcDbEntity
  8
KONSTRUKTIONSELEMENTE
100
AcDbEllipse
 62
7
  6
CONTINUOUS
 10
317.8612484418
 20
296.6819092433
 30
0.0
 11
0.0
 21
11.03642291
 31
0.0
 40
0.9423343129
 41
1.5847083988
 42
1.6338495524
  0
ELLIPSE
  5
635
100
AcDbEntity
  8
KONSTRUKTIONSELEMENTE
100
AcDbEllipse
 62
7
  6
CONTINUOUS
 10
317.8612484418
 20
273.8856261133
 30
0.0
 11
10.4
 21
-0.0
 31
0.0
 40
0.3183585363
 41
2.8451247493
 42
2.9296996226
  0
ELLIPSE
  5
636
100
AcDbEntity
  8
KONSTRUKTIONSELEMENTE
100
AcDbEllipse
 62
7
  6
CONTINUOUS
 10
317.8612484418
 20
298.5943216108
 30
0.0
 11
-0.0
 21
41.3866569572
 31
0.0
 40
0.2512887187
 41
-4.6493357548
 42
-4.6329273207
  0
ELLIPSE
  5
637
100
AcDbEntity
  8
KONSTRUKTIONSELEMENTE
100
AcDbEllipse
 62
7
  6
CONTINUOUS
 10
317.8612484418
 20
274.3332632166
 30
0.0
 11
10.4
 21
0.0
 31
0.0
 40
0.1136995517
 41
2.9296996226
 42
3.0457010902
  0
ELLIPSE
  5
638
100
AcDbEntity
  8
KONSTRUKTIONSELEMENTE
100
AcDbEllipse
 62
7
  6
CONTINUOUS
 10
317.8612484418
 20
281.9302095459
 30
0.0
 11
10.4
 21
-0.0
 31
0.0
 40
0.4138661092
 41
-3.1411715933
 42
-2.8791805872
  0
ELLIPSE
  5
639
100
AcDbEntity
  8
KONSTRUKTIONSELEMENTE
100
AcDbEllipse
 62
7
  6
CONTINUOUS
 10
317.8612484418
 20
277.5928103701
 30
0.0
 11
-0.0
 21
12.4159876145
 31
0.0
 40
0.8376297016
 41
1.3083842604
 42
1.342131222
  0
ELLIPSE
  5
63A
100
AcDbEntity
  8
KONSTRUKTIONSELEMENTE
100
AcDbEllipse
 62
7
  6
CONTINUOUS
 10
317.8612484418
 20
288.1020317202
 30
0.0
 11
10.4
 21
0.0
 31
0.0
 40
0.2709436346
 41
3.1417225848
 42
3.5784311031
  0
ELLIPSE
  5
63B
100
AcDbEntity
  8
KONSTRUKTIONSELEMENTE
100
AcDbEllipse
 62
7
  6
CONTINUOUS
 10
317.8612484418
 20
280.0197859739
 30
0.0
 11
10.4
 21
0.0
 31
0.0
 40
0.3183583086
 41
-2.9296996226
 42
-2.8451247493
  0
ELLIPSE
  5
63C
100
AcDbEntity
  8
BEZUGSACHSEN
100
AcDbEllipse
 62
7
  6
CONTINUOUS
 10
586.1299126469
 20
127.5370439431
 30
0.0
 11
-0.0
 21
4.520682936
 31
0.0
 40
0.1051042353
 41
-3.1415926536
 42
0.0
  0
ELLIPSE
  5
63D
100
AcDbEntity
  8
KONSTRUKTIONSELEMENTE
100
AcDbEllipse
 62
7
  6
CONTINUOUS
 10
593.6590112905
 20
218.6432340861
 30
0.0
 11
1.4997504735
 21
0.4499923381
 31
0.0
 40
0.0607989098
 41
-2.7235007144
 42
-1.1527043876
  0
ELLIPSE
  5
63E
100
AcDbEntity
  8
KONSTRUKTIONSELEMENTE
100
AcDbEllipse
 62
7
  6
CONTINUOUS
 10
598.875749811
 20
218.7448283997
 30
0.0
 11
1.4788083775
 21
-0.9183885846
 31
0.0
 40
0.7424978488
 41
7.2982401868
 42
8.4470576931
  0
ELLIPSE
  5
63F
100
AcDbEntity
  8
KONSTRUKTIONSELEMENTE
100
AcDbEllipse
 62
7
  6
CONTINUOUS
 10
593.6590112905
 20
221.4716612109
 30
0.0
 11
-0.6090262239
 21
2.029784266
 31
0.0
 40
0.6753417036
 41
-4.6941486066
 42
-3.1233522798
  0
ELLIPSE
  5
640
100
AcDbEntity
  8
KONSTRUKTIONSELEMENTE
100
AcDbEllipse
 62
7
  6
CONTINUOUS
 10
598.875749811
 20
222.2803623056
 30
0.0
 11
1.4788083775
 21
-0.9183885846
 31
0.0
 40
0.7424978488
 41
1.0150548796
 42
2.5858512064
  0
ELLIPSE
  5
641
100
AcDbEntity
  8
BEZUGSACHSEN
100
AcDbEllipse
 62
7
  6
CONTINUOUS
 10
586.9299126469
 20
127.5370439431
 30
0.0
 11
-0.0
 21
4.520682936
 31
0.0
 40
0.1051042353
 41
-3.1415926536
 42
0.0
  0
ELLIPSE
  5
642
100
AcDbEntity
  8
0
100
AcDbEllipse
 62
7
  6
CONTINUOUS
 10
674.9299126469
 20
127.5370439431
 30
0.0
 11
-0.0
 21
4.520682936
 31
0.0
 40
0.1051042353
 41
0.0
 42
3.1415926536
  0
ELLIPSE
  5
643
100
AcDbEntity
  8
BEZUGSACHSEN
100
AcDbEllipse
 62
7
  6
CONTINUOUS
 10
620.9299126469
 20
127.5370439431
 30
0.0
 11
0.0
 21
4.15
 31
0.0
 40
0.1583844403
 41
0.0
 42
3.1415926536
  0
ELLIPSE
  5
644
100
AcDbEntity
  8
0
100
AcDbEllipse
 62
7
  6
CONTINUOUS
 10
640.9299126469
 20
127.5370439431
 30
0.0
 11
0.0
 21
4.15
 31
0.0
 40
0.1583844403
 41
-3.1415926536
 42
0.0
  0
ENDSEC
  0
SECTION
  2
OBJECTS
  0
DICTIONARY
  5
C
100
AcDbDictionary
280
0
281
1
  3
ACAD_GROUP
350
D
  3
ACAD_MLINESTYLE
350
17
  3
ACAD_LAYOUT
350
1A
  3
ACAD_PLOTSETTINGS
350
19
  3
ACAD_PLOTSTYLENAME
350
E
  0
DICTIONARY
  5
D
102
{ACAD_REACTORS
330
C
102
}
100
AcDbDictionary
280
0
281
1
  0
ACDBDICTIONARYWDFLT
  5
E
102
{ACAD_REACTORS
330
C
102
}
100
AcDbDictionary
281
1
  3
Normal
350
F
100
AcDbDictionaryWithDefault
340
F
  0
DICTIONARY
  5
17
102
{ACAD_REACTORS
330
C
102
}
100
AcDbDictionary
280
0
281
1
  3
Standard
350
18
  0
DICTIONARY
  5
19
102
{ACAD_REACTORS
330
C
102
}
100
AcDbDictionary
281
1
  0
DICTIONARY
  5
1A
102
{ACAD_REACTORS
330
C
102
}
100
AcDbDictionary
281
1
  3
Model
350
645
  3
Layout1
350
646
  0
ACDBPLACEHOLDER
  5
F
102
{ACAD_REACTORS
330
E
102
}
  0
MLINESTYLE
  5
18
102
{ACAD_REACTORS
330
17
102
}
100
AcDbMlineStyle
  2
STANDARD
 70
0
  3

 62
256
 51
90.0
 52
90.0
 71
2
 49
0.5
 62
256
  6
BYLAYER
 49
-0.5
 62
256
  6
BYLAYER
  0
LAYOUT
  5
645
102
{ACAD_REACTORS
330
1A
102
}
100
AcDbPlotSettings
  1

  2
none_device
  4
ISO_A1_(594.00_x_841.00_MM)
  6

 40
0.0
 41
0.0
 42
0.0
 43
0.0
 44
841.0
 45
594.0
 46
0.0
 47
0.0
 48
0.0
 49
0.0
140
0.0
141
0.0
142
1.0
143
1.0
 70
1024
 72
1
 73
0
 74
0
  7

 75
0
147
1.0
148
0.0
149
0.0
100
AcDbLayout
  1
Model
 70
0
 71
0
 10
0.0
 20
0.0
 11
841.0
 21
594.0
 12
0.0
 22
0.0
 32
0.0
 14
0.0
 24
0.0
 34
0.0
 15
0.0
 25
0.0
 35
0.0
146
0.0
 13
0.0
 23
0.0
 33
0.0
 16
1.0
 26
0.0
 36
0.0
 17
0.0
 27
1.0
 37
0.0
 76
0
330
20D
345
0
346
0
  0
LAYOUT
  5
646
102
{ACAD_REACTORS
330
1A
102
}
100
AcDbPlotSettings
  1

  2
none_device
  4
ISO_A1_(594.00_x_841.00_MM)
  6

 40
0.0
 41
0.0
 42
0.0
 43
0.0
 44
841.0
 45
594.0
 46
0.0
 47
0.0
 48
0.0
 49
0.0
140
0.0
141
0.0
142
1.0
143
1.0
 70
0
 72
1
 73
0
 74
0
  7

 75
0
147
1.0
148
0.0
149
0.0
100
AcDbLayout
  1
Layout1
 70
0
 71
1
 10
0.0
 20
0.0
 11
841.0
 21
594.0
 12
0.0
 22
0.0
 32
0.0
 14
0.0
 24
0.0
 34
0.0
 15
0.0
 25
0.0
 35
0.0
146
0.0
 13
0.0
 23
0.0
 33
0.0
 16
1.0
 26
0.0
 36
0.0
 17
0.0
 27
1.0
 37
0.0
 76
0
330
20E
345
0
346
0
  0
ENDSEC
  0
EOF
