999
DXF file: vgil-6_dxf.dxf
999
Pro/ENGINEER 2011490 by Parametric Technology Corporation
  0
SECTION
  2
HEADER
  9
$ACADVER
  1
AC1021
  9
$DWGCODEPAGE
  3
ANSI_1252
  9
$EXTMAX
 10
420.0
 20
297.0
 30
0.0
  9
$EXTMIN
 10
0.0
 20
0.0
 30
0.0
  9
$LIMMIN
 10
0.0
 20
0.0
  9
$LIMMAX
 10
420.0
 20
297.0
  9
$VIEWCTR
 10
210.0
 20
148.5
  9
$VIEWSIZE
 40
297.0
  9
$CLAYER
  8
0
  9
$LTSCALE
 40
23.1
  9
$CELTYPE
  6
BYLAYER
  9
$DIMSCALE
 40
1.0
  9
$DIMASZ
 40
3.5
  9
$DIMEXO
 40
2.625
  9
$DIMDLI
 40
15.96
  9
$DIMEXE
 40
7.56
  9
$DIMCEN
 40
3.78
  9
$DIMLFAC
 40
1.0
  9
$DIMBLK
  1
_FILLED
  9
$DIMTXT
 40
3.5
  9
$DIMTOL
 70
1
  9
$DIMLIM
 70
0
  9
$DIMTFAC
 40
1.0
  9
$DIMTP
 40
0.005
  9
$DIMTM
 40
0.005
  9
$PDMODE
 70
3
  9
$PDSIZE
 40
0.3125
  9
$HANDSEED
  5
324
  9
$TILEMODE
 70
1
  9
$MEASUREMENT
 70
1
  9
$INSUNITS
 70
4
  0
ENDSEC
  0
SECTION
  2
CLASSES
  0
CLASS
  1
ACDBDICTIONARYWDFLT
  2
AcDbDictionaryWithDefault
  3
AutoCAD 2000
 90
0
 91
1
280
0
281
0
  0
CLASS
  1
ACDBPLACEHOLDER
  2
AcDbPlaceHolder
  3
AutoCAD 2000
 90
0
 91
1
280
0
281
0
  0
CLASS
  1
LAYOUT
  2
AcDbLayout
  3
AutoCAD 2000
 90
0
 91
0
280
0
281
0
  0
ENDSEC
  0
SECTION
  2
TABLES
  0
TABLE
  2
VPORT
  5
8
100
AcDbSymbolTable
 70
2
  0
VPORT
  5
1F4
100
AcDbSymbolTableRecord
100
AcDbViewportTableRecord
  2
*ACTIVE
 70
0
 10
0.0
 20
0.0
 11
1.0
 21
1.0
 12
210.0
 22
148.5
 13
0.0
 23
0.0
 14
1.0
 24
1.0
 15
0.0
 25
0.0
 16
0.0
 26
0.0
 36
1.0
 17
0.0
 27
0.0
 37
0.0
 40
297.0
 41
1.4141414141
 42
50.0
 43
0.0
 44
0.0
 50
0.0
 51
0.0
 71
0
 72
100
 73
1
 74
1
 75
0
 76
0
 77
0
 78
0
  0
ENDTAB
  0
TABLE
  2
LTYPE
  5
5
100
AcDbSymbolTable
 70
6
  0
LTYPE
  5
14
100
AcDbSymbolTableRecord
100
AcDbLinetypeTableRecord
  2
BYBLOCK
 70
0
  3

 72
65
 73
0
 40
0.0
  0
LTYPE
  5
15
100
AcDbSymbolTableRecord
100
AcDbLinetypeTableRecord
  2
BYLAYER
 70
0
  3

 72
65
 73
0
 40
0.0
  0
LTYPE
  5
16
100
AcDbSymbolTableRecord
100
AcDbLinetypeTableRecord
  2
CONTINUOUS
 70
64
  3
Solid line
 72
65
 73
0
 40
0.0
  0
LTYPE
  5
1F5
100
AcDbSymbolTableRecord
100
AcDbLinetypeTableRecord
  2
CENTER
 70
64
  3
____ _ ____ _ ____ _ ____ _ ____ _ ____ _ ____
 72
65
 73
4
 40
0.6
 49
0.375
 74
0
 49
-0.075
 74
0
 49
0.075
 74
0
 49
-0.075
 74
0
  0
LTYPE
  5
1F6
100
AcDbSymbolTableRecord
100
AcDbLinetypeTableRecord
  2
HIDDEN
 70
64
  3
- - - - - - - - - - - - - - - - - - - -
 72
65
 73
2
 40
0.2
 49
0.1
 74
0
 49
-0.1
 74
0
  0
LTYPE
  5
1F7
100
AcDbSymbolTableRecord
100
AcDbLinetypeTableRecord
  2
PHANTOM
 70
64
  3
_____ _ _ _____ _ _ _____ _ _ _____
 72
65
 73
6
 40
0.8
 49
0.45
 74
0
 49
-0.05
 74
0
 49
0.1
 74
0
 49
-0.05
 74
0
 49
0.1
 74
0
 49
-0.05
 74
0
  0
LTYPE
  5
1F8
100
AcDbSymbolTableRecord
100
AcDbLinetypeTableRecord
  2
DOT
 70
64
  3
. . . . . . . . . . . . . . . . . . . .
 72
65
 73
2
 40
0.2
 49
0.1
 74
0
 49
-0.1
 74
0
  0
LTYPE
  5
1F9
100
AcDbSymbolTableRecord
100
AcDbLinetypeTableRecord
  2
DASHED
 70
64
  3
- - - - - - - - - - - - - - - - - - - -
 72
65
 73
2
 40
0.2
 49
0.1
 74
0
 49
-0.1
 74
0
  0
ENDTAB
  0
TABLE
  2
LAYER
  5
2
100
AcDbSymbolTable
 70
36
  0
LAYER
  5
10
100
AcDbSymbolTableRecord
100
AcDbLayerTableRecord
  2
0
 70
0
 62
7
  6
CONTINUOUS
370
-3
390
F
  0
LAYER
  5
1FA
100
AcDbSymbolTableRecord
100
AcDbLayerTableRecord
  2
DEFAULT_1
 70
0
 62
7
  6
CENTER
370
-3
390
F
  0
LAYER
  5
1FB
100
AcDbSymbolTableRecord
100
AcDbLayerTableRecord
  2
DEFAULT_2
 70
0
 62
8
  6
HIDDEN
370
-3
390
F
  0
LAYER
  5
1FC
100
AcDbSymbolTableRecord
100
AcDbLayerTableRecord
  2
DEFAULT_3
 70
0
 62
7
  6
PHANTOM
370
-3
390
F
  0
LAYER
  5
1FD
100
AcDbSymbolTableRecord
100
AcDbLayerTableRecord
  2
BEZUGSACHSEN
 70
0
 62
7
  6
CONTINUOUS
370
-3
390
F
  0
LAYER
  5
1FE
100
AcDbSymbolTableRecord
100
AcDbLayerTableRecord
  2
BEZUGSEBENEN
 70
0
 62
7
  6
CONTINUOUS
370
-3
390
F
  0
LAYER
  5
1FF
100
AcDbSymbolTableRecord
100
AcDbLayerTableRecord
  2
FASEN
 70
0
 62
7
  6
CONTINUOUS
370
-3
390
F
  0
LAYER
  5
200
100
AcDbSymbolTableRecord
100
AcDbLayerTableRecord
  2
HILFEN
 70
0
 62
7
  6
CONTINUOUS
370
-3
390
F
  0
LAYER
  5
201
100
AcDbSymbolTableRecord
100
AcDbLayerTableRecord
  2
PLATZIERUNG
 70
0
 62
7
  6
CONTINUOUS
370
-3
390
F
  0
LAYER
  5
202
100
AcDbSymbolTableRecord
100
AcDbLayerTableRecord
  2
RUNDUNGEN
 70
0
 62
7
  6
CONTINUOUS
370
-3
390
F
  0
LAYER
  5
203
100
AcDbSymbolTableRecord
100
AcDbLayerTableRecord
  2
T_STARTBEZUEGE
 70
0
 62
7
  6
CONTINUOUS
370
-3
390
F
  0
ENDTAB
  0
TABLE
  2
STYLE
  5
3
100
AcDbSymbolTable
 70
1
  0
STYLE
  5
11
100
AcDbSymbolTableRecord
100
AcDbTextStyleTableRecord
  2
STANDARD
 70
0
 40
0.0
 41
0.7
 50
0.0
 71
0
 42
0.2
  3
txt
  4

  0
STYLE
  5
204
100
AcDbSymbolTableRecord
100
AcDbTextStyleTableRecord
  2
TEXTSTYLE_1
 70
0
 40
0.0
 41
0.8
 50
0.0
 71
0
 42
0.2
  3
gdt
  4

  0
ENDTAB
  0
TABLE
  2
VIEW
  5
6
100
AcDbSymbolTable
 70
0
  0
ENDTAB
  0
TABLE
  2
UCS
  5
7
100
AcDbSymbolTable
 70
0
  0
ENDTAB
  0
TABLE
  2
APPID
  5
9
100
AcDbSymbolTable
 70
1
  0
APPID
  5
205
100
AcDbSymbolTableRecord
100
AcDbRegAppTableRecord
  2
ACAD
 70
0
  0
ENDTAB
  0
TABLE
  2
BLOCK_RECORD
  5
1
100
AcDbSymbolTable
 70
0
  0
BLOCK_RECORD
  5
206
100
AcDbSymbolTableRecord
100
AcDbBlockTableRecord
  2
*Model_Space
  0
BLOCK_RECORD
  5
207
100
AcDbSymbolTableRecord
100
AcDbBlockTableRecord
  2
*Paper_Space
  0
ENDTAB
  0
TABLE
  2
DIMSTYLE
  5
A
100
AcDbSymbolTable
 70
1
100
AcDbDimStyleTable
 71
0
  0
DIMSTYLE
105
208
100
AcDbSymbolTableRecord
100
AcDbDimStyleTableRecord
  2
STANDARD
 70
0
  3

  4

 40
1.0
 41
3.5
 42
0.0625
 43
0.38
 44
0.18
 45
0.0
 46
0.0
 47
0.005
 48
0.005
140
3.5
141
0.09
142
0.0
143
25.4
144
1.0
145
0.0
146
1.0
147
0.09
 71
1.0
 72
0.0
 73
0
 74
0
 75
0
 76
0
 77
1
 78
8
170
0
171
2
172
0
173
0
174
0
175
0
176
0
177
0
178
5
270
2
271
3
272
3
273
2
274
2
275
0
280
0
281
0
282
0
283
1
284
8
285
0
286
0
287
3
288
0
340
11
  0
ENDTAB
  0
ENDSEC
  0
SECTION
  2
BLOCKS
  0
BLOCK
  5
20
100
AcDbEntity
  8
0
100
AcDbBlockBegin
  2
*Model_Space
 70
0
 10
0.0
 20
0.0
 30
0.0
  3
*Model_Space
  1

  0
ENDBLK
  5
21
100
AcDbEntity
  8
0
100
AcDbBlockEnd
  0
BLOCK
  5
1C
100
AcDbEntity
  8
0
100
AcDbBlockBegin
  2
*Paper_Space
 70
0
 10
0.0
 20
0.0
 30
0.0
  3
*Paper_Space
  1

  0
ENDBLK
  5
1D
100
AcDbEntity
  8
0
100
AcDbBlockEnd
  0
ENDSEC
  0
SECTION
  2
ENTITIES
  0
LINE
  5
209
100
AcDbEntity
  8
0
100
AcDbLine
 62
7
  6
CONTINUOUS
 10
0.0
 20
0.0
 11
0.0
 21
297.0
  0
LINE
  5
20A
100
AcDbEntity
  8
0
100
AcDbLine
 62
7
  6
CONTINUOUS
 10
0.0
 20
0.0
 11
420.0
 21
0.0
  0
LINE
  5
20B
100
AcDbEntity
  8
0
100
AcDbLine
 62
7
  6
CONTINUOUS
 10
0.0
 20
297.0
 11
420.0
 21
297.0
  0
LINE
  5
20C
100
AcDbEntity
  8
0
100
AcDbLine
 62
7
  6
CONTINUOUS
 10
420.0
 20
0.0
 11
420.0
 21
297.0
  0
LINE
  5
20D
100
AcDbEntity
  8
FASEN
100
AcDbLine
 62
7
  6
CONTINUOUS
 10
84.6275
 20
190.347500002
 11
107.6275
 21
190.347500002
  0
LINE
  5
20E
100
AcDbEntity
  8
RUNDUNGEN
100
AcDbLine
 62
7
  6
CONTINUOUS
 10
81.4788248655
 20
248.8475000022
 11
80.4824364905
 21
247.1217047126
  0
LINE
  5
20F
100
AcDbEntity
  8
FASEN
100
AcDbLine
 62
7
  6
CONTINUOUS
 10
78.6275
 20
196.347500002
 11
84.6275
 21
190.347500002
  0
LINE
  5
210
100
AcDbEntity
  8
RUNDUNGEN
100
AcDbLine
 62
7
  6
CONTINUOUS
 10
79.6785889132
 20
232.7625635114
 11
78.950052218
 21
231.5007009401
  0
LINE
  5
211
100
AcDbEntity
  8
BEZUGSACHSEN
100
AcDbLine
 62
7
  6
CONTINUOUS
 10
78.950052218
 20
231.5007009401
 11
78.6275
 21
230.9420241104
  0
LINE
  5
212
100
AcDbEntity
  8
RUNDUNGEN
100
AcDbLine
 62
7
  6
CONTINUOUS
 10
100.8772314237
 20
247.2627800608
 11
104.0247490615
 21
249.0800002163
  0
LINE
  5
213
100
AcDbEntity
  8
RUNDUNGEN
100
AcDbLine
 62
9
  6
CONTINUOUS
 10
80.544614317
 20
232.2625635114
 11
79.8160776218
 21
231.0007009401
  0
LINE
  5
214
100
AcDbEntity
  8
FASEN
100
AcDbLine
 62
7
  6
CONTINUOUS
 10
78.6275
 20
219.3819946656
 11
78.6275
 21
196.347500002
  0
LINE
  5
215
100
AcDbEntity
  8
BEZUGSACHSEN
100
AcDbLine
 62
7
  6
CONTINUOUS
 10
78.6275
 20
219.3819946656
 11
78.6275
 21
230.9420241104
  0
LINE
  5
216
100
AcDbEntity
  8
0
100
AcDbLine
 62
9
  6
CONTINUOUS
 10
79.8160776218
 20
223.9645703605
 11
79.8160776218
 21
231.0007009401
  0
LINE
  5
217
100
AcDbEntity
  8
RUNDUNGEN
100
AcDbLine
 62
7
  6
CONTINUOUS
 10
80.1475
 20
245.8717019836
 11
80.1475
 21
234.5125635114
  0
LINE
  5
218
100
AcDbEntity
  8
RUNDUNGEN
100
AcDbLine
 62
9
  6
CONTINUOUS
 10
81.1475
 20
246.5622303015
 11
81.1475
 21
234.5125635114
  0
LINE
  5
219
100
AcDbEntity
  8
RUNDUNGEN
100
AcDbLine
 62
9
  6
CONTINUOUS
 10
90.6275
 20
246.455120646
 11
90.6275
 21
234.9643439718
  0
LINE
  5
21A
100
AcDbEntity
  8
0
100
AcDbLine
 62
9
  6
CONTINUOUS
 10
88.9832715609
 20
222.7475000006
 11
88.9639476034
 21
222.7377617369
  0
LINE
  5
21B
100
AcDbEntity
  8
RUNDUNGEN
100
AcDbLine
 62
7
  6
CONTINUOUS
 10
92.6275
 20
245.0979575785
 11
92.6275
 21
234.9643439718
  0
LINE
  5
21C
100
AcDbEntity
  8
RUNDUNGEN
100
AcDbLine
 62
9
  6
CONTINUOUS
 10
100.6989285784
 20
232.9127144503
 11
101.8417857143
 21
234.5540180685
  0
LINE
  5
21D
100
AcDbEntity
  8
RUNDUNGEN
100
AcDbLine
 62
9
  6
CONTINUOUS
 10
110.730385683
 20
232.2625635114
 11
111.5964110882
 21
232.762563509
  0
LINE
  5
21E
100
AcDbEntity
  8
T_STARTBEZUEGE
100
AcDbLine
 62
7
  6
CENTER
 10
96.1275
 20
252.347500002
 11
96.1275
 21
187.347500002
  0
LINE
  5
21F
100
AcDbEntity
  8
RUNDUNGEN
100
AcDbLine
 62
9
  6
CONTINUOUS
 10
112.4389223782
 20
229.3032911487
 11
113.304947782
 21
229.8032911487
  0
LINE
  5
220
100
AcDbEntity
  8
BEZUGSACHSEN
100
AcDbLine
 62
9
  6
CONTINUOUS
 10
113.6275
 20
219.3819946656
 11
100.0621836478
 21
219.3819946656
  0
LINE
  5
221
100
AcDbEntity
  8
BEZUGSACHSEN
100
AcDbLine
 62
9
  6
CONTINUOUS
 10
92.1928163522
 20
219.3819946656
 11
78.6275
 21
219.3819946656
  0
LINE
  5
222
100
AcDbEntity
  8
RUNDUNGEN
100
AcDbLine
 62
9
  6
CONTINUOUS
 10
79.8160776218
 20
231.0007009401
 11
78.950052218
 21
231.5007009401
  0
LINE
  5
223
100
AcDbEntity
  8
RUNDUNGEN
100
AcDbLine
 62
7
  6
CONTINUOUS
 10
99.6275
 20
234.9643439718
 11
99.6275
 21
245.0979662953
  0
LINE
  5
224
100
AcDbEntity
  8
0
100
AcDbLine
 62
7
  6
CONTINUOUS
 10
112.4389223782
 20
223.9645703605
 11
105.8394331919
 21
223.9645703605
  0
LINE
  5
225
100
AcDbEntity
  8
0
100
AcDbLine
 62
7
  6
CONTINUOUS
 10
86.4155668081
 20
223.9645703605
 11
79.8160776218
 21
223.9645703605
  0
LINE
  5
226
100
AcDbEntity
  8
RUNDUNGEN
100
AcDbLine
 62
9
  6
CONTINUOUS
 10
80.544614317
 20
232.2625635114
 11
79.6785889132
 21
232.7625635114
  0
LINE
  5
227
100
AcDbEntity
  8
RUNDUNGEN
100
AcDbLine
 62
9
  6
CONTINUOUS
 10
91.5560714295
 20
232.9127144558
 11
90.4132142858
 21
234.5540180685
  0
LINE
  5
228
100
AcDbEntity
  8
RUNDUNGEN
100
AcDbLine
 62
9
  6
CONTINUOUS
 10
101.6275
 20
234.9643439718
 11
101.6275
 21
246.455120646
  0
LINE
  5
229
100
AcDbEntity
  8
0
100
AcDbLine
 62
9
  6
CONTINUOUS
 10
103.2717284391
 20
222.7475000007
 11
103.2910528295
 21
222.7377623984
  0
LINE
  5
22A
100
AcDbEntity
  8
RUNDUNGEN
100
AcDbLine
 62
9
  6
CONTINUOUS
 10
110.1275
 20
234.5125635114
 11
110.1275
 21
246.5622303015
  0
LINE
  5
22B
100
AcDbEntity
  8
RUNDUNGEN
100
AcDbLine
 62
7
  6
CONTINUOUS
 10
111.1275
 20
234.5125635114
 11
111.1275
 21
245.8717047125
  0
LINE
  5
22C
100
AcDbEntity
  8
0
100
AcDbLine
 62
9
  6
CONTINUOUS
 10
112.4389223782
 20
229.3032911487
 11
112.4389223782
 21
223.9645703605
  0
LINE
  5
22D
100
AcDbEntity
  8
RUNDUNGEN
100
AcDbLine
 62
9
  6
CONTINUOUS
 10
81.1475
 20
234.5125635114
 11
80.1475
 21
234.5125635143
  0
LINE
  5
22E
100
AcDbEntity
  8
RUNDUNGEN
100
AcDbLine
 62
9
  6
CONTINUOUS
 10
110.1275
 20
234.5125635114
 11
111.1275
 21
234.5125635114
  0
LINE
  5
22F
100
AcDbEntity
  8
RUNDUNGEN
100
AcDbLine
 62
9
  6
CONTINUOUS
 10
92.6275
 20
234.9643439718
 11
90.6275
 21
234.9643439718
  0
LINE
  5
230
100
AcDbEntity
  8
RUNDUNGEN
100
AcDbLine
 62
9
  6
CONTINUOUS
 10
99.6275
 20
234.9643439718
 11
101.6275
 21
234.9643439718
  0
LINE
  5
231
100
AcDbEntity
  8
FASEN
100
AcDbLine
 62
7
  6
CONTINUOUS
 10
113.6275
 20
196.347500002
 11
113.6275
 21
219.3819946656
  0
LINE
  5
232
100
AcDbEntity
  8
BEZUGSACHSEN
100
AcDbLine
 62
7
  6
CONTINUOUS
 10
113.6275
 20
219.3819946656
 11
113.6275
 21
229.244614319
  0
LINE
  5
233
100
AcDbEntity
  8
BEZUGSACHSEN
100
AcDbLine
 62
7
  6
CONTINUOUS
 10
99.6275
 20
236.647500002
 11
92.6275
 21
236.647500002
  0
LINE
  5
234
100
AcDbEntity
  8
BEZUGSACHSEN
100
AcDbLine
 62
7
  6
CENTER
 10
77.2873234017
 20
240.347500002
 11
113.7066430639
 21
240.347500002
  0
LINE
  5
235
100
AcDbEntity
  8
RUNDUNGEN
100
AcDbLine
 62
9
  6
CONTINUOUS
 10
80.1475
 20
240.347500002
 11
92.6275
 21
240.347500002
  0
LINE
  5
236
100
AcDbEntity
  8
RUNDUNGEN
100
AcDbLine
 62
9
  6
CONTINUOUS
 10
99.6275
 20
240.347500002
 11
111.1275
 21
240.347500002
  0
LINE
  5
237
100
AcDbEntity
  8
RUNDUNGEN
100
AcDbLine
 62
9
  6
CONTINUOUS
 10
112.4389223782
 20
229.3032911487
 11
110.730385683
 21
232.2625635114
  0
LINE
  5
238
100
AcDbEntity
  8
BEZUGSACHSEN
100
AcDbLine
 62
7
  6
CONTINUOUS
 10
113.6275
 20
229.244614319
 11
113.304947782
 21
229.8032911487
  0
LINE
  5
239
100
AcDbEntity
  8
RUNDUNGEN
100
AcDbLine
 62
7
  6
CONTINUOUS
 10
113.304947782
 20
229.8032911487
 11
111.5964110868
 21
232.7625635114
  0
LINE
  5
23A
100
AcDbEntity
  8
RUNDUNGEN
100
AcDbLine
 62
7
  6
CONTINUOUS
 10
88.2302512586
 20
249.0800000315
 11
91.3777899016
 21
247.2627677486
  0
LINE
  5
23B
100
AcDbEntity
  8
BEZUGSACHSEN
100
AcDbLine
 62
7
  6
CONTINUOUS
 10
99.6275
 20
244.047500002
 11
92.6275
 21
244.047500002
  0
LINE
  5
23C
100
AcDbEntity
  8
RUNDUNGEN
100
AcDbLine
 62
7
  6
CONTINUOUS
 10
110.7926307994
 20
247.121588163
 11
109.7961751345
 21
248.8475000022
  0
LINE
  5
23D
100
AcDbEntity
  8
FASEN
100
AcDbLine
 62
7
  6
CONTINUOUS
 10
107.6275
 20
190.347500002
 11
113.6275
 21
196.347500002
  0
LINE
  5
23E
100
AcDbEntity
  8
0
100
AcDbLine
 62
7
  6
CONTINUOUS
 10
108.9301610129
 20
249.347500002
 11
105.0021269805
 21
249.347500002
  0
LINE
  5
23F
100
AcDbEntity
  8
0
100
AcDbLine
 62
7
  6
CONTINUOUS
 10
87.2528717128
 20
249.347500002
 11
82.3448389507
 21
249.347500002
  0
LINE
  5
240
100
AcDbEntity
  8
FASEN
100
AcDbLine
 62
7
  6
CONTINUOUS
 10
177.8394402133
 20
190.347500002
 11
165.8394402133
 21
190.347500002
  0
LINE
  5
241
100
AcDbEntity
  8
0
100
AcDbLine
 62
7
  6
CONTINUOUS
 10
163.8394402133
 20
195.347500002
 11
165.8394402133
 21
195.347500002
  0
LINE
  5
242
100
AcDbEntity
  8
0
100
AcDbLine
 62
7
  6
CONTINUOUS
 10
177.8394402133
 20
195.347500002
 11
179.8394402133
 21
195.347500002
  0
LINE
  5
243
100
AcDbEntity
  8
FASEN
100
AcDbLine
 62
7
  6
CONTINUOUS
 10
177.8394402133
 20
196.347500002
 11
165.8394402133
 21
196.347500002
  0
LINE
  5
244
100
AcDbEntity
  8
BEZUGSACHSEN
100
AcDbLine
 62
8
  6
HIDDEN
 10
163.8394402133
 20
200.347500002
 11
179.8394402133
 21
200.347500002
  0
LINE
  5
245
100
AcDbEntity
  8
RUNDUNGEN
100
AcDbLine
 62
9
  6
CONTINUOUS
 10
178.3492118875
 20
246.5622303058
 11
177.6259039274
 21
245.8717047126
  0
LINE
  5
246
100
AcDbEntity
  8
BEZUGSACHSEN
100
AcDbLine
 62
7
  6
CENTER
 10
182.8394402133
 20
205.347500002
 11
160.8394402133
 21
205.347500002
  0
LINE
  5
247
100
AcDbEntity
  8
0
100
AcDbLine
 62
7
  6
CONTINUOUS
 10
174.4149224749
 20
205.866506699
 11
169.4149224749
 21
207.5331732663
  0
LINE
  5
248
100
AcDbEntity
  8
0
100
AcDbLine
 62
7
  6
CONTINUOUS
 10
169.4149224749
 20
206.9081732663
 11
173.7766246042
 21
205.4498399827
  0
LINE
  5
249
100
AcDbEntity
  8
0
100
AcDbLine
 62
7
  6
CONTINUOUS
 10
173.1383267334
 20
209.0956735644
 11
172.7127948693
 21
208.991506699
  0
LINE
  5
24A
100
AcDbEntity
  8
0
100
AcDbLine
 62
7
  6
CONTINUOUS
 10
172.7127948693
 20
208.366506699
 11
173.2447096995
 21
208.4706735644
  0
LINE
  5
24B
100
AcDbEntity
  8
0
100
AcDbLine
 62
7
  6
CONTINUOUS
 10
171.1170502296
 20
208.366506699
 11
172.7127948693
 21
208.366506699
  0
LINE
  5
24C
100
AcDbEntity
  8
0
100
AcDbLine
 62
7
  6
CONTINUOUS
 10
172.7127948693
 20
208.991506699
 11
171.1170502296
 21
208.991506699
  0
LINE
  5
24D
100
AcDbEntity
  8
0
100
AcDbLine
 62
7
  6
CONTINUOUS
 10
170.5851351014
 20
208.4706735644
 11
171.1170502296
 21
208.366506699
  0
LINE
  5
24E
100
AcDbEntity
  8
0
100
AcDbLine
 62
7
  6
CONTINUOUS
 10
171.1170502296
 20
208.991506699
 11
170.6915183655
 21
209.0956735644
  0
LINE
  5
24F
100
AcDbEntity
  8
0
100
AcDbLine
 62
7
  6
CONTINUOUS
 10
170.1596032372
 20
208.679006699
 11
170.5851351014
 21
208.4706735644
  0
LINE
  5
250
100
AcDbEntity
  8
0
100
AcDbLine
 62
7
  6
CONTINUOUS
 10
162.8394402133
 20
231.0007009401
 11
162.8394402133
 21
223.9645703605
  0
LINE
  5
251
100
AcDbEntity
  8
RUNDUNGEN
100
AcDbLine
 62
7
  6
CONTINUOUS
 10
162.8394402133
 20
223.9645703605
 11
162.8394402133
 21
240.347500002
  0
LINE
  5
252
100
AcDbEntity
  8
BEZUGSACHSEN
100
AcDbLine
 62
7
  6
CONTINUOUS
 10
163.2309336429
 20
229.9720106152
 11
163.230936798
 21
223.7729790752
  0
LINE
  5
253
100
AcDbEntity
  8
0
100
AcDbLine
 62
7
  6
CONTINUOUS
 10
163.8394402133
 20
215.3470506795
 11
163.8394402133
 21
195.3479493245
  0
LINE
  5
254
100
AcDbEntity
  8
RUNDUNGEN
100
AcDbLine
 62
9
  6
CONTINUOUS
 10
163.8394402133
 20
231.5007009401
 11
163.8394402133
 21
240.347500002
  0
LINE
  5
255
100
AcDbEntity
  8
0
100
AcDbLine
 62
7
  6
CONTINUOUS
 10
170.5851351014
 20
227.8456741604
 11
170.2659862033
 21
227.741506699
  0
LINE
  5
256
100
AcDbEntity
  8
BEZUGSACHSEN
100
AcDbLine
 62
8
  6
HIDDEN
 10
163.8394402133
 20
210.347500002
 11
179.8394402133
 21
210.347500002
  0
LINE
  5
257
100
AcDbEntity
  8
0
100
AcDbLine
 62
7
  6
CONTINUOUS
 10
171.6489650598
 20
210.866506699
 11
172.2872628561
 21
210.866506699
  0
LINE
  5
258
100
AcDbEntity
  8
0
100
AcDbLine
 62
7
  6
CONTINUOUS
 10
172.2872628561
 20
211.804006699
 11
173.1383267334
 21
211.804006699
  0
LINE
  5
259
100
AcDbEntity
  8
0
100
AcDbLine
 62
7
  6
CONTINUOUS
 10
170.6915183655
 20
209.0956735644
 11
170.3723691693
 21
209.304006699
  0
LINE
  5
25A
100
AcDbEntity
  8
0
100
AcDbLine
 62
7
  6
CONTINUOUS
 10
169.7340713731
 20
209.0956735644
 11
170.1596032372
 21
208.679006699
  0
LINE
  5
25B
100
AcDbEntity
  8
FASEN
100
AcDbLine
 62
7
  6
CONTINUOUS
 10
165.8394402133
 20
190.347500002
 11
165.8394402133
 21
219.3819946656
  0
LINE
  5
25C
100
AcDbEntity
  8
0
100
AcDbLine
 62
7
  6
CONTINUOUS
 10
170.2659862033
 20
227.741506699
 11
169.8404543391
 21
227.429006699
  0
LINE
  5
25D
100
AcDbEntity
  8
0
100
AcDbLine
 62
7
  6
CONTINUOUS
 10
170.2659862033
 20
227.116506699
 11
170.5851351014
 21
227.3248392376
  0
LINE
  5
25E
100
AcDbEntity
  8
0
100
AcDbLine
 62
7
  6
CONTINUOUS
 10
172.5000287882
 20
228.054006699
 11
171.968113958
 21
227.8456741604
  0
LINE
  5
25F
100
AcDbEntity
  8
0
100
AcDbLine
 62
7
  6
CONTINUOUS
 10
172.2872628561
 20
227.429006699
 11
172.6064119032
 21
227.5331741604
  0
LINE
  5
260
100
AcDbEntity
  8
0
100
AcDbLine
 62
7
  6
CONTINUOUS
 10
170.6915183655
 20
212.429006699
 11
170.1596032372
 21
212.3248398337
  0
LINE
  5
261
100
AcDbEntity
  8
0
100
AcDbLine
 62
7
  6
CONTINUOUS
 10
173.2447096995
 20
212.429006699
 11
171.6489650598
 21
212.429006699
  0
LINE
  5
262
100
AcDbEntity
  8
0
100
AcDbLine
 62
7
  6
CONTINUOUS
 10
169.4149224749
 20
213.2623398337
 11
174.4149224749
 21
213.2623398337
  0
LINE
  5
263
100
AcDbEntity
  8
0
100
AcDbLine
 62
7
  6
CONTINUOUS
 10
174.4149224749
 20
213.8873404297
 11
169.4149224749
 21
213.8873404297
  0
LINE
  5
264
100
AcDbEntity
  8
0
100
AcDbLine
 62
7
  6
CONTINUOUS
 10
173.6702416381
 20
212.3248398337
 11
173.2447096995
 21
212.429006699
  0
LINE
  5
265
100
AcDbEntity
  8
0
100
AcDbLine
 62
7
  6
CONTINUOUS
 10
173.1383267334
 20
211.804006699
 11
173.4574756316
 21
211.6998398337
  0
LINE
  5
266
100
AcDbEntity
  8
0
100
AcDbLine
 62
7
  6
CONTINUOUS
 10
170.3723691693
 20
209.304006699
 11
170.1596032372
 21
209.616506699
  0
LINE
  5
267
100
AcDbEntity
  8
0
100
AcDbLine
 62
7
  6
CONTINUOUS
 10
169.521305441
 20
209.5123398337
 11
169.7340713731
 21
209.0956735644
  0
LINE
  5
268
100
AcDbEntity
  8
0
100
AcDbLine
 62
7
  6
CONTINUOUS
 10
169.9468373051
 20
226.491506699
 11
170.0532202712
 21
226.804006699
  0
LINE
  5
269
100
AcDbEntity
  8
0
100
AcDbLine
 62
7
  6
CONTINUOUS
 10
169.8404543391
 20
227.429006699
 11
169.521305441
 21
226.9081741604
  0
LINE
  5
26A
100
AcDbEntity
  8
0
100
AcDbLine
 62
7
  6
CONTINUOUS
 10
171.6489650598
 20
227.5331741604
 11
171.3298161617
 21
227.0123392376
  0
LINE
  5
26B
100
AcDbEntity
  8
0
100
AcDbLine
 62
7
  6
CONTINUOUS
 10
170.0532202712
 20
226.804006699
 11
170.2659862033
 21
227.116506699
  0
LINE
  5
26C
100
AcDbEntity
  8
0
100
AcDbLine
 62
7
  6
CONTINUOUS
 10
171.8617309919
 20
226.9081741604
 11
172.074496924
 21
227.2206741604
  0
LINE
  5
26D
100
AcDbEntity
  8
0
100
AcDbLine
 62
7
  6
CONTINUOUS
 10
171.968113958
 20
227.8456741604
 11
171.6489650598
 21
227.5331741604
  0
LINE
  5
26E
100
AcDbEntity
  8
0
100
AcDbLine
 62
7
  6
CONTINUOUS
 10
172.074496924
 20
227.2206741604
 11
172.2872628561
 21
227.429006699
  0
LINE
  5
26F
100
AcDbEntity
  8
0
100
AcDbLine
 62
7
  6
CONTINUOUS
 10
173.2447096995
 20
225.0331741604
 11
172.9255608013
 21
224.929006699
  0
LINE
  5
270
100
AcDbEntity
  8
0
100
AcDbLine
 62
7
  6
CONTINUOUS
 10
169.4149224749
 20
214.7206729683
 11
174.4149224749
 21
214.7206729683
  0
LINE
  5
271
100
AcDbEntity
  8
0
100
AcDbLine
 62
7
  6
CONTINUOUS
 10
173.7766246042
 20
215.3456729683
 11
169.4149224749
 21
215.3456729683
  0
LINE
  5
272
100
AcDbEntity
  8
0
100
AcDbLine
 62
7
  6
CONTINUOUS
 10
163.8394402133
 20
215.347500002
 11
165.8394402133
 21
215.347500002
  0
LINE
  5
273
100
AcDbEntity
  8
0
100
AcDbLine
 62
7
  6
CONTINUOUS
 10
177.8394402133
 20
215.347500002
 11
179.8394402133
 21
215.347500002
  0
LINE
  5
274
100
AcDbEntity
  8
0
100
AcDbLine
 62
7
  6
CONTINUOUS
 10
174.0957735396
 20
211.9081735644
 11
173.6702416381
 21
212.3248398337
  0
LINE
  5
275
100
AcDbEntity
  8
0
100
AcDbLine
 62
7
  6
CONTINUOUS
 10
170.1596032372
 20
209.616506699
 11
170.0532202712
 21
210.0331735644
  0
LINE
  5
276
100
AcDbEntity
  8
0
100
AcDbLine
 62
7
  6
CONTINUOUS
 10
169.4149224749
 20
210.0331735644
 11
169.521305441
 21
209.5123398337
  0
LINE
  5
277
100
AcDbEntity
  8
0
100
AcDbLine
 62
7
  6
CONTINUOUS
 10
169.4149224749
 20
226.3873392376
 11
169.4149224749
 21
225.9706741604
  0
LINE
  5
278
100
AcDbEntity
  8
0
100
AcDbLine
 62
7
  6
CONTINUOUS
 10
169.4149224749
 20
215.3456729683
 11
169.4149224749
 21
214.7206729683
  0
LINE
  5
279
100
AcDbEntity
  8
0
100
AcDbLine
 62
7
  6
CONTINUOUS
 10
169.4149224749
 20
213.8873404297
 11
169.4149224749
 21
213.2623398337
  0
LINE
  5
27A
100
AcDbEntity
  8
0
100
AcDbLine
 62
7
  6
CONTINUOUS
 10
169.4149224749
 20
210.9706735644
 11
169.4149224749
 21
210.0331735644
  0
LINE
  5
27B
100
AcDbEntity
  8
0
100
AcDbLine
 62
7
  6
CONTINUOUS
 10
169.4149224749
 20
207.5331732663
 11
169.4149224749
 21
206.9081732663
  0
LINE
  5
27C
100
AcDbEntity
  8
0
100
AcDbLine
 62
7
  6
CONTINUOUS
 10
169.4149224749
 20
203.991506699
 11
169.4149224749
 21
203.366506699
  0
LINE
  5
27D
100
AcDbEntity
  8
0
100
AcDbLine
 62
7
  6
CONTINUOUS
 10
169.9468373051
 20
225.866506699
 11
169.9468373051
 21
226.491506699
  0
LINE
  5
27E
100
AcDbEntity
  8
0
100
AcDbLine
 62
7
  6
CONTINUOUS
 10
170.0532202712
 20
210.0331735644
 11
170.0532202712
 21
210.9706735644
  0
LINE
  5
27F
100
AcDbEntity
  8
0
100
AcDbLine
 62
7
  6
CONTINUOUS
 10
169.521305441
 20
226.9081741604
 11
169.4149224749
 21
226.3873392376
  0
LINE
  5
280
100
AcDbEntity
  8
0
100
AcDbLine
 62
7
  6
CONTINUOUS
 10
171.3298161617
 20
227.0123392376
 11
171.2234331957
 21
226.491506699
  0
LINE
  5
281
100
AcDbEntity
  8
0
100
AcDbLine
 62
7
  6
CONTINUOUS
 10
171.7553480259
 20
226.5956741604
 11
171.8617309919
 21
226.9081741604
  0
LINE
  5
282
100
AcDbEntity
  8
0
100
AcDbLine
 62
7
  6
CONTINUOUS
 10
173.5638586721
 20
224.616506699
 11
173.9893905735
 21
224.929006699
  0
LINE
  5
283
100
AcDbEntity
  8
0
100
AcDbLine
 62
7
  6
CONTINUOUS
 10
173.5638586721
 20
225.241506699
 11
173.2447096995
 21
225.0331741604
  0
LINE
  5
284
100
AcDbEntity
  8
0
100
AcDbLine
 62
7
  6
CONTINUOUS
 10
173.0319437674
 20
224.4081741604
 11
173.5638586721
 21
224.616506699
  0
LINE
  5
285
100
AcDbEntity
  8
0
100
AcDbLine
 62
7
  6
CONTINUOUS
 10
173.4574756316
 20
211.6998398337
 11
173.6702416381
 21
211.3873398337
  0
LINE
  5
286
100
AcDbEntity
  8
0
100
AcDbLine
 62
7
  6
CONTINUOUS
 10
170.5851351014
 20
227.3248392376
 11
170.5851351014
 21
227.8456741604
  0
LINE
  5
287
100
AcDbEntity
  8
0
100
AcDbLine
 62
7
  6
CONTINUOUS
 10
170.6915183655
 20
211.804006699
 11
170.6915183655
 21
212.429006699
  0
LINE
  5
288
100
AcDbEntity
  8
0
100
AcDbLine
 62
7
  6
CONTINUOUS
 10
171.2234331957
 20
226.491506699
 11
171.2234331957
 21
225.9706741604
  0
LINE
  5
289
100
AcDbEntity
  8
0
100
AcDbLine
 62
7
  6
CONTINUOUS
 10
171.6489650598
 20
212.429006699
 11
171.6489650598
 21
210.866506699
  0
LINE
  5
28A
100
AcDbEntity
  8
0
100
AcDbLine
 62
7
  6
CONTINUOUS
 10
171.7553480259
 20
225.866506699
 11
171.7553480259
 21
226.5956741604
  0
LINE
  5
28B
100
AcDbEntity
  8
BEZUGSACHSEN
100
AcDbLine
 62
7
  6
CENTER
 10
171.8394402133
 20
240.347500002
 11
171.8394402133
 21
233.647500002
  0
LINE
  5
28C
100
AcDbEntity
  8
BEZUGSACHSEN
100
AcDbLine
 62
7
  6
CENTER
 10
171.8394402133
 20
240.347500002
 11
171.8394402133
 21
247.047500002
  0
LINE
  5
28D
100
AcDbEntity
  8
0
100
AcDbLine
 62
7
  6
CONTINUOUS
 10
169.521305441
 20
211.491506699
 11
169.4149224749
 21
210.9706735644
  0
LINE
  5
28E
100
AcDbEntity
  8
0
100
AcDbLine
 62
7
  6
CONTINUOUS
 10
173.8830075702
 20
225.866506699
 11
173.7766246042
 21
225.554006699
  0
LINE
  5
28F
100
AcDbEntity
  8
0
100
AcDbLine
 62
7
  6
CONTINUOUS
 10
173.9893905735
 20
224.929006699
 11
174.3085394996
 21
225.4498392376
  0
LINE
  5
290
100
AcDbEntity
  8
0
100
AcDbLine
 62
7
  6
CONTINUOUS
 10
173.7766246042
 20
225.554006699
 11
173.5638586721
 21
225.241506699
  0
LINE
  5
291
100
AcDbEntity
  8
0
100
AcDbLine
 62
7
  6
CONTINUOUS
 10
174.4149224749
 20
218.4706729683
 11
173.7766246042
 21
218.4706729683
  0
LINE
  5
292
100
AcDbEntity
  8
0
100
AcDbLine
 62
7
  6
CONTINUOUS
 10
174.3085394996
 20
211.491506699
 11
174.0957735396
 21
211.9081735644
  0
LINE
  5
293
100
AcDbEntity
  8
0
100
AcDbLine
 62
7
  6
CONTINUOUS
 10
170.0532202712
 20
225.554006699
 11
169.9468373051
 21
225.866506699
  0
LINE
  5
294
100
AcDbEntity
  8
0
100
AcDbLine
 62
7
  6
CONTINUOUS
 10
173.6702416381
 20
211.3873398337
 11
173.7766246042
 21
210.9706735644
  0
LINE
  5
295
100
AcDbEntity
  8
0
100
AcDbLine
 62
7
  6
CONTINUOUS
 10
169.4149224749
 20
225.9706741604
 11
169.521305441
 21
225.4498392376
  0
LINE
  5
296
100
AcDbEntity
  8
0
100
AcDbLine
 62
7
  6
CONTINUOUS
 10
172.2872628561
 20
210.866506699
 11
172.2872628561
 21
211.804006699
  0
LINE
  5
297
100
AcDbEntity
  8
0
100
AcDbLine
 62
7
  6
CONTINUOUS
 10
173.7766246042
 20
218.4706729683
 11
173.7766246042
 21
215.3456729683
  0
LINE
  5
298
100
AcDbEntity
  8
0
100
AcDbLine
 62
7
  6
CONTINUOUS
 10
173.7766246042
 20
210.9706735644
 11
173.7766246042
 21
210.0331735644
  0
LINE
  5
299
100
AcDbEntity
  8
0
100
AcDbLine
 62
7
  6
CONTINUOUS
 10
173.8830075702
 20
226.5956741604
 11
173.8830075702
 21
225.866506699
  0
LINE
  5
29A
100
AcDbEntity
  8
0
100
AcDbLine
 62
7
  6
CONTINUOUS
 10
174.3085394996
 20
225.4498392376
 11
174.4149224749
 21
225.9706741604
  0
LINE
  5
29B
100
AcDbEntity
  8
0
100
AcDbLine
 62
7
  6
CONTINUOUS
 10
170.0532202712
 20
210.9706735644
 11
170.1596032372
 21
211.3873398337
  0
LINE
  5
29C
100
AcDbEntity
  8
0
100
AcDbLine
 62
7
  6
CONTINUOUS
 10
169.7340713731
 20
211.9081735644
 11
169.521305441
 21
211.491506699
  0
LINE
  5
29D
100
AcDbEntity
  8
0
100
AcDbLine
 62
7
  6
CONTINUOUS
 10
170.2659862033
 20
225.241506699
 11
170.0532202712
 21
225.554006699
  0
LINE
  5
29E
100
AcDbEntity
  8
0
100
AcDbLine
 62
7
  6
CONTINUOUS
 10
169.521305441
 20
225.4498392376
 11
169.8404543391
 21
224.929006699
  0
LINE
  5
29F
100
AcDbEntity
  8
0
100
AcDbLine
 62
7
  6
CONTINUOUS
 10
171.8617309919
 20
225.554006699
 11
171.7553480259
 21
225.866506699
  0
LINE
  5
2A0
100
AcDbEntity
  8
0
100
AcDbLine
 62
7
  6
CONTINUOUS
 10
171.2234331957
 20
225.9706741604
 11
171.3298161617
 21
225.4498392376
  0
LINE
  5
2A1
100
AcDbEntity
  8
0
100
AcDbLine
 62
7
  6
CONTINUOUS
 10
174.4149224749
 20
210.9706735644
 11
174.3085394996
 21
211.491506699
  0
LINE
  5
2A2
100
AcDbEntity
  8
0
100
AcDbLine
 62
7
  6
CONTINUOUS
 10
174.4149224749
 20
205.0331734154
 11
174.4149224749
 21
205.866506699
  0
LINE
  5
2A3
100
AcDbEntity
  8
0
100
AcDbLine
 62
7
  6
CONTINUOUS
 10
174.4149224749
 20
210.0331735644
 11
174.4149224749
 21
210.9706735644
  0
LINE
  5
2A4
100
AcDbEntity
  8
0
100
AcDbLine
 62
7
  6
CONTINUOUS
 10
174.4149224749
 20
213.2623398337
 11
174.4149224749
 21
213.8873404297
  0
LINE
  5
2A5
100
AcDbEntity
  8
0
100
AcDbLine
 62
7
  6
CONTINUOUS
 10
174.4149224749
 20
214.7206729683
 11
174.4149224749
 21
218.4706729683
  0
LINE
  5
2A6
100
AcDbEntity
  8
0
100
AcDbLine
 62
7
  6
CONTINUOUS
 10
174.4149224749
 20
225.9706741604
 11
174.4149224749
 21
226.491506699
  0
LINE
  5
2A7
100
AcDbEntity
  8
0
100
AcDbLine
 62
7
  6
CONTINUOUS
 10
173.7766246042
 20
210.0331735644
 11
173.6702416381
 21
209.616506699
  0
LINE
  5
2A8
100
AcDbEntity
  8
0
100
AcDbLine
 62
7
  6
CONTINUOUS
 10
170.1596032372
 20
211.3873398337
 11
170.3723691693
 21
211.6998398337
  0
LINE
  5
2A9
100
AcDbEntity
  8
0
100
AcDbLine
 62
7
  6
CONTINUOUS
 10
170.1596032372
 20
212.3248398337
 11
169.7340713731
 21
211.9081735644
  0
LINE
  5
2AA
100
AcDbEntity
  8
0
100
AcDbLine
 62
7
  6
CONTINUOUS
 10
172.2872628561
 20
224.304006699
 11
173.0319437674
 21
224.4081741604
  0
LINE
  5
2AB
100
AcDbEntity
  8
0
100
AcDbLine
 62
7
  6
CONTINUOUS
 10
170.7979013315
 20
224.4081741604
 11
171.5425820938
 21
224.304006699
  0
LINE
  5
2AC
100
AcDbEntity
  8
0
100
AcDbLine
 62
7
  6
CONTINUOUS
 10
170.2659862033
 20
224.616506699
 11
170.7979013315
 21
224.4081741604
  0
LINE
  5
2AD
100
AcDbEntity
  8
0
100
AcDbLine
 62
7
  6
CONTINUOUS
 10
170.5851351014
 20
225.0331741604
 11
170.2659862033
 21
225.241506699
  0
LINE
  5
2AE
100
AcDbEntity
  8
0
100
AcDbLine
 62
7
  6
CONTINUOUS
 10
169.8404543391
 20
224.929006699
 11
170.2659862033
 21
224.616506699
  0
LINE
  5
2AF
100
AcDbEntity
  8
0
100
AcDbLine
 62
7
  6
CONTINUOUS
 10
172.2872628561
 20
225.0331741604
 11
172.074496924
 21
225.241506699
  0
LINE
  5
2B0
100
AcDbEntity
  8
0
100
AcDbLine
 62
7
  6
CONTINUOUS
 10
171.3298161617
 20
225.4498392376
 11
171.7553480259
 21
224.8248392376
  0
LINE
  5
2B1
100
AcDbEntity
  8
0
100
AcDbLine
 62
7
  6
CONTINUOUS
 10
172.074496924
 20
225.241506699
 11
171.8617309919
 21
225.554006699
  0
LINE
  5
2B2
100
AcDbEntity
  8
0
100
AcDbLine
 62
7
  6
CONTINUOUS
 10
173.7766246042
 20
226.9081741604
 11
173.8830075702
 21
226.5956741604
  0
LINE
  5
2B3
100
AcDbEntity
  8
0
100
AcDbLine
 62
7
  6
CONTINUOUS
 10
174.4149224749
 20
226.491506699
 11
174.3085394996
 21
227.0123392376
  0
LINE
  5
2B4
100
AcDbEntity
  8
FASEN
100
AcDbLine
 62
7
  6
CONTINUOUS
 10
177.8394402133
 20
219.3819946656
 11
177.8394402133
 21
190.347500002
  0
LINE
  5
2B5
100
AcDbEntity
  8
0
100
AcDbLine
 62
7
  6
CONTINUOUS
 10
174.3085394996
 20
209.5123398337
 11
174.4149224749
 21
210.0331735644
  0
LINE
  5
2B6
100
AcDbEntity
  8
0
100
AcDbLine
 62
7
  6
CONTINUOUS
 10
171.5425820938
 20
224.304006699
 11
172.2872628561
 21
224.304006699
  0
LINE
  5
2B7
100
AcDbEntity
  8
0
100
AcDbLine
 62
7
  6
CONTINUOUS
 10
171.7553480259
 20
224.8248392376
 11
171.5425820938
 21
224.8248392376
  0
LINE
  5
2B8
100
AcDbEntity
  8
0
100
AcDbLine
 62
7
  6
CONTINUOUS
 10
172.9255608013
 20
224.929006699
 11
172.6064119032
 21
224.929006699
  0
LINE
  5
2B9
100
AcDbEntity
  8
0
100
AcDbLine
 62
7
  6
CONTINUOUS
 10
171.5425820938
 20
224.8248392376
 11
170.9042842975
 21
224.929006699
  0
LINE
  5
2BA
100
AcDbEntity
  8
0
100
AcDbLine
 62
7
  6
CONTINUOUS
 10
170.9042842975
 20
224.929006699
 11
170.5851351014
 21
225.0331741604
  0
LINE
  5
2BB
100
AcDbEntity
  8
0
100
AcDbLine
 62
7
  6
CONTINUOUS
 10
172.6064119032
 20
224.929006699
 11
172.2872628561
 21
225.0331741604
  0
LINE
  5
2BC
100
AcDbEntity
  8
0
100
AcDbLine
 62
7
  6
CONTINUOUS
 10
173.5638586721
 20
227.2206741604
 11
173.7766246042
 21
226.9081741604
  0
LINE
  5
2BD
100
AcDbEntity
  8
0
100
AcDbLine
 62
7
  6
CONTINUOUS
 10
174.3085394996
 20
227.0123392376
 11
173.9893905735
 21
227.5331741604
  0
LINE
  5
2BE
100
AcDbEntity
  8
RUNDUNGEN
100
AcDbLine
 62
9
  6
CONTINUOUS
 10
179.8394402133
 20
240.347500002
 11
179.8394402133
 21
231.5007009401
  0
LINE
  5
2BF
100
AcDbEntity
  8
0
100
AcDbLine
 62
7
  6
CONTINUOUS
 10
179.8394402133
 20
215.3470506795
 11
179.8394402133
 21
195.3479493245
  0
LINE
  5
2C0
100
AcDbEntity
  8
0
100
AcDbLine
 62
7
  6
CONTINUOUS
 10
174.0957735396
 20
209.0956735644
 11
174.3085394996
 21
209.5123398337
  0
LINE
  5
2C1
100
AcDbEntity
  8
0
100
AcDbLine
 62
7
  6
CONTINUOUS
 10
173.6702416381
 20
209.616506699
 11
173.4574756316
 21
209.304006699
  0
LINE
  5
2C2
100
AcDbEntity
  8
0
100
AcDbLine
 62
7
  6
CONTINUOUS
 10
170.3723691693
 20
211.6998398337
 11
170.6915183655
 21
211.804006699
  0
LINE
  5
2C3
100
AcDbEntity
  8
0
100
AcDbLine
 62
7
  6
CONTINUOUS
 10
172.6064119032
 20
227.5331741604
 11
172.9255608013
 21
227.5331741604
  0
LINE
  5
2C4
100
AcDbEntity
  8
0
100
AcDbLine
 62
7
  6
CONTINUOUS
 10
173.0319437674
 20
228.054006699
 11
172.5000287882
 21
228.054006699
  0
LINE
  5
2C5
100
AcDbEntity
  8
0
100
AcDbLine
 62
7
  6
CONTINUOUS
 10
172.9255608013
 20
227.5331741604
 11
173.2447096995
 21
227.429006699
  0
LINE
  5
2C6
100
AcDbEntity
  8
0
100
AcDbLine
 62
7
  6
CONTINUOUS
 10
173.5638586721
 20
227.8456741604
 11
173.0319437674
 21
228.054006699
  0
LINE
  5
2C7
100
AcDbEntity
  8
0
100
AcDbLine
 62
7
  6
CONTINUOUS
 10
173.2447096995
 20
227.429006699
 11
173.5638586721
 21
227.2206741604
  0
LINE
  5
2C8
100
AcDbEntity
  8
0
100
AcDbLine
 62
7
  6
CONTINUOUS
 10
173.9893905735
 20
227.5331741604
 11
173.5638586721
 21
227.8456741604
  0
LINE
  5
2C9
100
AcDbEntity
  8
BEZUGSACHSEN
100
AcDbLine
 62
7
  6
CONTINUOUS
 10
180.4479436286
 20
223.7729790752
 11
180.4479469728
 21
229.9720170145
  0
LINE
  5
2CA
100
AcDbEntity
  8
RUNDUNGEN
100
AcDbLine
 62
7
  6
CONTINUOUS
 10
180.8394402133
 20
240.347500002
 11
180.8394402133
 21
231.0007009401
  0
LINE
  5
2CB
100
AcDbEntity
  8
0
100
AcDbLine
 62
7
  6
CONTINUOUS
 10
180.8394402133
 20
223.9645703605
 11
180.8394402133
 21
231.0007009401
  0
LINE
  5
2CC
100
AcDbEntity
  8
0
100
AcDbLine
 62
7
  6
CONTINUOUS
 10
173.6702416381
 20
208.679006699
 11
174.0957735396
 21
209.0956735644
  0
LINE
  5
2CD
100
AcDbEntity
  8
0
100
AcDbLine
 62
7
  6
CONTINUOUS
 10
173.4574756316
 20
209.304006699
 11
173.1383267334
 21
209.0956735644
  0
LINE
  5
2CE
100
AcDbEntity
  8
0
100
AcDbLine
 62
7
  6
CONTINUOUS
 10
173.2447096995
 20
208.4706735644
 11
173.6702416381
 21
208.679006699
  0
LINE
  5
2CF
100
AcDbEntity
  8
BEZUGSACHSEN
100
AcDbLine
 62
7
  6
CONTINUOUS
 10
163.8928542397
 20
230.9420241104
 11
179.7860259266
 21
230.9420241104
  0
LINE
  5
2D0
100
AcDbEntity
  8
0
100
AcDbLine
 62
7
  6
CONTINUOUS
 10
173.7766246042
 20
205.4498399827
 11
169.4149224749
 21
203.991506699
  0
LINE
  5
2D1
100
AcDbEntity
  8
RUNDUNGEN
100
AcDbLine
 62
9
  6
CONTINUOUS
 10
179.8394402133
 20
232.7625635114
 11
163.8394402133
 21
232.7625635114
  0
LINE
  5
2D2
100
AcDbEntity
  8
RUNDUNGEN
100
AcDbLine
 62
9
  6
CONTINUOUS
 10
162.8394402133
 20
234.5125635114
 11
180.8394402133
 21
234.5125635114
  0
LINE
  5
2D3
100
AcDbEntity
  8
0
100
AcDbLine
 62
7
  6
CONTINUOUS
 10
169.4149224749
 20
203.366506699
 11
174.4149224749
 21
205.0331734154
  0
LINE
  5
2D4
100
AcDbEntity
  8
RUNDUNGEN
100
AcDbLine
 62
9
  6
CONTINUOUS
 10
165.3296685391
 20
246.5622303058
 11
166.0529764993
 21
245.8717047125
  0
LINE
  5
2D5
100
AcDbEntity
  8
RUNDUNGEN
100
AcDbLine
 62
9
  6
CONTINUOUS
 10
180.8394402133
 20
240.347500002
 11
179.8394402133
 21
240.347500002
  0
LINE
  5
2D6
100
AcDbEntity
  8
BEZUGSACHSEN
100
AcDbLine
 62
7
  6
CENTER
 10
171.8394402133
 20
240.347500002
 11
165.1394402133
 21
240.347500002
  0
LINE
  5
2D7
100
AcDbEntity
  8
RUNDUNGEN
100
AcDbLine
 62
9
  6
CONTINUOUS
 10
162.8394402133
 20
240.347500002
 11
163.8394402133
 21
240.347500002
  0
LINE
  5
2D8
100
AcDbEntity
  8
BEZUGSACHSEN
100
AcDbLine
 62
7
  6
CENTER
 10
171.8394402133
 20
240.347500002
 11
178.5394402133
 21
240.347500002
  0
LINE
  5
2D9
100
AcDbEntity
  8
RUNDUNGEN
100
AcDbLine
 62
9
  6
CONTINUOUS
 10
166.0529736573
 20
245.8717011052
 11
177.6259060773
 21
245.8717019836
  0
LINE
  5
2DA
100
AcDbEntity
  8
RUNDUNGEN
100
AcDbLine
 62
9
  6
CONTINUOUS
 10
166.8761393713
 20
247.1217047126
 11
176.8027410554
 21
247.1217047126
  0
ARC
  5
2DB
100
AcDbEntity
  8
0
100
AcDbCircle
 62
7
  6
CONTINUOUS
 10
83.6566383727
 20
219.2829010368
 40
6.3328736782
100
AcDbArc
 50
29.4874550621
 51
32.1850077626
  0
ARC
  5
2DC
100
AcDbEntity
  8
0
100
AcDbCircle
 62
7
  6
CONTINUOUS
 10
84.2668610143
 20
219.6647212084
 40
5.613044337
100
AcDbArc
 50
32.2043123529
 51
33.1944685644
  0
ARC
  5
2DD
100
AcDbEntity
  8
RUNDUNGEN
100
AcDbCircle
 62
9
  6
CONTINUOUS
 10
76.6475
 20
234.5125635114
 40
4.5
100
AcDbArc
 50
330.0
 51
360.0
  0
ARC
  5
2DE
100
AcDbEntity
  8
RUNDUNGEN
100
AcDbCircle
 62
7
  6
CONTINUOUS
 10
76.6475
 20
234.5125635114
 40
3.5
100
AcDbArc
 50
330.0
 51
360.0
  0
ARC
  5
2DF
100
AcDbEntity
  8
RUNDUNGEN
100
AcDbCircle
 62
7
  6
CONTINUOUS
 10
82.6475
 20
245.8717047126
 40
2.5
100
AcDbArc
 50
150.0
 51
180.0000625445
  0
ARC
  5
2E0
100
AcDbEntity
  8
RUNDUNGEN
100
AcDbCircle
 62
7
  6
CONTINUOUS
 10
90.1275
 20
245.097871614
 40
2.5
100
AcDbArc
 50
0.0019701611
 51
59.9923281049
  0
ARC
  5
2E1
100
AcDbEntity
  8
RUNDUNGEN
100
AcDbCircle
 62
7
  6
CONTINUOUS
 10
90.1275
 20
234.9643439718
 40
2.5
100
AcDbArc
 50
304.849904579
 51
360.0
  0
ARC
  5
2E2
100
AcDbEntity
  8
RUNDUNGEN
100
AcDbCircle
 62
7
  6
CONTINUOUS
 10
87.2311197771
 20
247.3474477845
 40
2.0
100
AcDbArc
 50
60.0000000019
 51
89.9936697878
  0
ARC
  5
2E3
100
AcDbEntity
  8
RUNDUNGEN
100
AcDbCircle
 62
7
  6
CONTINUOUS
 10
82.3448502692
 20
248.347500002
 40
1.0
100
AcDbArc
 50
90.0000000005
 51
150.0
  0
ARC
  5
2E4
100
AcDbEntity
  8
RUNDUNGEN
100
AcDbCircle
 62
9
  6
CONTINUOUS
 10
90.1275
 20
234.9643439718
 40
0.5
100
AcDbArc
 50
304.849904579
 51
360.0
  0
CIRCLE
  5
2E5
100
AcDbEntity
  8
0
100
AcDbCircle
 62
7
  6
CONTINUOUS
 10
96.1275
 20
205.347500002
 40
10.0
  0
ARC
  5
2E6
100
AcDbEntity
  8
0
100
AcDbCircle
 62
9
  6
CONTINUOUS
 10
96.1275
 20
226.347500002
 40
10.0
100
AcDbArc
 50
346.2141883982
 51
55.150095421
  0
ARC
  5
2E7
100
AcDbEntity
  8
0
100
AcDbCircle
 62
9
  6
CONTINUOUS
 10
96.1275
 20
226.347500002
 40
10.0
100
AcDbArc
 50
124.849904579
 51
193.7858116018
  0
ARC
  5
2E8
100
AcDbEntity
  8
RUNDUNGEN
100
AcDbCircle
 62
7
  6
CONTINUOUS
 10
96.1275
 20
226.347500002
 40
8.0
100
AcDbArc
 50
333.2563160496
 51
55.150095421
  0
ARC
  5
2E9
100
AcDbEntity
  8
0
100
AcDbCircle
 62
7
  6
CONTINUOUS
 10
96.1275
 20
226.347500002
 40
8.0
100
AcDbArc
 50
209.5655640238
 51
330.4344360177
  0
ARC
  5
2EA
100
AcDbEntity
  8
RUNDUNGEN
100
AcDbCircle
 62
7
  6
CONTINUOUS
 10
96.1275
 20
226.347500002
 40
8.0
100
AcDbArc
 50
124.849904579
 51
206.7436839504
  0
CIRCLE
  5
2EB
100
AcDbEntity
  8
0
100
AcDbCircle
 62
7
  6
CONTINUOUS
 10
96.1275
 20
205.347500002
 40
5.0
  0
ARC
  5
2EC
100
AcDbEntity
  8
RUNDUNGEN
100
AcDbCircle
 62
9
  6
CONTINUOUS
 10
114.6275
 20
234.5125635114
 40
4.5
100
AcDbArc
 50
180.0
 51
210.0
  0
ARC
  5
2ED
100
AcDbEntity
  8
RUNDUNGEN
100
AcDbCircle
 62
7
  6
CONTINUOUS
 10
114.6275
 20
234.5125635114
 40
3.5
100
AcDbArc
 50
180.0
 51
210.0
  0
ARC
  5
2EE
100
AcDbEntity
  8
RUNDUNGEN
100
AcDbCircle
 62
7
  6
CONTINUOUS
 10
102.1275
 20
245.097871614
 40
2.5
100
AcDbArc
 50
120.0071075449
 51
179.9978300652
  0
ARC
  5
2EF
100
AcDbEntity
  8
RUNDUNGEN
100
AcDbCircle
 62
7
  6
CONTINUOUS
 10
108.6275
 20
245.8717047126
 40
2.5
100
AcDbArc
 50
0.0009709829
 51
29.9969156548
  0
ARC
  5
2F0
100
AcDbEntity
  8
RUNDUNGEN
100
AcDbCircle
 62
7
  6
CONTINUOUS
 10
102.1275
 20
234.9643439718
 40
2.5
100
AcDbArc
 50
180.0
 51
235.150095421
  0
ARC
  5
2F1
100
AcDbEntity
  8
RUNDUNGEN
100
AcDbCircle
 62
7
  6
CONTINUOUS
 10
105.0238795434
 20
247.3474473923
 40
2.0
100
AcDbArc
 50
90.006382246
 51
119.9999999981
  0
ARC
  5
2F2
100
AcDbEntity
  8
RUNDUNGEN
100
AcDbCircle
 62
7
  6
CONTINUOUS
 10
108.9301497308
 20
248.3475000019
 40
1.0
100
AcDbArc
 50
30.0
 51
89.9999999994
  0
ARC
  5
2F3
100
AcDbEntity
  8
RUNDUNGEN
100
AcDbCircle
 62
9
  6
CONTINUOUS
 10
102.1275
 20
234.9643439718
 40
0.5
100
AcDbArc
 50
180.0
 51
235.150095421
  0
ARC
  5
2F4
100
AcDbEntity
  8
BEZUGSACHSEN
100
AcDbCircle
 62
7
  6
CONTINUOUS
 10
160.8394402133
 20
219.3819946656
 40
5.0
100
AcDbArc
 50
0.0
 51
66.4218215218
  0
ARC
  5
2F5
100
AcDbEntity
  8
BEZUGSACHSEN
100
AcDbCircle
 62
7
  6
CONTINUOUS
 10
182.8394402133
 20
219.3819946656
 40
5.0
100
AcDbArc
 50
113.5781784782
 51
180.0
  0
ARC
  5
2F6
100
AcDbEntity
  8
RUNDUNGEN
100
AcDbCircle
 62
7
  6
CONTINUOUS
 10
171.8394402133
 20
240.347500002
 40
9.0
100
AcDbArc
 50
0.0
 51
180.0
  0
ARC
  5
2F7
100
AcDbEntity
  8
RUNDUNGEN
100
AcDbCircle
 62
9
  6
CONTINUOUS
 10
171.8394402133
 20
240.347500002
 40
8.0
100
AcDbArc
 50
136.3283045531
 51
180.0
  0
ARC
  5
2F8
100
AcDbEntity
  8
RUNDUNGEN
100
AcDbCircle
 62
9
  6
CONTINUOUS
 10
171.8394402133
 20
240.347500002
 40
8.0
100
AcDbArc
 50
0.0
 51
43.6717034194
  0
ARC
  5
2F9
100
AcDbEntity
  8
RUNDUNGEN
100
AcDbCircle
 62
9
  6
CONTINUOUS
 10
171.8394402133
 20
240.8475000019
 40
8.0000000001
100
AcDbArc
 50
51.6537286412
 51
128.3462713588
  0
CIRCLE
  5
2FA
100
AcDbEntity
  8
BEZUGSACHSEN
100
AcDbCircle
 62
8
  6
HIDDEN
 10
171.8394402133
 20
240.347500002
 40
3.7
  0
SPLINE
  5
2FB
100
AcDbEntity
  8
RUNDUNGEN
100
AcDbSpline
 62
9
  6
CONTINUOUS
 70
0
 71
3
 72
11
 73
7
 74
0
 42
0.0000001
 43
0.0000001
 44
0.0000000001
 40
0.0
 40
0.0
 40
0.0
 40
0.0
 40
0.1975369944
 40
0.4220999862
 40
0.6887344553
 40
1.0
 40
1.0
 40
1.0
 40
1.0
 10
91.3775150605
 20
247.262961224
 30
0.0
 10
91.3155543112
 20
247.2987295443
 30
0.0
 10
91.1631487317
 20
247.3429065127
 30
0.0
 10
90.9110415241
 20
247.3124394818
 30
0.0
 10
90.6407642503
 20
247.1990138728
 30
0.0
 10
90.4662874368
 20
247.0813184532
 30
0.0
 10
90.3775
 20
247.0118511387
 30
0.0
  0
LINE
  5
2FC
100
AcDbEntity
  8
RUNDUNGEN
100
AcDbLine
 62
9
  6
CONTINUOUS
 10
82.3448502692
 20
249.347500002
 11
81.3484618943
 21
247.4059803015
  0
SPLINE
  5
2FD
100
AcDbEntity
  8
RUNDUNGEN
100
AcDbSpline
 62
9
  6
CONTINUOUS
 70
0
 71
3
 72
11
 73
7
 74
0
 42
0.0000001
 43
0.0000001
 44
0.0000000001
 40
0.0
 40
0.0
 40
0.0
 40
0.0
 40
0.1975286293
 40
0.4220880677
 40
0.6887255326
 40
1.0
 40
1.0
 40
1.0
 40
1.0
 10
100.8775
 20
247.2629351234
 30
0.0
 10
100.939454442
 20
247.2987050956
 30
0.0
 10
101.0918508467
 20
247.3428870929
 30
0.0
 10
101.3439501596
 20
247.3124284111
 30
0.0
 10
101.6142276868
 20
247.1990130418
 30
0.0
 10
101.7887088861
 20
247.0813250047
 30
0.0
 10
101.8774999987
 20
247.0118612535
 30
0.0
  0
SPLINE
  5
2FE
100
AcDbEntity
  8
RUNDUNGEN
100
AcDbSpline
 62
9
  6
CONTINUOUS
 70
0
 71
3
 72
13
 73
9
 74
0
 42
0.0000001
 43
0.0000001
 44
0.0000000001
 40
0.0
 40
0.0
 40
0.0
 40
0.0
 40
0.1007862545
 40
0.2060181512
 40
0.3186066345
 40
0.4402816636
 40
0.708814029
 40
1.0
 40
1.0
 40
1.0
 40
1.0
 10
99.6275
 20
245.097871614
 30
0.0
 10
99.6275
 20
245.1869866511
 30
0.0
 10
99.6548248808
 20
245.3700964437
 30
0.0
 10
99.7729543839
 20
245.6292907825
 30
0.0
 10
99.9625034364
 20
245.865551271
 30
0.0
 10
100.3095356051
 20
246.1476758068
 30
0.0
 10
100.8728331647
 20
246.3912317935
 30
0.0
 10
101.370033853
 20
246.4551199898
 30
0.0
 10
101.6275
 20
246.4551206481
 30
0.0
  0
SPLINE
  5
2FF
100
AcDbEntity
  8
RUNDUNGEN
100
AcDbSpline
 62
9
  6
CONTINUOUS
 70
0
 71
3
 72
12
 73
8
 74
0
 42
0.0000001
 43
0.0000001
 44
0.0000000001
 40
0.0
 40
0.0
 40
0.0
 40
0.0
 40
0.2898174853
 40
0.5578875098
 40
0.7917748628
 40
0.898103536
 40
1.0
 40
1.0
 40
1.0
 40
1.0
 10
110.1275
 20
246.562230304
 30
0.0
 10
110.2562588526
 20
246.5622300075
 30
0.0
 10
110.5056288943
 20
246.5292722409
 30
0.0
 10
110.8323746864
 20
246.3861480576
 30
0.0
 10
111.0329466508
 20
246.1912562737
 30
0.0
 10
111.1137591068
 20
246.0099274158
 30
0.0
 10
111.1275
 20
245.9169748306
 30
0.0
 10
111.1275
 20
245.8717047125
 30
0.0
  0
SPLINE
  5
300
100
AcDbEntity
  8
RUNDUNGEN
100
AcDbSpline
 62
9
  6
CONTINUOUS
 70
0
 71
3
 72
11
 73
7
 74
0
 42
0.0000001
 43
0.0000001
 44
0.0000000001
 40
0.0
 40
0.0
 40
0.0
 40
0.0
 40
0.2803028056
 40
0.5395640248
 40
0.7769331003
 40
1.0
 40
1.0
 40
1.0
 40
1.0
 10
109.9265381067
 20
247.4059596621
 30
0.0
 10
110.0150844426
 20
247.4256382011
 30
0.0
 10
110.1906522031
 20
247.444491554
 30
0.0
 10
110.4425061687
 20
247.4059006781
 30
0.0
 10
110.6543436504
 20
247.29880022
 30
0.0
 10
110.7564686765
 20
247.1842173922
 30
0.0
 10
110.7925635091
 20
247.1217047125
 30
0.0
  0
SPLINE
  5
301
100
AcDbEntity
  8
RUNDUNGEN
100
AcDbSpline
 62
9
  6
CONTINUOUS
 70
0
 71
3
 72
9
 73
5
 74
0
 42
0.0000001
 43
0.0000001
 44
0.0000000001
 40
0.0
 40
0.0
 40
0.0
 40
0.0
 40
0.5109122796
 40
1.0
 40
1.0
 40
1.0
 40
1.0
 10
110.1275
 20
246.5622303015
 30
0.0
 10
110.1274968026
 20
246.7109813137
 30
0.0
 10
110.0931910651
 20
247.0031986402
 30
0.0
 10
109.9915649689
 20
247.279298153
 30
0.0
 10
109.9265381057
 20
247.4059803015
 30
0.0
  0
SPLINE
  5
302
100
AcDbEntity
  8
RUNDUNGEN
100
AcDbSpline
 62
9
  6
CONTINUOUS
 70
0
 71
3
 72
9
 73
5
 74
0
 42
0.0000001
 43
0.0000001
 44
0.0000000001
 40
0.0
 40
0.0
 40
0.0
 40
0.0
 40
0.4881352665
 40
1.0
 40
1.0
 40
1.0
 40
1.0
 10
101.6275
 20
246.455120646
 30
0.0
 10
101.6275063976
 20
246.5570160007
 30
0.0
 10
101.6649529334
 20
246.7672745562
 30
0.0
 10
101.7917180334
 20
246.9481479843
 30
0.0
 10
101.8775
 20
247.0118512627
 30
0.0
  0
LINE
  5
303
100
AcDbEntity
  8
RUNDUNGEN
100
AcDbLine
 62
9
  6
CONTINUOUS
 10
101.8775
 20
247.0118512627
 11
105.0141984241
 21
249.3402487399
  0
LINE
  5
304
100
AcDbEntity
  8
RUNDUNGEN
100
AcDbLine
 62
9
  6
CONTINUOUS
 10
105.0141984241
 20
249.3402487399
 11
105.0239103086
 21
249.3474553309
  0
SPLINE
  5
305
100
AcDbEntity
  8
RUNDUNGEN
100
AcDbSpline
 62
9
  6
CONTINUOUS
 70
0
 71
3
 72
11
 73
7
 74
0
 42
0.0000001
 43
0.0000001
 44
0.0000000001
 40
0.0
 40
0.0
 40
0.0
 40
0.0
 40
0.2803034374
 40
0.5395652535
 40
0.776934232
 40
1.0
 40
1.0
 40
1.0
 40
1.0
 10
81.3484618944
 20
247.4059745855
 30
0.0
 10
81.2599136233
 20
247.4256528344
 30
0.0
 10
81.0843423088
 20
247.4445055987
 30
0.0
 10
80.8324835917
 20
247.4059139956
 30
0.0
 10
80.6206421643
 20
247.298812427
 30
0.0
 10
80.5185156042
 20
247.1842275373
 30
0.0
 10
80.4824208743
 20
247.1217137309
 30
0.0
  0
SPLINE
  5
306
100
AcDbEntity
  8
RUNDUNGEN
100
AcDbSpline
 62
9
  6
CONTINUOUS
 70
0
 71
3
 72
12
 73
8
 74
0
 42
0.0000001
 43
0.0000001
 44
0.0000000001
 40
0.0
 40
0.0
 40
0.0
 40
0.0
 40
0.2898173114
 40
0.5578871555
 40
0.7917745039
 40
0.8981033036
 40
1.0
 40
1.0
 40
1.0
 40
1.0
 10
81.1475
 20
246.5622303058
 30
0.0
 10
81.0187411631
 20
246.5622303049
 30
0.0
 10
80.769371077
 20
246.5292729769
 30
0.0
 10
80.442625135
 20
246.3861489702
 30
0.0
 10
80.2420532422
 20
246.191256914
 30
0.0
 10
80.1612408567
 20
246.009927748
 30
0.0
 10
80.1475
 20
245.9169749556
 30
0.0
 10
80.1475
 20
245.8717047126
 30
0.0
  0
LINE
  5
307
100
AcDbEntity
  8
RUNDUNGEN
100
AcDbLine
 62
9
  6
CONTINUOUS
 10
109.9265381057
 20
247.4059803015
 11
108.9301497308
 21
249.347500002
  0
SPLINE
  5
308
100
AcDbEntity
  8
RUNDUNGEN
100
AcDbSpline
 62
9
  6
CONTINUOUS
 70
0
 71
3
 72
9
 73
5
 74
0
 42
0.0000001
 43
0.0000001
 44
0.0000000001
 40
0.0
 40
0.0
 40
0.0
 40
0.0
 40
0.5118649573
 40
1.0
 40
1.0
 40
1.0
 40
1.0
 10
90.3775
 20
247.0118512627
 30
0.0
 10
90.4632817884
 20
246.9481475657
 30
0.0
 10
90.5900485067
 20
246.7672752882
 30
0.0
 10
90.6274938378
 20
246.5570160111
 30
0.0
 10
90.6275
 20
246.455120646
 30
0.0
  0
SPLINE
  5
309
100
AcDbEntity
  8
RUNDUNGEN
100
AcDbSpline
 62
9
  6
CONTINUOUS
 70
0
 71
3
 72
9
 73
5
 74
0
 42
0.0000001
 43
0.0000001
 44
0.0000000001
 40
0.0
 40
0.0
 40
0.0
 40
0.0
 40
0.4890889188
 40
1.0
 40
1.0
 40
1.0
 40
1.0
 10
81.3484618943
 20
247.4059803015
 30
0.0
 10
81.2834321135
 20
247.2792992074
 30
0.0
 10
81.1818074222
 20
247.0031981042
 30
0.0
 10
81.1475044048
 20
246.7109810121
 30
0.0
 10
81.1475
 20
246.5622303015
 30
0.0
  0
SPLINE
  5
30A
100
AcDbEntity
  8
RUNDUNGEN
100
AcDbSpline
 62
9
  6
CONTINUOUS
 70
0
 71
3
 72
13
 73
9
 74
0
 42
0.0000001
 43
0.0000001
 44
0.0000000001
 40
0.0
 40
0.0
 40
0.0
 40
0.0
 40
0.1007865251
 40
0.2060185874
 40
0.3186071255
 40
0.4402821204
 40
0.7088142576
 40
1.0
 40
1.0
 40
1.0
 40
1.0
 10
92.6275
 20
245.097871614
 30
0.0
 10
92.6275
 20
245.1869869391
 30
0.0
 10
92.6001751687
 20
245.3700972201
 30
0.0
 10
92.4820457126
 20
245.629292232
 30
0.0
 10
92.2924966721
 20
245.8655531675
 30
0.0
 10
91.94546455
 20
246.1476778857
 30
0.0
 10
91.3821668303
 20
246.3912334739
 30
0.0
 10
90.8849660856
 20
246.4551206463
 30
0.0
 10
90.6275
 20
246.4551206487
 30
0.0
  0
LINE
  5
30B
100
AcDbEntity
  8
RUNDUNGEN
100
AcDbLine
 62
9
  6
CONTINUOUS
 10
87.2310896416
 20
249.3474553453
 11
87.3187442268
 21
249.2824093256
  0
LINE
  5
30C
100
AcDbEntity
  8
RUNDUNGEN
100
AcDbLine
 62
9
  6
CONTINUOUS
 10
87.3187442268
 20
249.2824093256
 11
90.3775
 21
247.0118512627
  0
SPLINE
  5
30D
100
AcDbEntity
  8
BEZUGSACHSEN
100
AcDbSpline
 62
7
  6
CONTINUOUS
 70
0
 71
3
 72
9
 73
5
 74
0
 42
0.0000001
 43
0.0000001
 44
0.0000000001
 40
0.0
 40
0.0
 40
0.0
 40
0.0
 40
0.5248800648
 40
1.0
 40
1.0
 40
1.0
 40
1.0
 10
112.4389223782
 20
223.9645703605
 30
0.0
 10
112.6504419325
 20
223.9645703605
 30
0.0
 10
113.0536568044
 20
223.9382043964
 30
0.0
 10
113.4498779911
 20
223.8444632995
 30
0.0
 10
113.6275
 20
223.7729790752
 30
0.0
  0
SPLINE
  5
30E
100
AcDbEntity
  8
BEZUGSACHSEN
100
AcDbSpline
 62
9
  6
CONTINUOUS
 70
0
 71
3
 72
9
 73
5
 74
0
 42
0.0000001
 43
0.0000001
 44
0.0000000001
 40
0.0
 40
0.0
 40
0.0
 40
0.0
 40
0.2356498236
 40
1.0
 40
1.0
 40
1.0
 40
1.0
 10
113.6274957302
 20
228.2744902035
 30
0.0
 10
113.5340705065
 20
228.355229785
 30
0.0
 10
113.1378173796
 20
228.6980918754
 30
0.0
 10
112.7417584016
 20
229.0411781462
 30
0.0
 10
112.4389223782
 20
229.3032911487
 30
0.0
  0
SPLINE
  5
30F
100
AcDbEntity
  8
BEZUGSACHSEN
100
AcDbSpline
 62
9
  6
CONTINUOUS
 70
0
 71
3
 72
9
 73
5
 74
0
 42
0.0000001
 43
0.0000001
 44
0.0000000001
 40
0.0
 40
0.0
 40
0.0
 40
0.0
 40
0.2597677278
 40
1.0
 40
1.0
 40
1.0
 40
1.0
 10
79.8160776218
 20
231.0007009401
 30
0.0
 10
79.7131571874
 20
230.91162105
 30
0.0
 10
79.3172290564
 20
230.5683837598
 30
0.0
 10
78.9209782031
 20
230.2255188764
 30
0.0
 10
78.6275045256
 20
229.9718998469
 30
0.0
  0
SPLINE
  5
310
100
AcDbEntity
  8
BEZUGSACHSEN
100
AcDbSpline
 62
7
  6
CONTINUOUS
 70
0
 71
3
 72
9
 73
5
 74
0
 42
0.0000001
 43
0.0000001
 44
0.0000000001
 40
0.0
 40
0.0
 40
0.0
 40
0.0
 40
0.4751209363
 40
1.0
 40
1.0
 40
1.0
 40
1.0
 10
78.6275
 20
223.7729790752
 30
0.0
 10
78.8051223827
 20
223.84446345
 30
0.0
 10
79.2013436115
 20
223.9382044338
 30
0.0
 10
79.6045584714
 20
223.9645703605
 30
0.0
 10
79.8160776218
 20
223.9645703605
 30
0.0
  0
SPLINE
  5
311
100
AcDbEntity
  8
0
100
AcDbSpline
 62
7
  6
CONTINUOUS
 70
0
 71
3
 72
13
 73
9
 74
0
 42
0.0000001
 43
0.0000001
 44
0.0000000001
 40
0.0
 40
0.0
 40
0.0
 40
0.0
 40
0.2275623189
 40
0.3400036881
 40
0.4561930536
 40
0.7118927101
 40
0.8532751093
 40
1.0
 40
1.0
 40
1.0
 40
1.0
 10
103.2910475618
 20
222.7377650528
 30
0.0
 10
103.4142917378
 20
222.9261372949
 30
0.0
 10
103.6206341234
 20
223.1966642017
 30
0.0
 10
103.9680222073
 20
223.4875595034
 30
0.0
 10
104.3823193052
 20
223.7323085727
 30
0.0
 10
104.8758516194
 20
223.8799571236
 30
0.0
 10
105.4089964325
 20
223.9520044652
 30
0.0
 10
105.6942913161
 20
223.9645703605
 30
0.0
 10
105.8394331919
 20
223.9645703605
 30
0.0
  0
SPLINE
  5
312
100
AcDbEntity
  8
0
100
AcDbSpline
 62
7
  6
CONTINUOUS
 70
0
 71
3
 72
9
 73
5
 74
0
 42
0.0000001
 43
0.0000001
 44
0.0000000001
 40
0.0
 40
0.0
 40
0.0
 40
0.0
 40
0.2543974218
 40
1.0
 40
1.0
 40
1.0
 40
1.0
 10
103.085826369
 20
222.4001503059
 30
0.0
 10
103.1023592167
 20
222.4292941515
 30
0.0
 10
103.1681320529
 20
222.5434053081
 30
0.0
 10
103.2372752394
 20
222.6555918445
 30
0.0
 10
103.2910475618
 20
222.7377650528
 30
0.0
  0
SPLINE
  5
313
100
AcDbEntity
  8
0
100
AcDbSpline
 62
7
  6
CONTINUOUS
 70
0
 71
3
 72
13
 73
9
 74
0
 42
0.0000001
 43
0.0000001
 44
0.0000000001
 40
0.0
 40
0.0
 40
0.0
 40
0.0
 40
0.1467248228
 40
0.2881070723
 40
0.5438066336
 40
0.6599960346
 40
0.7724374585
 40
1.0
 40
1.0
 40
1.0
 40
1.0
 10
86.4155668081
 20
223.9645703605
 30
0.0
 10
86.5607086549
 20
223.9645703605
 30
0.0
 10
86.846003399
 20
223.9520044829
 30
0.0
 10
87.3791480446
 20
223.879957161
 30
0.0
 10
87.8726803059
 20
223.7323087183
 30
0.0
 10
88.286977552
 20
223.4875596546
 30
0.0
 10
88.6343659894
 20
223.1966641054
 30
0.0
 10
88.8407086064
 20
222.9261369043
 30
0.0
 10
88.9639529043
 20
222.737764408
 30
0.0
  0
SPLINE
  5
314
100
AcDbEntity
  8
BEZUGSACHSEN
100
AcDbSpline
 62
9
  6
CONTINUOUS
 70
0
 71
3
 72
8
 73
4
 74
0
 42
0.0000001
 43
0.0000001
 44
0.0000000001
 40
0.0
 40
0.0
 40
0.0
 40
0.0
 40
1.0
 40
1.0
 40
1.0
 40
1.0
 10
163.8928542397
 20
230.9420241104
 30
0.0
 10
163.8567616105
 20
231.1255841997
 30
0.0
 10
163.8394199105
 20
231.313626132
 30
0.0
 10
163.8394402133
 20
231.5007009401
 30
0.0
  0
SPLINE
  5
315
100
AcDbEntity
  8
BEZUGSACHSEN
100
AcDbSpline
 62
7
  6
CONTINUOUS
 70
0
 71
3
 72
13
 73
9
 74
0
 42
0.0000001
 43
0.0000001
 44
0.0000000001
 40
0.0
 40
0.0
 40
0.0
 40
0.0
 40
0.1252269312
 40
0.2504681388
 40
0.3757468261
 40
0.5008418264
 40
0.7503349428
 40
1.0
 40
1.0
 40
1.0
 40
1.0
 10
179.7860259266
 20
230.9420241104
 30
0.0
 10
179.8400806332
 20
230.9420241104
 30
0.0
 10
179.9490178411
 20
230.9238253892
 30
0.0
 10
180.0944313843
 20
230.846707076
 30
0.0
 10
180.2125499604
 20
230.7332461282
 30
0.0
 10
180.3339848418
 20
230.5534865523
 30
0.0
 10
180.4259667862
 20
230.2958990924
 30
0.0
 10
180.4479469727
 20
230.0797859368
 30
0.0
 10
180.4479469728
 20
229.9720170145
 30
0.0
  0
SPLINE
  5
316
100
AcDbEntity
  8
BEZUGSACHSEN
100
AcDbSpline
 62
9
  6
CONTINUOUS
 70
0
 71
3
 72
9
 73
5
 74
0
 42
0.0000001
 43
0.0000001
 44
0.0000000001
 40
0.0
 40
0.0
 40
0.0
 40
0.0
 40
0.5174846644
 40
1.0
 40
1.0
 40
1.0
 40
1.0
 10
163.2309336429
 20
229.9718999949
 30
0.0
 10
163.1055313812
 20
230.1185034407
 30
0.0
 10
162.9081909986
 20
230.4451652893
 30
0.0
 10
162.8394128079
 20
230.8208172104
 30
0.0
 10
162.8394402133
 20
231.0007009401
 30
0.0
  0
SPLINE
  5
317
100
AcDbEntity
  8
BEZUGSACHSEN
100
AcDbSpline
 62
9
  6
CONTINUOUS
 70
0
 71
3
 72
8
 73
4
 74
0
 42
0.0000001
 43
0.0000001
 44
0.0000000001
 40
0.0
 40
0.0
 40
0.0
 40
0.0
 40
1.0
 40
1.0
 40
1.0
 40
1.0
 10
179.8394402133
 20
231.5007009401
 30
0.0
 10
179.8394606902
 20
231.3136261238
 30
0.0
 10
179.8221186956
 20
231.1255841806
 30
0.0
 10
179.7860259266
 20
230.9420241104
 30
0.0
  0
SPLINE
  5
318
100
AcDbEntity
  8
BEZUGSACHSEN
100
AcDbSpline
 62
9
  6
CONTINUOUS
 70
0
 71
3
 72
9
 73
5
 74
0
 42
0.0000001
 43
0.0000001
 44
0.0000000001
 40
0.0
 40
0.0
 40
0.0
 40
0.0
 40
0.4825148162
 40
1.0
 40
1.0
 40
1.0
 40
1.0
 10
180.8394402133
 20
231.0007009401
 30
0.0
 10
180.8394679192
 20
230.8208174202
 30
0.0
 10
180.7706877953
 20
230.4451664395
 30
0.0
 10
180.5733509919
 20
230.1185020214
 30
0.0
 10
180.4479469727
 20
229.9718998469
 30
0.0
  0
SPLINE
  5
319
100
AcDbEntity
  8
RUNDUNGEN
100
AcDbSpline
 62
9
  6
CONTINUOUS
 70
0
 71
3
 72
13
 73
9
 74
0
 42
0.0000001
 43
0.0000001
 44
0.0000000001
 40
0.0
 40
0.0
 40
0.0
 40
0.0
 40
0.0821559265
 40
0.1731029241
 40
0.277933629
 40
0.3984261714
 40
0.6816111425
 40
1.0
 40
1.0
 40
1.0
 40
1.0
 10
180.8394402133
 20
231.0007009401
 30
0.0
 10
180.8394402133
 20
231.0337787524
 30
0.0
 10
180.824606047
 20
231.1039486733
 30
0.0
 10
180.7637832722
 20
231.199932763
 30
0.0
 10
180.6683567558
 20
231.2859907426
 30
0.0
 10
180.4914321384
 20
231.3909138331
 30
0.0
 10
180.21028132
 20
231.4778798703
 30
0.0
 10
179.9676306836
 20
231.5007013036
 30
0.0
 10
179.8394402133
 20
231.5007009401
 30
0.0
  0
SPLINE
  5
31A
100
AcDbEntity
  8
RUNDUNGEN
100
AcDbSpline
 62
9
  6
CONTINUOUS
 70
0
 71
3
 72
13
 73
9
 74
0
 42
0.0000001
 43
0.0000001
 44
0.0000000001
 40
0.0
 40
0.0
 40
0.0
 40
0.0
 40
0.0822452088
 40
0.1731402531
 40
0.2778863345
 40
0.39845992
 40
0.6815811013
 40
1.0
 40
1.0
 40
1.0
 40
1.0
 10
180.8394402133
 20
232.2625635114
 30
0.0
 10
180.8394402133
 20
232.2956779926
 30
0.0
 10
180.8247188778
 20
232.365900938
 30
0.0
 10
180.763731409
 20
232.461775748
 30
0.0
 10
180.668408399
 20
232.5478898827
 30
0.0
 10
180.4914101526
 20
232.6526799832
 30
0.0
 10
180.2103109694
 20
232.7397825263
 30
0.0
 10
179.9676455733
 20
232.7625635114
 30
0.0
 10
179.8394402133
 20
232.7625635114
 30
0.0
  0
SPLINE
  5
31B
100
AcDbEntity
  8
RUNDUNGEN
100
AcDbSpline
 62
9
  6
CONTINUOUS
 70
0
 71
3
 72
9
 73
5
 74
0
 42
0.0000001
 43
0.0000001
 44
0.0000000001
 40
0.0
 40
0.0
 40
0.0
 40
0.0
 40
0.2576440955
 40
1.0
 40
1.0
 40
1.0
 40
1.0
 10
166.052974347
 20
245.8717011052
 30
0.0
 10
166.1168785695
 20
245.9832851185
 30
0.0
 10
166.3715238366
 20
246.4125356945
 30
0.0
 10
166.652317815
 20
246.826449364
 30
0.0
 10
166.8761393713
 20
247.1217047126
 30
0.0
  0
SPLINE
  5
31C
100
AcDbEntity
  8
RUNDUNGEN
100
AcDbSpline
 62
9
  6
CONTINUOUS
 70
0
 71
3
 72
9
 73
5
 74
0
 42
0.0000001
 43
0.0000001
 44
0.0000000001
 40
0.0
 40
0.0
 40
0.0
 40
0.0
 40
0.2397234168
 40
1.0
 40
1.0
 40
1.0
 40
1.0
 10
176.8027410554
 20
247.1217047126
 30
0.0
 10
176.8750187166
 20
247.0263592169
 30
0.0
 10
177.1698799629
 20
246.6236143966
 30
0.0
 10
177.4373303476
 20
246.2009760789
 30
0.0
 10
177.6259055556
 20
245.8717019836
 30
0.0
  0
SPLINE
  5
31D
100
AcDbEntity
  8
BEZUGSACHSEN
100
AcDbSpline
 62
7
  6
CONTINUOUS
 70
0
 71
3
 72
13
 73
9
 74
0
 42
0.0000001
 43
0.0000001
 44
0.0000000001
 40
0.0
 40
0.0
 40
0.0
 40
0.0
 40
0.2496638013
 40
0.4991551916
 40
0.6242489356
 40
0.7495270428
 40
0.8747709493
 40
1.0
 40
1.0
 40
1.0
 40
1.0
 10
163.2309336429
 20
229.9720106152
 30
0.0
 10
163.230933643
 20
230.0797794717
 30
0.0
 10
163.2529128651
 20
230.295891968
 30
0.0
 10
163.3448912966
 20
230.5534807724
 30
0.0
 10
163.4663264311
 20
230.7332385611
 30
0.0
 10
163.5844404359
 20
230.8467069972
 30
0.0
 10
163.7298602352
 20
230.9238186662
 30
0.0
 10
163.8387983793
 20
230.9420241104
 30
0.0
 10
163.8928542397
 20
230.9420241104
 30
0.0
  0
SPLINE
  5
31E
100
AcDbEntity
  8
RUNDUNGEN
100
AcDbSpline
 62
9
  6
CONTINUOUS
 70
0
 71
3
 72
13
 73
9
 74
0
 42
0.0000001
 43
0.0000001
 44
0.0000000001
 40
0.0
 40
0.0
 40
0.0
 40
0.0
 40
0.0821555895
 40
0.1731024139
 40
0.2779330828
 40
0.3984256878
 40
0.6816109097
 40
1.0
 40
1.0
 40
1.0
 40
1.0
 10
162.8394402133
 20
231.0007009401
 30
0.0
 10
162.8394402133
 20
231.0337785948
 30
0.0
 10
162.8542744399
 20
231.1039482548
 30
0.0
 10
162.9150972405
 20
231.1999319688
 30
0.0
 10
163.0105237645
 20
231.2859897136
 30
0.0
 10
163.1874484077
 20
231.3909126917
 30
0.0
 10
163.4685991325
 20
231.4778789817
 30
0.0
 10
163.711249734
 20
231.5007009401
 30
0.0
 10
163.8394402133
 20
231.5007009401
 30
0.0
  0
SPLINE
  5
31F
100
AcDbEntity
  8
RUNDUNGEN
100
AcDbSpline
 62
9
  6
CONTINUOUS
 70
0
 71
3
 72
13
 73
9
 74
0
 42
0.0000001
 43
0.0000001
 44
0.0000000001
 40
0.0
 40
0.0
 40
0.0
 40
0.0
 40
0.0822452086
 40
0.1731402527
 40
0.2778863344
 40
0.3984599204
 40
0.6815811028
 40
1.0
 40
1.0
 40
1.0
 40
1.0
 10
162.8394402133
 20
232.2625635114
 30
0.0
 10
162.8394402133
 20
232.2956779924
 30
0.0
 10
162.8541615484
 20
232.3659009378
 30
0.0
 10
162.9151490176
 20
232.4617757476
 30
0.0
 10
163.0104720274
 20
232.5478898827
 30
0.0
 10
163.1874702747
 20
232.652679983
 30
0.0
 10
163.4685694574
 20
232.7397825287
 30
0.0
 10
163.711234854
 20
232.7625635079
 30
0.0
 10
163.8394402133
 20
232.7625635079
 30
0.0
  0
SPLINE
  5
320
100
AcDbEntity
  8
RUNDUNGEN
100
AcDbSpline
 62
9
  6
CONTINUOUS
 70
0
 71
3
 72
11
 73
7
 74
0
 42
0.0000001
 43
0.0000001
 44
0.0000000001
 40
0.0
 40
0.0
 40
0.0
 40
0.0
 40
0.3507170897
 40
0.4876199889
 40
0.6433702276
 40
1.0
 40
1.0
 40
1.0
 40
1.0
 10
166.2557373311
 20
247.4059669439
 30
0.0
 10
166.3208318501
 20
247.4574632733
 30
0.0
 10
166.4652136953
 20
247.4158475392
 30
0.0
 10
166.5939665522
 20
247.3451253165
 30
0.0
 10
166.7229856987
 20
247.2586690779
 30
0.0
 10
166.8148904341
 20
247.1797734722
 30
0.0
 10
166.8761393713
 20
247.1217047126
 30
0.0
  0
SPLINE
  5
321
100
AcDbEntity
  8
RUNDUNGEN
100
AcDbSpline
 62
9
  6
CONTINUOUS
 70
0
 71
3
 72
11
 73
7
 74
0
 42
0.0000001
 43
0.0000001
 44
0.0000000001
 40
0.0
 40
0.0
 40
0.0
 40
0.0
 40
0.3507150694
 40
0.4876178356
 40
0.6433683542
 40
1.0
 40
1.0
 40
1.0
 40
1.0
 10
177.4231491383
 20
247.4059745855
 30
0.0
 10
177.3580546727
 20
247.4574710885
 30
0.0
 10
177.2136726179
 20
247.4158557541
 30
0.0
 10
177.0849187246
 20
247.3451343234
 30
0.0
 10
176.9558976402
 20
247.2586782744
 30
0.0
 10
176.8639912307
 20
247.1797826312
 30
0.0
 10
176.8027410538
 20
247.1217137309
 30
0.0
  0
ENDSEC
  0
SECTION
  2
OBJECTS
  0
DICTIONARY
  5
C
100
AcDbDictionary
280
0
281
1
  3
ACAD_GROUP
350
D
  3
ACAD_MLINESTYLE
350
17
  3
ACAD_LAYOUT
350
1A
  3
ACAD_PLOTSETTINGS
350
19
  3
ACAD_PLOTSTYLENAME
350
E
  0
DICTIONARY
  5
D
102
{ACAD_REACTORS
330
C
102
}
100
AcDbDictionary
280
0
281
1
  0
ACDBDICTIONARYWDFLT
  5
E
102
{ACAD_REACTORS
330
C
102
}
100
AcDbDictionary
281
1
  3
Normal
350
F
100
AcDbDictionaryWithDefault
340
F
  0
DICTIONARY
  5
17
102
{ACAD_REACTORS
330
C
102
}
100
AcDbDictionary
280
0
281
1
  3
Standard
350
18
  0
DICTIONARY
  5
19
102
{ACAD_REACTORS
330
C
102
}
100
AcDbDictionary
281
1
  0
DICTIONARY
  5
1A
102
{ACAD_REACTORS
330
C
102
}
100
AcDbDictionary
281
1
  3
Model
350
322
  3
Layout1
350
323
  0
ACDBPLACEHOLDER
  5
F
102
{ACAD_REACTORS
330
E
102
}
  0
MLINESTYLE
  5
18
102
{ACAD_REACTORS
330
17
102
}
100
AcDbMlineStyle
  2
STANDARD
 70
0
  3

 62
256
 51
90.0
 52
90.0
 71
2
 49
0.5
 62
256
  6
BYLAYER
 49
-0.5
 62
256
  6
BYLAYER
  0
LAYOUT
  5
322
102
{ACAD_REACTORS
330
1A
102
}
100
AcDbPlotSettings
  1

  2
none_device
  4
ISO_A3_(420.00_x_297.00_MM)
  6

 40
0.0
 41
0.0
 42
0.0
 43
0.0
 44
420.0
 45
297.0
 46
0.0
 47
0.0
 48
0.0
 49
0.0
140
0.0
141
0.0
142
1.0
143
1.0
 70
1024
 72
1
 73
0
 74
0
  7

 75
0
147
1.0
148
0.0
149
0.0
100
AcDbLayout
  1
Model
 70
0
 71
0
 10
0.0
 20
0.0
 11
420.0
 21
297.0
 12
0.0
 22
0.0
 32
0.0
 14
0.0
 24
0.0
 34
0.0
 15
0.0
 25
0.0
 35
0.0
146
0.0
 13
0.0
 23
0.0
 33
0.0
 16
1.0
 26
0.0
 36
0.0
 17
0.0
 27
1.0
 37
0.0
 76
0
330
206
345
0
346
0
  0
LAYOUT
  5
323
102
{ACAD_REACTORS
330
1A
102
}
100
AcDbPlotSettings
  1

  2
none_device
  4
ISO_A3_(420.00_x_297.00_MM)
  6

 40
0.0
 41
0.0
 42
0.0
 43
0.0
 44
420.0
 45
297.0
 46
0.0
 47
0.0
 48
0.0
 49
0.0
140
0.0
141
0.0
142
1.0
143
1.0
 70
0
 72
1
 73
0
 74
0
  7

 75
0
147
1.0
148
0.0
149
0.0
100
AcDbLayout
  1
Layout1
 70
0
 71
1
 10
0.0
 20
0.0
 11
420.0
 21
297.0
 12
0.0
 22
0.0
 32
0.0
 14
0.0
 24
0.0
 34
0.0
 15
0.0
 25
0.0
 35
0.0
146
0.0
 13
0.0
 23
0.0
 33
0.0
 16
1.0
 26
0.0
 36
0.0
 17
0.0
 27
1.0
 37
0.0
 76
0
330
207
345
0
346
0
  0
ENDSEC
  0
EOF
