999
DXF file: C:\Aktuell-Internet\CAD-Daten-NEU\2vgil-16.dxf
999
Pro/ENGINEER 2001400 by Parametric Technology Corporation
0
SECTION
2
HEADER
9
$ACADVER
1
AC1014
9
$EXTMAX
10
420.0000000000
20
297.0000000000
9
$EXTMIN
10
0.0000000000
20
0.0000000000
9
$LIMMIN
10
0.0000000000
20
0.0000000000
9
$LIMMAX
10
420.0000000000
20
297.0000000000
9
$VIEWCTR
10
210.0000000000
20
148.5000000000
9
$VIEWSIZE
40
297.0000000000
9
$CLAYER
8
0
9
$LTSCALE
40
23.1000000000
9
$CELTYPE
6
BYLAYER
9
$DIMSCALE
40
1
9
$DIMASZ
40
3.5000000000
9
$DIMEXO
40
2.6250000000
9
$DIMDLI
40
15.9600000000
9
$DIMEXE
40
7.5600000000
9
$DIMCEN
40
3.7800000000
9
$DIMLFAC
40
1.0000000000
9
$DIMTXT
40
3.5000000000
9
$DIMTOL
70
1
9
$DIMTFAC
40
0.6000000000
9
$DIMTP
40
0.0050000000
9
$DIMTM
40
0.0050000000
9
$HANDSEED
5
318
0
ENDSEC
0
SECTION
2
CLASSES
0
ENDSEC
0
SECTION
2
TABLES
0
TABLE
2
VPORT
5
8
100
AcDbSymbolTable
70
2
0
VPORT
5
1F4
100
AcDbSymbolTableRecord
100
AcDbViewportTableRecord
2
*ACTIVE
70
0
10
0.0
20
0.0
11
1.0
21
1.0
12
210.0000000000
22
148.5000000000
13
0.0
23
0.0
14
1.0
24
1.0
15
0.0
25
0.0
16
0.0
26
0.0
36
1.0
17
0.0
27
0.0
37
0.0
40
297.0000000000
41
1.4141414141
42
50.0
43
0.0
44
0.0
50
0.0
51
0.0
71
0
72
100
73
1
74
1
75
0
76
0
77
0
78
0
0
ENDTAB
0
TABLE
2
LTYPE
5
5
100
AcDbSymbolTable
70
6
0
LTYPE
5
14
100
AcDbSymbolTableRecord
100
AcDbLinetypeTableRecord
2
BYBLOCK
70
0
3

72
65
73
0
40
0.0
0
LTYPE
5
15
100
AcDbSymbolTableRecord
100
AcDbLinetypeTableRecord
2
BYLAYER
70
0
3

72
65
73
0
40
0.0
0
LTYPE
5
16
100
AcDbSymbolTableRecord
100
AcDbLinetypeTableRecord
2
CONTINUOUS
70
64
3
Solid line
72
65
73
0
40
0
0
LTYPE
5
1F5
100
AcDbSymbolTableRecord
100
AcDbLinetypeTableRecord
2
CENTER
70
64
3
____ _ ____ _ ____ _ ____ _ ____ _ ____ _ ____
72
65
73
4
40
0.6
49
0.375
74
0
49
-0.075
74
0
49
0.075
74
0
49
-0.075
74
0
0
LTYPE
5
1F6
100
AcDbSymbolTableRecord
100
AcDbLinetypeTableRecord
2
HIDDEN
70
64
3
- - - - - - - - - - - - - - - - - - - -
72
65
73
2
40
0.2
49
0.1
74
0
49
-0.1
74
0
0
LTYPE
5
1F7
100
AcDbSymbolTableRecord
100
AcDbLinetypeTableRecord
2
PHANTOM
70
64
3
_____ _ _ _____ _ _ _____ _ _ _____
72
65
73
6
40
0.8
49
0.45
74
0
49
-0.05
74
0
49
0.1
74
0
49
-0.05
74
0
49
0.1
74
0
49
-0.05
74
0
0
LTYPE
5
1F8
100
AcDbSymbolTableRecord
100
AcDbLinetypeTableRecord
2
DOT
70
64
3
. . . . . . . . . . . . . . . . . . . .
72
65
73
2
40
0.2
49
0.1
74
0
49
-0.1
74
0
0
LTYPE
5
1F9
100
AcDbSymbolTableRecord
100
AcDbLinetypeTableRecord
2
DASHED
70
64
3
- - - - - - - - - - - - - - - - - - - -
72
65
73
2
40
0.2
49
0.1
74
0
49
-0.1
74
0
0
ENDTAB
0
TABLE
2
LAYER
5
2
100
AcDbSymbolTable
70
36
0
LAYER
5
10
100
AcDbSymbolTableRecord
100
AcDbLayerTableRecord
2
0
70
0
62
7
6
CONTINUOUS
0
LAYER
5
1FA
100
AcDbSymbolTableRecord
100
AcDbLayerTableRecord
2
DEFAULT_1
70
0
62
7
6
CENTER
0
LAYER
5
1FB
100
AcDbSymbolTableRecord
100
AcDbLayerTableRecord
2
DEFAULT_2
70
0
62
8
6
HIDDEN
0
LAYER
5
1FC
100
AcDbSymbolTableRecord
100
AcDbLayerTableRecord
2
DEFAULT_3
70
0
62
7
6
PHANTOM
0
LAYER
5
1FD
100
AcDbSymbolTableRecord
100
AcDbLayerTableRecord
2
ZEICHNUNGSBEMASSUNGEN
70
0
62
7
6
CONTINUOUS
0
ENDTAB
0
TABLE
2
STYLE
5
3
100
AcDbSymbolTable
70
1
0
STYLE
5
11
100
AcDbSymbolTableRecord
100
AcDbTextStyleTableRecord
2
STANDARD
70
0
40
0.0
41
1.0
50
0.0
71
0
42
0.0
3
txt
4

0
STYLE
5
1FE
100
AcDbSymbolTableRecord
100
AcDbTextStyleTableRecord
2
TEXTSTYLE_0
70
0
40
0.0
41
0.80
50
0.0
71
0
42
0.2
3
txt
4

0
ENDTAB
0
TABLE
2
VIEW
5
6
100
AcDbSymbolTable
70
0
0
ENDTAB
0
TABLE
2
UCS
5
7
100
AcDbSymbolTable
70
0
0
ENDTAB
0
TABLE
2
APPID
5
9
100
AcDbSymbolTable
70
1
0
APPID
5
1FF
100
AcDbSymbolTableRecord
100
AcDbRegAppTableRecord
2
ACAD
70
0
0
ENDTAB
0
TABLE
2
DIMSTYLE
5
A
100
AcDbSymbolTable
70
1
0
DIMSTYLE
105
200
100
AcDbSymbolTableRecord
100
AcDbDimStyleTableRecord
2
STANDARD
70
0
3

4

5

6

7

40
1.0
41
0.18
42
0.0625
43
0.38
44
0.18
45
0.0
46
0.0
47
0.0050000000
48
0.0050000000
140
3.5000000000
141
0.09
142
0.0
143
25.4
144
1.0000000000
145
0.0
146
0.6000000000
147
0.09
71
1
72
0
73
1
74
1
75
0
76
0
77
0
78
0
170
0
171
2
172
0
173
0
174
0
175
0
176
0
177
0
178
0
270
2
271
3
272
4
273
2
274
2
340
11
275
0
280
0
281
0
282
0
283
1
284
0
285
0
286
0
287
3
288
0
0
ENDTAB
0
TABLE
2
BLOCK_RECORD
5
1
100
AcDbSymbolTable
70
0
0
BLOCK_RECORD
5
1B
100
AcDbSymbolTableRecord
100
AcDbBlockTableRecord
2
*MODEL_SPACE
0
BLOCK_RECORD
5
1C
100
AcDbSymbolTableRecord
100
AcDbBlockTableRecord
2
*PAPER_SPACE
0
ENDTAB
0
ENDSEC
0
SECTION
2
BLOCKS
0
BLOCK
5
1E
100
AcDbEntity
8
0
100
AcDbBlockBegin
2
*MODEL_SPACE
70
0
10
0.0
20
0.0
30
0.0
3
*MODEL_SPACE
1

0
ENDBLK
5
1F
100
AcDbEntity
8
0
100
AcDbBlockEnd
0
BLOCK
5
20
100
AcDbEntity
8
0
100
AcDbBlockBegin
2
*PAPER_SPACE
70
0
10
0.0
20
0.0
30
0.0
3
*PAPER_SPACE
1

0
ENDBLK
5
21
100
AcDbEntity
8
0
100
AcDbBlockEnd
0
ENDSEC
0
SECTION
2
ENTITIES
0
TEXT
5
201
100
AcDbEntity
8
0
100
AcDbText
62
2
6
CONTINUOUS
10
197.7416777259
20
151.3085688717
7
TEXTSTYLE_0
40
4.0000000000
1
VIP-GIL 16
72
5
11
226.5035822135
21
151.3085688717
100
AcDbText
0
LINE
5
202
100
AcDbEntity
8
0
100
AcDbLine
62
7
6
CONTINUOUS
10
0.0000000000
20
0.0000000000
11
0.0000000000
21
297.0000000000
0
LINE
5
203
100
AcDbEntity
8
0
100
AcDbLine
62
7
6
CONTINUOUS
10
0.0000000000
20
0.0000000000
11
420.0000000000
21
0.0000000000
0
LINE
5
204
100
AcDbEntity
8
0
100
AcDbLine
62
7
6
CONTINUOUS
10
0.0000000000
20
297.0000000000
11
420.0000000000
21
297.0000000000
0
LINE
5
205
100
AcDbEntity
8
0
100
AcDbLine
62
7
6
CONTINUOUS
10
420.0000000000
20
0.0000000000
11
420.0000000000
21
297.0000000000
0
LINE
5
206
100
AcDbEntity
8
0
100
AcDbLine
62
7
6
CONTINUOUS
10
87.9684476006
20
102.4749292876
11
95.9684476006
21
102.4749292876
0
LINE
5
207
100
AcDbEntity
8
0
100
AcDbLine
62
7
6
CONTINUOUS
10
90.6539794159
20
214.0905657990
11
89.8944050384
21
213.7930669339
0
LINE
5
208
100
AcDbEntity
8
0
100
AcDbLine
62
7
6
CONTINUOUS
10
87.9195112312
20
213.7930669339
11
87.4637666047
21
213.6443157990
0
LINE
5
209
100
AcDbEntity
8
0
100
AcDbLine
62
7
6
CONTINUOUS
10
90.3501496649
20
213.1980657990
11
90.8058945042
21
213.3468169339
0
LINE
5
20A
100
AcDbEntity
8
0
100
AcDbLine
62
7
6
CONTINUOUS
10
87.4637666047
20
213.6443157990
11
86.8561071027
21
213.1980657990
0
LINE
5
20B
100
AcDbEntity
8
0
100
AcDbLine
62
7
6
CONTINUOUS
10
87.4637666047
20
212.7518157990
11
87.9195112312
21
213.0493180688
0
LINE
5
20C
100
AcDbEntity
8
0
100
AcDbLine
62
7
6
CONTINUOUS
10
91.4135540063
20
208.8843169339
11
92.1731284902
21
209.1818157990
0
LINE
5
20D
100
AcDbEntity
8
0
100
AcDbLine
62
7
6
CONTINUOUS
10
91.7173837573
20
209.7768169339
11
91.2616391307
21
209.6280657990
0
LINE
5
20E
100
AcDbEntity
8
DEFAULT_1
100
AcDbLine
62
2
6
CENTER
10
91.9684476006
20
122.4749292876
11
79.4684476006
21
122.4749292876
0
LINE
5
20F
100
AcDbEntity
8
DEFAULT_1
100
AcDbLine
62
2
6
CENTER
10
91.9684476006
20
122.4749292876
11
104.4684476006
21
122.4749292876
0
LINE
5
210
100
AcDbEntity
8
0
100
AcDbLine
62
7
6
CONTINUOUS
10
89.8944050384
20
213.7930669339
11
89.4386604119
21
213.3468169339
0
LINE
5
211
100
AcDbEntity
8
0
100
AcDbLine
62
7
6
CONTINUOUS
10
90.0463199139
20
212.9005669339
11
90.3501496649
21
213.1980657990
0
LINE
5
212
100
AcDbEntity
8
0
100
AcDbLine
62
7
6
CONTINUOUS
10
92.1731284902
20
209.1818157990
11
92.7807880454
21
209.6280657990
0
LINE
5
213
100
AcDbEntity
8
0
100
AcDbLine
62
7
6
CONTINUOUS
10
92.1731284902
20
210.0743157990
11
91.7173837573
21
209.7768169339
0
LINE
5
214
100
AcDbEntity
8
0
100
AcDbLine
62
7
6
CONTINUOUS
10
87.1599368537
20
212.3055657990
11
87.4637666047
21
212.7518157990
0
LINE
5
215
100
AcDbEntity
8
0
100
AcDbLine
62
7
6
CONTINUOUS
10
86.8561071027
20
213.1980657990
11
86.4003624761
21
212.4543169339
0
LINE
5
216
100
AcDbEntity
8
0
100
AcDbLine
62
7
6
CONTINUOUS
10
89.4386604119
20
213.3468169339
11
88.9829157854
21
212.6030680688
0
LINE
5
217
100
AcDbEntity
8
0
100
AcDbLine
62
7
6
CONTINUOUS
10
89.7424901629
20
212.4543169339
11
90.0463199139
21
212.9005669339
0
LINE
5
218
100
AcDbEntity
8
0
100
AcDbLine
62
7
6
CONTINUOUS
10
92.7807880454
20
209.6280657990
11
93.2365327118
21
210.3718180688
0
LINE
5
219
100
AcDbEntity
8
0
100
AcDbLine
62
7
6
CONTINUOUS
10
92.4769582412
20
210.5205657990
11
92.1731284902
21
210.0743157990
0
LINE
5
21A
100
AcDbEntity
8
0
100
AcDbLine
62
7
6
CONTINUOUS
10
87.6156814802
20
187.7618175014
11
88.0714265323
21
187.9105669339
0
LINE
5
21B
100
AcDbEntity
8
0
100
AcDbLine
62
7
6
CONTINUOUS
10
71.9684476006
20
118.4749292876
11
71.9684476006
21
119.4749069383
0
LINE
5
21C
100
AcDbEntity
8
0
100
AcDbLine
62
7
6
CONTINUOUS
10
71.9684476006
20
120.6983629862
11
71.9684476006
21
122.4749292876
0
LINE
5
21D
100
AcDbEntity
8
0
100
AcDbLine
62
7
6
CONTINUOUS
10
71.9684476006
20
122.6678739051
11
71.9684476006
21
158.3730669339
0
LINE
5
21E
100
AcDbEntity
8
0
100
AcDbLine
62
7
6
CONTINUOUS
10
73.4684476006
20
169.8730669339
11
73.4684476006
21
214.8730669339
0
LINE
5
21F
100
AcDbEntity
8
0
100
AcDbLine
62
7
6
CONTINUOUS
10
87.0080219782
20
211.8593157990
11
87.1599368537
21
212.3055657990
0
LINE
5
220
100
AcDbEntity
8
0
100
AcDbLine
62
7
6
CONTINUOUS
10
89.5905752874
20
212.0080669339
11
89.7424901629
21
212.4543169339
0
LINE
5
221
100
AcDbEntity
8
0
100
AcDbLine
62
7
6
CONTINUOUS
10
87.3118517292
20
188.6543175014
11
86.7041922272
21
188.0593163665
0
LINE
5
222
100
AcDbEntity
8
0
100
AcDbLine
62
7
6
CONTINUOUS
10
77.4684476006
20
228.3730669339
11
77.4684476006
21
158.3730669339
0
LINE
5
223
100
AcDbEntity
8
0
100
AcDbLine
62
7
6
CONTINUOUS
10
86.4003624761
20
212.4543169339
11
86.2484476006
21
211.7105680688
0
LINE
5
224
100
AcDbEntity
8
0
100
AcDbLine
62
7
6
CONTINUOUS
10
92.6288731167
20
210.9668157990
11
92.4769582412
21
210.5205657990
0
LINE
5
225
100
AcDbEntity
8
0
100
AcDbLine
62
7
6
CONTINUOUS
10
86.7041922272
20
188.0593163665
11
86.4003624761
21
187.4643169339
0
LINE
5
226
100
AcDbEntity
8
0
100
AcDbLine
62
7
6
CONTINUOUS
10
87.3118517292
20
187.3155675014
11
87.6156814802
21
187.7618175014
0
LINE
5
227
100
AcDbEntity
8
0
100
AcDbLine
62
7
6
CONTINUOUS
10
92.3250433657
20
183.4480669339
11
92.9327029209
21
184.0430663665
0
LINE
5
228
100
AcDbEntity
8
0
100
AcDbLine
62
7
6
CONTINUOUS
10
87.4637666047
20
178.3905675014
11
86.8561071027
21
177.9443166502
0
LINE
5
229
100
AcDbEntity
8
0
100
AcDbLine
62
7
6
CONTINUOUS
10
92.0212135083
20
184.3405669339
11
91.5654688818
21
184.0430663665
0
LINE
5
22A
100
AcDbEntity
8
0
100
AcDbLine
62
7
6
CONTINUOUS
10
91.7173837573
20
183.1505663665
11
92.3250433657
21
183.4480669339
0
LINE
5
22B
100
AcDbEntity
8
0
100
AcDbLine
62
7
6
CONTINUOUS
10
87.9195112312
20
178.5393169339
11
87.4637666047
21
178.3905675014
0
LINE
5
22C
100
AcDbEntity
8
0
100
AcDbLine
62
7
6
CONTINUOUS
10
87.4637666047
20
177.4980666502
11
87.9195112312
21
177.6468169339
0
LINE
5
22D
100
AcDbEntity
8
0
100
AcDbLine
62
7
6
CONTINUOUS
10
88.9829157854
20
212.6030680688
11
88.8310009098
21
211.8593157990
0
LINE
5
22E
100
AcDbEntity
8
0
100
AcDbLine
62
7
6
CONTINUOUS
10
86.4003624761
20
187.4643169339
11
86.2484476006
21
186.7205663665
0
LINE
5
22F
100
AcDbEntity
8
0
100
AcDbLine
62
7
6
CONTINUOUS
10
87.1599368537
20
186.7205663665
11
87.3118517292
21
187.3155675014
0
LINE
5
230
100
AcDbEntity
8
0
100
AcDbLine
62
7
6
CONTINUOUS
10
87.0080219782
20
176.7543169339
11
87.1599368537
21
177.2005669339
0
LINE
5
231
100
AcDbEntity
8
0
100
AcDbLine
62
7
6
CONTINUOUS
10
92.3250433657
20
184.7868169339
11
92.0212135083
21
184.3405669339
0
LINE
5
232
100
AcDbEntity
8
0
100
AcDbLine
62
7
6
CONTINUOUS
10
86.8561071027
20
177.9443166502
11
86.4003624761
21
177.3493172176
0
LINE
5
233
100
AcDbEntity
8
0
100
AcDbLine
62
7
6
CONTINUOUS
10
87.1599368537
20
177.2005669339
11
87.4637666047
21
177.4980666502
0
LINE
5
234
100
AcDbEntity
8
0
100
AcDbLine
62
7
6
CONTINUOUS
10
86.2484476006
20
211.7105680688
11
86.2484476006
21
211.1155669339
0
LINE
5
235
100
AcDbEntity
8
0
100
AcDbLine
62
7
6
CONTINUOUS
10
86.2484476006
20
207.5455669339
11
86.2484476006
21
206.6530669339
0
LINE
5
236
100
AcDbEntity
8
0
100
AcDbLine
62
7
6
CONTINUOUS
10
86.2484476006
20
192.9680680688
11
86.2484476006
21
192.0755663665
0
LINE
5
237
100
AcDbEntity
8
0
100
AcDbLine
62
7
6
CONTINUOUS
10
86.2484476006
20
190.8855675014
11
86.2484476006
21
189.9930675014
0
LINE
5
238
100
AcDbEntity
8
0
100
AcDbLine
62
7
6
CONTINUOUS
10
86.2484476006
20
186.7205663665
11
86.2484476006
21
185.3818163665
0
LINE
5
239
100
AcDbEntity
8
0
100
AcDbLine
62
7
6
CONTINUOUS
10
86.2484476006
20
176.6055666502
11
86.2484476006
21
173.0355666502
0
LINE
5
23A
100
AcDbEntity
8
0
100
AcDbLine
62
7
6
CONTINUOUS
10
86.2484476006
20
171.8455669339
11
86.2484476006
21
170.9530669339
0
LINE
5
23B
100
AcDbEntity
8
0
100
AcDbLine
62
7
6
CONTINUOUS
10
86.2484476006
20
169.7630667921
11
86.2484476006
21
168.8705667921
0
LINE
5
23C
100
AcDbEntity
8
0
100
AcDbLine
62
7
6
CONTINUOUS
10
86.2484476006
20
164.7055669339
11
86.2484476006
21
163.8130669339
0
LINE
5
23D
100
AcDbEntity
8
0
100
AcDbLine
62
7
6
CONTINUOUS
10
87.0080219782
20
173.9280666502
11
87.0080219782
21
176.7543169339
0
LINE
5
23E
100
AcDbEntity
8
0
100
AcDbLine
62
7
6
CONTINUOUS
10
87.0080219782
20
210.9668157990
11
87.0080219782
21
211.8593157990
0
LINE
5
23F
100
AcDbEntity
8
0
100
AcDbLine
62
7
6
CONTINUOUS
10
87.1599368537
20
185.3818163665
11
87.1599368537
21
186.7205663665
0
LINE
5
240
100
AcDbEntity
8
0
100
AcDbLine
62
7
6
CONTINUOUS
10
87.9195112312
20
213.0493180688
11
87.9195112312
21
213.7930669339
0
LINE
5
241
100
AcDbEntity
8
0
100
AcDbLine
62
7
6
CONTINUOUS
10
88.0714265323
20
187.9105669339
11
88.0714265323
21
188.8030669339
0
LINE
5
242
100
AcDbEntity
8
0
100
AcDbLine
62
7
6
CONTINUOUS
10
86.4003624761
20
177.3493172176
11
86.2484476006
21
176.6055666502
0
LINE
5
243
100
AcDbEntity
8
0
100
AcDbLine
62
7
6
CONTINUOUS
10
93.2365327118
20
210.3718180688
11
93.3884476006
21
211.1155669339
0
LINE
5
244
100
AcDbEntity
8
0
100
AcDbLine
62
7
6
CONTINUOUS
10
92.4769582412
20
185.3818163665
11
92.3250433657
21
184.7868169339
0
LINE
5
245
100
AcDbEntity
8
0
100
AcDbLine
62
7
6
CONTINUOUS
10
92.9327029209
20
184.0430663665
11
93.2365327118
21
184.6380675014
0
LINE
5
246
100
AcDbEntity
8
0
100
AcDbLine
62
7
6
CONTINUOUS
10
111.9684476006
20
158.3730669339
11
106.4684476006
21
158.3730669339
0
LINE
5
247
100
AcDbEntity
8
0
100
AcDbLine
62
7
6
CONTINUOUS
10
71.9684476006
20
158.3730669339
11
77.4684476006
21
158.3730669339
0
LINE
5
248
100
AcDbEntity
8
0
100
AcDbLine
62
7
6
CONTINUOUS
10
88.8310009098
20
211.8593157990
11
88.8310009098
21
211.1155669339
0
LINE
5
249
100
AcDbEntity
8
0
100
AcDbLine
62
7
6
CONTINUOUS
10
89.2867455364
20
176.7543169339
11
89.2867455364
21
173.9280666502
0
LINE
5
24A
100
AcDbEntity
8
0
100
AcDbLine
62
7
6
CONTINUOUS
10
89.4386604119
20
188.8030669339
11
89.4386604119
21
186.5718169339
0
LINE
5
24B
100
AcDbEntity
8
0
100
AcDbLine
62
7
6
CONTINUOUS
10
89.5905752874
20
210.9668157990
11
89.5905752874
21
212.0080669339
0
LINE
5
24C
100
AcDbEntity
8
0
100
AcDbLine
62
7
6
CONTINUOUS
10
90.0463199139
20
181.8118163665
11
90.0463199139
21
179.7293175014
0
LINE
5
24D
100
AcDbEntity
8
0
100
AcDbLine
62
7
6
CONTINUOUS
10
90.1982347894
20
173.9280666502
11
90.1982347894
21
176.6055666502
0
LINE
5
24E
100
AcDbEntity
8
0
100
AcDbLine
62
7
6
CONTINUOUS
10
90.3501496649
20
186.5718169339
11
90.3501496649
21
187.9105669339
0
LINE
5
24F
100
AcDbEntity
8
0
100
AcDbLine
62
7
6
CONTINUOUS
10
90.8058945042
20
179.7293175014
11
90.8058945042
21
181.8118163665
0
LINE
5
250
100
AcDbEntity
8
DEFAULT_1
100
AcDbLine
62
2
6
CENTER
10
91.9684476006
20
122.4749292876
11
91.9684476006
21
102.1187947655
0
LINE
5
251
100
AcDbEntity
8
DEFAULT_1
100
AcDbLine
62
2
6
CENTER
10
91.9684476006
20
122.4749292876
11
91.9684476006
21
225.3811546394
0
LINE
5
252
100
AcDbEntity
8
0
100
AcDbLine
62
7
6
CONTINUOUS
10
92.4769582412
20
197.4305680688
11
92.4769582412
21
192.9680680688
0
LINE
5
253
100
AcDbEntity
8
0
100
AcDbLine
62
7
6
CONTINUOUS
10
92.4769582412
20
186.7205663665
11
92.4769582412
21
185.3818163665
0
LINE
5
254
100
AcDbEntity
8
0
100
AcDbLine
62
7
6
CONTINUOUS
10
93.2365327118
20
184.6380675014
11
93.3884476006
21
185.3818163665
0
LINE
5
255
100
AcDbEntity
8
0
100
AcDbLine
62
7
6
CONTINUOUS
10
92.4769582412
20
166.7880668630
11
86.2484476006
21
164.7055669339
0
LINE
5
256
100
AcDbEntity
8
0
100
AcDbLine
62
7
6
CONTINUOUS
10
86.2484476006
20
163.8130669339
11
93.3884476006
21
166.1930670049
0
LINE
5
257
100
AcDbEntity
8
0
100
AcDbLine
62
7
6
CONTINUOUS
10
87.3118517292
20
184.7868169339
11
87.1599368537
21
185.3818163665
0
LINE
5
258
100
AcDbEntity
8
0
100
AcDbLine
62
7
6
CONTINUOUS
10
86.2484476006
20
185.3818163665
11
86.4003624761
21
184.6380675014
0
LINE
5
259
100
AcDbEntity
8
0
100
AcDbLine
62
7
6
CONTINUOUS
10
90.1982347894
20
176.6055666502
11
90.0463199139
21
177.3493172176
0
LINE
5
25A
100
AcDbEntity
8
0
100
AcDbLine
62
7
6
CONTINUOUS
10
92.6288731167
20
212.0080669339
11
92.6288731167
21
210.9668157990
0
LINE
5
25B
100
AcDbEntity
8
0
100
AcDbLine
62
7
6
CONTINUOUS
10
93.3884476006
20
166.1930670049
11
93.3884476006
21
167.3830669339
0
LINE
5
25C
100
AcDbEntity
8
0
100
AcDbLine
62
7
6
CONTINUOUS
10
93.3884476006
20
170.9530669339
11
93.3884476006
21
171.8455669339
0
LINE
5
25D
100
AcDbEntity
8
0
100
AcDbLine
62
7
6
CONTINUOUS
10
93.3884476006
20
173.0355666502
11
93.3884476006
21
173.9280666502
0
LINE
5
25E
100
AcDbEntity
8
0
100
AcDbLine
62
7
6
CONTINUOUS
10
93.3884476006
20
185.3818163665
11
93.3884476006
21
186.7205663665
0
LINE
5
25F
100
AcDbEntity
8
0
100
AcDbLine
62
7
6
CONTINUOUS
10
93.3884476006
20
189.9930675014
11
93.3884476006
21
190.8855675014
0
LINE
5
260
100
AcDbEntity
8
0
100
AcDbLine
62
7
6
CONTINUOUS
10
93.3884476006
20
192.0755663665
11
93.3884476006
21
197.4305680688
0
LINE
5
261
100
AcDbEntity
8
0
100
AcDbLine
62
7
6
CONTINUOUS
10
93.3884476006
20
206.6530669339
11
93.3884476006
21
207.5455669339
0
LINE
5
262
100
AcDbEntity
8
0
100
AcDbLine
62
7
6
CONTINUOUS
10
93.3884476006
20
211.1155669339
11
93.3884476006
21
211.8593157990
0
LINE
5
263
100
AcDbEntity
8
0
100
AcDbLine
62
7
6
CONTINUOUS
10
77.4684476006
20
169.8730669339
11
73.4684476006
21
169.8730669339
0
LINE
5
264
100
AcDbEntity
8
0
100
AcDbLine
62
7
6
CONTINUOUS
10
106.4684476006
20
169.8730669339
11
110.4684476006
21
169.8730669339
0
LINE
5
265
100
AcDbEntity
8
0
100
AcDbLine
62
7
6
CONTINUOUS
10
93.3884476006
20
167.3830669339
11
86.2484476006
21
169.7630667921
0
LINE
5
266
100
AcDbEntity
8
0
100
AcDbLine
62
7
6
CONTINUOUS
10
86.2484476006
20
168.8705667921
11
92.4769582412
21
166.7880668630
0
LINE
5
267
100
AcDbEntity
8
0
100
AcDbLine
62
7
6
CONTINUOUS
10
86.4003624761
20
184.6380675014
11
86.7041922272
21
184.0430663665
0
LINE
5
268
100
AcDbEntity
8
0
100
AcDbLine
62
7
6
CONTINUOUS
10
89.1348306609
20
177.2005669339
11
89.2867455364
21
176.7543169339
0
LINE
5
269
100
AcDbEntity
8
0
100
AcDbLine
62
7
6
CONTINUOUS
10
86.2484476006
20
211.1155669339
11
86.4003624761
21
210.3718180688
0
LINE
5
26A
100
AcDbEntity
8
0
100
AcDbLine
62
7
6
CONTINUOUS
10
86.2484476006
20
170.9530669339
11
93.3884476006
21
170.9530669339
0
LINE
5
26B
100
AcDbEntity
8
0
100
AcDbLine
62
7
6
CONTINUOUS
10
93.3884476006
20
171.8455669339
11
86.2484476006
21
171.8455669339
0
LINE
5
26C
100
AcDbEntity
8
0
100
AcDbLine
62
7
6
CONTINUOUS
10
86.2484476006
20
173.0355666502
11
93.3884476006
21
173.0355666502
0
LINE
5
26D
100
AcDbEntity
8
0
100
AcDbLine
62
7
6
CONTINUOUS
10
93.3884476006
20
173.9280666502
11
90.1982347894
21
173.9280666502
0
LINE
5
26E
100
AcDbEntity
8
0
100
AcDbLine
62
7
6
CONTINUOUS
10
89.2867455364
20
173.9280666502
11
87.0080219782
21
173.9280666502
0
LINE
5
26F
100
AcDbEntity
8
0
100
AcDbLine
62
7
6
CONTINUOUS
10
89.5905752874
20
177.9443166502
11
88.9829157854
21
178.3905675014
0
LINE
5
270
100
AcDbEntity
8
0
100
AcDbLine
62
7
6
CONTINUOUS
10
88.8310009098
20
177.4980666502
11
89.1348306609
21
177.2005669339
0
LINE
5
271
100
AcDbEntity
8
0
100
AcDbLine
62
7
6
CONTINUOUS
10
90.0463199139
20
177.3493172176
11
89.5905752874
21
177.9443166502
0
LINE
5
272
100
AcDbEntity
8
0
100
AcDbLine
62
7
6
CONTINUOUS
10
87.6156814802
20
184.3405669339
11
87.3118517292
21
184.7868169339
0
LINE
5
273
100
AcDbEntity
8
0
100
AcDbLine
62
7
6
CONTINUOUS
10
92.3250433657
20
187.3155675014
11
92.4769582412
21
186.7205663665
0
LINE
5
274
100
AcDbEntity
8
0
100
AcDbLine
62
7
6
CONTINUOUS
10
93.3884476006
20
186.7205663665
11
93.2365327118
21
187.4643169339
0
LINE
5
275
100
AcDbEntity
8
0
100
AcDbLine
62
7
6
CONTINUOUS
10
88.8310009098
20
211.1155669339
11
88.9829157854
21
210.3718180688
0
LINE
5
276
100
AcDbEntity
8
0
100
AcDbLine
62
7
6
CONTINUOUS
10
87.9195112312
20
177.6468169339
11
88.3752562833
21
177.6468169339
0
LINE
5
277
100
AcDbEntity
8
0
100
AcDbLine
62
7
6
CONTINUOUS
10
88.5271711588
20
178.5393169339
11
87.9195112312
21
178.5393169339
0
LINE
5
278
100
AcDbEntity
8
0
100
AcDbLine
62
7
6
CONTINUOUS
10
88.3752562833
20
177.6468169339
11
88.8310009098
21
177.4980666502
0
LINE
5
279
100
AcDbEntity
8
0
100
AcDbLine
62
7
6
CONTINUOUS
10
88.9829157854
20
178.3905675014
11
88.5271711588
21
178.5393169339
0
LINE
5
27A
100
AcDbEntity
8
0
100
AcDbLine
62
7
6
CONTINUOUS
10
88.0714265323
20
184.0430663665
11
87.6156814802
21
184.3405669339
0
LINE
5
27B
100
AcDbEntity
8
0
100
AcDbLine
62
7
6
CONTINUOUS
10
86.7041922272
20
184.0430663665
11
87.3118517292
21
183.4480669339
0
LINE
5
27C
100
AcDbEntity
8
0
100
AcDbLine
62
7
6
CONTINUOUS
10
92.0212135083
20
187.7618175014
11
92.3250433657
21
187.3155675014
0
LINE
5
27D
100
AcDbEntity
8
0
100
AcDbLine
62
7
6
CONTINUOUS
10
93.2365327118
20
187.4643169339
11
92.9327029209
21
188.0593163665
0
LINE
5
27E
100
AcDbEntity
8
0
100
AcDbLine
62
7
6
CONTINUOUS
10
87.1599368537
20
210.5205657990
11
87.0080219782
21
210.9668157990
0
LINE
5
27F
100
AcDbEntity
8
0
100
AcDbLine
62
7
6
CONTINUOUS
10
89.7424901629
20
210.5205657990
11
89.5905752874
21
210.9668157990
0
LINE
5
280
100
AcDbEntity
8
0
100
AcDbLine
62
7
6
CONTINUOUS
10
93.3884476006
20
211.8593157990
11
93.2365327118
21
212.6030680688
0
LINE
5
281
100
AcDbEntity
8
0
100
AcDbLine
62
7
6
CONTINUOUS
10
106.4684476006
20
228.3730669339
11
106.4684476006
21
158.3730669339
0
LINE
5
282
100
AcDbEntity
8
0
100
AcDbLine
62
7
6
CONTINUOUS
10
91.5654688818
20
184.0430663665
11
90.9578093797
21
183.8943169339
0
LINE
5
283
100
AcDbEntity
8
0
100
AcDbLine
62
7
6
CONTINUOUS
10
90.9578093797
20
183.0018169339
11
91.7173837573
21
183.1505663665
0
LINE
5
284
100
AcDbEntity
8
0
100
AcDbLine
62
7
6
CONTINUOUS
10
90.0463199139
20
179.7293175014
11
90.8058945042
21
179.7293175014
0
LINE
5
285
100
AcDbEntity
8
DEFAULT_2
100
AcDbLine
62
8
6
HIDDEN
10
73.4684476006
20
179.8730669339
11
110.4684476006
21
179.8730669339
0
LINE
5
286
100
AcDbEntity
8
0
100
AcDbLine
62
7
6
CONTINUOUS
10
90.8058945042
20
181.8118163665
11
90.0463199139
21
181.8118163665
0
LINE
5
287
100
AcDbEntity
8
0
100
AcDbLine
62
7
6
CONTINUOUS
10
88.6790860343
20
183.0018169339
11
90.9578093797
21
183.0018169339
0
LINE
5
288
100
AcDbEntity
8
0
100
AcDbLine
62
7
6
CONTINUOUS
10
87.9195112312
20
183.1505663665
11
88.6790860343
21
183.0018169339
0
LINE
5
289
100
AcDbEntity
8
0
100
AcDbLine
62
7
6
CONTINUOUS
10
88.6790860343
20
183.8943169339
11
88.0714265323
21
184.0430663665
0
LINE
5
28A
100
AcDbEntity
8
0
100
AcDbLine
62
7
6
CONTINUOUS
10
87.3118517292
20
183.4480669339
11
87.9195112312
21
183.1505663665
0
LINE
5
28B
100
AcDbEntity
8
0
100
AcDbLine
62
7
6
CONTINUOUS
10
92.9327029209
20
188.0593163665
11
92.3250433657
21
188.6543175014
0
LINE
5
28C
100
AcDbEntity
8
0
100
AcDbLine
62
7
6
CONTINUOUS
10
92.4769582412
20
212.4543169339
11
92.6288731167
21
212.0080669339
0
LINE
5
28D
100
AcDbEntity
8
0
100
AcDbLine
62
7
6
CONTINUOUS
10
110.4684476006
20
214.8730669339
11
110.4684476006
21
169.8730669339
0
LINE
5
28E
100
AcDbEntity
8
0
100
AcDbLine
62
7
6
CONTINUOUS
10
111.9684476006
20
158.3730669339
11
111.9684476006
21
122.6678739051
0
LINE
5
28F
100
AcDbEntity
8
0
100
AcDbLine
62
7
6
CONTINUOUS
10
111.9684476006
20
118.4749292876
11
111.9684476006
21
122.4749292876
0
LINE
5
290
100
AcDbEntity
8
0
100
AcDbLine
62
7
6
CONTINUOUS
10
90.9578093797
20
183.8943169339
11
88.6790860343
21
183.8943169339
0
LINE
5
291
100
AcDbEntity
8
0
100
AcDbLine
62
7
6
CONTINUOUS
10
89.4386604119
20
186.5718169339
11
90.3501496649
21
186.5718169339
0
LINE
5
292
100
AcDbEntity
8
0
100
AcDbLine
62
7
6
CONTINUOUS
10
90.3501496649
20
187.9105669339
11
91.5654688818
21
187.9105669339
0
LINE
5
293
100
AcDbEntity
8
0
100
AcDbLine
62
7
6
CONTINUOUS
10
91.5654688818
20
187.9105669339
11
92.0212135083
21
187.7618175014
0
LINE
5
294
100
AcDbEntity
8
0
100
AcDbLine
62
7
6
CONTINUOUS
10
87.4637666047
20
210.0743157990
11
87.1599368537
21
210.5205657990
0
LINE
5
295
100
AcDbEntity
8
0
100
AcDbLine
62
7
6
CONTINUOUS
10
86.4003624761
20
210.3718180688
11
86.8561071027
21
209.6280657990
0
LINE
5
296
100
AcDbEntity
8
0
100
AcDbLine
62
7
6
CONTINUOUS
10
88.0714265323
20
188.8030669339
11
87.3118517292
21
188.6543175014
0
LINE
5
297
100
AcDbEntity
8
0
100
AcDbLine
62
7
6
CONTINUOUS
10
91.7173837573
20
188.8030669339
11
89.4386604119
21
188.8030669339
0
LINE
5
298
100
AcDbEntity
8
0
100
AcDbLine
62
7
6
CONTINUOUS
10
86.2484476006
20
189.9930675014
11
93.3884476006
21
189.9930675014
0
LINE
5
299
100
AcDbEntity
8
0
100
AcDbLine
62
7
6
CONTINUOUS
10
93.3884476006
20
190.8855675014
11
86.2484476006
21
190.8855675014
0
LINE
5
29A
100
AcDbEntity
8
0
100
AcDbLine
62
7
6
CONTINUOUS
10
86.2484476006
20
192.0755663665
11
93.3884476006
21
192.0755663665
0
LINE
5
29B
100
AcDbEntity
8
DEFAULT_1
100
AcDbLine
62
2
6
CENTER
10
113.4684476006
20
192.3730669339
11
70.4684476006
21
192.3730669339
0
LINE
5
29C
100
AcDbEntity
8
0
100
AcDbLine
62
7
6
CONTINUOUS
10
92.3250433657
20
188.6543175014
11
91.7173837573
21
188.8030669339
0
LINE
5
29D
100
AcDbEntity
8
0
100
AcDbLine
62
7
6
CONTINUOUS
10
88.9829157854
20
210.3718180688
11
89.5905752874
21
209.4793180688
0
LINE
5
29E
100
AcDbEntity
8
0
100
AcDbLine
62
7
6
CONTINUOUS
10
90.0463199139
20
210.0743157990
11
89.7424901629
21
210.5205657990
0
LINE
5
29F
100
AcDbEntity
8
0
100
AcDbLine
62
7
6
CONTINUOUS
10
92.1731284902
20
212.9005669339
11
92.4769582412
21
212.4543169339
0
LINE
5
2A0
100
AcDbEntity
8
0
100
AcDbLine
62
7
6
CONTINUOUS
10
93.2365327118
20
212.6030680688
11
92.7807880454
21
213.3468169339
0
LINE
5
2A1
100
AcDbEntity
8
0
100
AcDbLine
62
7
6
CONTINUOUS
10
92.4769582412
20
192.9680680688
11
86.2484476006
21
192.9680680688
0
LINE
5
2A2
100
AcDbEntity
8
0
100
AcDbLine
62
7
6
CONTINUOUS
10
86.2484476006
20
206.6530669339
11
87.3118517292
21
205.7605669339
0
LINE
5
2A3
100
AcDbEntity
8
0
100
AcDbLine
62
7
6
CONTINUOUS
10
88.5271711588
20
205.7605669339
11
87.4637666047
21
206.6530669339
0
LINE
5
2A4
100
AcDbEntity
8
0
100
AcDbLine
62
7
6
CONTINUOUS
10
90.3501496649
20
209.7768169339
11
90.0463199139
21
210.0743157990
0
LINE
5
2A5
100
AcDbEntity
8
0
100
AcDbLine
62
7
6
CONTINUOUS
10
93.3884476006
20
197.4305680688
11
92.4769582412
21
197.4305680688
0
LINE
5
2A6
100
AcDbEntity
8
0
100
AcDbLine
62
7
6
CONTINUOUS
10
87.9195112312
20
209.7768169339
11
87.4637666047
21
210.0743157990
0
LINE
5
2A7
100
AcDbEntity
8
0
100
AcDbLine
62
7
6
CONTINUOUS
10
86.8561071027
20
209.6280657990
11
87.4637666047
21
209.1818157990
0
LINE
5
2A8
100
AcDbEntity
8
DEFAULT_2
100
AcDbLine
62
8
6
HIDDEN
10
73.4684476006
20
204.8730669339
11
110.4684476006
21
204.8730669339
0
LINE
5
2A9
100
AcDbEntity
8
0
100
AcDbLine
62
7
6
CONTINUOUS
10
87.4637666047
20
209.1818157990
11
88.2233414078
21
208.8843169339
0
LINE
5
2AA
100
AcDbEntity
8
0
100
AcDbLine
62
7
6
CONTINUOUS
10
91.7173837573
20
213.1980657990
11
92.1731284902
21
212.9005669339
0
LINE
5
2AB
100
AcDbEntity
8
0
100
AcDbLine
62
7
6
CONTINUOUS
10
92.7807880454
20
213.3468169339
11
92.1731284902
21
213.7930669339
0
LINE
5
2AC
100
AcDbEntity
8
0
100
AcDbLine
62
7
6
CONTINUOUS
10
90.3501496649
20
208.7355657990
11
91.4135540063
21
208.8843169339
0
LINE
5
2AD
100
AcDbEntity
8
0
100
AcDbLine
62
7
6
CONTINUOUS
10
87.3118517292
20
205.7605669339
11
88.5271711588
21
205.7605669339
0
LINE
5
2AE
100
AcDbEntity
8
0
100
AcDbLine
62
7
6
CONTINUOUS
10
87.4637666047
20
206.6530669339
11
93.3884476006
21
206.6530669339
0
LINE
5
2AF
100
AcDbEntity
8
0
100
AcDbLine
62
7
6
CONTINUOUS
10
93.3884476006
20
207.5455669339
11
86.2484476006
21
207.5455669339
0
LINE
5
2B0
100
AcDbEntity
8
0
100
AcDbLine
62
7
6
CONTINUOUS
10
89.2867455364
20
208.7355657990
11
90.3501496649
21
208.7355657990
0
LINE
5
2B1
100
AcDbEntity
8
0
100
AcDbLine
62
7
6
CONTINUOUS
10
89.5905752874
20
209.4793180688
11
89.2867455364
21
209.4793180688
0
LINE
5
2B2
100
AcDbEntity
8
0
100
AcDbLine
62
7
6
CONTINUOUS
10
91.2616391307
20
209.6280657990
11
90.8058945042
21
209.6280657990
0
LINE
5
2B3
100
AcDbEntity
8
0
100
AcDbLine
62
7
6
CONTINUOUS
10
88.2233414078
20
208.8843169339
11
89.2867455364
21
208.7355657990
0
LINE
5
2B4
100
AcDbEntity
8
0
100
AcDbLine
62
7
6
CONTINUOUS
10
89.2867455364
20
209.4793180688
11
88.3752562833
21
209.6280657990
0
LINE
5
2B5
100
AcDbEntity
8
0
100
AcDbLine
62
7
6
CONTINUOUS
10
88.3752562833
20
209.6280657990
11
87.9195112312
21
209.7768169339
0
LINE
5
2B6
100
AcDbEntity
8
0
100
AcDbLine
62
7
6
CONTINUOUS
10
90.8058945042
20
209.6280657990
11
90.3501496649
21
209.7768169339
0
LINE
5
2B7
100
AcDbEntity
8
0
100
AcDbLine
62
7
6
CONTINUOUS
10
90.8058945042
20
213.3468169339
11
91.2616391307
21
213.3468169339
0
LINE
5
2B8
100
AcDbEntity
8
0
100
AcDbLine
62
7
6
CONTINUOUS
10
91.4135540063
20
214.0905657990
11
90.6539794159
21
214.0905657990
0
LINE
5
2B9
100
AcDbEntity
8
0
100
AcDbLine
62
7
6
CONTINUOUS
10
91.2616391307
20
213.3468169339
11
91.7173837573
21
213.1980657990
0
LINE
5
2BA
100
AcDbEntity
8
0
100
AcDbLine
62
7
6
CONTINUOUS
10
92.1731284902
20
213.7930669339
11
91.4135540063
21
214.0905657990
0
LINE
5
2BB
100
AcDbEntity
8
0
100
AcDbLine
62
7
6
CONTINUOUS
10
77.4684476006
20
214.8730669339
11
73.4684476006
21
214.8730669339
0
LINE
5
2BC
100
AcDbEntity
8
0
100
AcDbLine
62
7
6
CONTINUOUS
10
106.4684476006
20
214.8730669339
11
110.4684476006
21
214.8730669339
0
LINE
5
2BD
100
AcDbEntity
8
0
100
AcDbLine
62
7
6
CONTINUOUS
10
77.4684476006
20
228.3730669339
11
106.4684476006
21
228.3730669339
0
LINE
5
2BE
100
AcDbEntity
8
0
100
AcDbLine
62
7
6
CONTINUOUS
10
195.2200467137
20
108.3730669339
11
210.0995014127
21
102.9573883214
0
LINE
5
2BF
100
AcDbEntity
8
0
100
AcDbLine
62
7
6
CONTINUOUS
10
212.8356625593
20
102.4749292876
11
223.9200467137
21
102.4749292876
0
LINE
5
2C0
100
AcDbEntity
8
0
100
AcDbLine
62
7
6
CONTINUOUS
10
241.5200467137
20
102.4749292876
11
252.6044308680
21
102.4749292876
0
LINE
5
2C1
100
AcDbEntity
8
0
100
AcDbLine
62
7
6
CONTINUOUS
10
223.9200467137
20
112.9749292876
11
241.5200467137
21
112.9749292876
0
LINE
5
2C2
100
AcDbEntity
8
DEFAULT_1
100
AcDbLine
62
2
6
CENTER
10
273.2200467137
20
122.4749292876
11
192.2200467137
21
122.4749292876
0
LINE
5
2C3
100
AcDbEntity
8
0
100
AcDbLine
62
7
6
CONTINUOUS
10
195.2200467137
20
108.3730669339
11
195.2200467137
21
228.3730669339
0
LINE
5
2C4
100
AcDbEntity
8
0
100
AcDbLine
62
7
6
CONTINUOUS
10
223.9200467137
20
131.9749292876
11
241.5200467137
21
131.9749292876
0
LINE
5
2C5
100
AcDbEntity
8
0
100
AcDbLine
62
7
6
CONTINUOUS
10
223.9200467137
20
141.4749292876
11
223.9200467137
21
102.4749292876
0
LINE
5
2C6
100
AcDbEntity
8
0
100
AcDbLine
62
7
6
CONTINUOUS
10
195.2200467137
20
158.3730669339
11
270.2200467137
21
158.3730669339
0
LINE
5
2C7
100
AcDbEntity
8
DEFAULT_1
100
AcDbLine
62
2
6
CENTER
10
232.7200467137
20
192.3730669339
11
232.7200467137
21
103.9099450625
0
LINE
5
2C8
100
AcDbEntity
8
DEFAULT_1
100
AcDbLine
62
2
6
CENTER
10
232.7200467137
20
192.3730669339
11
232.7200467137
21
231.4150310915
0
LINE
5
2C9
100
AcDbEntity
8
0
100
AcDbLine
62
7
6
CONTINUOUS
10
270.2200467137
20
163.8130669339
11
270.9340467137
21
163.8130669339
0
LINE
5
2CA
100
AcDbEntity
8
0
100
AcDbLine
62
7
6
CONTINUOUS
10
270.2200467137
20
164.7055669339
11
270.9340467137
21
164.7055669339
0
LINE
5
2CB
100
AcDbEntity
8
0
100
AcDbLine
62
7
6
CONTINUOUS
10
270.2200467137
20
166.7880668630
11
270.9340467137
21
166.7880668630
0
LINE
5
2CC
100
AcDbEntity
8
0
100
AcDbLine
62
7
6
CONTINUOUS
10
270.2200467137
20
168.8705667921
11
270.9340467137
21
168.8705667921
0
LINE
5
2CD
100
AcDbEntity
8
0
100
AcDbLine
62
7
6
CONTINUOUS
10
270.2200467137
20
169.7630667921
11
270.9340467137
21
169.7630667921
0
LINE
5
2CE
100
AcDbEntity
8
0
100
AcDbLine
62
7
6
CONTINUOUS
10
270.2200467137
20
170.9530669339
11
270.9340467137
21
170.9530669339
0
LINE
5
2CF
100
AcDbEntity
8
0
100
AcDbLine
62
7
6
CONTINUOUS
10
241.5200467137
20
102.4749292876
11
241.5200467137
21
141.4749292876
0
LINE
5
2D0
100
AcDbEntity
8
0
100
AcDbLine
62
7
6
CONTINUOUS
10
270.2200467137
20
171.8455669339
11
270.9340467137
21
171.8455669339
0
LINE
5
2D1
100
AcDbEntity
8
0
100
AcDbLine
62
7
6
CONTINUOUS
10
270.2200467137
20
173.0355666502
11
270.9340467137
21
173.0355666502
0
LINE
5
2D2
100
AcDbEntity
8
0
100
AcDbLine
62
7
6
CONTINUOUS
10
270.2200467137
20
176.6055666502
11
270.9340467137
21
176.6055666502
0
LINE
5
2D3
100
AcDbEntity
8
0
100
AcDbLine
62
7
6
CONTINUOUS
10
270.2200467137
20
177.3493172176
11
270.9340467137
21
177.3493172176
0
LINE
5
2D4
100
AcDbEntity
8
0
100
AcDbLine
62
7
6
CONTINUOUS
10
270.2200467137
20
177.9443166502
11
270.9340467137
21
177.9443166502
0
LINE
5
2D5
100
AcDbEntity
8
0
100
AcDbLine
62
7
6
CONTINUOUS
10
270.2200467137
20
178.3905675014
11
270.9340467137
21
178.3905675014
0
LINE
5
2D6
100
AcDbEntity
8
0
100
AcDbLine
62
7
6
CONTINUOUS
10
270.2200467137
20
178.5393169339
11
270.9340467137
21
178.5393169339
0
LINE
5
2D7
100
AcDbEntity
8
0
100
AcDbLine
62
7
6
CONTINUOUS
10
270.2200467137
20
179.7293175014
11
270.9340467137
21
179.7293175014
0
LINE
5
2D8
100
AcDbEntity
8
0
100
AcDbLine
62
7
6
CONTINUOUS
10
270.2200467137
20
181.8118163665
11
270.9340467137
21
181.8118163665
0
LINE
5
2D9
100
AcDbEntity
8
0
100
AcDbLine
62
7
6
CONTINUOUS
10
270.2200467137
20
183.0018169339
11
270.9340467137
21
183.0018169339
0
LINE
5
2DA
100
AcDbEntity
8
0
100
AcDbLine
62
7
6
CONTINUOUS
10
270.2200467137
20
183.1505663665
11
270.9340467137
21
183.1505663665
0
LINE
5
2DB
100
AcDbEntity
8
0
100
AcDbLine
62
7
6
CONTINUOUS
10
270.2200467137
20
183.4480669339
11
270.9340467137
21
183.4480669339
0
LINE
5
2DC
100
AcDbEntity
8
0
100
AcDbLine
62
7
6
CONTINUOUS
10
270.2200467137
20
184.0430663665
11
270.9340467137
21
184.0430663665
0
LINE
5
2DD
100
AcDbEntity
8
0
100
AcDbLine
62
7
6
CONTINUOUS
10
270.2200467137
20
184.6380675014
11
270.9340467137
21
184.6380675014
0
LINE
5
2DE
100
AcDbEntity
8
0
100
AcDbLine
62
7
6
CONTINUOUS
10
270.2200467137
20
185.3818163665
11
270.9340467137
21
185.3818163665
0
LINE
5
2DF
100
AcDbEntity
8
0
100
AcDbLine
62
7
6
CONTINUOUS
10
270.2200467137
20
186.7205663665
11
270.9340467137
21
186.7205663665
0
LINE
5
2E0
100
AcDbEntity
8
0
100
AcDbLine
62
7
6
CONTINUOUS
10
270.2200467137
20
187.4643169339
11
270.9340467137
21
187.4643169339
0
LINE
5
2E1
100
AcDbEntity
8
0
100
AcDbLine
62
7
6
CONTINUOUS
10
270.2200467137
20
188.0593163665
11
270.9340467137
21
188.0593163665
0
LINE
5
2E2
100
AcDbEntity
8
0
100
AcDbLine
62
7
6
CONTINUOUS
10
270.2200467137
20
188.6543175014
11
270.9340467137
21
188.6543175014
0
LINE
5
2E3
100
AcDbEntity
8
0
100
AcDbLine
62
7
6
CONTINUOUS
10
270.2200467137
20
188.8030669339
11
270.9340467137
21
188.8030669339
0
LINE
5
2E4
100
AcDbEntity
8
0
100
AcDbLine
62
7
6
CONTINUOUS
10
270.2200467137
20
189.9930675014
11
270.9340467137
21
189.9930675014
0
LINE
5
2E5
100
AcDbEntity
8
0
100
AcDbLine
62
7
6
CONTINUOUS
10
270.2200467137
20
190.8855675014
11
270.9340467137
21
190.8855675014
0
LINE
5
2E6
100
AcDbEntity
8
0
100
AcDbLine
62
7
6
CONTINUOUS
10
270.2200467137
20
192.0755663665
11
270.9340467137
21
192.0755663665
0
LINE
5
2E7
100
AcDbEntity
8
DEFAULT_1
100
AcDbLine
62
2
6
CENTER
10
232.7200467137
20
192.3730669339
11
205.0250936702
21
192.3730669339
0
LINE
5
2E8
100
AcDbEntity
8
DEFAULT_1
100
AcDbLine
62
2
6
CENTER
10
232.7200467137
20
192.3730669339
11
260.6271364394
21
192.3730669339
0
LINE
5
2E9
100
AcDbEntity
8
0
100
AcDbLine
62
7
6
CONTINUOUS
10
270.2200467137
20
192.9680680688
11
270.9340467137
21
192.9680680688
0
LINE
5
2EA
100
AcDbEntity
8
0
100
AcDbLine
62
7
6
CONTINUOUS
10
270.2200467137
20
197.4305680688
11
270.9340467137
21
197.4305680688
0
LINE
5
2EB
100
AcDbEntity
8
0
100
AcDbLine
62
7
6
CONTINUOUS
10
270.2200467137
20
228.3730669339
11
270.2200467137
21
108.3730669339
0
LINE
5
2EC
100
AcDbEntity
8
0
100
AcDbLine
62
7
6
CONTINUOUS
10
270.9340467137
20
214.0905657990
11
270.9340467137
21
208.7355657990
0
LINE
5
2ED
100
AcDbEntity
8
0
100
AcDbLine
62
7
6
CONTINUOUS
10
270.9340467137
20
207.5455669339
11
270.9340467137
21
205.7605669339
0
LINE
5
2EE
100
AcDbEntity
8
0
100
AcDbLine
62
7
6
CONTINUOUS
10
270.9340467137
20
197.4305680688
11
270.9340467137
21
192.0755663665
0
LINE
5
2EF
100
AcDbEntity
8
0
100
AcDbLine
62
7
6
CONTINUOUS
10
270.9340467137
20
190.8855675014
11
270.9340467137
21
189.9930675014
0
LINE
5
2F0
100
AcDbEntity
8
0
100
AcDbLine
62
7
6
CONTINUOUS
10
270.9340467137
20
188.8030669339
11
270.9340467137
21
183.0018169339
0
LINE
5
2F1
100
AcDbEntity
8
0
100
AcDbLine
62
7
6
CONTINUOUS
10
270.9340467137
20
181.8118163665
11
270.9340467137
21
179.7293175014
0
LINE
5
2F2
100
AcDbEntity
8
0
100
AcDbLine
62
7
6
CONTINUOUS
10
270.9340467137
20
178.5393169339
11
270.9340467137
21
173.0355666502
0
LINE
5
2F3
100
AcDbEntity
8
0
100
AcDbLine
62
7
6
CONTINUOUS
10
270.9340467137
20
171.8455669339
11
270.9340467137
21
170.9530669339
0
LINE
5
2F4
100
AcDbEntity
8
0
100
AcDbLine
62
7
6
CONTINUOUS
10
270.9340467137
20
169.7630667921
11
270.9340467137
21
163.8130669339
0
LINE
5
2F5
100
AcDbEntity
8
0
100
AcDbLine
62
7
6
CONTINUOUS
10
270.2200467137
20
205.7605669339
11
270.9340467137
21
205.7605669339
0
LINE
5
2F6
100
AcDbEntity
8
0
100
AcDbLine
62
7
6
CONTINUOUS
10
270.2200467137
20
206.6530669339
11
270.9340467137
21
206.6530669339
0
LINE
5
2F7
100
AcDbEntity
8
0
100
AcDbLine
62
7
6
CONTINUOUS
10
270.2200467137
20
207.5455669339
11
270.9340467137
21
207.5455669339
0
LINE
5
2F8
100
AcDbEntity
8
0
100
AcDbLine
62
7
6
CONTINUOUS
10
270.2200467137
20
208.7355657990
11
270.9340467137
21
208.7355657990
0
LINE
5
2F9
100
AcDbEntity
8
0
100
AcDbLine
62
7
6
CONTINUOUS
10
270.2200467137
20
208.8843169339
11
270.9340467137
21
208.8843169339
0
LINE
5
2FA
100
AcDbEntity
8
0
100
AcDbLine
62
7
6
CONTINUOUS
10
270.2200467137
20
209.1818157990
11
270.9340467137
21
209.1818157990
0
LINE
5
2FB
100
AcDbEntity
8
0
100
AcDbLine
62
7
6
CONTINUOUS
10
270.2200467137
20
209.6280657990
11
270.9340467137
21
209.6280657990
0
LINE
5
2FC
100
AcDbEntity
8
0
100
AcDbLine
62
7
6
CONTINUOUS
10
270.2200467137
20
210.3718180688
11
270.9340467137
21
210.3718180688
0
LINE
5
2FD
100
AcDbEntity
8
0
100
AcDbLine
62
7
6
CONTINUOUS
10
270.2200467137
20
211.1155669339
11
270.9340467137
21
211.1155669339
0
LINE
5
2FE
100
AcDbEntity
8
0
100
AcDbLine
62
7
6
CONTINUOUS
10
270.2200467137
20
211.7105680688
11
270.9340467137
21
211.7105680688
0
LINE
5
2FF
100
AcDbEntity
8
0
100
AcDbLine
62
7
6
CONTINUOUS
10
270.2200467137
20
212.4543169339
11
270.9340467137
21
212.4543169339
0
LINE
5
300
100
AcDbEntity
8
0
100
AcDbLine
62
7
6
CONTINUOUS
10
270.2200467137
20
213.1980657990
11
270.9340467137
21
213.1980657990
0
LINE
5
301
100
AcDbEntity
8
0
100
AcDbLine
62
7
6
CONTINUOUS
10
270.2200467137
20
213.6443157990
11
270.9340467137
21
213.6443157990
0
LINE
5
302
100
AcDbEntity
8
0
100
AcDbLine
62
7
6
CONTINUOUS
10
270.2200467137
20
213.7930669339
11
270.9340467137
21
213.7930669339
0
LINE
5
303
100
AcDbEntity
8
0
100
AcDbLine
62
7
6
CONTINUOUS
10
270.2200467137
20
214.0905657990
11
270.9340467137
21
214.0905657990
0
LINE
5
304
100
AcDbEntity
8
0
100
AcDbLine
62
7
6
CONTINUOUS
10
195.2200467137
20
228.3730669339
11
270.2200467137
21
228.3730669339
0
LINE
5
305
100
AcDbEntity
8
0
100
AcDbLine
62
7
6
CONTINUOUS
10
255.3405920146
20
102.9573883214
11
270.2200467137
21
108.3730669339
0
CIRCLE
5
306
100
AcDbEntity
8
0
100
AcDbCircle
62
7
6
CONTINUOUS
10
91.9684476006
20
122.4749292876
40
9.5000000000
0
ARC
5
307
100
AcDbEntity
8
0
100
AcDbCircle
62
7
6
CONTINUOUS
10
87.9684476006
20
118.4749292876
40
16.0000000000
100
AcDbArc
50
180.0000000000
51
270.0000000000
0
ARC
5
308
100
AcDbEntity
8
0
100
AcDbCircle
62
7
6
CONTINUOUS
10
95.9684476006
20
118.4749292876
40
16.0000000000
100
AcDbArc
50
270.0000000000
51
360.0000000000
0
ARC
5
309
100
AcDbEntity
8
0
100
AcDbCircle
62
7
6
CONTINUOUS
10
212.8356625593
20
110.4749292876
40
8.0000000000
100
AcDbArc
50
250.0000000000
51
270.0000000000
0
ARC
5
30A
100
AcDbEntity
8
0
100
AcDbCircle
62
7
6
CONTINUOUS
10
252.6044308680
20
110.4749292876
40
8.0000000000
100
AcDbArc
50
270.0000000000
51
290.0000000000
0
ARC
5
30B
100
AcDbEntity
8
0
100
AcDbCircle
62
7
6
CONTINUOUS
10
232.7200467137
20
141.4749292876
40
8.8000000000
100
AcDbArc
50
0.0000000000
51
180.0000000000
0
CIRCLE
5
30C
100
AcDbEntity
8
0
100
AcDbCircle
62
7
6
CONTINUOUS
10
259.7200467137
20
122.4749292876
40
3.0000000000
0
CIRCLE
5
30D
100
AcDbEntity
8
0
100
AcDbCircle
62
7
6
CONTINUOUS
10
232.7200467137
20
192.3730669339
40
22.5000000000
0
CIRCLE
5
30E
100
AcDbEntity
8
0
100
AcDbCircle
62
7
6
CONTINUOUS
10
232.7200467137
20
192.3730669339
40
12.5000000000
0
SPLINE
5
30F
100
AcDbEntity
8
0
100
AcDbSpline
62
7
6
CONTINUOUS
70
0
71
3
72
14
73
10
74
8
42
0.0000001000
43
0.0000001000
44
0.0000000001
40
0.0000000000
40
0.0000000000
40
0.0000000000
40
0.0000000000
40
0.0014788890
40
0.0492084814
40
0.1559437321
40
0.3167409633
40
0.5199147982
40
0.7533917013
40
1.0000000000
40
1.0000000000
40
1.0000000000
40
1.0000000000
10
111.8406580232
20
119.4824318367
30
0.0000000000
10
111.8398646841
20
119.4818813498
30
0.0000000000
10
111.8142722174
20
119.4664255658
30
0.0000000000
10
111.8302722786
20
119.7450178094
30
0.0000000000
10
111.8271153002
20
119.9643926847
30
0.0000000000
10
111.8682733763
20
120.4817404758
30
0.0000000000
10
111.9088760106
20
121.0600343906
30
0.0000000000
10
111.9502277640
20
121.7490512436
30
0.0000000000
10
111.9647364051
20
122.2280645452
30
0.0000000000
10
111.9673960906
20
122.4749305787
30
0.0000000000
11
111.8406580232
21
119.4824318367
31
0.0000000000
11
111.8383540715
21
119.4810457099
31
0.0000000000
11
111.8225573101
21
119.6235193975
31
0.0000000000
11
111.8318065280
21
119.9439449418
31
0.0000000000
11
111.8631842723
21
120.4258483620
31
0.0000000000
11
111.9061133716
21
121.0345303265
31
0.0000000000
11
111.9459925668
21
121.7345988280
31
0.0000000000
11
111.9673960906
21
122.4749305787
31
0.0000000000
0
SPLINE
5
310
100
AcDbEntity
8
0
100
AcDbSpline
62
7
6
CONTINUOUS
70
0
71
3
72
9
73
5
74
3
42
0.0000001000
43
0.0000001000
44
0.0000000001
40
0.0000000000
40
0.0000000000
40
0.0000000000
40
0.0000000000
40
0.4993610754
40
1.0000000000
40
1.0000000000
40
1.0000000000
40
1.0000000000
10
71.9684476006
20
122.6678739051
30
0.0000000000
10
71.9684476006
20
122.6357571827
30
0.0000000000
10
71.9686267055
20
122.5714414365
30
0.0000000000
10
71.9691522262
20
122.5071276182
30
0.0000000000
10
71.9694991107
20
122.4749305787
30
0.0000000000
11
71.9684476006
21
122.6678739051
31
0.0000000000
11
71.9687128594
21
122.5715241031
31
0.0000000000
11
71.9694991107
21
122.4749305787
31
0.0000000000
0
SPLINE
5
311
100
AcDbEntity
8
0
100
AcDbSpline
62
7
6
CONTINUOUS
70
0
71
3
72
14
73
10
74
8
42
0.0000001000
43
0.0000001000
44
0.0000000001
40
0.0000000000
40
0.0000000000
40
0.0000000000
40
0.0000000000
40
0.2466082987
40
0.4800852018
40
0.6832590367
40
0.8440562679
40
0.9507915186
40
0.9985211110
40
1.0000000000
40
1.0000000000
40
1.0000000000
40
1.0000000000
10
71.9694991107
20
122.4749305787
30
0.0000000000
10
71.9721587962
20
122.2280645452
30
0.0000000000
10
71.9866674373
20
121.7490512436
30
0.0000000000
10
72.0280191907
20
121.0600343906
30
0.0000000000
10
72.0686218250
20
120.4817404758
30
0.0000000000
10
72.1097799011
20
119.9643926847
30
0.0000000000
10
72.1066229227
20
119.7450178094
30
0.0000000000
10
72.1226229839
20
119.4664255658
30
0.0000000000
10
72.0970305172
20
119.4818813498
30
0.0000000000
10
72.0962371780
20
119.4824318367
30
0.0000000000
11
71.9694991107
21
122.4749305787
31
0.0000000000
11
71.9909026345
21
121.7345988280
31
0.0000000000
11
72.0307818296
21
121.0345303265
31
0.0000000000
11
72.0737109290
21
120.4258483620
31
0.0000000000
11
72.1050886733
21
119.9439449418
31
0.0000000000
11
72.1143378912
21
119.6235193975
31
0.0000000000
11
72.0985411298
21
119.4810457099
31
0.0000000000
11
72.0962371780
21
119.4824318367
31
0.0000000000
0
SPLINE
5
312
100
AcDbEntity
8
0
100
AcDbSpline
62
7
6
CONTINUOUS
70
0
71
3
72
9
73
5
74
3
42
0.0000001000
43
0.0000001000
44
0.0000000001
40
0.0000000000
40
0.0000000000
40
0.0000000000
40
0.0000000000
40
0.5006389246
40
1.0000000000
40
1.0000000000
40
1.0000000000
40
1.0000000000
10
111.9673960906
20
122.4749305787
30
0.0000000000
10
111.9677429751
20
122.5071276182
30
0.0000000000
10
111.9682684957
20
122.5714414365
30
0.0000000000
10
111.9684476006
20
122.6357571827
30
0.0000000000
10
111.9684476006
20
122.6678739051
30
0.0000000000
11
111.9673960906
21
122.4749305787
31
0.0000000000
11
111.9681823419
21
122.5715241031
31
0.0000000000
11
111.9684476006
21
122.6678739051
31
0.0000000000
0
SPLINE
5
313
100
AcDbEntity
8
0
100
AcDbSpline
62
7
6
CONTINUOUS
70
0
71
3
72
11
73
7
74
5
42
0.0000001000
43
0.0000001000
44
0.0000000001
40
0.0000000000
40
0.0000000000
40
0.0000000000
40
0.0000000000
40
0.4377711365
40
0.7641581716
40
0.9564005517
40
1.0000000000
40
1.0000000000
40
1.0000000000
40
1.0000000000
10
111.9684476006
20
120.6983629862
30
0.0000000000
10
111.9684476006
20
120.5187413494
30
0.0000000000
10
111.9707111280
20
120.2075021400
30
0.0000000000
10
111.9084454196
20
119.8086460760
30
0.0000000000
10
111.9212055935
20
119.5929720836
30
0.0000000000
10
111.8502440130
20
119.4890834205
30
0.0000000000
10
111.8406580232
20
119.4824318367
30
0.0000000000
11
111.9684476006
21
120.6983629862
31
0.0000000000
11
111.9539706744
21
120.1596925766
31
0.0000000000
11
111.9177464795
21
119.7595699078
31
0.0000000000
11
111.8738728606
21
119.5270360704
31
0.0000000000
11
111.8406580232
21
119.4824318367
31
0.0000000000
0
ENDSEC
0
SECTION
2
OBJECTS
0
DICTIONARY
5
314
100
AcDbDictionary
3
ACAD_GROUP
350
315
3
ACAD_MLINESTYLE
350
316
0
DICTIONARY
5
315
102
{ACAD_REACTORS
330
314
102
}
100
AcDbDictionary
0
DICTIONARY
5
316
102
{ACAD_REACTORS
330
314
102
}
100
AcDbDictionary
3
STANDARD
350
317
0
MLINESTYLE
5
317
102
{ACAD_REACTORS
330
316
102
}
100
AcDbMlineStyle
2
STANDARD
70
0
3

62
256
51
90.0
52
90.0
71
2
49
0.5
62
256
6
BYLAYER
49
-0.5
62
256
6
BYLAYER
0
ENDSEC
0
EOF
