999
DXF file: C:\Aktuell-Internet\CAD-Daten-NEU\2vgil-13.dxf
999
Pro/ENGINEER 2001400 by Parametric Technology Corporation
0
SECTION
2
HEADER
9
$ACADVER
1
AC1014
9
$EXTMAX
10
420.0000000000
20
297.0000000000
9
$EXTMIN
10
0.0000000000
20
0.0000000000
9
$LIMMIN
10
0.0000000000
20
0.0000000000
9
$LIMMAX
10
420.0000000000
20
297.0000000000
9
$VIEWCTR
10
210.0000000000
20
148.5000000000
9
$VIEWSIZE
40
297.0000000000
9
$CLAYER
8
0
9
$LTSCALE
40
23.1000000000
9
$CELTYPE
6
BYLAYER
9
$DIMSCALE
40
1
9
$DIMASZ
40
3.5000000000
9
$DIMEXO
40
2.6250000000
9
$DIMDLI
40
15.9600000000
9
$DIMEXE
40
7.5600000000
9
$DIMCEN
40
3.7800000000
9
$DIMLFAC
40
1.0000000000
9
$DIMTXT
40
3.5000000000
9
$DIMTOL
70
1
9
$DIMTFAC
40
0.6000000000
9
$DIMTP
40
0.0050000000
9
$DIMTM
40
0.0050000000
9
$HANDSEED
5
322
0
ENDSEC
0
SECTION
2
CLASSES
0
ENDSEC
0
SECTION
2
TABLES
0
TABLE
2
VPORT
5
8
100
AcDbSymbolTable
70
2
0
VPORT
5
1F4
100
AcDbSymbolTableRecord
100
AcDbViewportTableRecord
2
*ACTIVE
70
0
10
0.0
20
0.0
11
1.0
21
1.0
12
210.0000000000
22
148.5000000000
13
0.0
23
0.0
14
1.0
24
1.0
15
0.0
25
0.0
16
0.0
26
0.0
36
1.0
17
0.0
27
0.0
37
0.0
40
297.0000000000
41
1.4141414141
42
50.0
43
0.0
44
0.0
50
0.0
51
0.0
71
0
72
100
73
1
74
1
75
0
76
0
77
0
78
0
0
ENDTAB
0
TABLE
2
LTYPE
5
5
100
AcDbSymbolTable
70
6
0
LTYPE
5
14
100
AcDbSymbolTableRecord
100
AcDbLinetypeTableRecord
2
BYBLOCK
70
0
3

72
65
73
0
40
0.0
0
LTYPE
5
15
100
AcDbSymbolTableRecord
100
AcDbLinetypeTableRecord
2
BYLAYER
70
0
3

72
65
73
0
40
0.0
0
LTYPE
5
16
100
AcDbSymbolTableRecord
100
AcDbLinetypeTableRecord
2
CONTINUOUS
70
64
3
Solid line
72
65
73
0
40
0
0
LTYPE
5
1F5
100
AcDbSymbolTableRecord
100
AcDbLinetypeTableRecord
2
CENTER
70
64
3
____ _ ____ _ ____ _ ____ _ ____ _ ____ _ ____
72
65
73
4
40
0.6
49
0.375
74
0
49
-0.075
74
0
49
0.075
74
0
49
-0.075
74
0
0
LTYPE
5
1F6
100
AcDbSymbolTableRecord
100
AcDbLinetypeTableRecord
2
HIDDEN
70
64
3
- - - - - - - - - - - - - - - - - - - -
72
65
73
2
40
0.2
49
0.1
74
0
49
-0.1
74
0
0
LTYPE
5
1F7
100
AcDbSymbolTableRecord
100
AcDbLinetypeTableRecord
2
PHANTOM
70
64
3
_____ _ _ _____ _ _ _____ _ _ _____
72
65
73
6
40
0.8
49
0.45
74
0
49
-0.05
74
0
49
0.1
74
0
49
-0.05
74
0
49
0.1
74
0
49
-0.05
74
0
0
LTYPE
5
1F8
100
AcDbSymbolTableRecord
100
AcDbLinetypeTableRecord
2
DOT
70
64
3
. . . . . . . . . . . . . . . . . . . .
72
65
73
2
40
0.2
49
0.1
74
0
49
-0.1
74
0
0
LTYPE
5
1F9
100
AcDbSymbolTableRecord
100
AcDbLinetypeTableRecord
2
DASHED
70
64
3
- - - - - - - - - - - - - - - - - - - -
72
65
73
2
40
0.2
49
0.1
74
0
49
-0.1
74
0
0
ENDTAB
0
TABLE
2
LAYER
5
2
100
AcDbSymbolTable
70
36
0
LAYER
5
10
100
AcDbSymbolTableRecord
100
AcDbLayerTableRecord
2
0
70
0
62
7
6
CONTINUOUS
0
LAYER
5
1FA
100
AcDbSymbolTableRecord
100
AcDbLayerTableRecord
2
DEFAULT_1
70
0
62
7
6
CENTER
0
LAYER
5
1FB
100
AcDbSymbolTableRecord
100
AcDbLayerTableRecord
2
DEFAULT_2
70
0
62
8
6
HIDDEN
0
LAYER
5
1FC
100
AcDbSymbolTableRecord
100
AcDbLayerTableRecord
2
DEFAULT_3
70
0
62
7
6
PHANTOM
0
LAYER
5
1FD
100
AcDbSymbolTableRecord
100
AcDbLayerTableRecord
2
ZEICHNUNGSBEMASSUNGEN
70
0
62
7
6
CONTINUOUS
0
ENDTAB
0
TABLE
2
STYLE
5
3
100
AcDbSymbolTable
70
1
0
STYLE
5
11
100
AcDbSymbolTableRecord
100
AcDbTextStyleTableRecord
2
STANDARD
70
0
40
0.0
41
1.0
50
0.0
71
0
42
0.0
3
txt
4

0
STYLE
5
1FE
100
AcDbSymbolTableRecord
100
AcDbTextStyleTableRecord
2
TEXTSTYLE_0
70
0
40
0.0
41
0.80
50
0.0
71
0
42
0.2
3
txt
4

0
ENDTAB
0
TABLE
2
VIEW
5
6
100
AcDbSymbolTable
70
0
0
ENDTAB
0
TABLE
2
UCS
5
7
100
AcDbSymbolTable
70
0
0
ENDTAB
0
TABLE
2
APPID
5
9
100
AcDbSymbolTable
70
1
0
APPID
5
1FF
100
AcDbSymbolTableRecord
100
AcDbRegAppTableRecord
2
ACAD
70
0
0
ENDTAB
0
TABLE
2
DIMSTYLE
5
A
100
AcDbSymbolTable
70
1
0
DIMSTYLE
105
200
100
AcDbSymbolTableRecord
100
AcDbDimStyleTableRecord
2
STANDARD
70
0
3

4

5

6

7

40
1.0
41
0.18
42
0.0625
43
0.38
44
0.18
45
0.0
46
0.0
47
0.0050000000
48
0.0050000000
140
3.5000000000
141
0.09
142
0.0
143
25.4
144
1.0000000000
145
0.0
146
0.6000000000
147
0.09
71
1
72
0
73
1
74
1
75
0
76
0
77
0
78
0
170
0
171
2
172
0
173
0
174
0
175
0
176
0
177
0
178
0
270
2
271
3
272
4
273
2
274
2
340
11
275
0
280
0
281
0
282
0
283
1
284
0
285
0
286
0
287
3
288
0
0
ENDTAB
0
TABLE
2
BLOCK_RECORD
5
1
100
AcDbSymbolTable
70
0
0
BLOCK_RECORD
5
1B
100
AcDbSymbolTableRecord
100
AcDbBlockTableRecord
2
*MODEL_SPACE
0
BLOCK_RECORD
5
1C
100
AcDbSymbolTableRecord
100
AcDbBlockTableRecord
2
*PAPER_SPACE
0
ENDTAB
0
ENDSEC
0
SECTION
2
BLOCKS
0
BLOCK
5
1E
100
AcDbEntity
8
0
100
AcDbBlockBegin
2
*MODEL_SPACE
70
0
10
0.0
20
0.0
30
0.0
3
*MODEL_SPACE
1

0
ENDBLK
5
1F
100
AcDbEntity
8
0
100
AcDbBlockEnd
0
BLOCK
5
20
100
AcDbEntity
8
0
100
AcDbBlockBegin
2
*PAPER_SPACE
70
0
10
0.0
20
0.0
30
0.0
3
*PAPER_SPACE
1

0
ENDBLK
5
21
100
AcDbEntity
8
0
100
AcDbBlockEnd
0
ENDSEC
0
SECTION
2
ENTITIES
0
TEXT
5
201
100
AcDbEntity
8
0
100
AcDbText
62
2
6
CONTINUOUS
10
231.4061500598
20
159.6643006003
7
TEXTSTYLE_0
40
3.5000000000
1
VIP-GIL 13
72
5
11
256.3228157760
21
159.6643006003
100
AcDbText
0
LINE
5
202
100
AcDbEntity
8
0
100
AcDbLine
62
7
6
CONTINUOUS
10
0.0000000000
20
0.0000000000
11
0.0000000000
21
297.0000000000
0
LINE
5
203
100
AcDbEntity
8
0
100
AcDbLine
62
7
6
CONTINUOUS
10
0.0000000000
20
0.0000000000
11
420.0000000000
21
0.0000000000
0
LINE
5
204
100
AcDbEntity
8
0
100
AcDbLine
62
7
6
CONTINUOUS
10
0.0000000000
20
297.0000000000
11
420.0000000000
21
297.0000000000
0
LINE
5
205
100
AcDbEntity
8
0
100
AcDbLine
62
7
6
CONTINUOUS
10
420.0000000000
20
0.0000000000
11
420.0000000000
21
297.0000000000
0
LINE
5
206
100
AcDbEntity
8
0
100
AcDbLine
62
7
6
CONTINUOUS
10
146.3746354962
20
122.1037454115
11
151.4426354962
21
122.1037454115
0
LINE
5
207
100
AcDbEntity
8
0
100
AcDbLine
62
7
6
CONTINUOUS
10
154.1834441314
20
133.5697454115
11
142.9688268610
21
133.5697454115
0
LINE
5
208
100
AcDbEntity
8
DEFAULT_1
100
AcDbLine
62
2
6
CENTER
10
148.5761354962
20
136.4362454115
11
147.1961294572
21
136.4362454115
0
LINE
5
209
100
AcDbEntity
8
DEFAULT_1
100
AcDbLine
62
2
6
CENTER
10
165.9086354962
20
136.4362454115
11
149.6459871256
21
136.4362454115
0
LINE
5
20A
100
AcDbEntity
8
DEFAULT_1
100
AcDbLine
62
2
6
CENTER
10
147.1961294572
20
136.4362454115
11
131.9086354962
21
136.4362454115
0
LINE
5
20B
100
AcDbEntity
8
DEFAULT_1
100
AcDbLine
62
2
6
CENTER
10
148.5761354962
20
136.4362454115
11
149.6459871256
21
136.4362454115
0
LINE
5
20C
100
AcDbEntity
8
0
100
AcDbLine
62
7
6
CONTINUOUS
10
147.3504651671
20
205.0943547793
11
147.7164012937
21
205.3332288681
0
LINE
5
20D
100
AcDbEntity
8
0
100
AcDbLine
62
7
6
CONTINUOUS
10
149.7900396861
20
205.9304181906
11
149.4241035595
21
205.6915413681
0
LINE
5
20E
100
AcDbEntity
8
0
100
AcDbLine
62
7
6
CONTINUOUS
10
149.7900396861
20
205.2137931906
11
150.2779546924
21
205.4526672793
0
LINE
5
20F
100
AcDbEntity
8
0
100
AcDbLine
62
7
6
CONTINUOUS
10
150.7658695278
20
201.7501038681
11
151.1318057398
21
201.8695422793
0
LINE
5
210
100
AcDbEntity
8
0
100
AcDbLine
62
7
6
CONTINUOUS
10
154.1834441314
20
139.3027454115
11
142.9688268610
21
139.3027454115
0
LINE
5
211
100
AcDbEntity
8
0
100
AcDbLine
62
7
6
CONTINUOUS
10
147.2284864582
20
205.8109797793
11
146.7405716228
21
205.3332288681
0
LINE
5
212
100
AcDbEntity
8
0
100
AcDbLine
62
7
6
CONTINUOUS
10
151.0098269456
20
202.4667288681
11
150.7658695278
21
202.3472931906
0
LINE
5
213
100
AcDbEntity
8
0
100
AcDbLine
62
7
6
CONTINUOUS
10
151.1318057398
20
201.8695422793
11
151.4977418664
21
202.1084163681
0
LINE
5
214
100
AcDbEntity
8
0
100
AcDbLine
62
7
6
CONTINUOUS
10
147.1065077494
20
204.7360422793
11
147.3504651671
21
205.0943547793
0
LINE
5
215
100
AcDbEntity
8
0
100
AcDbLine
62
7
6
CONTINUOUS
10
151.2537844487
20
202.7056056906
11
151.0098269456
21
202.4667288681
0
LINE
5
216
100
AcDbEntity
8
0
100
AcDbLine
62
7
6
CONTINUOUS
10
146.7405716228
20
205.3332288681
11
146.4966142050
21
204.8554806906
0
LINE
5
217
100
AcDbEntity
8
0
100
AcDbLine
62
7
6
CONTINUOUS
10
149.5460822683
20
204.8554806906
11
149.7900396861
21
205.2137931906
0
LINE
5
218
100
AcDbEntity
8
0
100
AcDbLine
62
7
6
CONTINUOUS
10
132.9086354962
20
209.2507797793
11
132.9086354962
21
167.9731797793
0
LINE
5
219
100
AcDbEntity
8
0
100
AcDbLine
62
7
6
CONTINUOUS
10
134.9086354962
20
133.5697454115
11
134.9086354962
21
136.4362454115
0
LINE
5
21A
100
AcDbEntity
8
0
100
AcDbLine
62
7
6
CONTINUOUS
10
134.9086354962
20
136.4963517824
11
134.9086354962
21
165.6799797793
0
LINE
5
21B
100
AcDbEntity
8
0
100
AcDbLine
62
7
6
CONTINUOUS
10
149.4241035595
20
205.6915413681
11
149.1801461418
21
205.0943547793
0
LINE
5
21C
100
AcDbEntity
8
0
100
AcDbLine
62
7
6
CONTINUOUS
10
151.4977418664
20
202.1084163681
11
151.7416993269
21
202.4667288681
0
LINE
5
21D
100
AcDbEntity
8
0
100
AcDbLine
62
7
6
CONTINUOUS
10
147.4724438760
20
184.9094177350
11
147.8383803443
21
185.0288547793
0
LINE
5
21E
100
AcDbEntity
8
0
100
AcDbLine
62
7
6
CONTINUOUS
10
136.6285354962
20
217.2769797793
11
136.6285354962
21
165.6799797793
0
LINE
5
21F
100
AcDbEntity
8
0
100
AcDbLine
62
7
6
CONTINUOUS
10
151.3757631576
20
202.9444797793
11
151.2537844487
21
202.7056056906
0
LINE
5
220
100
AcDbEntity
8
0
100
AcDbLine
62
7
6
CONTINUOUS
10
151.7416993269
20
202.4667288681
11
151.9856567766
21
202.9444797793
0
LINE
5
221
100
AcDbEntity
8
0
100
AcDbLine
62
7
6
CONTINUOUS
10
147.2284864582
20
184.5511052350
11
147.4724438760
21
184.9094177350
0
LINE
5
222
100
AcDbEntity
8
0
100
AcDbLine
62
7
6
CONTINUOUS
10
147.2284864582
20
185.6260427350
11
146.7405716228
21
185.1482918237
0
LINE
5
223
100
AcDbEntity
8
0
100
AcDbLine
62
7
6
CONTINUOUS
10
146.4966142050
20
204.8554806906
11
146.3746354962
21
204.0194172793
0
LINE
5
224
100
AcDbEntity
8
0
100
AcDbLine
62
7
6
CONTINUOUS
10
146.9845290405
20
204.1388556906
11
147.1065077494
21
204.7360422793
0
LINE
5
225
100
AcDbEntity
8
0
100
AcDbLine
62
7
6
CONTINUOUS
10
146.7405716228
20
185.1482918237
11
146.4966142050
21
184.6705422793
0
LINE
5
226
100
AcDbEntity
8
0
100
AcDbLine
62
7
6
CONTINUOUS
10
151.2537844487
20
181.4457297793
11
151.7416993269
21
181.9234793237
0
LINE
5
227
100
AcDbEntity
8
0
100
AcDbLine
62
7
6
CONTINUOUS
10
147.3504651671
20
177.3848552350
11
146.8625503316
21
177.0265420515
0
LINE
5
228
100
AcDbEntity
8
0
100
AcDbLine
62
7
6
CONTINUOUS
10
151.0098269456
20
182.1623547793
11
150.6438908190
21
181.9234793237
0
LINE
5
229
100
AcDbEntity
8
0
100
AcDbLine
62
7
6
CONTINUOUS
10
150.7658695278
20
181.2068543237
11
151.2537844487
21
181.4457297793
0
LINE
5
22A
100
AcDbEntity
8
0
100
AcDbLine
62
7
6
CONTINUOUS
10
147.7164012937
20
177.5042922793
11
147.3504651671
21
177.3848552350
0
LINE
5
22B
100
AcDbEntity
8
0
100
AcDbLine
62
7
6
CONTINUOUS
10
147.3504651671
20
176.6682295515
11
147.7164012937
21
176.7876672793
0
LINE
5
22C
100
AcDbEntity
8
0
100
AcDbLine
62
7
6
CONTINUOUS
10
149.4241035595
20
204.1388556906
11
149.5460822683
21
204.8554806906
0
LINE
5
22D
100
AcDbEntity
8
0
100
AcDbLine
62
7
6
CONTINUOUS
10
146.4966142050
20
184.6705422793
11
146.3746354962
21
184.0733543237
0
LINE
5
22E
100
AcDbEntity
8
0
100
AcDbLine
62
7
6
CONTINUOUS
10
151.4977418664
20
203.5416663681
11
151.3757631576
21
202.9444797793
0
LINE
5
22F
100
AcDbEntity
8
0
100
AcDbLine
62
7
6
CONTINUOUS
10
146.4966142050
20
176.5487925071
11
146.3746354962
21
175.9516045515
0
LINE
5
230
100
AcDbEntity
8
0
100
AcDbLine
62
7
6
CONTINUOUS
10
147.1065077494
20
184.0733543237
11
147.2284864582
21
184.5511052350
0
LINE
5
231
100
AcDbEntity
8
0
100
AcDbLine
62
7
6
CONTINUOUS
10
151.9856567766
20
202.9444797793
11
152.1076354962
21
203.4222306906
0
LINE
5
232
100
AcDbEntity
8
0
100
AcDbLine
62
7
6
CONTINUOUS
10
146.9845290405
20
176.0710422793
11
147.1065077494
21
176.4293547793
0
LINE
5
233
100
AcDbEntity
8
0
100
AcDbLine
62
7
6
CONTINUOUS
10
151.7416993269
20
181.9234793237
11
151.9856567766
21
182.4012302350
0
LINE
5
234
100
AcDbEntity
8
0
100
AcDbLine
62
7
6
CONTINUOUS
10
151.2537844487
20
182.5206672793
11
151.0098269456
21
182.1623547793
0
LINE
5
235
100
AcDbEntity
8
0
100
AcDbLine
62
7
6
CONTINUOUS
10
146.8625503316
20
177.0265420515
11
146.4966142050
21
176.5487925071
0
LINE
5
236
100
AcDbEntity
8
0
100
AcDbLine
62
7
6
CONTINUOUS
10
147.1065077494
20
176.4293547793
11
147.3504651671
21
176.6682295515
0
LINE
5
237
100
AcDbEntity
8
0
100
AcDbLine
62
7
6
CONTINUOUS
10
162.9086354962
20
165.6799797793
11
161.1887354962
21
165.6799797793
0
LINE
5
238
100
AcDbEntity
8
0
100
AcDbLine
62
7
6
CONTINUOUS
10
134.9086354962
20
165.6799797793
11
136.6285354962
21
165.6799797793
0
LINE
5
239
100
AcDbEntity
8
0
100
AcDbLine
62
7
6
CONTINUOUS
10
146.3746354962
20
204.0194172793
11
146.3746354962
21
203.7805431906
0
LINE
5
23A
100
AcDbEntity
8
0
100
AcDbLine
62
7
6
CONTINUOUS
10
146.3746354962
20
200.7946047793
11
146.3746354962
21
200.0779797793
0
LINE
5
23B
100
AcDbEntity
8
0
100
AcDbLine
62
7
6
CONTINUOUS
10
146.3746354962
20
189.0897306906
11
146.3746354962
21
188.3731043237
0
LINE
5
23C
100
AcDbEntity
8
0
100
AcDbLine
62
7
6
CONTINUOUS
10
146.3746354962
20
187.4176052350
11
146.3746354962
21
186.7009802350
0
LINE
5
23D
100
AcDbEntity
8
0
100
AcDbLine
62
7
6
CONTINUOUS
10
146.3746354962
20
184.0733543237
11
146.3746354962
21
182.9984168237
0
LINE
5
23E
100
AcDbEntity
8
0
100
AcDbLine
62
7
6
CONTINUOUS
10
146.3746354962
20
175.9516045515
11
146.3746354962
21
173.0851045515
0
LINE
5
23F
100
AcDbEntity
8
0
100
AcDbLine
62
7
6
CONTINUOUS
10
146.3746354962
20
172.1296047793
11
146.3746354962
21
171.4129797793
0
LINE
5
240
100
AcDbEntity
8
0
100
AcDbLine
62
7
6
CONTINUOUS
10
146.3746354962
20
170.4574796654
11
146.3746354962
21
169.7408546654
0
LINE
5
241
100
AcDbEntity
8
0
100
AcDbLine
62
7
6
CONTINUOUS
10
146.3746354962
20
166.3966047793
11
146.3746354962
21
165.6799797793
0
LINE
5
242
100
AcDbEntity
8
0
100
AcDbLine
62
7
6
CONTINUOUS
10
146.9845290405
20
173.8017295515
11
146.9845290405
21
176.0710422793
0
LINE
5
243
100
AcDbEntity
8
0
100
AcDbLine
62
7
6
CONTINUOUS
10
146.9845290405
20
203.6611047793
11
146.9845290405
21
204.1388556906
0
LINE
5
244
100
AcDbEntity
8
0
100
AcDbLine
62
7
6
CONTINUOUS
10
147.1065077494
20
182.9984168237
11
147.1065077494
21
184.0733543237
0
LINE
5
245
100
AcDbEntity
8
0
100
AcDbLine
62
7
6
CONTINUOUS
10
147.7164012937
20
201.8695422793
11
147.7164012937
21
202.4667288681
0
LINE
5
246
100
AcDbEntity
8
0
100
AcDbLine
62
7
6
CONTINUOUS
10
147.8383803443
20
185.0288547793
11
147.8383803443
21
185.7454797793
0
LINE
5
247
100
AcDbEntity
8
DEFAULT_1
100
AcDbLine
62
2
6
CENTER
10
148.5761354962
20
136.4362454115
11
148.5761354962
21
119.9502263910
0
LINE
5
248
100
AcDbEntity
8
DEFAULT_1
100
AcDbLine
62
2
6
CENTER
10
148.5761354962
20
136.4362454115
11
148.5761354962
21
219.7819263761
0
LINE
5
249
100
AcDbEntity
8
0
100
AcDbLine
62
7
6
CONTINUOUS
10
148.8142100152
20
176.0710422793
11
148.8142100152
21
173.8017295515
0
LINE
5
24A
100
AcDbEntity
8
0
100
AcDbLine
62
7
6
CONTINUOUS
10
148.9361887240
20
204.1388556906
11
148.9361887240
21
203.6611047793
0
LINE
5
24B
100
AcDbEntity
8
0
100
AcDbLine
62
7
6
CONTINUOUS
10
148.9361887240
20
185.7454797793
11
148.9361887240
21
183.9539172793
0
LINE
5
24C
100
AcDbEntity
8
0
100
AcDbLine
62
7
6
CONTINUOUS
10
151.3757631576
20
182.9984168237
11
151.2537844487
21
182.5206672793
0
LINE
5
24D
100
AcDbEntity
8
0
100
AcDbLine
62
7
6
CONTINUOUS
10
132.9086354962
20
167.9731797793
11
136.6285354962
21
167.9731797793
0
LINE
5
24E
100
AcDbEntity
8
0
100
AcDbLine
62
7
6
CONTINUOUS
10
161.1887354962
20
167.9731797793
11
164.9086354962
21
167.9731797793
0
LINE
5
24F
100
AcDbEntity
8
0
100
AcDbLine
62
7
6
CONTINUOUS
10
152.1076354962
20
168.5464797793
11
146.3746354962
21
170.4574796654
0
LINE
5
250
100
AcDbEntity
8
0
100
AcDbLine
62
7
6
CONTINUOUS
10
146.3746354962
20
169.7408546654
11
151.3757631576
21
168.0687297224
0
LINE
5
251
100
AcDbEntity
8
0
100
AcDbLine
62
7
6
CONTINUOUS
10
146.3746354962
20
182.9984168237
11
146.4966142050
21
182.4012302350
0
LINE
5
252
100
AcDbEntity
8
0
100
AcDbLine
62
7
6
CONTINUOUS
10
149.4241035595
20
180.1319168237
11
149.4241035595
21
178.4597927350
0
LINE
5
253
100
AcDbEntity
8
0
100
AcDbLine
62
7
6
CONTINUOUS
10
149.4241035595
20
203.6611047793
11
149.4241035595
21
204.1388556906
0
LINE
5
254
100
AcDbEntity
8
0
100
AcDbLine
62
7
6
CONTINUOUS
10
149.5460822683
20
173.8017295515
11
149.5460822683
21
175.9516045515
0
LINE
5
255
100
AcDbEntity
8
0
100
AcDbLine
62
7
6
CONTINUOUS
10
149.6680609772
20
183.9539172793
11
149.6680609772
21
185.0288547793
0
LINE
5
256
100
AcDbEntity
8
0
100
AcDbLine
62
7
6
CONTINUOUS
10
150.0339972747
20
178.4597927350
11
150.0339972747
21
180.1319168237
0
LINE
5
257
100
AcDbEntity
8
0
100
AcDbLine
62
7
6
CONTINUOUS
10
150.7658695278
20
202.3472931906
11
150.7658695278
21
201.7501038681
0
LINE
5
258
100
AcDbEntity
8
0
100
AcDbLine
62
7
6
CONTINUOUS
10
151.3757631576
20
192.6728556906
11
151.3757631576
21
189.0897306906
0
LINE
5
259
100
AcDbEntity
8
0
100
AcDbLine
62
7
6
CONTINUOUS
10
151.3757631576
20
184.0733543237
11
151.3757631576
21
182.9984168237
0
LINE
5
25A
100
AcDbEntity
8
0
100
AcDbLine
62
7
6
CONTINUOUS
10
151.4977418664
20
204.2582913681
11
151.4977418664
21
203.5416663681
0
LINE
5
25B
100
AcDbEntity
8
0
100
AcDbLine
62
7
6
CONTINUOUS
10
152.1076354962
20
167.5909798363
11
152.1076354962
21
168.5464797793
0
LINE
5
25C
100
AcDbEntity
8
0
100
AcDbLine
62
7
6
CONTINUOUS
10
152.1076354962
20
171.4129797793
11
152.1076354962
21
172.1296047793
0
LINE
5
25D
100
AcDbEntity
8
0
100
AcDbLine
62
7
6
CONTINUOUS
10
152.1076354962
20
173.0851045515
11
152.1076354962
21
173.8017295515
0
LINE
5
25E
100
AcDbEntity
8
0
100
AcDbLine
62
7
6
CONTINUOUS
10
152.1076354962
20
182.9984168237
11
152.1076354962
21
184.0733543237
0
LINE
5
25F
100
AcDbEntity
8
0
100
AcDbLine
62
7
6
CONTINUOUS
10
152.1076354962
20
186.7009802350
11
152.1076354962
21
187.4176052350
0
LINE
5
260
100
AcDbEntity
8
0
100
AcDbLine
62
7
6
CONTINUOUS
10
152.1076354962
20
188.3731043237
11
152.1076354962
21
192.6728556906
0
LINE
5
261
100
AcDbEntity
8
0
100
AcDbLine
62
7
6
CONTINUOUS
10
152.1076354962
20
200.0779797793
11
152.1076354962
21
200.7946047793
0
LINE
5
262
100
AcDbEntity
8
0
100
AcDbLine
62
7
6
CONTINUOUS
10
152.1076354962
20
203.4222306906
11
152.1076354962
21
204.3777297793
0
LINE
5
263
100
AcDbEntity
8
0
100
AcDbLine
62
7
6
CONTINUOUS
10
151.9856567766
20
182.4012302350
11
152.1076354962
21
182.9984168237
0
LINE
5
264
100
AcDbEntity
8
0
100
AcDbLine
62
7
6
CONTINUOUS
10
151.3757631576
20
168.0687297224
11
146.3746354962
21
166.3966047793
0
LINE
5
265
100
AcDbEntity
8
0
100
AcDbLine
62
7
6
CONTINUOUS
10
146.3746354962
20
165.6799797793
11
152.1076354962
21
167.5909798363
0
LINE
5
266
100
AcDbEntity
8
0
100
AcDbLine
62
7
6
CONTINUOUS
10
146.3746354962
20
171.4129797793
11
152.1076354962
21
171.4129797793
0
LINE
5
267
100
AcDbEntity
8
0
100
AcDbLine
62
7
6
CONTINUOUS
10
152.1076354962
20
172.1296047793
11
146.3746354962
21
172.1296047793
0
LINE
5
268
100
AcDbEntity
8
0
100
AcDbLine
62
7
6
CONTINUOUS
10
146.3746354962
20
173.0851045515
11
152.1076354962
21
173.0851045515
0
LINE
5
269
100
AcDbEntity
8
0
100
AcDbLine
62
7
6
CONTINUOUS
10
146.4966142050
20
182.4012302350
11
146.7405716228
21
181.9234793237
0
LINE
5
26A
100
AcDbEntity
8
0
100
AcDbLine
62
7
6
CONTINUOUS
10
148.6922313063
20
176.4293547793
11
148.8142100152
21
176.0710422793
0
LINE
5
26B
100
AcDbEntity
8
0
100
AcDbLine
62
7
6
CONTINUOUS
10
147.2284864582
20
182.5206672793
11
147.1065077494
21
182.9984168237
0
LINE
5
26C
100
AcDbEntity
8
0
100
AcDbLine
62
7
6
CONTINUOUS
10
149.5460822683
20
175.9516045515
11
149.4241035595
21
176.5487925071
0
LINE
5
26D
100
AcDbEntity
8
0
100
AcDbLine
62
7
6
CONTINUOUS
10
146.3746354962
20
203.7805431906
11
146.4966142050
21
202.9444797793
0
LINE
5
26E
100
AcDbEntity
8
0
100
AcDbLine
62
7
6
CONTINUOUS
10
152.1076354962
20
173.8017295515
11
149.5460822683
21
173.8017295515
0
LINE
5
26F
100
AcDbEntity
8
0
100
AcDbLine
62
7
6
CONTINUOUS
10
148.8142100152
20
173.8017295515
11
146.9845290405
21
173.8017295515
0
LINE
5
270
100
AcDbEntity
8
0
100
AcDbLine
62
7
6
CONTINUOUS
10
147.7164012937
20
176.7876672793
11
148.0823377620
21
176.7876672793
0
LINE
5
271
100
AcDbEntity
8
0
100
AcDbLine
62
7
6
CONTINUOUS
10
148.0823377620
20
176.7876672793
11
148.4482738886
21
176.6682295515
0
LINE
5
272
100
AcDbEntity
8
0
100
AcDbLine
62
7
6
CONTINUOUS
10
149.0581674329
20
177.0265420515
11
148.5702525974
21
177.3848552350
0
LINE
5
273
100
AcDbEntity
8
0
100
AcDbLine
62
7
6
CONTINUOUS
10
148.4482738886
20
176.6682295515
11
148.6922313063
21
176.4293547793
0
LINE
5
274
100
AcDbEntity
8
0
100
AcDbLine
62
7
6
CONTINUOUS
10
149.4241035595
20
176.5487925071
11
149.0581674329
21
177.0265420515
0
LINE
5
275
100
AcDbEntity
8
0
100
AcDbLine
62
7
6
CONTINUOUS
10
147.4724438760
20
182.1623547793
11
147.2284864582
21
182.5206672793
0
LINE
5
276
100
AcDbEntity
8
0
100
AcDbLine
62
7
6
CONTINUOUS
10
151.2537844487
20
184.5511052350
11
151.3757631576
21
184.0733543237
0
LINE
5
277
100
AcDbEntity
8
0
100
AcDbLine
62
7
6
CONTINUOUS
10
147.1065077494
20
203.0639181906
11
146.9845290405
21
203.6611047793
0
LINE
5
278
100
AcDbEntity
8
0
100
AcDbLine
62
7
6
CONTINUOUS
10
152.1076354962
20
184.0733543237
11
151.9856567766
21
184.6705422793
0
LINE
5
279
100
AcDbEntity
8
0
100
AcDbLine
62
7
6
CONTINUOUS
10
148.2043164708
20
177.5042922793
11
147.7164012937
21
177.5042922793
0
LINE
5
27A
100
AcDbEntity
8
0
100
AcDbLine
62
7
6
CONTINUOUS
10
149.4241035595
20
178.4597927350
11
150.0339972747
21
178.4597927350
0
LINE
5
27B
100
AcDbEntity
8
DEFAULT_2
100
AcDbLine
62
8
6
HIDDEN
10
132.9086354962
20
178.8658797793
11
164.9086354962
21
178.8658797793
0
LINE
5
27C
100
AcDbEntity
8
0
100
AcDbLine
62
7
6
CONTINUOUS
10
150.0339972747
20
180.1319168237
11
149.4241035595
21
180.1319168237
0
LINE
5
27D
100
AcDbEntity
8
0
100
AcDbLine
62
7
6
CONTINUOUS
10
148.5702525974
20
177.3848552350
11
148.2043164708
21
177.5042922793
0
LINE
5
27E
100
AcDbEntity
8
0
100
AcDbLine
62
7
6
CONTINUOUS
10
147.2284864582
20
181.4457297793
11
147.7164012937
21
181.2068543237
0
LINE
5
27F
100
AcDbEntity
8
0
100
AcDbLine
62
7
6
CONTINUOUS
10
147.8383803443
20
181.9234793237
11
147.4724438760
21
182.1623547793
0
LINE
5
280
100
AcDbEntity
8
0
100
AcDbLine
62
7
6
CONTINUOUS
10
146.7405716228
20
181.9234793237
11
147.2284864582
21
181.4457297793
0
LINE
5
281
100
AcDbEntity
8
0
100
AcDbLine
62
7
6
CONTINUOUS
10
151.0098269456
20
184.9094177350
11
151.2537844487
21
184.5511052350
0
LINE
5
282
100
AcDbEntity
8
0
100
AcDbLine
62
7
6
CONTINUOUS
10
151.9856567766
20
184.6705422793
11
151.7416993269
21
185.1482918237
0
LINE
5
283
100
AcDbEntity
8
0
100
AcDbLine
62
7
6
CONTINUOUS
10
151.3757631576
20
204.8554806906
11
151.4977418664
21
204.2582913681
0
LINE
5
284
100
AcDbEntity
8
0
100
AcDbLine
62
7
6
CONTINUOUS
10
161.1887354962
20
217.2769797793
11
161.1887354962
21
165.6799797793
0
LINE
5
285
100
AcDbEntity
8
0
100
AcDbLine
62
7
6
CONTINUOUS
10
150.6438908190
20
181.9234793237
11
150.1559759835
21
181.8040422793
0
LINE
5
286
100
AcDbEntity
8
0
100
AcDbLine
62
7
6
CONTINUOUS
10
150.1559759835
20
181.0874172793
11
150.7658695278
21
181.2068543237
0
LINE
5
287
100
AcDbEntity
8
0
100
AcDbLine
62
7
6
CONTINUOUS
10
148.3262951797
20
181.0874172793
11
150.1559759835
21
181.0874172793
0
LINE
5
288
100
AcDbEntity
8
0
100
AcDbLine
62
7
6
CONTINUOUS
10
150.1559759835
20
181.8040422793
11
148.3262951797
21
181.8040422793
0
LINE
5
289
100
AcDbEntity
8
0
100
AcDbLine
62
7
6
CONTINUOUS
10
147.7164012937
20
181.2068543237
11
148.3262951797
21
181.0874172793
0
LINE
5
28A
100
AcDbEntity
8
0
100
AcDbLine
62
7
6
CONTINUOUS
10
148.3262951797
20
181.8040422793
11
147.8383803443
21
181.9234793237
0
LINE
5
28B
100
AcDbEntity
8
0
100
AcDbLine
62
7
6
CONTINUOUS
10
151.7416993269
20
185.1482918237
11
151.2537844487
21
185.6260427350
0
LINE
5
28C
100
AcDbEntity
8
0
100
AcDbLine
62
7
6
CONTINUOUS
10
146.4966142050
20
202.9444797793
11
146.7405716228
21
202.4667288681
0
LINE
5
28D
100
AcDbEntity
8
0
100
AcDbLine
62
7
6
CONTINUOUS
10
148.6922313063
20
204.8554806906
11
148.9361887240
21
204.1388556906
0
LINE
5
28E
100
AcDbEntity
8
0
100
AcDbLine
62
7
6
CONTINUOUS
10
152.1076354962
20
204.3777297793
11
151.9856567766
21
204.8554806906
0
LINE
5
28F
100
AcDbEntity
8
0
100
AcDbLine
62
7
6
CONTINUOUS
10
162.9086354962
20
165.6799797793
11
162.9086354962
21
136.4963517824
0
LINE
5
290
100
AcDbEntity
8
0
100
AcDbLine
62
7
6
CONTINUOUS
10
162.9086354962
20
136.4362454115
11
162.9086354962
21
133.5697454115
0
LINE
5
291
100
AcDbEntity
8
0
100
AcDbLine
62
7
6
CONTINUOUS
10
164.9086354962
20
209.2507797793
11
164.9086354962
21
167.9731797793
0
LINE
5
292
100
AcDbEntity
8
0
100
AcDbLine
62
7
6
CONTINUOUS
10
147.8383803443
20
185.7454797793
11
147.2284864582
21
185.6260427350
0
LINE
5
293
100
AcDbEntity
8
0
100
AcDbLine
62
7
6
CONTINUOUS
10
148.9361887240
20
183.9539172793
11
149.6680609772
21
183.9539172793
0
LINE
5
294
100
AcDbEntity
8
0
100
AcDbLine
62
7
6
CONTINUOUS
10
149.6680609772
20
185.0288547793
11
150.6438908190
21
185.0288547793
0
LINE
5
295
100
AcDbEntity
8
0
100
AcDbLine
62
7
6
CONTINUOUS
10
150.7658695278
20
185.7454797793
11
148.9361887240
21
185.7454797793
0
LINE
5
296
100
AcDbEntity
8
0
100
AcDbLine
62
7
6
CONTINUOUS
10
146.3746354962
20
186.7009802350
11
152.1076354962
21
186.7009802350
0
LINE
5
297
100
AcDbEntity
8
0
100
AcDbLine
62
7
6
CONTINUOUS
10
151.2537844487
20
185.6260427350
11
150.7658695278
21
185.7454797793
0
LINE
5
298
100
AcDbEntity
8
0
100
AcDbLine
62
7
6
CONTINUOUS
10
150.6438908190
20
185.0288547793
11
151.0098269456
21
184.9094177350
0
LINE
5
299
100
AcDbEntity
8
0
100
AcDbLine
62
7
6
CONTINUOUS
10
152.1076354962
20
187.4176052350
11
146.3746354962
21
187.4176052350
0
LINE
5
29A
100
AcDbEntity
8
0
100
AcDbLine
62
7
6
CONTINUOUS
10
146.3746354962
20
188.3731043237
11
152.1076354962
21
188.3731043237
0
LINE
5
29B
100
AcDbEntity
8
DEFAULT_1
100
AcDbLine
62
2
6
CENTER
10
167.9086354962
20
188.6119797793
11
129.9086354962
21
188.6119797793
0
LINE
5
29C
100
AcDbEntity
8
0
100
AcDbLine
62
7
6
CONTINUOUS
10
151.3757631576
20
189.0897306906
11
146.3746354962
21
189.0897306906
0
LINE
5
29D
100
AcDbEntity
8
0
100
AcDbLine
62
7
6
CONTINUOUS
10
147.3504651671
20
202.7056056906
11
147.1065077494
21
203.0639181906
0
LINE
5
29E
100
AcDbEntity
8
0
100
AcDbLine
62
7
6
CONTINUOUS
10
151.2537844487
20
205.0943547793
11
151.3757631576
21
204.8554806906
0
LINE
5
29F
100
AcDbEntity
8
0
100
AcDbLine
62
7
6
CONTINUOUS
10
151.9856567766
20
204.8554806906
11
151.7416993269
21
205.3332288681
0
LINE
5
2A0
100
AcDbEntity
8
0
100
AcDbLine
62
7
6
CONTINUOUS
10
152.1076354962
20
192.6728556906
11
151.3757631576
21
192.6728556906
0
LINE
5
2A1
100
AcDbEntity
8
0
100
AcDbLine
62
7
6
CONTINUOUS
10
146.3746354962
20
200.0779797793
11
147.2284864582
21
199.3613547793
0
LINE
5
2A2
100
AcDbEntity
8
0
100
AcDbLine
62
7
6
CONTINUOUS
10
148.2043164708
20
199.3613547793
11
147.3504651671
21
200.0779797793
0
LINE
5
2A3
100
AcDbEntity
8
0
100
AcDbLine
62
7
6
CONTINUOUS
10
146.7405716228
20
202.4667288681
11
147.2284864582
21
201.9889806906
0
LINE
5
2A4
100
AcDbEntity
8
0
100
AcDbLine
62
7
6
CONTINUOUS
10
149.1801461418
20
205.0943547793
11
148.8142100152
21
205.5721056906
0
LINE
5
2A5
100
AcDbEntity
8
0
100
AcDbLine
62
7
6
CONTINUOUS
10
151.7416993269
20
205.3332288681
11
151.4977418664
21
205.6915413681
0
LINE
5
2A6
100
AcDbEntity
8
0
100
AcDbLine
62
7
6
CONTINUOUS
10
147.7164012937
20
202.4667288681
11
147.3504651671
21
202.7056056906
0
LINE
5
2A7
100
AcDbEntity
8
0
100
AcDbLine
62
7
6
CONTINUOUS
10
148.4482738886
20
205.0943547793
11
148.6922313063
21
204.8554806906
0
LINE
5
2A8
100
AcDbEntity
8
0
100
AcDbLine
62
7
6
CONTINUOUS
10
151.0098269456
20
205.3332288681
11
151.2537844487
21
205.0943547793
0
LINE
5
2A9
100
AcDbEntity
8
DEFAULT_2
100
AcDbLine
62
8
6
HIDDEN
10
132.9086354962
20
198.3580797793
11
164.9086354962
21
198.3580797793
0
LINE
5
2AA
100
AcDbEntity
8
0
100
AcDbLine
62
7
6
CONTINUOUS
10
147.2284864582
20
199.3613547793
11
148.2043164708
21
199.3613547793
0
LINE
5
2AB
100
AcDbEntity
8
0
100
AcDbLine
62
7
6
CONTINUOUS
10
147.3504651671
20
200.0779797793
11
152.1076354962
21
200.0779797793
0
LINE
5
2AC
100
AcDbEntity
8
0
100
AcDbLine
62
7
6
CONTINUOUS
10
148.8142100152
20
205.5721056906
11
148.4482738886
21
205.8109797793
0
LINE
5
2AD
100
AcDbEntity
8
0
100
AcDbLine
62
7
6
CONTINUOUS
10
152.1076354962
20
200.7946047793
11
146.3746354962
21
200.7946047793
0
LINE
5
2AE
100
AcDbEntity
8
0
100
AcDbLine
62
7
6
CONTINUOUS
10
147.2284864582
20
201.9889806906
11
147.7164012937
21
201.8695422793
0
LINE
5
2AF
100
AcDbEntity
8
0
100
AcDbLine
62
7
6
CONTINUOUS
10
147.9603590531
20
205.3332288681
11
148.4482738886
21
205.0943547793
0
LINE
5
2B0
100
AcDbEntity
8
0
100
AcDbLine
62
7
6
CONTINUOUS
10
150.7658695278
20
205.4526672793
11
151.0098269456
21
205.3332288681
0
LINE
5
2B1
100
AcDbEntity
8
0
100
AcDbLine
62
7
6
CONTINUOUS
10
151.4977418664
20
205.6915413681
11
151.1318057398
21
205.9304181906
0
LINE
5
2B2
100
AcDbEntity
8
0
100
AcDbLine
62
7
6
CONTINUOUS
10
150.2779546924
20
206.0498538681
11
149.7900396861
21
205.9304181906
0
LINE
5
2B3
100
AcDbEntity
8
0
100
AcDbLine
62
7
6
CONTINUOUS
10
147.7164012937
20
205.9304181906
11
147.2284864582
21
205.8109797793
0
LINE
5
2B4
100
AcDbEntity
8
0
100
AcDbLine
62
7
6
CONTINUOUS
10
148.9361887240
20
203.6611047793
11
149.4241035595
21
203.6611047793
0
LINE
5
2B5
100
AcDbEntity
8
0
100
AcDbLine
62
7
6
CONTINUOUS
10
147.7164012937
20
205.3332288681
11
147.9603590531
21
205.3332288681
0
LINE
5
2B6
100
AcDbEntity
8
0
100
AcDbLine
62
7
6
CONTINUOUS
10
150.2779546924
20
205.4526672793
11
150.7658695278
21
205.4526672793
0
LINE
5
2B7
100
AcDbEntity
8
0
100
AcDbLine
62
7
6
CONTINUOUS
10
147.9603590531
20
205.9304181906
11
147.7164012937
21
205.9304181906
0
LINE
5
2B8
100
AcDbEntity
8
0
100
AcDbLine
62
7
6
CONTINUOUS
10
150.7658695278
20
206.0498538681
11
150.2779546924
21
206.0498538681
0
LINE
5
2B9
100
AcDbEntity
8
0
100
AcDbLine
62
7
6
CONTINUOUS
10
148.4482738886
20
205.8109797793
11
147.9603590531
21
205.9304181906
0
LINE
5
2BA
100
AcDbEntity
8
0
100
AcDbLine
62
7
6
CONTINUOUS
10
151.1318057398
20
205.9304181906
11
150.7658695278
21
206.0498538681
0
LINE
5
2BB
100
AcDbEntity
8
0
100
AcDbLine
62
7
6
CONTINUOUS
10
132.9086354962
20
209.2507797793
11
136.6285354962
21
209.2507797793
0
LINE
5
2BC
100
AcDbEntity
8
0
100
AcDbLine
62
7
6
CONTINUOUS
10
161.1887354962
20
209.2507797793
11
164.9086354962
21
209.2507797793
0
LINE
5
2BD
100
AcDbEntity
8
0
100
AcDbLine
62
7
6
CONTINUOUS
10
136.6285354962
20
217.2769797793
11
161.1887354962
21
217.2769797793
0
LINE
5
2BE
100
AcDbEntity
8
0
100
AcDbLine
62
7
6
CONTINUOUS
10
241.3726824338
20
122.1037454115
11
250.7001245110
21
122.1037454115
0
LINE
5
2BF
100
AcDbEntity
8
0
100
AcDbLine
62
7
6
CONTINUOUS
10
263.3127245110
20
122.1037454115
11
272.6401665882
21
122.1037454115
0
LINE
5
2C0
100
AcDbEntity
8
0
100
AcDbLine
62
7
6
CONTINUOUS
10
230.6346245110
20
125.7553677793
11
240.0046018605
21
122.3449749284
0
LINE
5
2C1
100
AcDbEntity
8
0
100
AcDbLine
62
7
6
CONTINUOUS
10
250.7001245110
20
130.1299454115
11
263.3127245110
21
130.1299454115
0
LINE
5
2C2
100
AcDbEntity
8
DEFAULT_1
100
AcDbLine
62
2
6
CENTER
10
276.4986245110
20
136.4362454115
11
270.6321245110
21
136.4362454115
0
LINE
5
2C3
100
AcDbEntity
8
DEFAULT_1
100
AcDbLine
62
2
6
CENTER
10
286.3782245110
20
136.4362454115
11
282.3651245110
21
136.4362454115
0
LINE
5
2C4
100
AcDbEntity
8
DEFAULT_1
100
AcDbLine
62
2
6
CENTER
10
270.6321245110
20
136.4362454115
11
227.6346245110
21
136.4362454115
0
LINE
5
2C5
100
AcDbEntity
8
DEFAULT_1
100
AcDbLine
62
2
6
CENTER
10
276.4986245110
20
136.4362454115
11
282.3651245110
21
136.4362454115
0
LINE
5
2C6
100
AcDbEntity
8
0
100
AcDbLine
62
7
6
CONTINUOUS
10
230.6346245110
20
125.7553677793
11
230.6346245110
21
217.2769797793
0
LINE
5
2C7
100
AcDbEntity
8
0
100
AcDbLine
62
7
6
CONTINUOUS
10
250.7001245110
20
142.7425454115
11
263.3127245110
21
142.7425454115
0
LINE
5
2C8
100
AcDbEntity
8
0
100
AcDbLine
62
7
6
CONTINUOUS
10
279.1469251909
20
135.3392833526
11
278.3524349870
21
135.6683719703
0
LINE
5
2C9
100
AcDbEntity
8
0
100
AcDbLine
62
7
6
CONTINUOUS
10
250.7001245110
20
150.1954454115
11
250.7001245110
21
122.1037454115
0
LINE
5
2CA
100
AcDbEntity
8
0
100
AcDbLine
62
7
6
CONTINUOUS
10
230.6346245110
20
165.6799797793
11
283.9515245110
21
165.6799797793
0
LINE
5
2CB
100
AcDbEntity
8
0
100
AcDbLine
62
7
6
CONTINUOUS
10
283.3782245110
20
166.3966047793
11
283.9515245110
21
166.3966047793
0
LINE
5
2CC
100
AcDbEntity
8
DEFAULT_1
100
AcDbLine
62
2
6
CENTER
10
257.0064245110
20
188.6119797793
11
257.0064245110
21
116.8181546424
0
LINE
5
2CD
100
AcDbEntity
8
DEFAULT_1
100
AcDbLine
62
2
6
CENTER
10
257.0064245110
20
188.6119797793
11
257.0064245110
21
220.6776234510
0
LINE
5
2CE
100
AcDbEntity
8
0
100
AcDbLine
62
7
6
CONTINUOUS
10
283.3782245110
20
168.0687297224
11
283.9515245110
21
168.0687297224
0
LINE
5
2CF
100
AcDbEntity
8
0
100
AcDbLine
62
7
6
CONTINUOUS
10
283.3782245110
20
169.7408546654
11
283.9515245110
21
169.7408546654
0
LINE
5
2D0
100
AcDbEntity
8
0
100
AcDbLine
62
7
6
CONTINUOUS
10
283.3782245110
20
170.4574796654
11
283.9515245110
21
170.4574796654
0
LINE
5
2D1
100
AcDbEntity
8
0
100
AcDbLine
62
7
6
CONTINUOUS
10
283.3782245110
20
171.4129797793
11
283.9515245110
21
171.4129797793
0
LINE
5
2D2
100
AcDbEntity
8
0
100
AcDbLine
62
7
6
CONTINUOUS
10
283.3782245110
20
172.1296047793
11
283.9515245110
21
172.1296047793
0
LINE
5
2D3
100
AcDbEntity
8
0
100
AcDbLine
62
7
6
CONTINUOUS
10
283.3782245110
20
173.0851045515
11
283.9515245110
21
173.0851045515
0
LINE
5
2D4
100
AcDbEntity
8
0
100
AcDbLine
62
7
6
CONTINUOUS
10
263.3127245110
20
122.1037454115
11
263.3127245110
21
150.1954454115
0
LINE
5
2D5
100
AcDbEntity
8
0
100
AcDbLine
62
7
6
CONTINUOUS
10
283.3782245110
20
175.9516045515
11
283.9515245110
21
175.9516045515
0
LINE
5
2D6
100
AcDbEntity
8
0
100
AcDbLine
62
7
6
CONTINUOUS
10
283.3782245110
20
176.5487925071
11
283.9515245110
21
176.5487925071
0
LINE
5
2D7
100
AcDbEntity
8
0
100
AcDbLine
62
7
6
CONTINUOUS
10
283.3782245110
20
177.0265420515
11
283.9515245110
21
177.0265420515
0
LINE
5
2D8
100
AcDbEntity
8
0
100
AcDbLine
62
7
6
CONTINUOUS
10
283.3782245110
20
177.3848552350
11
283.9515245110
21
177.3848552350
0
LINE
5
2D9
100
AcDbEntity
8
0
100
AcDbLine
62
7
6
CONTINUOUS
10
283.3782245110
20
177.5042922793
11
283.9515245110
21
177.5042922793
0
LINE
5
2DA
100
AcDbEntity
8
0
100
AcDbLine
62
7
6
CONTINUOUS
10
283.3782245110
20
178.4597927350
11
283.9515245110
21
178.4597927350
0
LINE
5
2DB
100
AcDbEntity
8
0
100
AcDbLine
62
7
6
CONTINUOUS
10
283.3782245110
20
180.1319168237
11
283.9515245110
21
180.1319168237
0
LINE
5
2DC
100
AcDbEntity
8
0
100
AcDbLine
62
7
6
CONTINUOUS
10
283.3782245110
20
181.0874172793
11
283.9515245110
21
181.0874172793
0
LINE
5
2DD
100
AcDbEntity
8
0
100
AcDbLine
62
7
6
CONTINUOUS
10
283.3782245110
20
181.2068543237
11
283.9515245110
21
181.2068543237
0
LINE
5
2DE
100
AcDbEntity
8
0
100
AcDbLine
62
7
6
CONTINUOUS
10
283.3782245110
20
181.4457297793
11
283.9515245110
21
181.4457297793
0
LINE
5
2DF
100
AcDbEntity
8
0
100
AcDbLine
62
7
6
CONTINUOUS
10
283.3782245110
20
181.9234793237
11
283.9515245110
21
181.9234793237
0
LINE
5
2E0
100
AcDbEntity
8
0
100
AcDbLine
62
7
6
CONTINUOUS
10
283.3782245110
20
182.4012302350
11
283.9515245110
21
182.4012302350
0
LINE
5
2E1
100
AcDbEntity
8
0
100
AcDbLine
62
7
6
CONTINUOUS
10
283.3782245110
20
182.9984168237
11
283.9515245110
21
182.9984168237
0
LINE
5
2E2
100
AcDbEntity
8
0
100
AcDbLine
62
7
6
CONTINUOUS
10
283.3782245110
20
184.0733543237
11
283.9515245110
21
184.0733543237
0
LINE
5
2E3
100
AcDbEntity
8
0
100
AcDbLine
62
7
6
CONTINUOUS
10
283.3782245110
20
184.6705422793
11
283.9515245110
21
184.6705422793
0
LINE
5
2E4
100
AcDbEntity
8
0
100
AcDbLine
62
7
6
CONTINUOUS
10
283.3782245110
20
185.1482918237
11
283.9515245110
21
185.1482918237
0
LINE
5
2E5
100
AcDbEntity
8
0
100
AcDbLine
62
7
6
CONTINUOUS
10
283.3782245110
20
185.6260427350
11
283.9515245110
21
185.6260427350
0
LINE
5
2E6
100
AcDbEntity
8
0
100
AcDbLine
62
7
6
CONTINUOUS
10
283.3782245110
20
185.7454797793
11
283.9515245110
21
185.7454797793
0
LINE
5
2E7
100
AcDbEntity
8
0
100
AcDbLine
62
7
6
CONTINUOUS
10
283.3782245110
20
186.7009802350
11
283.9515245110
21
186.7009802350
0
LINE
5
2E8
100
AcDbEntity
8
0
100
AcDbLine
62
7
6
CONTINUOUS
10
283.3782245110
20
187.4176052350
11
283.9515245110
21
187.4176052350
0
LINE
5
2E9
100
AcDbEntity
8
DEFAULT_1
100
AcDbLine
62
2
6
CENTER
10
276.4986245110
20
136.4362454115
11
276.4986245110
21
130.5697454115
0
LINE
5
2EA
100
AcDbEntity
8
DEFAULT_1
100
AcDbLine
62
2
6
CENTER
10
276.4986245110
20
136.4362454115
11
276.4986245110
21
142.3027454115
0
LINE
5
2EB
100
AcDbEntity
8
0
100
AcDbLine
62
7
6
CONTINUOUS
10
283.3782245110
20
188.3731043237
11
283.9515245110
21
188.3731043237
0
LINE
5
2EC
100
AcDbEntity
8
DEFAULT_1
100
AcDbLine
62
2
6
CENTER
10
257.0064245110
20
188.6119797793
11
232.9917908050
21
188.6119797793
0
LINE
5
2ED
100
AcDbEntity
8
DEFAULT_1
100
AcDbLine
62
2
6
CENTER
10
257.0064245110
20
188.6119797793
11
280.9574233463
21
188.6119797793
0
LINE
5
2EE
100
AcDbEntity
8
0
100
AcDbLine
62
7
6
CONTINUOUS
10
283.3782245110
20
189.0897306906
11
283.9515245110
21
189.0897306906
0
LINE
5
2EF
100
AcDbEntity
8
0
100
AcDbLine
62
7
6
CONTINUOUS
10
283.3782245110
20
192.6728556906
11
283.9515245110
21
192.6728556906
0
LINE
5
2F0
100
AcDbEntity
8
0
100
AcDbLine
62
7
6
CONTINUOUS
10
283.3782245110
20
217.2769797793
11
283.3782245110
21
125.7553677793
0
LINE
5
2F1
100
AcDbEntity
8
0
100
AcDbLine
62
7
6
CONTINUOUS
10
283.9515245110
20
206.0498538681
11
283.9515245110
21
201.7501038681
0
LINE
5
2F2
100
AcDbEntity
8
0
100
AcDbLine
62
7
6
CONTINUOUS
10
283.9515245110
20
200.7946047793
11
283.9515245110
21
199.3613547793
0
LINE
5
2F3
100
AcDbEntity
8
0
100
AcDbLine
62
7
6
CONTINUOUS
10
283.9515245110
20
192.6728556906
11
283.9515245110
21
188.3731043237
0
LINE
5
2F4
100
AcDbEntity
8
0
100
AcDbLine
62
7
6
CONTINUOUS
10
283.9515245110
20
187.4176052350
11
283.9515245110
21
186.7009802350
0
LINE
5
2F5
100
AcDbEntity
8
0
100
AcDbLine
62
7
6
CONTINUOUS
10
283.9515245110
20
185.7454797793
11
283.9515245110
21
181.0874172793
0
LINE
5
2F6
100
AcDbEntity
8
0
100
AcDbLine
62
7
6
CONTINUOUS
10
283.9515245110
20
180.1319168237
11
283.9515245110
21
178.4597927350
0
LINE
5
2F7
100
AcDbEntity
8
0
100
AcDbLine
62
7
6
CONTINUOUS
10
283.9515245110
20
177.5042922793
11
283.9515245110
21
173.0851045515
0
LINE
5
2F8
100
AcDbEntity
8
0
100
AcDbLine
62
7
6
CONTINUOUS
10
283.9515245110
20
172.1296047793
11
283.9515245110
21
171.4129797793
0
LINE
5
2F9
100
AcDbEntity
8
0
100
AcDbLine
62
7
6
CONTINUOUS
10
283.9515245110
20
170.4574796654
11
283.9515245110
21
165.6799797793
0
LINE
5
2FA
100
AcDbEntity
8
0
100
AcDbLine
62
7
6
CONTINUOUS
10
283.3782245110
20
199.3613547793
11
283.9515245110
21
199.3613547793
0
LINE
5
2FB
100
AcDbEntity
8
0
100
AcDbLine
62
7
6
CONTINUOUS
10
283.3782245110
20
200.0779797793
11
283.9515245110
21
200.0779797793
0
LINE
5
2FC
100
AcDbEntity
8
0
100
AcDbLine
62
7
6
CONTINUOUS
10
283.3782245110
20
200.7946047793
11
283.9515245110
21
200.7946047793
0
LINE
5
2FD
100
AcDbEntity
8
0
100
AcDbLine
62
7
6
CONTINUOUS
10
283.3782245110
20
201.7501038681
11
283.9515245110
21
201.7501038681
0
LINE
5
2FE
100
AcDbEntity
8
0
100
AcDbLine
62
7
6
CONTINUOUS
10
283.3782245110
20
201.8695422793
11
283.9515245110
21
201.8695422793
0
LINE
5
2FF
100
AcDbEntity
8
0
100
AcDbLine
62
7
6
CONTINUOUS
10
283.3782245110
20
201.9889806906
11
283.9515245110
21
201.9889806906
0
LINE
5
300
100
AcDbEntity
8
0
100
AcDbLine
62
7
6
CONTINUOUS
10
283.3782245110
20
202.4667288681
11
283.9515245110
21
202.4667288681
0
LINE
5
301
100
AcDbEntity
8
0
100
AcDbLine
62
7
6
CONTINUOUS
10
283.3782245110
20
202.9444797793
11
283.9515245110
21
202.9444797793
0
LINE
5
302
100
AcDbEntity
8
0
100
AcDbLine
62
7
6
CONTINUOUS
10
283.3782245110
20
203.7805431906
11
283.9515245110
21
203.7805431906
0
LINE
5
303
100
AcDbEntity
8
0
100
AcDbLine
62
7
6
CONTINUOUS
10
283.3782245110
20
204.0194172793
11
283.9515245110
21
204.0194172793
0
LINE
5
304
100
AcDbEntity
8
0
100
AcDbLine
62
7
6
CONTINUOUS
10
283.3782245110
20
204.8554806906
11
283.9515245110
21
204.8554806906
0
LINE
5
305
100
AcDbEntity
8
0
100
AcDbLine
62
7
6
CONTINUOUS
10
283.3782245110
20
205.3332288681
11
283.9515245110
21
205.3332288681
0
LINE
5
306
100
AcDbEntity
8
0
100
AcDbLine
62
7
6
CONTINUOUS
10
283.3782245110
20
205.8109797793
11
283.9515245110
21
205.8109797793
0
LINE
5
307
100
AcDbEntity
8
0
100
AcDbLine
62
7
6
CONTINUOUS
10
283.3782245110
20
205.9304181906
11
283.9515245110
21
205.9304181906
0
LINE
5
308
100
AcDbEntity
8
0
100
AcDbLine
62
7
6
CONTINUOUS
10
283.3782245110
20
206.0498538681
11
283.9515245110
21
206.0498538681
0
LINE
5
309
100
AcDbEntity
8
0
100
AcDbLine
62
7
6
CONTINUOUS
10
278.3524349870
20
137.2041188527
11
279.1469251909
21
137.5332074704
0
LINE
5
30A
100
AcDbEntity
8
0
100
AcDbLine
62
7
6
CONTINUOUS
10
230.6346245110
20
217.2769797793
11
283.3782245110
21
217.2769797793
0
LINE
5
30B
100
AcDbEntity
8
0
100
AcDbLine
62
7
6
CONTINUOUS
10
283.3782245110
20
125.7553677793
11
274.0082471615
21
122.3449749284
0
CIRCLE
5
30C
100
AcDbEntity
8
0
100
AcDbCircle
62
7
6
CONTINUOUS
10
148.5761354962
20
136.4362454115
40
6.3063000000
0
ARC
5
30D
100
AcDbEntity
8
0
100
AcDbCircle
62
7
6
CONTINUOUS
10
146.3746354962
20
133.5697454115
40
11.4660000000
100
AcDbArc
50
180.0000000000
51
270.0000000000
0
ARC
5
30E
100
AcDbEntity
8
0
100
AcDbCircle
62
7
6
CONTINUOUS
10
151.4426354962
20
133.5697454115
40
11.4660000000
100
AcDbArc
50
270.0000000000
51
360.0000000000
0
ARC
5
30F
100
AcDbEntity
8
0
100
AcDbCircle
62
7
6
CONTINUOUS
10
257.0064245110
20
150.1954454115
40
6.3063000000
100
AcDbArc
50
0.0000000000
51
180.0000000000
0
CIRCLE
5
310
100
AcDbEntity
8
0
100
AcDbCircle
62
7
6
CONTINUOUS
10
257.0064245110
20
188.6119797793
40
9.7461000000
0
CIRCLE
5
311
100
AcDbEntity
8
0
100
AcDbCircle
62
7
6
CONTINUOUS
10
257.0064245110
20
188.6119797793
40
20.6388000000
0
CIRCLE
5
312
100
AcDbEntity
8
0
100
AcDbCircle
62
7
6
CONTINUOUS
10
276.4986245110
20
136.4362454115
40
2.8665000000
0
ARC
5
313
100
AcDbEntity
8
0
100
AcDbCircle
62
7
6
CONTINUOUS
10
241.3726824338
20
126.1037454115
40
4.0000000000
100
AcDbArc
50
250.0000000000
51
270.0000000000
0
ARC
5
314
100
AcDbEntity
8
0
100
AcDbCircle
62
7
6
CONTINUOUS
10
272.6401665882
20
126.1037454115
40
4.0000000000
100
AcDbArc
50
270.0000000000
51
290.0000000000
0
ARC
5
315
100
AcDbEntity
8
0
100
AcDbCircle
62
7
6
CONTINUOUS
10
276.4986245110
20
136.4362454115
40
2.0065500000
100
AcDbArc
50
22.5000000000
51
337.5000000000
0
SPLINE
5
316
100
AcDbEntity
8
0
100
AcDbSpline
62
7
6
CONTINUOUS
70
0
71
3
72
9
73
5
74
3
42
0.0000001000
43
0.0000001000
44
0.0000000001
40
0.0000000000
40
0.0000000000
40
0.0000000000
40
0.0000000000
40
0.5001517608
40
1.0000000000
40
1.0000000000
40
1.0000000000
40
1.0000000000
10
134.9086354962
20
136.4963517824
30
0.0000000000
10
134.9086354962
20
136.4863309793
30
0.0000000000
10
134.9086590444
20
136.4662954476
30
0.0000000000
10
134.9087291405
20
136.4462600253
30
0.0000000000
10
134.9087756749
20
136.4362454115
30
0.0000000000
11
134.9086354962
21
136.4963517824
31
0.0000000000
11
134.9086706956
21
136.4662893937
31
0.0000000000
11
134.9087756749
21
136.4362454115
31
0.0000000000
0
SPLINE
5
317
100
AcDbEntity
8
0
100
AcDbSpline
62
7
6
CONTINUOUS
70
0
71
3
72
14
73
10
74
8
42
0.0000001000
43
0.0000001000
44
0.0000000001
40
0.0000000000
40
0.0000000000
40
0.0000000000
40
0.0000000000
40
0.0138460953
40
0.0709629951
40
0.1772987711
40
0.3382864695
40
0.5391814192
40
0.7655019738
40
1.0000000000
40
1.0000000000
40
1.0000000000
40
1.0000000000
10
162.7745564722
20
133.5741913970
30
0.0000000000
10
162.7664935753
20
133.5800322734
30
0.0000000000
10
162.7209907528
20
133.6548787658
30
0.0000000000
10
162.7577542517
20
133.8163278285
30
0.0000000000
10
162.7520412472
20
134.1321785130
30
0.0000000000
10
162.8041150007
20
134.5761145559
30
0.0000000000
10
162.8497873223
20
135.1382438848
30
0.0000000000
10
162.8943977251
20
135.7702613043
30
0.0000000000
10
162.9074517569
20
136.2116618813
30
0.0000000000
10
162.9084953175
20
136.4362454115
30
0.0000000000
11
162.7745564722
21
133.5741913970
31
0.0000000000
11
162.7510293278
21
133.6088505784
31
0.0000000000
11
162.7430585476
21
133.7727647145
31
0.0000000000
11
162.7584526903
21
134.0778997482
31
0.0000000000
11
162.7972724806
21
134.5388164520
31
0.0000000000
11
162.8468466085
21
135.1138934268
31
0.0000000000
11
162.8895016487
21
135.7627553225
31
0.0000000000
11
162.9084953175
21
136.4362454115
31
0.0000000000
0
SPLINE
5
318
100
AcDbEntity
8
0
100
AcDbSpline
62
7
6
CONTINUOUS
70
0
71
3
72
14
73
10
74
8
42
0.0000001000
43
0.0000001000
44
0.0000000001
40
0.0000000000
40
0.0000000000
40
0.0000000000
40
0.0000000000
40
0.2344980262
40
0.4608185808
40
0.6617135305
40
0.8227012289
40
0.9290370049
40
0.9861539047
40
1.0000000000
40
1.0000000000
40
1.0000000000
40
1.0000000000
10
134.9087756749
20
136.4362454115
30
0.0000000000
10
134.9098192355
20
136.2116618813
30
0.0000000000
10
134.9228732673
20
135.7702613043
30
0.0000000000
10
134.9674836700
20
135.1382438848
30
0.0000000000
10
135.0131559917
20
134.5761145559
30
0.0000000000
10
135.0652297452
20
134.1321785130
30
0.0000000000
10
135.0595167407
20
133.8163278285
30
0.0000000000
10
135.0962802396
20
133.6548787658
30
0.0000000000
10
135.0507774171
20
133.5800322734
30
0.0000000000
10
135.0427145202
20
133.5741913970
30
0.0000000000
11
134.9087756749
21
136.4362454115
31
0.0000000000
11
134.9277693437
21
135.7627553225
31
0.0000000000
11
134.9704243839
21
135.1138934268
31
0.0000000000
11
135.0199985118
21
134.5388164520
31
0.0000000000
11
135.0588183021
21
134.0778997482
31
0.0000000000
11
135.0742124448
21
133.7727647145
31
0.0000000000
11
135.0662416646
21
133.6088505784
31
0.0000000000
11
135.0427145202
21
133.5741913970
31
0.0000000000
0
SPLINE
5
319
100
AcDbEntity
8
0
100
AcDbSpline
62
7
6
CONTINUOUS
70
0
71
3
72
9
73
5
74
3
42
0.0000001000
43
0.0000001000
44
0.0000000001
40
0.0000000000
40
0.0000000000
40
0.0000000000
40
0.0000000000
40
0.4998482392
40
1.0000000000
40
1.0000000000
40
1.0000000000
40
1.0000000000
10
162.9084953175
20
136.4362454115
30
0.0000000000
10
162.9085418519
20
136.4462600253
30
0.0000000000
10
162.9086119480
20
136.4662954476
30
0.0000000000
10
162.9086354962
20
136.4863309793
30
0.0000000000
10
162.9086354962
20
136.4963517824
30
0.0000000000
11
162.9084953175
21
136.4362454115
31
0.0000000000
11
162.9086002968
21
136.4662893937
31
0.0000000000
11
162.9086354962
21
136.4963517824
31
0.0000000000
0
SPLINE
5
31A
100
AcDbEntity
8
0
100
AcDbSpline
62
7
6
CONTINUOUS
70
0
71
3
72
10
73
6
74
4
42
0.0000001000
43
0.0000001000
44
0.0000000001
40
0.0000000000
40
0.0000000000
40
0.0000000000
40
0.0000000000
40
0.4637141693
40
0.8433917341
40
1.0000000000
40
1.0000000000
40
1.0000000000
40
1.0000000000
10
162.9086354962
20
134.6401439910
30
0.0000000000
10
162.9086354962
20
134.5004433174
30
0.0000000000
10
162.9024954154
20
134.2548698510
30
0.0000000000
10
162.8726370316
20
133.9277221256
30
0.0000000000
10
162.8483312189
20
133.8022588587
30
0.0000000000
10
162.8384020522
20
133.7552536783
30
0.0000000000
11
162.9086354962
21
134.6401439910
31
0.0000000000
11
162.8961270912
21
134.2212286732
31
0.0000000000
11
162.8618197484
21
133.8797977102
31
0.0000000000
11
162.8384020522
21
133.7552536783
31
0.0000000000
0
SPLINE
5
31B
100
AcDbEntity
8
0
100
AcDbSpline
62
7
6
CONTINUOUS
70
0
71
3
72
10
73
6
74
4
42
0.0000001000
43
0.0000001000
44
0.0000000001
40
0.0000000000
40
0.0000000000
40
0.0000000000
40
0.0000000000
40
0.4395210166
40
0.9695656111
40
1.0000000000
40
1.0000000000
40
1.0000000000
40
1.0000000000
10
162.8384020522
20
133.7552536783
30
0.0000000000
10
162.8327108630
20
133.7283112986
30
0.0000000000
10
162.8181044007
20
133.6613642549
30
0.0000000000
10
162.7963633872
20
133.5613951787
30
0.0000000000
10
162.7756950386
20
133.5733666034
30
0.0000000000
10
162.7745564722
20
133.5741913970
30
0.0000000000
11
162.8384020522
21
133.7552536783
31
0.0000000000
11
162.8181379794
21
133.6614540756
31
0.0000000000
11
162.7779146367
21
133.5722669987
31
0.0000000000
11
162.7745564722
21
133.5741913970
31
0.0000000000
0
SPLINE
5
31C
100
AcDbEntity
8
0
100
AcDbSpline
62
7
6
CONTINUOUS
70
0
71
3
72
10
73
6
74
4
42
0.0000001000
43
0.0000001000
44
0.0000000001
40
0.0000000000
40
0.0000000000
40
0.0000000000
40
0.0000000000
40
0.0304343889
40
0.5604789834
40
1.0000000000
40
1.0000000000
40
1.0000000000
40
1.0000000000
10
135.0427145202
20
133.5741913970
30
0.0000000000
10
135.0415759538
20
133.5733666034
30
0.0000000000
10
135.0209076052
20
133.5613951787
30
0.0000000000
10
134.9991665917
20
133.6613642549
30
0.0000000000
10
134.9845601294
20
133.7283112986
30
0.0000000000
10
134.9788689401
20
133.7552536783
30
0.0000000000
11
135.0427145202
21
133.5741913970
31
0.0000000000
11
135.0393563556
21
133.5722669987
31
0.0000000000
11
134.9991330130
21
133.6614540756
31
0.0000000000
11
134.9788689401
21
133.7552536783
31
0.0000000000
0
SPLINE
5
31D
100
AcDbEntity
8
0
100
AcDbSpline
62
7
6
CONTINUOUS
70
0
71
3
72
10
73
6
74
4
42
0.0000001000
43
0.0000001000
44
0.0000000001
40
0.0000000000
40
0.0000000000
40
0.0000000000
40
0.0000000000
40
0.1566082659
40
0.5362858307
40
1.0000000000
40
1.0000000000
40
1.0000000000
40
1.0000000000
10
134.9788689401
20
133.7552536783
30
0.0000000000
10
134.9689397734
20
133.8022588587
30
0.0000000000
10
134.9446339607
20
133.9277221256
30
0.0000000000
10
134.9147755770
20
134.2548698510
30
0.0000000000
10
134.9086354962
20
134.5004433174
30
0.0000000000
10
134.9086354962
20
134.6401439910
30
0.0000000000
11
134.9788689401
21
133.7552536783
31
0.0000000000
11
134.9554512440
21
133.8797977102
31
0.0000000000
11
134.9211439012
21
134.2212286732
31
0.0000000000
11
134.9086354962
21
134.6401439910
31
0.0000000000
0
ENDSEC
0
SECTION
2
OBJECTS
0
DICTIONARY
5
31E
100
AcDbDictionary
3
ACAD_GROUP
350
31F
3
ACAD_MLINESTYLE
350
320
0
DICTIONARY
5
31F
102
{ACAD_REACTORS
330
31E
102
}
100
AcDbDictionary
0
DICTIONARY
5
320
102
{ACAD_REACTORS
330
31E
102
}
100
AcDbDictionary
3
STANDARD
350
321
0
MLINESTYLE
5
321
102
{ACAD_REACTORS
330
320
102
}
100
AcDbMlineStyle
2
STANDARD
70
0
3

62
256
51
90.0
52
90.0
71
2
49
0.5
62
256
6
BYLAYER
49
-0.5
62
256
6
BYLAYER
0
ENDSEC
0
EOF
