999
DXF file: C:\Aktuell-Internet\CAD-Daten-NEU\2vgil-10.dxf
999
Pro/ENGINEER 2001400 by Parametric Technology Corporation
0
SECTION
2
HEADER
9
$ACADVER
1
AC1014
9
$EXTMAX
10
420.0000000000
20
297.0000000000
9
$EXTMIN
10
0.0000000000
20
0.0000000000
9
$LIMMIN
10
0.0000000000
20
0.0000000000
9
$LIMMAX
10
420.0000000000
20
297.0000000000
9
$VIEWCTR
10
210.0000000000
20
148.5000000000
9
$VIEWSIZE
40
297.0000000000
9
$CLAYER
8
0
9
$LTSCALE
40
23.1000000000
9
$CELTYPE
6
BYLAYER
9
$DIMSCALE
40
1
9
$DIMASZ
40
3.5000000000
9
$DIMEXO
40
2.6250000000
9
$DIMDLI
40
15.9600000000
9
$DIMEXE
40
7.5600000000
9
$DIMCEN
40
3.7800000000
9
$DIMLFAC
40
1.0000000000
9
$DIMTXT
40
3.5000000000
9
$DIMTOL
70
1
9
$DIMTFAC
40
0.6000000000
9
$DIMTP
40
0.0050000000
9
$DIMTM
40
0.0050000000
9
$HANDSEED
5
317
0
ENDSEC
0
SECTION
2
CLASSES
0
ENDSEC
0
SECTION
2
TABLES
0
TABLE
2
VPORT
5
8
100
AcDbSymbolTable
70
2
0
VPORT
5
1F4
100
AcDbSymbolTableRecord
100
AcDbViewportTableRecord
2
*ACTIVE
70
0
10
0.0
20
0.0
11
1.0
21
1.0
12
210.0000000000
22
148.5000000000
13
0.0
23
0.0
14
1.0
24
1.0
15
0.0
25
0.0
16
0.0
26
0.0
36
1.0
17
0.0
27
0.0
37
0.0
40
297.0000000000
41
1.4141414141
42
50.0
43
0.0
44
0.0
50
0.0
51
0.0
71
0
72
100
73
1
74
1
75
0
76
0
77
0
78
0
0
ENDTAB
0
TABLE
2
LTYPE
5
5
100
AcDbSymbolTable
70
6
0
LTYPE
5
14
100
AcDbSymbolTableRecord
100
AcDbLinetypeTableRecord
2
BYBLOCK
70
0
3

72
65
73
0
40
0.0
0
LTYPE
5
15
100
AcDbSymbolTableRecord
100
AcDbLinetypeTableRecord
2
BYLAYER
70
0
3

72
65
73
0
40
0.0
0
LTYPE
5
16
100
AcDbSymbolTableRecord
100
AcDbLinetypeTableRecord
2
CONTINUOUS
70
64
3
Solid line
72
65
73
0
40
0
0
LTYPE
5
1F5
100
AcDbSymbolTableRecord
100
AcDbLinetypeTableRecord
2
CENTER
70
64
3
____ _ ____ _ ____ _ ____ _ ____ _ ____ _ ____
72
65
73
4
40
0.6
49
0.375
74
0
49
-0.075
74
0
49
0.075
74
0
49
-0.075
74
0
0
LTYPE
5
1F6
100
AcDbSymbolTableRecord
100
AcDbLinetypeTableRecord
2
HIDDEN
70
64
3
- - - - - - - - - - - - - - - - - - - -
72
65
73
2
40
0.2
49
0.1
74
0
49
-0.1
74
0
0
LTYPE
5
1F7
100
AcDbSymbolTableRecord
100
AcDbLinetypeTableRecord
2
PHANTOM
70
64
3
_____ _ _ _____ _ _ _____ _ _ _____
72
65
73
6
40
0.8
49
0.45
74
0
49
-0.05
74
0
49
0.1
74
0
49
-0.05
74
0
49
0.1
74
0
49
-0.05
74
0
0
LTYPE
5
1F8
100
AcDbSymbolTableRecord
100
AcDbLinetypeTableRecord
2
DOT
70
64
3
. . . . . . . . . . . . . . . . . . . .
72
65
73
2
40
0.2
49
0.1
74
0
49
-0.1
74
0
0
LTYPE
5
1F9
100
AcDbSymbolTableRecord
100
AcDbLinetypeTableRecord
2
DASHED
70
64
3
- - - - - - - - - - - - - - - - - - - -
72
65
73
2
40
0.2
49
0.1
74
0
49
-0.1
74
0
0
ENDTAB
0
TABLE
2
LAYER
5
2
100
AcDbSymbolTable
70
36
0
LAYER
5
10
100
AcDbSymbolTableRecord
100
AcDbLayerTableRecord
2
0
70
0
62
7
6
CONTINUOUS
0
LAYER
5
1FA
100
AcDbSymbolTableRecord
100
AcDbLayerTableRecord
2
DEFAULT_1
70
0
62
7
6
CENTER
0
LAYER
5
1FB
100
AcDbSymbolTableRecord
100
AcDbLayerTableRecord
2
DEFAULT_2
70
0
62
8
6
HIDDEN
0
LAYER
5
1FC
100
AcDbSymbolTableRecord
100
AcDbLayerTableRecord
2
DEFAULT_3
70
0
62
7
6
PHANTOM
0
LAYER
5
1FD
100
AcDbSymbolTableRecord
100
AcDbLayerTableRecord
2
ZEICHNUNGSBEMASSUNGEN
70
0
62
7
6
CONTINUOUS
0
ENDTAB
0
TABLE
2
STYLE
5
3
100
AcDbSymbolTable
70
1
0
STYLE
5
11
100
AcDbSymbolTableRecord
100
AcDbTextStyleTableRecord
2
STANDARD
70
0
40
0.0
41
1.0
50
0.0
71
0
42
0.0
3
txt
4

0
STYLE
5
1FE
100
AcDbSymbolTableRecord
100
AcDbTextStyleTableRecord
2
TEXTSTYLE_0
70
0
40
0.0
41
0.80
50
0.0
71
0
42
0.2
3
txt
4

0
ENDTAB
0
TABLE
2
VIEW
5
6
100
AcDbSymbolTable
70
0
0
ENDTAB
0
TABLE
2
UCS
5
7
100
AcDbSymbolTable
70
0
0
ENDTAB
0
TABLE
2
APPID
5
9
100
AcDbSymbolTable
70
1
0
APPID
5
1FF
100
AcDbSymbolTableRecord
100
AcDbRegAppTableRecord
2
ACAD
70
0
0
ENDTAB
0
TABLE
2
DIMSTYLE
5
A
100
AcDbSymbolTable
70
1
0
DIMSTYLE
105
200
100
AcDbSymbolTableRecord
100
AcDbDimStyleTableRecord
2
STANDARD
70
0
3

4

5

6

7

40
1.0
41
0.18
42
0.0625
43
0.38
44
0.18
45
0.0
46
0.0
47
0.0050000000
48
0.0050000000
140
3.5000000000
141
0.09
142
0.0
143
25.4
144
1.0000000000
145
0.0
146
0.6000000000
147
0.09
71
1
72
0
73
1
74
1
75
0
76
0
77
0
78
0
170
0
171
2
172
0
173
0
174
0
175
0
176
0
177
0
178
0
270
2
271
3
272
4
273
2
274
2
340
11
275
0
280
0
281
0
282
0
283
1
284
0
285
0
286
0
287
3
288
0
0
ENDTAB
0
TABLE
2
BLOCK_RECORD
5
1
100
AcDbSymbolTable
70
0
0
BLOCK_RECORD
5
1B
100
AcDbSymbolTableRecord
100
AcDbBlockTableRecord
2
*MODEL_SPACE
0
BLOCK_RECORD
5
1C
100
AcDbSymbolTableRecord
100
AcDbBlockTableRecord
2
*PAPER_SPACE
0
ENDTAB
0
ENDSEC
0
SECTION
2
BLOCKS
0
BLOCK
5
1E
100
AcDbEntity
8
0
100
AcDbBlockBegin
2
*MODEL_SPACE
70
0
10
0.0
20
0.0
30
0.0
3
*MODEL_SPACE
1

0
ENDBLK
5
1F
100
AcDbEntity
8
0
100
AcDbBlockEnd
0
BLOCK
5
20
100
AcDbEntity
8
0
100
AcDbBlockBegin
2
*PAPER_SPACE
70
0
10
0.0
20
0.0
30
0.0
3
*PAPER_SPACE
1

0
ENDBLK
5
21
100
AcDbEntity
8
0
100
AcDbBlockEnd
0
ENDSEC
0
SECTION
2
ENTITIES
0
TEXT
5
201
100
AcDbEntity
8
0
100
AcDbText
62
2
6
CONTINUOUS
10
234.9571274458
20
151.0953466000
7
TEXTSTYLE_0
40
3.5000000000
1
VIP-GIL 10
72
5
11
260.1237931524
21
151.0953466000
100
AcDbText
0
LINE
5
202
100
AcDbEntity
8
0
100
AcDbLine
62
7
6
CONTINUOUS
10
0.0000000000
20
0.0000000000
11
0.0000000000
21
297.0000000000
0
LINE
5
203
100
AcDbEntity
8
0
100
AcDbLine
62
7
6
CONTINUOUS
10
0.0000000000
20
0.0000000000
11
420.0000000000
21
0.0000000000
0
LINE
5
204
100
AcDbEntity
8
0
100
AcDbLine
62
7
6
CONTINUOUS
10
0.0000000000
20
297.0000000000
11
420.0000000000
21
297.0000000000
0
LINE
5
205
100
AcDbEntity
8
0
100
AcDbLine
62
7
6
CONTINUOUS
10
420.0000000000
20
0.0000000000
11
420.0000000000
21
297.0000000000
0
LINE
5
206
100
AcDbEntity
8
0
100
AcDbLine
62
7
6
CONTINUOUS
10
126.2494950886
20
119.1879663037
11
131.2494950886
21
119.1879663037
0
LINE
5
207
100
AcDbEntity
8
0
100
AcDbLine
62
7
6
CONTINUOUS
10
133.6398741530
20
129.1879663037
11
123.8591160242
21
129.1879663037
0
LINE
5
208
100
AcDbEntity
8
0
100
AcDbLine
62
7
6
CONTINUOUS
10
127.4197077150
20
192.1927058535
11
126.9941758509
21
191.9843733149
0
LINE
5
209
100
AcDbEntity
8
0
100
AcDbLine
62
7
6
CONTINUOUS
10
127.7388569112
20
192.2968733149
11
127.4197077150
21
192.1927058535
0
LINE
5
20A
100
AcDbEntity
8
DEFAULT_1
100
AcDbLine
62
2
6
CENTER
10
128.7494950886
20
131.6879663037
11
120.2494950886
21
131.6879663037
0
LINE
5
20B
100
AcDbEntity
8
DEFAULT_1
100
AcDbLine
62
2
6
CENTER
10
128.7494950886
20
131.6879663037
11
137.2494950886
21
131.6879663037
0
LINE
5
20C
100
AcDbEntity
8
0
100
AcDbLine
62
7
6
CONTINUOUS
10
127.1005588169
20
191.3593733149
11
127.7388569112
21
191.7760383921
0
LINE
5
20D
100
AcDbEntity
8
0
100
AcDbLine
62
7
6
CONTINUOUS
10
129.7601334150
20
188.7552058535
11
130.0792823131
21
188.8593733149
0
LINE
5
20E
100
AcDbEntity
8
0
100
AcDbLine
62
7
6
CONTINUOUS
10
133.6398741530
20
134.1879663037
11
123.8591160242
21
134.1879663037
0
LINE
5
20F
100
AcDbEntity
8
0
100
AcDbLine
62
7
6
CONTINUOUS
10
126.9941758509
20
191.9843733149
11
126.6750269528
21
191.6718733149
0
LINE
5
210
100
AcDbEntity
8
0
100
AcDbLine
62
7
6
CONTINUOUS
10
130.3984312857
20
189.6927058535
11
129.7601334150
21
189.2760383921
0
LINE
5
211
100
AcDbEntity
8
0
100
AcDbLine
62
7
6
CONTINUOUS
10
130.0792823131
20
188.8593733149
11
130.5048142518
21
189.0677058535
0
LINE
5
212
100
AcDbEntity
8
0
100
AcDbLine
62
7
6
CONTINUOUS
10
126.6750269528
20
191.6718733149
11
126.3558780546
21
191.1510383921
0
LINE
5
213
100
AcDbEntity
8
0
100
AcDbLine
62
7
6
CONTINUOUS
10
126.8877928848
20
191.0468733149
11
127.1005588169
21
191.3593733149
0
LINE
5
214
100
AcDbEntity
8
0
100
AcDbLine
62
7
6
CONTINUOUS
10
130.5048142518
20
189.0677058535
11
130.8239631872
21
189.3802058535
0
LINE
5
215
100
AcDbEntity
8
0
100
AcDbLine
62
7
6
CONTINUOUS
10
130.6111972178
20
190.0052058535
11
130.3984312857
21
189.6927058535
0
LINE
5
216
100
AcDbEntity
8
0
100
AcDbLine
62
7
6
CONTINUOUS
10
116.2494950886
20
129.1879663037
11
116.2494950886
21
131.6879663037
0
LINE
5
217
100
AcDbEntity
8
0
100
AcDbLine
62
7
6
CONTINUOUS
10
116.2494950886
20
131.7403876981
11
116.2494950886
21
157.1927058535
0
LINE
5
218
100
AcDbEntity
8
0
100
AcDbLine
62
7
6
CONTINUOUS
10
116.2494950886
20
159.1927058535
11
116.2494950886
21
195.1927058535
0
LINE
5
219
100
AcDbEntity
8
0
100
AcDbLine
62
7
6
CONTINUOUS
10
130.8239631872
20
189.3802058535
11
131.1431121132
21
189.9010383921
0
LINE
5
21A
100
AcDbEntity
8
0
100
AcDbLine
62
7
6
CONTINUOUS
10
127.2069417830
20
173.9635395842
11
127.5260909791
21
174.0677058535
0
LINE
5
21B
100
AcDbEntity
8
0
100
AcDbLine
62
7
6
CONTINUOUS
10
117.7494950886
20
202.1927058535
11
117.7494950886
21
157.1927058535
0
LINE
5
21C
100
AcDbEntity
8
0
100
AcDbLine
62
7
6
CONTINUOUS
10
126.9941758509
20
173.6510395842
11
127.2069417830
21
173.9635395842
0
LINE
5
21D
100
AcDbEntity
8
0
100
AcDbLine
62
7
6
CONTINUOUS
10
126.9941758509
20
174.5885395842
11
126.5686439867
21
174.1718721228
0
LINE
5
21E
100
AcDbEntity
8
0
100
AcDbLine
62
7
6
CONTINUOUS
10
130.0792823131
20
170.7343721228
11
130.5048142518
21
170.9427058535
0
LINE
5
21F
100
AcDbEntity
8
0
100
AcDbLine
62
7
6
CONTINUOUS
10
126.3558780546
20
191.1510383921
11
126.2494950886
21
190.5260383921
0
LINE
5
220
100
AcDbEntity
8
0
100
AcDbLine
62
7
6
CONTINUOUS
10
126.7814099188
20
190.5260383921
11
126.8877928848
21
191.0468733149
0
LINE
5
221
100
AcDbEntity
8
0
100
AcDbLine
62
7
6
CONTINUOUS
10
126.5686439867
20
174.1718721228
11
126.3558780546
21
173.7552058535
0
LINE
5
222
100
AcDbEntity
8
0
100
AcDbLine
62
7
6
CONTINUOUS
10
126.6750269528
20
167.0885389882
11
126.3558780546
21
166.6718727189
0
LINE
5
223
100
AcDbEntity
8
0
100
AcDbLine
62
7
6
CONTINUOUS
10
130.5048142518
20
170.9427058535
11
130.9303461532
21
171.3593721228
0
LINE
5
224
100
AcDbEntity
8
0
100
AcDbLine
62
7
6
CONTINUOUS
10
126.8877928848
20
166.5677058535
11
127.1005588169
21
166.7760389882
0
LINE
5
225
100
AcDbEntity
8
0
100
AcDbLine
62
7
6
CONTINUOUS
10
127.1005588169
20
167.4010395842
11
126.6750269528
21
167.0885389882
0
LINE
5
226
100
AcDbEntity
8
0
100
AcDbLine
62
7
6
CONTINUOUS
10
130.2920482452
20
171.5677058535
11
129.9728993471
21
171.3593721228
0
LINE
5
227
100
AcDbEntity
8
0
100
AcDbLine
62
7
6
CONTINUOUS
10
127.4197077150
20
167.5052058535
11
127.1005588169
21
167.4010395842
0
LINE
5
228
100
AcDbEntity
8
0
100
AcDbLine
62
7
6
CONTINUOUS
10
127.1005588169
20
166.7760389882
11
127.4197077150
21
166.8802058535
0
LINE
5
229
100
AcDbEntity
8
0
100
AcDbLine
62
7
6
CONTINUOUS
10
131.1431121132
20
189.9010383921
11
131.2494950886
21
190.5260383921
0
LINE
5
22A
100
AcDbEntity
8
0
100
AcDbLine
62
7
6
CONTINUOUS
10
126.3558780546
20
173.7552058535
11
126.2494950886
21
173.2343721228
0
LINE
5
22B
100
AcDbEntity
8
0
100
AcDbLine
62
7
6
CONTINUOUS
10
130.7175801839
20
190.5260383921
11
130.6111972178
21
190.0052058535
0
LINE
5
22C
100
AcDbEntity
8
0
100
AcDbLine
62
7
6
CONTINUOUS
10
126.3558780546
20
166.6718727189
11
126.2494950886
21
166.1510389882
0
LINE
5
22D
100
AcDbEntity
8
0
100
AcDbLine
62
7
6
CONTINUOUS
10
126.8877928848
20
173.2343721228
11
126.9941758509
21
173.6510395842
0
LINE
5
22E
100
AcDbEntity
8
0
100
AcDbLine
62
7
6
CONTINUOUS
10
126.7814099188
20
166.2552058535
11
126.8877928848
21
166.5677058535
0
LINE
5
22F
100
AcDbEntity
8
0
100
AcDbLine
62
7
6
CONTINUOUS
10
130.9303461532
20
171.3593721228
11
131.1431121132
21
171.7760395842
0
LINE
5
230
100
AcDbEntity
8
0
100
AcDbLine
62
7
6
CONTINUOUS
10
130.5048142518
20
171.8802058535
11
130.2920482452
21
171.5677058535
0
LINE
5
231
100
AcDbEntity
8
0
100
AcDbLine
62
7
6
CONTINUOUS
10
141.2494950886
20
157.1927058535
11
139.7494950886
21
157.1927058535
0
LINE
5
232
100
AcDbEntity
8
0
100
AcDbLine
62
7
6
CONTINUOUS
10
116.2494950886
20
157.1927058535
11
117.7494950886
21
157.1927058535
0
LINE
5
233
100
AcDbEntity
8
0
100
AcDbLine
62
7
6
CONTINUOUS
10
126.2494950886
20
187.8177058535
11
126.2494950886
21
187.1927058535
0
LINE
5
234
100
AcDbEntity
8
0
100
AcDbLine
62
7
6
CONTINUOUS
10
126.2494950886
20
177.6093733149
11
126.2494950886
21
176.9843721228
0
LINE
5
235
100
AcDbEntity
8
0
100
AcDbLine
62
7
6
CONTINUOUS
10
126.2494950886
20
176.1510395842
11
126.2494950886
21
175.5260395842
0
LINE
5
236
100
AcDbEntity
8
0
100
AcDbLine
62
7
6
CONTINUOUS
10
126.2494950886
20
173.2343721228
11
126.2494950886
21
172.2968721228
0
LINE
5
237
100
AcDbEntity
8
0
100
AcDbLine
62
7
6
CONTINUOUS
10
126.2494950886
20
166.1510389882
11
126.2494950886
21
163.6510389882
0
LINE
5
238
100
AcDbEntity
8
0
100
AcDbLine
62
7
6
CONTINUOUS
10
126.2494950886
20
162.8177058535
11
126.2494950886
21
162.1927058535
0
LINE
5
239
100
AcDbEntity
8
0
100
AcDbLine
62
7
6
CONTINUOUS
10
126.2494950886
20
161.3593724209
11
126.2494950886
21
160.7343724209
0
LINE
5
23A
100
AcDbEntity
8
0
100
AcDbLine
62
7
6
CONTINUOUS
10
126.2494950886
20
157.8177058535
11
126.2494950886
21
157.1927058535
0
LINE
5
23B
100
AcDbEntity
8
0
100
AcDbLine
62
7
6
CONTINUOUS
10
126.7814099188
20
164.2760389882
11
126.7814099188
21
166.2552058535
0
LINE
5
23C
100
AcDbEntity
8
0
100
AcDbLine
62
7
6
CONTINUOUS
10
126.8877928848
20
172.2968721228
11
126.8877928848
21
173.2343721228
0
LINE
5
23D
100
AcDbEntity
8
0
100
AcDbLine
62
7
6
CONTINUOUS
10
127.5260909791
20
174.0677058535
11
127.5260909791
21
174.6927058535
0
LINE
5
23E
100
AcDbEntity
8
0
100
AcDbLine
62
7
6
CONTINUOUS
10
128.3771547074
20
166.2552058535
11
128.3771547074
21
164.2760389882
0
LINE
5
23F
100
AcDbEntity
8
0
100
AcDbLine
62
7
6
CONTINUOUS
10
128.4835376735
20
174.6927058535
11
128.4835376735
21
173.1302058535
0
LINE
5
240
100
AcDbEntity
8
DEFAULT_1
100
AcDbLine
62
2
6
CENTER
10
128.7494950886
20
131.6879663037
11
128.7494950886
21
116.5750587416
0
LINE
5
241
100
AcDbEntity
8
DEFAULT_1
100
AcDbLine
62
2
6
CENTER
10
128.7494950886
20
131.6879663037
11
128.7494950886
21
205.9405996107
0
LINE
5
242
100
AcDbEntity
8
0
100
AcDbLine
62
7
6
CONTINUOUS
10
128.9090695376
20
169.7968721228
11
128.9090695376
21
168.3385395842
0
LINE
5
243
100
AcDbEntity
8
0
100
AcDbLine
62
7
6
CONTINUOUS
10
129.0154525037
20
164.2760389882
11
129.0154525037
21
166.1510389882
0
LINE
5
244
100
AcDbEntity
8
0
100
AcDbLine
62
7
6
CONTINUOUS
10
129.1218354697
20
173.1302058535
11
129.1218354697
21
174.0677058535
0
LINE
5
245
100
AcDbEntity
8
0
100
AcDbLine
62
7
6
CONTINUOUS
10
131.1431121132
20
171.7760395842
11
131.2494950886
21
172.2968721228
0
LINE
5
246
100
AcDbEntity
8
0
100
AcDbLine
62
7
6
CONTINUOUS
10
130.6111972178
20
172.2968721228
11
130.5048142518
21
171.8802058535
0
LINE
5
247
100
AcDbEntity
8
0
100
AcDbLine
62
7
6
CONTINUOUS
10
117.7494950886
20
159.1927058535
11
116.2494950886
21
159.1927058535
0
LINE
5
248
100
AcDbEntity
8
0
100
AcDbLine
62
7
6
CONTINUOUS
10
139.7494950886
20
159.1927058535
11
141.2494950886
21
159.1927058535
0
LINE
5
249
100
AcDbEntity
8
0
100
AcDbLine
62
7
6
CONTINUOUS
10
131.2494950886
20
159.6927058535
11
126.2494950886
21
161.3593724209
0
LINE
5
24A
100
AcDbEntity
8
0
100
AcDbLine
62
7
6
CONTINUOUS
10
126.2494950886
20
160.7343724209
11
130.6111972178
21
159.2760391372
0
LINE
5
24B
100
AcDbEntity
8
0
100
AcDbLine
62
7
6
CONTINUOUS
10
126.2494950886
20
172.2968721228
11
126.3558780546
21
171.7760395842
0
LINE
5
24C
100
AcDbEntity
8
0
100
AcDbLine
62
7
6
CONTINUOUS
10
129.4409845169
20
168.3385395842
11
129.4409845169
21
169.7968721228
0
LINE
5
24D
100
AcDbEntity
8
0
100
AcDbLine
62
7
6
CONTINUOUS
10
130.6111972178
20
180.7343733149
11
130.6111972178
21
177.6093733149
0
LINE
5
24E
100
AcDbEntity
8
0
100
AcDbLine
62
7
6
CONTINUOUS
10
130.6111972178
20
173.2343721228
11
130.6111972178
21
172.2968721228
0
LINE
5
24F
100
AcDbEntity
8
0
100
AcDbLine
62
7
6
CONTINUOUS
10
131.2494950886
20
158.8593725699
11
131.2494950886
21
159.6927058535
0
LINE
5
250
100
AcDbEntity
8
0
100
AcDbLine
62
7
6
CONTINUOUS
10
131.2494950886
20
162.1927058535
11
131.2494950886
21
162.8177058535
0
LINE
5
251
100
AcDbEntity
8
0
100
AcDbLine
62
7
6
CONTINUOUS
10
131.2494950886
20
163.6510389882
11
131.2494950886
21
164.2760389882
0
LINE
5
252
100
AcDbEntity
8
0
100
AcDbLine
62
7
6
CONTINUOUS
10
131.2494950886
20
172.2968721228
11
131.2494950886
21
173.2343721228
0
LINE
5
253
100
AcDbEntity
8
0
100
AcDbLine
62
7
6
CONTINUOUS
10
131.2494950886
20
175.5260395842
11
131.2494950886
21
176.1510395842
0
LINE
5
254
100
AcDbEntity
8
0
100
AcDbLine
62
7
6
CONTINUOUS
10
131.2494950886
20
176.9843721228
11
131.2494950886
21
180.7343733149
0
LINE
5
255
100
AcDbEntity
8
0
100
AcDbLine
62
7
6
CONTINUOUS
10
131.2494950886
20
187.1927058535
11
131.2494950886
21
187.8177058535
0
LINE
5
256
100
AcDbEntity
8
0
100
AcDbLine
62
7
6
CONTINUOUS
10
130.6111972178
20
159.2760391372
11
126.2494950886
21
157.8177058535
0
LINE
5
257
100
AcDbEntity
8
0
100
AcDbLine
62
7
6
CONTINUOUS
10
126.2494950886
20
157.1927058535
11
131.2494950886
21
158.8593725699
0
LINE
5
258
100
AcDbEntity
8
0
100
AcDbLine
62
7
6
CONTINUOUS
10
126.2494950886
20
162.1927058535
11
131.2494950886
21
162.1927058535
0
LINE
5
259
100
AcDbEntity
8
0
100
AcDbLine
62
7
6
CONTINUOUS
10
131.2494950886
20
162.8177058535
11
126.2494950886
21
162.8177058535
0
LINE
5
25A
100
AcDbEntity
8
0
100
AcDbLine
62
7
6
CONTINUOUS
10
126.2494950886
20
163.6510389882
11
131.2494950886
21
163.6510389882
0
LINE
5
25B
100
AcDbEntity
8
0
100
AcDbLine
62
7
6
CONTINUOUS
10
126.3558780546
20
171.7760395842
11
126.5686439867
21
171.3593721228
0
LINE
5
25C
100
AcDbEntity
8
0
100
AcDbLine
62
7
6
CONTINUOUS
10
128.2707717414
20
166.5677058535
11
128.3771547074
21
166.2552058535
0
LINE
5
25D
100
AcDbEntity
8
0
100
AcDbLine
62
7
6
CONTINUOUS
10
126.9941758509
20
171.8802058535
11
126.8877928848
21
172.2968721228
0
LINE
5
25E
100
AcDbEntity
8
0
100
AcDbLine
62
7
6
CONTINUOUS
10
129.0154525037
20
166.1510389882
11
128.9090695376
21
166.6718727189
0
LINE
5
25F
100
AcDbEntity
8
0
100
AcDbLine
62
7
6
CONTINUOUS
10
126.2494950886
20
190.5260383921
11
126.3558780546
21
189.9010383921
0
LINE
5
260
100
AcDbEntity
8
0
100
AcDbLine
62
7
6
CONTINUOUS
10
131.2494950886
20
164.2760389882
11
129.0154525037
21
164.2760389882
0
LINE
5
261
100
AcDbEntity
8
0
100
AcDbLine
62
7
6
CONTINUOUS
10
128.3771547074
20
164.2760389882
11
126.7814099188
21
164.2760389882
0
LINE
5
262
100
AcDbEntity
8
0
100
AcDbLine
62
7
6
CONTINUOUS
10
127.7388569112
20
166.8802058535
11
128.0580058093
21
166.7760389882
0
LINE
5
263
100
AcDbEntity
8
0
100
AcDbLine
62
7
6
CONTINUOUS
10
128.5899206395
20
167.0885389882
11
128.1643887754
21
167.4010395842
0
LINE
5
264
100
AcDbEntity
8
0
100
AcDbLine
62
7
6
CONTINUOUS
10
128.0580058093
20
166.7760389882
11
128.2707717414
21
166.5677058535
0
LINE
5
265
100
AcDbEntity
8
0
100
AcDbLine
62
7
6
CONTINUOUS
10
126.5686439867
20
171.3593721228
11
126.9941758509
21
170.9427058535
0
LINE
5
266
100
AcDbEntity
8
0
100
AcDbLine
62
7
6
CONTINUOUS
10
128.9090695376
20
166.6718727189
11
128.5899206395
21
167.0885389882
0
LINE
5
267
100
AcDbEntity
8
0
100
AcDbLine
62
7
6
CONTINUOUS
10
127.2069417830
20
171.5677058535
11
126.9941758509
21
171.8802058535
0
LINE
5
268
100
AcDbEntity
8
0
100
AcDbLine
62
7
6
CONTINUOUS
10
130.5048142518
20
173.6510395842
11
130.6111972178
21
173.2343721228
0
LINE
5
269
100
AcDbEntity
8
0
100
AcDbLine
62
7
6
CONTINUOUS
10
126.8877928848
20
190.0052058535
11
126.7814099188
21
190.5260383921
0
LINE
5
26A
100
AcDbEntity
8
0
100
AcDbLine
62
7
6
CONTINUOUS
10
131.2494950886
20
173.2343721228
11
131.1431121132
21
173.7552058535
0
LINE
5
26B
100
AcDbEntity
8
0
100
AcDbLine
62
7
6
CONTINUOUS
10
127.4197077150
20
166.8802058535
11
127.7388569112
21
166.8802058535
0
LINE
5
26C
100
AcDbEntity
8
0
100
AcDbLine
62
7
6
CONTINUOUS
10
127.8452398772
20
167.5052058535
11
127.4197077150
21
167.5052058535
0
LINE
5
26D
100
AcDbEntity
8
0
100
AcDbLine
62
7
6
CONTINUOUS
10
128.9090695376
20
168.3385395842
11
129.4409845169
21
168.3385395842
0
LINE
5
26E
100
AcDbEntity
8
DEFAULT_2
100
AcDbLine
62
8
6
HIDDEN
10
116.2494950886
20
168.6927058535
11
141.2494950886
21
168.6927058535
0
LINE
5
26F
100
AcDbEntity
8
0
100
AcDbLine
62
7
6
CONTINUOUS
10
128.1643887754
20
167.4010395842
11
127.8452398772
21
167.5052058535
0
LINE
5
270
100
AcDbEntity
8
0
100
AcDbLine
62
7
6
CONTINUOUS
10
126.9941758509
20
170.9427058535
11
127.4197077150
21
170.7343721228
0
LINE
5
271
100
AcDbEntity
8
0
100
AcDbLine
62
7
6
CONTINUOUS
10
127.5260909791
20
171.3593721228
11
127.2069417830
21
171.5677058535
0
LINE
5
272
100
AcDbEntity
8
0
100
AcDbLine
62
7
6
CONTINUOUS
10
130.2920482452
20
173.9635395842
11
130.5048142518
21
173.6510395842
0
LINE
5
273
100
AcDbEntity
8
0
100
AcDbLine
62
7
6
CONTINUOUS
10
131.1431121132
20
173.7552058535
11
130.9303461532
21
174.1718721228
0
LINE
5
274
100
AcDbEntity
8
0
100
AcDbLine
62
7
6
CONTINUOUS
10
130.6111972178
20
191.0468733149
11
130.7175801839
21
190.5260383921
0
LINE
5
275
100
AcDbEntity
8
0
100
AcDbLine
62
7
6
CONTINUOUS
10
131.2494950886
20
190.5260383921
11
131.1431121132
21
191.1510383921
0
LINE
5
276
100
AcDbEntity
8
0
100
AcDbLine
62
7
6
CONTINUOUS
10
139.7494950886
20
202.1927058535
11
139.7494950886
21
157.1927058535
0
LINE
5
277
100
AcDbEntity
8
0
100
AcDbLine
62
7
6
CONTINUOUS
10
129.9728993471
20
171.3593721228
11
129.5473674829
21
171.2552058535
0
LINE
5
278
100
AcDbEntity
8
0
100
AcDbLine
62
7
6
CONTINUOUS
10
129.5473674829
20
170.6302058535
11
130.0792823131
21
170.7343721228
0
LINE
5
279
100
AcDbEntity
8
0
100
AcDbLine
62
7
6
CONTINUOUS
10
129.4409845169
20
169.7968721228
11
128.9090695376
21
169.7968721228
0
LINE
5
27A
100
AcDbEntity
8
0
100
AcDbLine
62
7
6
CONTINUOUS
10
127.9516228433
20
170.6302058535
11
129.5473674829
21
170.6302058535
0
LINE
5
27B
100
AcDbEntity
8
0
100
AcDbLine
62
7
6
CONTINUOUS
10
129.5473674829
20
171.2552058535
11
127.9516228433
21
171.2552058535
0
LINE
5
27C
100
AcDbEntity
8
0
100
AcDbLine
62
7
6
CONTINUOUS
10
127.4197077150
20
170.7343721228
11
127.9516228433
21
170.6302058535
0
LINE
5
27D
100
AcDbEntity
8
0
100
AcDbLine
62
7
6
CONTINUOUS
10
127.9516228433
20
171.2552058535
11
127.5260909791
21
171.3593721228
0
LINE
5
27E
100
AcDbEntity
8
0
100
AcDbLine
62
7
6
CONTINUOUS
10
130.9303461532
20
174.1718721228
11
130.5048142518
21
174.5885395842
0
LINE
5
27F
100
AcDbEntity
8
0
100
AcDbLine
62
7
6
CONTINUOUS
10
141.2494950886
20
195.1927058535
11
141.2494950886
21
159.1927058535
0
LINE
5
280
100
AcDbEntity
8
0
100
AcDbLine
62
7
6
CONTINUOUS
10
141.2494950886
20
157.1927058535
11
141.2494950886
21
133.0144835783
0
LINE
5
281
100
AcDbEntity
8
0
100
AcDbLine
62
7
6
CONTINUOUS
10
141.2494950886
20
132.6446748846
11
141.2494950886
21
131.7403876981
0
LINE
5
282
100
AcDbEntity
8
0
100
AcDbLine
62
7
6
CONTINUOUS
10
141.2494950886
20
131.0381772416
11
141.2494950886
21
130.3996037179
0
LINE
5
283
100
AcDbEntity
8
0
100
AcDbLine
62
7
6
CONTINUOUS
10
141.2494950886
20
129.9380626190
11
141.2494950886
21
129.1879663037
0
LINE
5
284
100
AcDbEntity
8
0
100
AcDbLine
62
7
6
CONTINUOUS
10
127.5260909791
20
174.6927058535
11
126.9941758509
21
174.5885395842
0
LINE
5
285
100
AcDbEntity
8
0
100
AcDbLine
62
7
6
CONTINUOUS
10
128.4835376735
20
173.1302058535
11
129.1218354697
21
173.1302058535
0
LINE
5
286
100
AcDbEntity
8
0
100
AcDbLine
62
7
6
CONTINUOUS
10
129.1218354697
20
174.0677058535
11
129.9728993471
21
174.0677058535
0
LINE
5
287
100
AcDbEntity
8
0
100
AcDbLine
62
7
6
CONTINUOUS
10
130.0792823131
20
174.6927058535
11
128.4835376735
21
174.6927058535
0
LINE
5
288
100
AcDbEntity
8
0
100
AcDbLine
62
7
6
CONTINUOUS
10
126.2494950886
20
175.5260395842
11
131.2494950886
21
175.5260395842
0
LINE
5
289
100
AcDbEntity
8
0
100
AcDbLine
62
7
6
CONTINUOUS
10
130.5048142518
20
174.5885395842
11
130.0792823131
21
174.6927058535
0
LINE
5
28A
100
AcDbEntity
8
0
100
AcDbLine
62
7
6
CONTINUOUS
10
129.9728993471
20
174.0677058535
11
130.2920482452
21
173.9635395842
0
LINE
5
28B
100
AcDbEntity
8
0
100
AcDbLine
62
7
6
CONTINUOUS
10
126.3558780546
20
189.9010383921
11
126.6750269528
21
189.3802058535
0
LINE
5
28C
100
AcDbEntity
8
0
100
AcDbLine
62
7
6
CONTINUOUS
10
131.2494950886
20
176.1510395842
11
126.2494950886
21
176.1510395842
0
LINE
5
28D
100
AcDbEntity
8
0
100
AcDbLine
62
7
6
CONTINUOUS
10
126.2494950886
20
176.9843721228
11
131.2494950886
21
176.9843721228
0
LINE
5
28E
100
AcDbEntity
8
DEFAULT_1
100
AcDbLine
62
2
6
CENTER
10
144.2494950886
20
177.1927058535
11
113.2494950886
21
177.1927058535
0
LINE
5
28F
100
AcDbEntity
8
0
100
AcDbLine
62
7
6
CONTINUOUS
10
130.6111972178
20
177.6093733149
11
126.2494950886
21
177.6093733149
0
LINE
5
290
100
AcDbEntity
8
0
100
AcDbLine
62
7
6
CONTINUOUS
10
127.1005588169
20
189.6927058535
11
126.8877928848
21
190.0052058535
0
LINE
5
291
100
AcDbEntity
8
0
100
AcDbLine
62
7
6
CONTINUOUS
10
131.2494950886
20
180.7343733149
11
130.6111972178
21
180.7343733149
0
LINE
5
292
100
AcDbEntity
8
0
100
AcDbLine
62
7
6
CONTINUOUS
10
126.2494950886
20
187.1927058535
11
126.9941758509
21
186.5677058535
0
LINE
5
293
100
AcDbEntity
8
0
100
AcDbLine
62
7
6
CONTINUOUS
10
127.8452398772
20
186.5677058535
11
127.1005588169
21
187.1927058535
0
LINE
5
294
100
AcDbEntity
8
0
100
AcDbLine
62
7
6
CONTINUOUS
10
126.6750269528
20
189.3802058535
11
126.9941758509
21
189.0677058535
0
LINE
5
295
100
AcDbEntity
8
0
100
AcDbLine
62
7
6
CONTINUOUS
10
130.3984312857
20
191.3593733149
11
130.6111972178
21
191.0468733149
0
LINE
5
296
100
AcDbEntity
8
0
100
AcDbLine
62
7
6
CONTINUOUS
10
131.1431121132
20
191.1510383921
11
130.8239631872
21
191.6718733149
0
LINE
5
297
100
AcDbEntity
8
0
100
AcDbLine
62
7
6
CONTINUOUS
10
127.7388569112
20
189.2760383921
11
127.1005588169
21
189.6927058535
0
LINE
5
298
100
AcDbEntity
8
DEFAULT_2
100
AcDbLine
62
8
6
HIDDEN
10
116.2494950886
20
185.6927058535
11
141.2494950886
21
185.6927058535
0
LINE
5
299
100
AcDbEntity
8
0
100
AcDbLine
62
7
6
CONTINUOUS
10
126.9941758509
20
186.5677058535
11
127.8452398772
21
186.5677058535
0
LINE
5
29A
100
AcDbEntity
8
0
100
AcDbLine
62
7
6
CONTINUOUS
10
127.4197077150
20
188.8593733149
11
127.7388569112
21
188.7552058535
0
LINE
5
29B
100
AcDbEntity
8
0
100
AcDbLine
62
7
6
CONTINUOUS
10
126.9941758509
20
189.0677058535
11
127.4197077150
21
188.8593733149
0
LINE
5
29C
100
AcDbEntity
8
0
100
AcDbLine
62
7
6
CONTINUOUS
10
130.8239631872
20
191.6718733149
11
130.5048142518
21
191.9843733149
0
LINE
5
29D
100
AcDbEntity
8
0
100
AcDbLine
62
7
6
CONTINUOUS
10
129.2282184358
20
188.6510383921
11
129.7601334150
21
188.7552058535
0
LINE
5
29E
100
AcDbEntity
8
0
100
AcDbLine
62
7
6
CONTINUOUS
10
129.7601334150
20
189.2760383921
11
129.1218354697
21
189.1718733149
0
LINE
5
29F
100
AcDbEntity
8
0
100
AcDbLine
62
7
6
CONTINUOUS
10
127.1005588169
20
187.1927058535
11
131.2494950886
21
187.1927058535
0
LINE
5
2A0
100
AcDbEntity
8
0
100
AcDbLine
62
7
6
CONTINUOUS
10
131.2494950886
20
187.8177058535
11
126.2494950886
21
187.8177058535
0
LINE
5
2A1
100
AcDbEntity
8
0
100
AcDbLine
62
7
6
CONTINUOUS
10
128.2707717414
20
188.6510383921
11
129.2282184358
21
188.6510383921
0
LINE
5
2A2
100
AcDbEntity
8
0
100
AcDbLine
62
7
6
CONTINUOUS
10
129.1218354697
20
189.1718733149
11
128.3771547074
21
189.1718733149
0
LINE
5
2A3
100
AcDbEntity
8
0
100
AcDbLine
62
7
6
CONTINUOUS
10
128.3771547074
20
189.1718733149
11
127.7388569112
21
189.2760383921
0
LINE
5
2A4
100
AcDbEntity
8
0
100
AcDbLine
62
7
6
CONTINUOUS
10
127.7388569112
20
188.7552058535
11
128.2707717414
21
188.6510383921
0
LINE
5
2A5
100
AcDbEntity
8
0
100
AcDbLine
62
7
6
CONTINUOUS
10
130.5048142518
20
191.9843733149
11
130.0792823131
21
192.1927058535
0
LINE
5
2A6
100
AcDbEntity
8
0
100
AcDbLine
62
7
6
CONTINUOUS
10
129.7601334150
20
191.7760383921
11
130.3984312857
21
191.3593733149
0
LINE
5
2A7
100
AcDbEntity
8
0
100
AcDbLine
62
7
6
CONTINUOUS
10
128.2707717414
20
192.4010383921
11
127.7388569112
21
192.2968733149
0
LINE
5
2A8
100
AcDbEntity
8
0
100
AcDbLine
62
7
6
CONTINUOUS
10
127.7388569112
20
191.7760383921
11
128.3771547074
21
191.8802058535
0
LINE
5
2A9
100
AcDbEntity
8
0
100
AcDbLine
62
7
6
CONTINUOUS
10
128.3771547074
20
191.8802058535
11
129.1218354697
21
191.8802058535
0
LINE
5
2AA
100
AcDbEntity
8
0
100
AcDbLine
62
7
6
CONTINUOUS
10
129.2282184358
20
192.4010383921
11
128.2707717414
21
192.4010383921
0
LINE
5
2AB
100
AcDbEntity
8
0
100
AcDbLine
62
7
6
CONTINUOUS
10
129.1218354697
20
191.8802058535
11
129.7601334150
21
191.7760383921
0
LINE
5
2AC
100
AcDbEntity
8
0
100
AcDbLine
62
7
6
CONTINUOUS
10
129.7601334150
20
192.2968733149
11
129.2282184358
21
192.4010383921
0
LINE
5
2AD
100
AcDbEntity
8
0
100
AcDbLine
62
7
6
CONTINUOUS
10
130.0792823131
20
192.1927058535
11
129.7601334150
21
192.2968733149
0
LINE
5
2AE
100
AcDbEntity
8
0
100
AcDbLine
62
7
6
CONTINUOUS
10
117.7494950886
20
195.1927058535
11
116.2494950886
21
195.1927058535
0
LINE
5
2AF
100
AcDbEntity
8
0
100
AcDbLine
62
7
6
CONTINUOUS
10
139.7494950886
20
195.1927058535
11
141.2494950886
21
195.1927058535
0
LINE
5
2B0
100
AcDbEntity
8
0
100
AcDbLine
62
7
6
CONTINUOUS
10
117.7494950886
20
202.1927058535
11
139.7494950886
21
202.1927058535
0
LINE
5
2B1
100
AcDbEntity
8
0
100
AcDbLine
62
7
6
CONTINUOUS
10
242.0249027880
20
119.1879663037
11
250.2459218459
21
119.1879663037
0
LINE
5
2B2
100
AcDbEntity
8
0
100
AcDbLine
62
7
6
CONTINUOUS
10
261.2459218459
20
119.1879663037
11
269.4669409038
21
119.1879663037
0
LINE
5
2B3
100
AcDbEntity
8
0
100
AcDbLine
62
7
6
CONTINUOUS
10
232.7459218459
20
122.3727058535
11
240.9988423581
21
119.3688884414
0
LINE
5
2B4
100
AcDbEntity
8
0
100
AcDbLine
62
7
6
CONTINUOUS
10
250.2459218459
20
126.1879663037
11
261.2459218459
21
126.1879663037
0
LINE
5
2B5
100
AcDbEntity
8
DEFAULT_1
100
AcDbLine
62
2
6
CENTER
10
272.7459218459
20
131.6879663037
11
267.2459218459
21
131.6879663037
0
LINE
5
2B6
100
AcDbEntity
8
DEFAULT_1
100
AcDbLine
62
2
6
CENTER
10
281.7459218459
20
131.6879663037
11
278.2459218459
21
131.6879663037
0
LINE
5
2B7
100
AcDbEntity
8
DEFAULT_1
100
AcDbLine
62
2
6
CENTER
10
267.2459218459
20
131.6879663037
11
229.7459218459
21
131.6879663037
0
LINE
5
2B8
100
AcDbEntity
8
DEFAULT_1
100
AcDbLine
62
2
6
CENTER
10
272.7459218459
20
131.6879663037
11
278.2459218459
21
131.6879663037
0
LINE
5
2B9
100
AcDbEntity
8
0
100
AcDbLine
62
7
6
CONTINUOUS
10
232.7459218459
20
122.3727058535
11
232.7459218459
21
202.1927058535
0
LINE
5
2BA
100
AcDbEntity
8
0
100
AcDbLine
62
7
6
CONTINUOUS
10
250.2459218459
20
137.1879663037
11
261.2459218459
21
137.1879663037
0
LINE
5
2BB
100
AcDbEntity
8
0
100
AcDbLine
62
7
6
CONTINUOUS
10
275.0556206772
20
130.7312577228
11
274.3627110278
21
131.0182702971
0
LINE
5
2BC
100
AcDbEntity
8
0
100
AcDbLine
62
7
6
CONTINUOUS
10
250.2459218459
20
143.6879663037
11
250.2459218459
21
119.1879663037
0
LINE
5
2BD
100
AcDbEntity
8
0
100
AcDbLine
62
7
6
CONTINUOUS
10
232.7459218459
20
157.1927058535
11
279.2459218459
21
157.1927058535
0
LINE
5
2BE
100
AcDbEntity
8
0
100
AcDbLine
62
7
6
CONTINUOUS
10
278.7459218459
20
157.8177058535
11
279.2459218459
21
157.8177058535
0
LINE
5
2BF
100
AcDbEntity
8
DEFAULT_1
100
AcDbLine
62
2
6
CENTER
10
255.7459218459
20
177.1927058535
11
255.7459218459
21
116.1022251921
0
LINE
5
2C0
100
AcDbEntity
8
DEFAULT_1
100
AcDbLine
62
2
6
CENTER
10
255.7459218459
20
177.1927058535
11
255.7459218459
21
204.0492654124
0
LINE
5
2C1
100
AcDbEntity
8
0
100
AcDbLine
62
7
6
CONTINUOUS
10
278.7459218459
20
159.2760391372
11
279.2459218459
21
159.2760391372
0
LINE
5
2C2
100
AcDbEntity
8
0
100
AcDbLine
62
7
6
CONTINUOUS
10
278.7459218459
20
160.7343724209
11
279.2459218459
21
160.7343724209
0
LINE
5
2C3
100
AcDbEntity
8
0
100
AcDbLine
62
7
6
CONTINUOUS
10
278.7459218459
20
161.3593724209
11
279.2459218459
21
161.3593724209
0
LINE
5
2C4
100
AcDbEntity
8
0
100
AcDbLine
62
7
6
CONTINUOUS
10
278.7459218459
20
162.1927058535
11
279.2459218459
21
162.1927058535
0
LINE
5
2C5
100
AcDbEntity
8
0
100
AcDbLine
62
7
6
CONTINUOUS
10
278.7459218459
20
162.8177058535
11
279.2459218459
21
162.8177058535
0
LINE
5
2C6
100
AcDbEntity
8
0
100
AcDbLine
62
7
6
CONTINUOUS
10
278.7459218459
20
163.6510389882
11
279.2459218459
21
163.6510389882
0
LINE
5
2C7
100
AcDbEntity
8
0
100
AcDbLine
62
7
6
CONTINUOUS
10
261.2459218459
20
119.1879663037
11
261.2459218459
21
143.6879663037
0
LINE
5
2C8
100
AcDbEntity
8
0
100
AcDbLine
62
7
6
CONTINUOUS
10
278.7459218459
20
166.1510389882
11
279.2459218459
21
166.1510389882
0
LINE
5
2C9
100
AcDbEntity
8
0
100
AcDbLine
62
7
6
CONTINUOUS
10
278.7459218459
20
166.6718727189
11
279.2459218459
21
166.6718727189
0
LINE
5
2CA
100
AcDbEntity
8
0
100
AcDbLine
62
7
6
CONTINUOUS
10
278.7459218459
20
167.0885389882
11
279.2459218459
21
167.0885389882
0
LINE
5
2CB
100
AcDbEntity
8
0
100
AcDbLine
62
7
6
CONTINUOUS
10
278.7459218459
20
167.4010395842
11
279.2459218459
21
167.4010395842
0
LINE
5
2CC
100
AcDbEntity
8
0
100
AcDbLine
62
7
6
CONTINUOUS
10
278.7459218459
20
167.5052058535
11
279.2459218459
21
167.5052058535
0
LINE
5
2CD
100
AcDbEntity
8
0
100
AcDbLine
62
7
6
CONTINUOUS
10
278.7459218459
20
168.3385395842
11
279.2459218459
21
168.3385395842
0
LINE
5
2CE
100
AcDbEntity
8
0
100
AcDbLine
62
7
6
CONTINUOUS
10
278.7459218459
20
169.7968721228
11
279.2459218459
21
169.7968721228
0
LINE
5
2CF
100
AcDbEntity
8
0
100
AcDbLine
62
7
6
CONTINUOUS
10
278.7459218459
20
170.6302058535
11
279.2459218459
21
170.6302058535
0
LINE
5
2D0
100
AcDbEntity
8
0
100
AcDbLine
62
7
6
CONTINUOUS
10
278.7459218459
20
170.7343721228
11
279.2459218459
21
170.7343721228
0
LINE
5
2D1
100
AcDbEntity
8
0
100
AcDbLine
62
7
6
CONTINUOUS
10
278.7459218459
20
170.9427058535
11
279.2459218459
21
170.9427058535
0
LINE
5
2D2
100
AcDbEntity
8
0
100
AcDbLine
62
7
6
CONTINUOUS
10
278.7459218459
20
171.3593721228
11
279.2459218459
21
171.3593721228
0
LINE
5
2D3
100
AcDbEntity
8
0
100
AcDbLine
62
7
6
CONTINUOUS
10
278.7459218459
20
171.7760395842
11
279.2459218459
21
171.7760395842
0
LINE
5
2D4
100
AcDbEntity
8
0
100
AcDbLine
62
7
6
CONTINUOUS
10
278.7459218459
20
172.2968721228
11
279.2459218459
21
172.2968721228
0
LINE
5
2D5
100
AcDbEntity
8
0
100
AcDbLine
62
7
6
CONTINUOUS
10
278.7459218459
20
173.2343721228
11
279.2459218459
21
173.2343721228
0
LINE
5
2D6
100
AcDbEntity
8
0
100
AcDbLine
62
7
6
CONTINUOUS
10
278.7459218459
20
173.7552058535
11
279.2459218459
21
173.7552058535
0
LINE
5
2D7
100
AcDbEntity
8
0
100
AcDbLine
62
7
6
CONTINUOUS
10
278.7459218459
20
174.1718721228
11
279.2459218459
21
174.1718721228
0
LINE
5
2D8
100
AcDbEntity
8
0
100
AcDbLine
62
7
6
CONTINUOUS
10
278.7459218459
20
174.5885395842
11
279.2459218459
21
174.5885395842
0
LINE
5
2D9
100
AcDbEntity
8
0
100
AcDbLine
62
7
6
CONTINUOUS
10
278.7459218459
20
174.6927058535
11
279.2459218459
21
174.6927058535
0
LINE
5
2DA
100
AcDbEntity
8
0
100
AcDbLine
62
7
6
CONTINUOUS
10
278.7459218459
20
175.5260395842
11
279.2459218459
21
175.5260395842
0
LINE
5
2DB
100
AcDbEntity
8
0
100
AcDbLine
62
7
6
CONTINUOUS
10
278.7459218459
20
176.1510395842
11
279.2459218459
21
176.1510395842
0
LINE
5
2DC
100
AcDbEntity
8
DEFAULT_1
100
AcDbLine
62
2
6
CENTER
10
272.7459218459
20
131.6879663037
11
272.7459218459
21
126.1879663037
0
LINE
5
2DD
100
AcDbEntity
8
DEFAULT_1
100
AcDbLine
62
2
6
CENTER
10
272.7459218459
20
131.6879663037
11
272.7459218459
21
137.1879663037
0
LINE
5
2DE
100
AcDbEntity
8
0
100
AcDbLine
62
7
6
CONTINUOUS
10
278.7459218459
20
176.9843721228
11
279.2459218459
21
176.9843721228
0
LINE
5
2DF
100
AcDbEntity
8
DEFAULT_1
100
AcDbLine
62
2
6
CENTER
10
255.7459218459
20
177.1927058535
11
235.8556152242
21
177.1927058535
0
LINE
5
2E0
100
AcDbEntity
8
DEFAULT_1
100
AcDbLine
62
2
6
CENTER
10
255.7459218459
20
177.1927058535
11
276.5193004874
21
177.1927058535
0
LINE
5
2E1
100
AcDbEntity
8
0
100
AcDbLine
62
7
6
CONTINUOUS
10
278.7459218459
20
177.6093733149
11
279.2459218459
21
177.6093733149
0
LINE
5
2E2
100
AcDbEntity
8
0
100
AcDbLine
62
7
6
CONTINUOUS
10
278.7459218459
20
180.7343733149
11
279.2459218459
21
180.7343733149
0
LINE
5
2E3
100
AcDbEntity
8
0
100
AcDbLine
62
7
6
CONTINUOUS
10
278.7459218459
20
202.1927058535
11
278.7459218459
21
122.3727058535
0
LINE
5
2E4
100
AcDbEntity
8
0
100
AcDbLine
62
7
6
CONTINUOUS
10
279.2459218459
20
192.4010383921
11
279.2459218459
21
188.6510383921
0
LINE
5
2E5
100
AcDbEntity
8
0
100
AcDbLine
62
7
6
CONTINUOUS
10
279.2459218459
20
187.8177058535
11
279.2459218459
21
186.5677058535
0
LINE
5
2E6
100
AcDbEntity
8
0
100
AcDbLine
62
7
6
CONTINUOUS
10
279.2459218459
20
180.7343733149
11
279.2459218459
21
176.9843721228
0
LINE
5
2E7
100
AcDbEntity
8
0
100
AcDbLine
62
7
6
CONTINUOUS
10
279.2459218459
20
176.1510395842
11
279.2459218459
21
175.5260395842
0
LINE
5
2E8
100
AcDbEntity
8
0
100
AcDbLine
62
7
6
CONTINUOUS
10
279.2459218459
20
174.6927058535
11
279.2459218459
21
170.6302058535
0
LINE
5
2E9
100
AcDbEntity
8
0
100
AcDbLine
62
7
6
CONTINUOUS
10
279.2459218459
20
169.7968721228
11
279.2459218459
21
168.3385395842
0
LINE
5
2EA
100
AcDbEntity
8
0
100
AcDbLine
62
7
6
CONTINUOUS
10
279.2459218459
20
167.5052058535
11
279.2459218459
21
163.6510389882
0
LINE
5
2EB
100
AcDbEntity
8
0
100
AcDbLine
62
7
6
CONTINUOUS
10
279.2459218459
20
162.8177058535
11
279.2459218459
21
162.1927058535
0
LINE
5
2EC
100
AcDbEntity
8
0
100
AcDbLine
62
7
6
CONTINUOUS
10
279.2459218459
20
161.3593724209
11
279.2459218459
21
157.1927058535
0
LINE
5
2ED
100
AcDbEntity
8
0
100
AcDbLine
62
7
6
CONTINUOUS
10
278.7459218459
20
186.5677058535
11
279.2459218459
21
186.5677058535
0
LINE
5
2EE
100
AcDbEntity
8
0
100
AcDbLine
62
7
6
CONTINUOUS
10
278.7459218459
20
187.1927058535
11
279.2459218459
21
187.1927058535
0
LINE
5
2EF
100
AcDbEntity
8
0
100
AcDbLine
62
7
6
CONTINUOUS
10
278.7459218459
20
187.8177058535
11
279.2459218459
21
187.8177058535
0
LINE
5
2F0
100
AcDbEntity
8
0
100
AcDbLine
62
7
6
CONTINUOUS
10
278.7459218459
20
188.6510383921
11
279.2459218459
21
188.6510383921
0
LINE
5
2F1
100
AcDbEntity
8
0
100
AcDbLine
62
7
6
CONTINUOUS
10
278.7459218459
20
188.7552058535
11
279.2459218459
21
188.7552058535
0
LINE
5
2F2
100
AcDbEntity
8
0
100
AcDbLine
62
7
6
CONTINUOUS
10
278.7459218459
20
188.8593733149
11
279.2459218459
21
188.8593733149
0
LINE
5
2F3
100
AcDbEntity
8
0
100
AcDbLine
62
7
6
CONTINUOUS
10
278.7459218459
20
189.0677058535
11
279.2459218459
21
189.0677058535
0
LINE
5
2F4
100
AcDbEntity
8
0
100
AcDbLine
62
7
6
CONTINUOUS
10
278.7459218459
20
189.3802058535
11
279.2459218459
21
189.3802058535
0
LINE
5
2F5
100
AcDbEntity
8
0
100
AcDbLine
62
7
6
CONTINUOUS
10
278.7459218459
20
189.9010383921
11
279.2459218459
21
189.9010383921
0
LINE
5
2F6
100
AcDbEntity
8
0
100
AcDbLine
62
7
6
CONTINUOUS
10
278.7459218459
20
190.5260383921
11
279.2459218459
21
190.5260383921
0
LINE
5
2F7
100
AcDbEntity
8
0
100
AcDbLine
62
7
6
CONTINUOUS
10
278.7459218459
20
191.1510383921
11
279.2459218459
21
191.1510383921
0
LINE
5
2F8
100
AcDbEntity
8
0
100
AcDbLine
62
7
6
CONTINUOUS
10
278.7459218459
20
191.6718733149
11
279.2459218459
21
191.6718733149
0
LINE
5
2F9
100
AcDbEntity
8
0
100
AcDbLine
62
7
6
CONTINUOUS
10
278.7459218459
20
191.9843733149
11
279.2459218459
21
191.9843733149
0
LINE
5
2FA
100
AcDbEntity
8
0
100
AcDbLine
62
7
6
CONTINUOUS
10
278.7459218459
20
192.1927058535
11
279.2459218459
21
192.1927058535
0
LINE
5
2FB
100
AcDbEntity
8
0
100
AcDbLine
62
7
6
CONTINUOUS
10
278.7459218459
20
192.2968733149
11
279.2459218459
21
192.2968733149
0
LINE
5
2FC
100
AcDbEntity
8
0
100
AcDbLine
62
7
6
CONTINUOUS
10
278.7459218459
20
192.4010383921
11
279.2459218459
21
192.4010383921
0
LINE
5
2FD
100
AcDbEntity
8
0
100
AcDbLine
62
7
6
CONTINUOUS
10
274.3627110278
20
132.3576623104
11
275.0556206772
21
132.6446748846
0
LINE
5
2FE
100
AcDbEntity
8
0
100
AcDbLine
62
7
6
CONTINUOUS
10
232.7459218459
20
202.1927058535
11
278.7459218459
21
202.1927058535
0
LINE
5
2FF
100
AcDbEntity
8
0
100
AcDbLine
62
7
6
CONTINUOUS
10
278.7459218459
20
122.3727058535
11
270.4930013338
21
119.3688884414
0
CIRCLE
5
300
100
AcDbEntity
8
0
100
AcDbCircle
62
7
6
CONTINUOUS
10
128.7494950886
20
131.6879663037
40
5.5000000000
0
ARC
5
301
100
AcDbEntity
8
0
100
AcDbCircle
62
7
6
CONTINUOUS
10
126.2494950886
20
129.1879663037
40
10.0000000000
100
AcDbArc
50
180.0000000000
51
270.0000000000
0
ARC
5
302
100
AcDbEntity
8
0
100
AcDbCircle
62
7
6
CONTINUOUS
10
131.2494950886
20
129.1879663037
40
10.0000000000
100
AcDbArc
50
270.0000000000
51
360.0000000000
0
CIRCLE
5
303
100
AcDbEntity
8
0
100
AcDbCircle
62
7
6
CONTINUOUS
10
255.7459218459
20
177.1927058535
40
8.5000000000
0
CIRCLE
5
304
100
AcDbEntity
8
0
100
AcDbCircle
62
7
6
CONTINUOUS
10
255.7459218459
20
177.1927058535
40
18.0000000000
0
ARC
5
305
100
AcDbEntity
8
0
100
AcDbCircle
62
7
6
CONTINUOUS
10
255.7459218459
20
143.6879663037
40
5.5000000000
100
AcDbArc
50
0.0000000000
51
180.0000000000
0
CIRCLE
5
306
100
AcDbEntity
8
0
100
AcDbCircle
62
7
6
CONTINUOUS
10
272.7459218459
20
131.6879663037
40
2.5000000000
0
ARC
5
307
100
AcDbEntity
8
0
100
AcDbCircle
62
7
6
CONTINUOUS
10
242.0249027880
20
122.1879663037
40
3.0000000000
100
AcDbArc
50
250.0000000000
51
270.0000000000
0
ARC
5
308
100
AcDbEntity
8
0
100
AcDbCircle
62
7
6
CONTINUOUS
10
269.4669409038
20
122.1879663037
40
3.0000000000
100
AcDbArc
50
270.0000000000
51
290.0000000000
0
ARC
5
309
100
AcDbEntity
8
0
100
AcDbCircle
62
7
6
CONTINUOUS
10
272.7459218459
20
131.6879663037
40
1.7500000000
100
AcDbArc
50
22.5000000000
51
337.5000000000
0
SPLINE
5
30A
100
AcDbEntity
8
0
100
AcDbSpline
62
7
6
CONTINUOUS
70
0
71
3
72
11
73
7
74
5
42
0.0000001000
43
0.0000001000
44
0.0000000001
40
0.0000000000
40
0.0000000000
40
0.0000000000
40
0.0000000000
40
0.0682145927
40
0.3130496169
40
0.7331897606
40
1.0000000000
40
1.0000000000
40
1.0000000000
40
1.0000000000
10
141.2154785475
20
129.9391148486
30
0.0000000000
10
141.2122010587
20
129.9428757192
30
0.0000000000
10
141.1965106034
20
130.0233821211
30
0.0000000000
10
141.2105421063
20
130.1328075996
30
0.0000000000
10
141.2120757552
20
130.3141288544
30
0.0000000000
10
141.2175984504
20
130.4403423399
30
0.0000000000
10
141.2199816759
20
130.4889072294
30
0.0000000000
11
141.2154785475
21
129.9391148486
31
0.0000000000
11
141.2063925280
21
129.9763567855
31
0.0000000000
11
141.2056103961
21
130.1107321014
31
0.0000000000
11
141.2139709923
21
130.3411742146
31
0.0000000000
11
141.2199816759
21
130.4889072294
31
0.0000000000
0
SPLINE
5
30B
100
AcDbEntity
8
0
100
AcDbSpline
62
7
6
CONTINUOUS
70
0
71
3
72
8
73
4
74
2
42
0.0000001000
43
0.0000001000
44
0.0000000001
40
0.0000000000
40
0.0000000000
40
0.0000000000
40
0.0000000000
40
1.0000000000
40
1.0000000000
40
1.0000000000
40
1.0000000000
10
141.2199816759
20
130.4889072294
30
0.0000000000
10
141.2226847476
20
130.5439898765
30
0.0000000000
10
141.2256942730
20
130.5984856671
30
0.0000000000
10
141.2283911241
20
130.6533718480
30
0.0000000000
11
141.2199816759
21
130.4889072294
31
0.0000000000
11
141.2283911241
21
130.6533718480
31
0.0000000000
0
SPLINE
5
30C
100
AcDbEntity
8
0
100
AcDbSpline
62
7
6
CONTINUOUS
70
0
71
3
72
8
73
4
74
2
42
0.0000001000
43
0.0000001000
44
0.0000000001
40
0.0000000000
40
0.0000000000
40
0.0000000000
40
0.0000000000
40
1.0000000000
40
1.0000000000
40
1.0000000000
40
1.0000000000
10
141.2283911241
20
130.6533718480
30
0.0000000000
10
141.2312546436
20
130.7116500574
30
0.0000000000
10
141.2337656473
20
130.7703684012
30
0.0000000000
10
141.2360090056
20
130.8292138737
30
0.0000000000
11
141.2283911241
21
130.6533718480
31
0.0000000000
11
141.2360090056
21
130.8292138737
31
0.0000000000
0
SPLINE
5
30D
100
AcDbEntity
8
0
100
AcDbSpline
62
7
6
CONTINUOUS
70
0
71
3
72
9
73
5
74
3
42
0.0000001000
43
0.0000001000
44
0.0000000001
40
0.0000000000
40
0.0000000000
40
0.0000000000
40
0.0000000000
40
0.5001517608
40
1.0000000000
40
1.0000000000
40
1.0000000000
40
1.0000000000
10
116.2494950886
20
131.7403876981
30
0.0000000000
10
116.2494950886
20
131.7316481176
30
0.0000000000
10
116.2495156260
20
131.7141742542
30
0.0000000000
10
116.2495767599
20
131.6967004863
30
0.0000000000
10
116.2496173445
20
131.6879663037
30
0.0000000000
11
116.2494950886
21
131.7403876981
31
0.0000000000
11
116.2495257875
21
131.7141689744
31
0.0000000000
11
116.2496173445
21
131.6879663037
31
0.0000000000
0
SPLINE
5
30E
100
AcDbEntity
8
0
100
AcDbSpline
62
7
6
CONTINUOUS
70
0
71
3
72
14
73
10
74
8
42
0.0000001000
43
0.0000001000
44
0.0000000001
40
0.0000000000
40
0.0000000000
40
0.0000000000
40
0.0000000000
40
0.2396812241
40
0.4691948854
40
0.6724258666
40
0.8331157190
40
0.9436948388
40
0.9966180484
40
1.0000000000
40
1.0000000000
40
1.0000000000
40
1.0000000000
10
116.2496173445
20
131.6879663037
30
0.0000000000
10
116.2505466792
20
131.4879652254
30
0.0000000000
10
116.2622163058
20
131.0974743703
30
0.0000000000
10
116.3027331969
20
130.5333965890
30
0.0000000000
10
116.3416328114
20
130.0529666249
30
0.0000000000
10
116.3913094522
20
129.6250276929
30
0.0000000000
10
116.3763192207
20
129.4257438390
30
0.0000000000
10
116.4141614841
20
129.1899420839
30
0.0000000000
10
116.3760491308
20
129.1996659516
30
0.0000000000
10
116.3736431666
20
129.2005151107
30
0.0000000000
11
116.2496173445
21
131.6879663037
31
0.0000000000
11
116.2668014241
21
131.0882027150
31
0.0000000000
11
116.3049614170
21
130.5149147542
31
0.0000000000
11
116.3488638364
21
130.0080510928
31
0.0000000000
11
116.3821890033
21
129.6071684236
31
0.0000000000
11
116.3940696754
21
129.3306035350
31
0.0000000000
11
116.3804439805
21
129.1988199349
31
0.0000000000
11
116.3736431666
21
129.2005151107
31
0.0000000000
0
SPLINE
5
30F
100
AcDbEntity
8
0
100
AcDbSpline
62
7
6
CONTINUOUS
70
0
71
3
72
9
73
5
74
3
42
0.0000001000
43
0.0000001000
44
0.0000000001
40
0.0000000000
40
0.0000000000
40
0.0000000000
40
0.0000000000
40
0.4810962439
40
1.0000000000
40
1.0000000000
40
1.0000000000
40
1.0000000000
10
141.2104012658
20
130.7312577228
30
0.0000000000
10
141.2218360239
20
130.8928297208
30
0.0000000000
10
141.2415909993
20
131.2289742660
30
0.0000000000
10
141.2494950886
20
131.5656824923
30
0.0000000000
10
141.2494950886
20
131.7403876981
30
0.0000000000
11
141.2104012658
21
130.7312577228
31
0.0000000000
11
141.2381011826
21
131.2163959430
31
0.0000000000
11
141.2494950886
21
131.7403876981
31
0.0000000000
0
SPLINE
5
310
100
AcDbEntity
8
0
100
AcDbSpline
62
7
6
CONTINUOUS
70
0
71
3
72
9
73
5
74
3
42
0.0000001000
43
0.0000001000
44
0.0000000001
40
0.0000000000
40
0.0000000000
40
0.0000000000
40
0.0000000000
40
0.1513805845
40
1.0000000000
40
1.0000000000
40
1.0000000000
40
1.0000000000
10
116.3736431666
20
129.2005151107
30
0.0000000000
10
116.3648113273
20
129.2036322131
30
0.0000000000
10
116.2960763969
20
129.2478205754
30
0.0000000000
10
116.3028837164
20
129.3248404502
30
0.0000000000
10
116.3019909783
20
129.3864020500
30
0.0000000000
11
116.3736431666
21
129.2005151107
31
0.0000000000
11
116.3457321918
21
129.2177631030
31
0.0000000000
11
116.3019909783
21
129.3864020500
31
0.0000000000
0
SPLINE
5
311
100
AcDbEntity
8
0
100
AcDbSpline
62
7
6
CONTINUOUS
70
0
71
3
72
9
73
5
74
3
42
0.0000001000
43
0.0000001000
44
0.0000000001
40
0.0000000000
40
0.0000000000
40
0.0000000000
40
0.0000000000
40
0.4254467788
40
1.0000000000
40
1.0000000000
40
1.0000000000
40
1.0000000000
10
116.3019909783
20
129.3864020500
30
0.0000000000
10
116.3003829006
20
129.4972921764
30
0.0000000000
10
116.2457382835
20
129.7289636459
30
0.0000000000
10
116.2494950886
20
129.9802399118
30
0.0000000000
10
116.2494950886
20
130.1215077126
30
0.0000000000
11
116.3019909783
21
129.3864020500
31
0.0000000000
11
116.2644570951
21
129.6979685027
31
0.0000000000
11
116.2494950886
21
130.1215077126
31
0.0000000000
0
SPLINE
5
312
100
AcDbEntity
8
0
100
AcDbSpline
62
7
6
CONTINUOUS
70
0
71
3
72
11
73
7
74
5
42
0.0000001000
43
0.0000001000
44
0.0000000001
40
0.0000000000
40
0.0000000000
40
0.0000000000
40
0.0000000000
40
0.5193741351
40
0.8608274838
40
0.9971773395
40
1.0000000000
40
1.0000000000
40
1.0000000000
40
1.0000000000
10
141.2494950886
20
130.3996037179
30
0.0000000000
10
141.2494950886
20
130.3191985207
30
0.0000000000
10
141.2448156303
20
130.1684477452
30
0.0000000000
10
141.2388756843
20
130.0611810990
30
0.0000000000
10
141.2212430953
20
129.9333234138
30
0.0000000000
10
141.2155933085
20
129.9389831621
30
0.0000000000
10
141.2154785475
20
129.9391148486
30
0.0000000000
11
141.2494950886
21
130.3996037179
31
0.0000000000
11
141.2436852672
21
130.1584581031
31
0.0000000000
11
141.2301554084
21
130.0004533937
31
0.0000000000
11
141.2158222597
21
129.9387711406
31
0.0000000000
11
141.2154785475
21
129.9391148486
31
0.0000000000
0
ENDSEC
0
SECTION
2
OBJECTS
0
DICTIONARY
5
313
100
AcDbDictionary
3
ACAD_GROUP
350
314
3
ACAD_MLINESTYLE
350
315
0
DICTIONARY
5
314
102
{ACAD_REACTORS
330
313
102
}
100
AcDbDictionary
0
DICTIONARY
5
315
102
{ACAD_REACTORS
330
313
102
}
100
AcDbDictionary
3
STANDARD
350
316
0
MLINESTYLE
5
316
102
{ACAD_REACTORS
330
315
102
}
100
AcDbMlineStyle
2
STANDARD
70
0
3

62
256
51
90.0
52
90.0
71
2
49
0.5
62
256
6
BYLAYER
49
-0.5
62
256
6
BYLAYER
0
ENDSEC
0
EOF
