999
DXF file: C:\Aktuell-Internet\CAD-Daten-NEU\2vgil-8.dxf
999
Pro/ENGINEER 2001400 by Parametric Technology Corporation
0
SECTION
2
HEADER
9
$ACADVER
1
AC1014
9
$EXTMAX
10
420.0000000000
20
297.0000000000
9
$EXTMIN
10
0.0000000000
20
0.0000000000
9
$LIMMIN
10
0.0000000000
20
0.0000000000
9
$LIMMAX
10
420.0000000000
20
297.0000000000
9
$VIEWCTR
10
210.0000000000
20
148.5000000000
9
$VIEWSIZE
40
297.0000000000
9
$CLAYER
8
0
9
$LTSCALE
40
23.1000000000
9
$CELTYPE
6
BYLAYER
9
$DIMSCALE
40
1
9
$DIMASZ
40
3.5000000000
9
$DIMEXO
40
2.6250000000
9
$DIMDLI
40
15.9600000000
9
$DIMEXE
40
7.5600000000
9
$DIMCEN
40
3.7800000000
9
$DIMLFAC
40
1.0000000000
9
$DIMTXT
40
3.5000000000
9
$DIMTOL
70
1
9
$DIMTFAC
40
0.6000000000
9
$DIMTP
40
0.0050000000
9
$DIMTM
40
0.0050000000
9
$HANDSEED
5
320
0
ENDSEC
0
SECTION
2
CLASSES
0
ENDSEC
0
SECTION
2
TABLES
0
TABLE
2
VPORT
5
8
100
AcDbSymbolTable
70
2
0
VPORT
5
1F4
100
AcDbSymbolTableRecord
100
AcDbViewportTableRecord
2
*ACTIVE
70
0
10
0.0
20
0.0
11
1.0
21
1.0
12
210.0000000000
22
148.5000000000
13
0.0
23
0.0
14
1.0
24
1.0
15
0.0
25
0.0
16
0.0
26
0.0
36
1.0
17
0.0
27
0.0
37
0.0
40
297.0000000000
41
1.4141414141
42
50.0
43
0.0
44
0.0
50
0.0
51
0.0
71
0
72
100
73
1
74
1
75
0
76
0
77
0
78
0
0
ENDTAB
0
TABLE
2
LTYPE
5
5
100
AcDbSymbolTable
70
6
0
LTYPE
5
14
100
AcDbSymbolTableRecord
100
AcDbLinetypeTableRecord
2
BYBLOCK
70
0
3

72
65
73
0
40
0.0
0
LTYPE
5
15
100
AcDbSymbolTableRecord
100
AcDbLinetypeTableRecord
2
BYLAYER
70
0
3

72
65
73
0
40
0.0
0
LTYPE
5
16
100
AcDbSymbolTableRecord
100
AcDbLinetypeTableRecord
2
CONTINUOUS
70
64
3
Solid line
72
65
73
0
40
0
0
LTYPE
5
1F5
100
AcDbSymbolTableRecord
100
AcDbLinetypeTableRecord
2
CENTER
70
64
3
____ _ ____ _ ____ _ ____ _ ____ _ ____ _ ____
72
65
73
4
40
0.6
49
0.375
74
0
49
-0.075
74
0
49
0.075
74
0
49
-0.075
74
0
0
LTYPE
5
1F6
100
AcDbSymbolTableRecord
100
AcDbLinetypeTableRecord
2
HIDDEN
70
64
3
- - - - - - - - - - - - - - - - - - - -
72
65
73
2
40
0.2
49
0.1
74
0
49
-0.1
74
0
0
LTYPE
5
1F7
100
AcDbSymbolTableRecord
100
AcDbLinetypeTableRecord
2
PHANTOM
70
64
3
_____ _ _ _____ _ _ _____ _ _ _____
72
65
73
6
40
0.8
49
0.45
74
0
49
-0.05
74
0
49
0.1
74
0
49
-0.05
74
0
49
0.1
74
0
49
-0.05
74
0
0
LTYPE
5
1F8
100
AcDbSymbolTableRecord
100
AcDbLinetypeTableRecord
2
DOT
70
64
3
. . . . . . . . . . . . . . . . . . . .
72
65
73
2
40
0.2
49
0.1
74
0
49
-0.1
74
0
0
LTYPE
5
1F9
100
AcDbSymbolTableRecord
100
AcDbLinetypeTableRecord
2
DASHED
70
64
3
- - - - - - - - - - - - - - - - - - - -
72
65
73
2
40
0.2
49
0.1
74
0
49
-0.1
74
0
0
ENDTAB
0
TABLE
2
LAYER
5
2
100
AcDbSymbolTable
70
36
0
LAYER
5
10
100
AcDbSymbolTableRecord
100
AcDbLayerTableRecord
2
0
70
0
62
7
6
CONTINUOUS
0
LAYER
5
1FA
100
AcDbSymbolTableRecord
100
AcDbLayerTableRecord
2
DEFAULT_1
70
0
62
7
6
CENTER
0
LAYER
5
1FB
100
AcDbSymbolTableRecord
100
AcDbLayerTableRecord
2
DEFAULT_2
70
0
62
8
6
HIDDEN
0
LAYER
5
1FC
100
AcDbSymbolTableRecord
100
AcDbLayerTableRecord
2
DEFAULT_3
70
0
62
7
6
PHANTOM
0
LAYER
5
1FD
100
AcDbSymbolTableRecord
100
AcDbLayerTableRecord
2
ZEICHNUNGSBEMASSUNGEN
70
0
62
7
6
CONTINUOUS
0
ENDTAB
0
TABLE
2
STYLE
5
3
100
AcDbSymbolTable
70
1
0
STYLE
5
11
100
AcDbSymbolTableRecord
100
AcDbTextStyleTableRecord
2
STANDARD
70
0
40
0.0
41
1.0
50
0.0
71
0
42
0.0
3
txt
4

0
STYLE
5
1FE
100
AcDbSymbolTableRecord
100
AcDbTextStyleTableRecord
2
TEXTSTYLE_0
70
0
40
0.0
41
0.80
50
0.0
71
0
42
0.2
3
txt
4

0
ENDTAB
0
TABLE
2
VIEW
5
6
100
AcDbSymbolTable
70
0
0
ENDTAB
0
TABLE
2
UCS
5
7
100
AcDbSymbolTable
70
0
0
ENDTAB
0
TABLE
2
APPID
5
9
100
AcDbSymbolTable
70
1
0
APPID
5
1FF
100
AcDbSymbolTableRecord
100
AcDbRegAppTableRecord
2
ACAD
70
0
0
ENDTAB
0
TABLE
2
DIMSTYLE
5
A
100
AcDbSymbolTable
70
1
0
DIMSTYLE
105
200
100
AcDbSymbolTableRecord
100
AcDbDimStyleTableRecord
2
STANDARD
70
0
3

4

5

6

7

40
1.0
41
0.18
42
0.0625
43
0.38
44
0.18
45
0.0
46
0.0
47
0.0050000000
48
0.0050000000
140
3.5000000000
141
0.09
142
0.0
143
25.4
144
1.0000000000
145
0.0
146
0.6000000000
147
0.09
71
1
72
0
73
1
74
1
75
0
76
0
77
0
78
0
170
0
171
2
172
0
173
0
174
0
175
0
176
0
177
0
178
0
270
2
271
3
272
4
273
2
274
2
340
11
275
0
280
0
281
0
282
0
283
1
284
0
285
0
286
0
287
3
288
0
0
ENDTAB
0
TABLE
2
BLOCK_RECORD
5
1
100
AcDbSymbolTable
70
0
0
BLOCK_RECORD
5
1B
100
AcDbSymbolTableRecord
100
AcDbBlockTableRecord
2
*MODEL_SPACE
0
BLOCK_RECORD
5
1C
100
AcDbSymbolTableRecord
100
AcDbBlockTableRecord
2
*PAPER_SPACE
0
ENDTAB
0
ENDSEC
0
SECTION
2
BLOCKS
0
BLOCK
5
1E
100
AcDbEntity
8
0
100
AcDbBlockBegin
2
*MODEL_SPACE
70
0
10
0.0
20
0.0
30
0.0
3
*MODEL_SPACE
1

0
ENDBLK
5
1F
100
AcDbEntity
8
0
100
AcDbBlockEnd
0
BLOCK
5
20
100
AcDbEntity
8
0
100
AcDbBlockBegin
2
*PAPER_SPACE
70
0
10
0.0
20
0.0
30
0.0
3
*PAPER_SPACE
1

0
ENDBLK
5
21
100
AcDbEntity
8
0
100
AcDbBlockEnd
0
ENDSEC
0
SECTION
2
ENTITIES
0
TEXT
5
201
100
AcDbEntity
8
0
100
AcDbText
62
2
6
CONTINUOUS
10
244.5734736994
20
148.3206120872
7
TEXTSTYLE_0
40
3.5000000000
1
VIP-GIL 8
72
5
11
267.7401403661
21
148.3206120872
100
AcDbText
0
LINE
5
202
100
AcDbEntity
8
0
100
AcDbLine
62
7
6
CONTINUOUS
10
0.0000000000
20
0.0000000000
11
0.0000000000
21
297.0000000000
0
LINE
5
203
100
AcDbEntity
8
0
100
AcDbLine
62
7
6
CONTINUOUS
10
0.0000000000
20
0.0000000000
11
420.0000000000
21
0.0000000000
0
LINE
5
204
100
AcDbEntity
8
0
100
AcDbLine
62
7
6
CONTINUOUS
10
0.0000000000
20
297.0000000000
11
420.0000000000
21
297.0000000000
0
LINE
5
205
100
AcDbEntity
8
0
100
AcDbLine
62
7
6
CONTINUOUS
10
420.0000000000
20
0.0000000000
11
420.0000000000
21
297.0000000000
0
LINE
5
206
100
AcDbEntity
8
0
100
AcDbLine
62
7
6
CONTINUOUS
10
116.2044943101
20
123.0461414563
11
120.2044943101
21
123.0461414563
0
LINE
5
207
100
AcDbEntity
8
0
100
AcDbLine
62
7
6
CONTINUOUS
10
122.1167975616
20
131.0461414563
11
114.2921910586
21
131.0461414563
0
LINE
5
208
100
AcDbEntity
8
DEFAULT_1
100
AcDbLine
62
2
6
CENTER
10
118.2044943101
20
133.0461414563
11
110.8044943101
21
133.0461414563
0
LINE
5
209
100
AcDbEntity
8
DEFAULT_1
100
AcDbLine
62
2
6
CENTER
10
131.2044943101
20
133.0461414563
11
125.6044943101
21
133.0461414563
0
LINE
5
20A
100
AcDbEntity
8
DEFAULT_1
100
AcDbLine
62
2
6
CENTER
10
110.8044943101
20
133.0461414563
11
105.2044943101
21
133.0461414563
0
LINE
5
20B
100
AcDbEntity
8
DEFAULT_1
100
AcDbLine
62
2
6
CENTER
10
118.2044943101
20
133.0461414563
11
125.6044943101
21
133.0461414563
0
LINE
5
20C
100
AcDbEntity
8
0
100
AcDbLine
62
7
6
CONTINUOUS
10
117.2257710225
20
179.8665991271
11
116.8002389199
21
179.6999330962
0
LINE
5
20D
100
AcDbEntity
8
0
100
AcDbLine
62
7
6
CONTINUOUS
10
118.9278985984
20
179.9499330962
11
118.5023666150
21
179.7832670653
0
LINE
5
20E
100
AcDbEntity
8
0
100
AcDbLine
62
7
6
CONTINUOUS
10
122.1167975616
20
135.0461414563
11
114.2921910586
21
135.0461414563
0
LINE
5
20F
100
AcDbEntity
8
0
100
AcDbLine
62
7
6
CONTINUOUS
10
118.5874729879
20
179.2832670653
11
118.9278985984
21
179.5332670653
0
LINE
5
210
100
AcDbEntity
8
0
100
AcDbLine
62
7
6
CONTINUOUS
10
116.9704516656
20
179.2832670653
11
117.2257710225
21
179.4499330962
0
LINE
5
211
100
AcDbEntity
8
0
100
AcDbLine
62
7
6
CONTINUOUS
10
117.6513028867
20
177.6165991271
11
117.3959837682
21
177.4499330962
0
LINE
5
212
100
AcDbEntity
8
0
100
AcDbLine
62
7
6
CONTINUOUS
10
117.4810901410
20
177.0332670653
11
117.8215156324
21
177.1999330962
0
LINE
5
213
100
AcDbEntity
8
0
100
AcDbLine
62
7
6
CONTINUOUS
10
119.1832177169
20
176.9499330962
11
119.6087496407
21
177.1165991271
0
LINE
5
214
100
AcDbEntity
8
0
100
AcDbLine
62
7
6
CONTINUOUS
10
116.8002389199
20
179.6999330962
11
116.5449198014
21
179.4499330962
0
LINE
5
215
100
AcDbEntity
8
0
100
AcDbLine
62
7
6
CONTINUOUS
10
119.5236432678
20
177.6165991271
11
119.1832177169
21
177.3665991271
0
LINE
5
216
100
AcDbEntity
8
0
100
AcDbLine
62
7
6
CONTINUOUS
10
116.7151325471
20
178.9499330962
11
116.9704516656
21
179.2832670653
0
LINE
5
217
100
AcDbEntity
8
0
100
AcDbLine
62
7
6
CONTINUOUS
10
118.5023666150
20
179.7832670653
11
118.2470474965
21
179.4499330962
0
LINE
5
218
100
AcDbEntity
8
0
100
AcDbLine
62
7
6
CONTINUOUS
10
117.8215156324
20
177.1999330962
11
118.0768347509
21
177.4499330962
0
LINE
5
219
100
AcDbEntity
8
0
100
AcDbLine
62
7
6
CONTINUOUS
10
119.6087496407
20
177.1165991271
11
119.8640687890
21
177.3665991271
0
LINE
5
21A
100
AcDbEntity
8
0
100
AcDbLine
62
7
6
CONTINUOUS
10
116.5449198014
20
179.4499330962
11
116.2896006829
21
179.0332670653
0
LINE
5
21B
100
AcDbEntity
8
0
100
AcDbLine
62
7
6
CONTINUOUS
10
117.9066220052
20
177.9499330962
11
117.6513028867
21
177.6165991271
0
LINE
5
21C
100
AcDbEntity
8
0
100
AcDbLine
62
7
6
CONTINUOUS
10
108.2044943101
20
131.0461414563
11
108.2044943101
21
133.0461414563
0
LINE
5
21D
100
AcDbEntity
8
0
100
AcDbLine
62
7
6
CONTINUOUS
10
108.2044943101
20
133.0880785719
11
108.2044943101
21
153.4499330962
0
LINE
5
21E
100
AcDbEntity
8
0
100
AcDbLine
62
7
6
CONTINUOUS
10
108.2044943101
20
155.0499330962
11
108.2044943101
21
183.8499330962
0
LINE
5
21F
100
AcDbEntity
8
0
100
AcDbLine
62
7
6
CONTINUOUS
10
118.2470474965
20
179.4499330962
11
118.1619411237
21
179.2832670653
0
LINE
5
220
100
AcDbEntity
8
0
100
AcDbLine
62
7
6
CONTINUOUS
10
118.4172602422
20
178.9499330962
11
118.5874729879
21
179.2832670653
0
LINE
5
221
100
AcDbEntity
8
0
100
AcDbLine
62
7
6
CONTINUOUS
10
118.0768347509
20
177.4499330962
11
118.1619411237
21
177.6165991271
0
LINE
5
222
100
AcDbEntity
8
0
100
AcDbLine
62
7
6
CONTINUOUS
10
119.8640687890
20
177.3665991271
11
120.1193879298
21
177.7832670653
0
LINE
5
223
100
AcDbEntity
8
0
100
AcDbLine
62
7
6
CONTINUOUS
10
116.9704516656
20
166.8666000808
11
117.2257710225
21
166.9499330962
0
LINE
5
224
100
AcDbEntity
8
0
100
AcDbLine
62
7
6
CONTINUOUS
10
109.4044943101
20
189.4499330962
11
109.4044943101
21
153.4499330962
0
LINE
5
225
100
AcDbEntity
8
0
100
AcDbLine
62
7
6
CONTINUOUS
10
116.6300261743
20
178.6165991271
11
116.7151325471
21
178.9499330962
0
LINE
5
226
100
AcDbEntity
8
0
100
AcDbLine
62
7
6
CONTINUOUS
10
119.6938560135
20
177.9499330962
11
119.5236432678
21
177.6165991271
0
LINE
5
227
100
AcDbEntity
8
0
100
AcDbLine
62
7
6
CONTINUOUS
10
116.8002389199
20
166.6166000808
11
116.9704516656
21
166.8666000808
0
LINE
5
228
100
AcDbEntity
8
0
100
AcDbLine
62
7
6
CONTINUOUS
10
116.8002389199
20
167.3666000808
11
116.4598134286
21
167.0332661117
0
LINE
5
229
100
AcDbEntity
8
0
100
AcDbLine
62
7
6
CONTINUOUS
10
119.2683240897
20
164.2832661117
11
119.6087496407
21
164.4499330962
0
LINE
5
22A
100
AcDbEntity
8
0
100
AcDbLine
62
7
6
CONTINUOUS
10
116.2896006829
20
179.0332670653
11
116.2044943101
21
178.6165991271
0
LINE
5
22B
100
AcDbEntity
8
0
100
AcDbLine
62
7
6
CONTINUOUS
10
117.9917283780
20
178.2832670653
11
117.9066220052
21
177.9499330962
0
LINE
5
22C
100
AcDbEntity
8
0
100
AcDbLine
62
7
6
CONTINUOUS
10
118.3321538694
20
178.6165991271
11
118.4172602422
21
178.9499330962
0
LINE
5
22D
100
AcDbEntity
8
0
100
AcDbLine
62
7
6
CONTINUOUS
10
116.4598134286
20
167.0332661117
11
116.2896006829
21
166.6999330962
0
LINE
5
22E
100
AcDbEntity
8
0
100
AcDbLine
62
7
6
CONTINUOUS
10
116.5449198014
20
161.3665996039
11
116.2896006829
21
161.0332665885
0
LINE
5
22F
100
AcDbEntity
8
0
100
AcDbLine
62
7
6
CONTINUOUS
10
119.6087496407
20
164.4499330962
11
119.9491751618
21
164.7832661117
0
LINE
5
230
100
AcDbEntity
8
0
100
AcDbLine
62
7
6
CONTINUOUS
10
116.7151325471
20
160.9499330962
11
116.8853452928
21
161.1165996039
0
LINE
5
231
100
AcDbEntity
8
0
100
AcDbLine
62
7
6
CONTINUOUS
10
116.8853452928
20
161.6166000808
11
116.5449198014
21
161.3665996039
0
LINE
5
232
100
AcDbEntity
8
0
100
AcDbLine
62
7
6
CONTINUOUS
10
119.4385368354
20
164.9499330962
11
119.1832177169
21
164.7832661117
0
LINE
5
233
100
AcDbEntity
8
0
100
AcDbLine
62
7
6
CONTINUOUS
10
117.1406644113
20
161.6999330962
11
116.8853452928
21
161.6166000808
0
LINE
5
234
100
AcDbEntity
8
0
100
AcDbLine
62
7
6
CONTINUOUS
10
116.8853452928
20
161.1165996039
11
117.1406644113
21
161.1999330962
0
LINE
5
235
100
AcDbEntity
8
0
100
AcDbLine
62
7
6
CONTINUOUS
10
116.2896006829
20
166.6999330962
11
116.2044943101
21
166.2832661117
0
LINE
5
236
100
AcDbEntity
8
0
100
AcDbLine
62
7
6
CONTINUOUS
10
116.2896006829
20
161.0332665885
11
116.2044943101
21
160.6165996039
0
LINE
5
237
100
AcDbEntity
8
0
100
AcDbLine
62
7
6
CONTINUOUS
10
120.1193879298
20
177.7832670653
11
120.2044943101
21
178.1999330962
0
LINE
5
238
100
AcDbEntity
8
0
100
AcDbLine
62
7
6
CONTINUOUS
10
116.7151325471
20
166.2832661117
11
116.8002389199
21
166.6166000808
0
LINE
5
239
100
AcDbEntity
8
0
100
AcDbLine
62
7
6
CONTINUOUS
10
119.7789623863
20
178.2832670653
11
119.6938560135
21
177.9499330962
0
LINE
5
23A
100
AcDbEntity
8
0
100
AcDbLine
62
7
6
CONTINUOUS
10
116.6300261743
20
160.6999330962
11
116.7151325471
21
160.9499330962
0
LINE
5
23B
100
AcDbEntity
8
0
100
AcDbLine
62
7
6
CONTINUOUS
10
119.9491751618
20
164.7832661117
11
120.1193879298
21
165.1166000808
0
LINE
5
23C
100
AcDbEntity
8
0
100
AcDbLine
62
7
6
CONTINUOUS
10
119.6087496407
20
165.1999330962
11
119.4385368354
21
164.9499330962
0
LINE
5
23D
100
AcDbEntity
8
0
100
AcDbLine
62
7
6
CONTINUOUS
10
128.2044943101
20
153.4499330962
11
127.0044943101
21
153.4499330962
0
LINE
5
23E
100
AcDbEntity
8
0
100
AcDbLine
62
7
6
CONTINUOUS
10
108.2044943101
20
153.4499330962
11
109.4044943101
21
153.4499330962
0
LINE
5
23F
100
AcDbEntity
8
0
100
AcDbLine
62
7
6
CONTINUOUS
10
116.2044943101
20
178.6165991271
11
116.2044943101
21
178.2832670653
0
LINE
5
240
100
AcDbEntity
8
0
100
AcDbLine
62
7
6
CONTINUOUS
10
116.2044943101
20
169.7832670653
11
116.2044943101
21
169.2832661117
0
LINE
5
241
100
AcDbEntity
8
0
100
AcDbLine
62
7
6
CONTINUOUS
10
116.2044943101
20
168.6166000808
11
116.2044943101
21
168.1166000808
0
LINE
5
242
100
AcDbEntity
8
0
100
AcDbLine
62
7
6
CONTINUOUS
10
116.2044943101
20
166.2832661117
11
116.2044943101
21
165.5332661117
0
LINE
5
243
100
AcDbEntity
8
0
100
AcDbLine
62
7
6
CONTINUOUS
10
116.2044943101
20
160.6165996039
11
116.2044943101
21
158.6165996039
0
LINE
5
244
100
AcDbEntity
8
0
100
AcDbLine
62
7
6
CONTINUOUS
10
116.2044943101
20
157.9499330962
11
116.2044943101
21
157.4499330962
0
LINE
5
245
100
AcDbEntity
8
0
100
AcDbLine
62
7
6
CONTINUOUS
10
116.2044943101
20
156.7832663501
11
116.2044943101
21
156.2832663501
0
LINE
5
246
100
AcDbEntity
8
0
100
AcDbLine
62
7
6
CONTINUOUS
10
116.2044943101
20
153.9499330962
11
116.2044943101
21
153.4499330962
0
LINE
5
247
100
AcDbEntity
8
0
100
AcDbLine
62
7
6
CONTINUOUS
10
116.6300261743
20
159.1165996039
11
116.6300261743
21
160.6999330962
0
LINE
5
248
100
AcDbEntity
8
0
100
AcDbLine
62
7
6
CONTINUOUS
10
116.6300261743
20
178.2832670653
11
116.6300261743
21
178.6165991271
0
LINE
5
249
100
AcDbEntity
8
0
100
AcDbLine
62
7
6
CONTINUOUS
10
116.7151325471
20
165.5332661117
11
116.7151325471
21
166.2832661117
0
LINE
5
24A
100
AcDbEntity
8
0
100
AcDbLine
62
7
6
CONTINUOUS
10
117.2257710225
20
166.9499330962
11
117.2257710225
21
167.4499330962
0
LINE
5
24B
100
AcDbEntity
8
0
100
AcDbLine
62
7
6
CONTINUOUS
10
117.9066220052
20
160.6999330962
11
117.9066220052
21
159.1165996039
0
LINE
5
24C
100
AcDbEntity
8
0
100
AcDbLine
62
7
6
CONTINUOUS
10
117.9917283780
20
178.6165991271
11
117.9917283780
21
178.2832670653
0
LINE
5
24D
100
AcDbEntity
8
0
100
AcDbLine
62
7
6
CONTINUOUS
10
117.9917283780
20
167.4499330962
11
117.9917283780
21
166.1999330962
0
LINE
5
24E
100
AcDbEntity
8
DEFAULT_1
100
AcDbLine
62
2
6
CENTER
10
118.2044943101
20
133.0461414563
11
118.2044943101
21
119.4077380952
0
LINE
5
24F
100
AcDbEntity
8
DEFAULT_1
100
AcDbLine
62
2
6
CENTER
10
118.2044943101
20
133.0461414563
11
118.2044943101
21
193.2172619048
0
LINE
5
250
100
AcDbEntity
8
0
100
AcDbLine
62
7
6
CONTINUOUS
10
118.3321538694
20
163.5332661117
11
118.3321538694
21
162.3666000808
0
LINE
5
251
100
AcDbEntity
8
0
100
AcDbLine
62
7
6
CONTINUOUS
10
118.3321538694
20
178.2832670653
11
118.3321538694
21
178.6165991271
0
LINE
5
252
100
AcDbEntity
8
0
100
AcDbLine
62
7
6
CONTINUOUS
10
118.4172602422
20
159.1165996039
11
118.4172602422
21
160.6165996039
0
LINE
5
253
100
AcDbEntity
8
0
100
AcDbLine
62
7
6
CONTINUOUS
10
118.5023666150
20
166.1999330962
11
118.5023666150
21
166.9499330962
0
LINE
5
254
100
AcDbEntity
8
0
100
AcDbLine
62
7
6
CONTINUOUS
10
120.1193879298
20
165.1166000808
11
120.2044943101
21
165.5332661117
0
LINE
5
255
100
AcDbEntity
8
0
100
AcDbLine
62
7
6
CONTINUOUS
10
119.6938560135
20
165.5332661117
11
119.6087496407
21
165.1999330962
0
LINE
5
256
100
AcDbEntity
8
0
100
AcDbLine
62
7
6
CONTINUOUS
10
109.4044943101
20
155.0499330962
11
108.2044943101
21
155.0499330962
0
LINE
5
257
100
AcDbEntity
8
0
100
AcDbLine
62
7
6
CONTINUOUS
10
127.0044943101
20
155.0499330962
11
128.2044943101
21
155.0499330962
0
LINE
5
258
100
AcDbEntity
8
0
100
AcDbLine
62
7
6
CONTINUOUS
10
120.2044943101
20
155.4499330962
11
116.2044943101
21
156.7832663501
0
LINE
5
259
100
AcDbEntity
8
0
100
AcDbLine
62
7
6
CONTINUOUS
10
116.2044943101
20
156.2832663501
11
119.6938560135
21
155.1165997231
0
LINE
5
25A
100
AcDbEntity
8
0
100
AcDbLine
62
7
6
CONTINUOUS
10
116.2044943101
20
165.5332661117
11
116.2896006829
21
165.1166000808
0
LINE
5
25B
100
AcDbEntity
8
0
100
AcDbLine
62
7
6
CONTINUOUS
10
118.7576858527
20
162.3666000808
11
118.7576858527
21
163.5332661117
0
LINE
5
25C
100
AcDbEntity
8
0
100
AcDbLine
62
7
6
CONTINUOUS
10
119.6938560135
20
172.2832670653
11
119.6938560135
21
169.7832670653
0
LINE
5
25D
100
AcDbEntity
8
0
100
AcDbLine
62
7
6
CONTINUOUS
10
119.6938560135
20
166.2832661117
11
119.6938560135
21
165.5332661117
0
LINE
5
25E
100
AcDbEntity
8
0
100
AcDbLine
62
7
6
CONTINUOUS
10
119.7789623863
20
178.6165991271
11
119.7789623863
21
178.2832670653
0
LINE
5
25F
100
AcDbEntity
8
0
100
AcDbLine
62
7
6
CONTINUOUS
10
120.2044943101
20
154.7832664693
11
120.2044943101
21
155.4499330962
0
LINE
5
260
100
AcDbEntity
8
0
100
AcDbLine
62
7
6
CONTINUOUS
10
120.2044943101
20
157.4499330962
11
120.2044943101
21
157.9499330962
0
LINE
5
261
100
AcDbEntity
8
0
100
AcDbLine
62
7
6
CONTINUOUS
10
120.2044943101
20
158.6165996039
11
120.2044943101
21
159.1165996039
0
LINE
5
262
100
AcDbEntity
8
0
100
AcDbLine
62
7
6
CONTINUOUS
10
120.2044943101
20
165.5332661117
11
120.2044943101
21
166.2832661117
0
LINE
5
263
100
AcDbEntity
8
0
100
AcDbLine
62
7
6
CONTINUOUS
10
120.2044943101
20
168.1166000808
11
120.2044943101
21
168.6166000808
0
LINE
5
264
100
AcDbEntity
8
0
100
AcDbLine
62
7
6
CONTINUOUS
10
120.2044943101
20
169.2832661117
11
120.2044943101
21
172.2832670653
0
LINE
5
265
100
AcDbEntity
8
0
100
AcDbLine
62
7
6
CONTINUOUS
10
120.2044943101
20
178.1999330962
11
120.2044943101
21
178.6999330962
0
LINE
5
266
100
AcDbEntity
8
0
100
AcDbLine
62
7
6
CONTINUOUS
10
119.6938560135
20
155.1165997231
11
116.2044943101
21
153.9499330962
0
LINE
5
267
100
AcDbEntity
8
0
100
AcDbLine
62
7
6
CONTINUOUS
10
116.2044943101
20
153.4499330962
11
120.2044943101
21
154.7832664693
0
LINE
5
268
100
AcDbEntity
8
0
100
AcDbLine
62
7
6
CONTINUOUS
10
116.2044943101
20
157.4499330962
11
120.2044943101
21
157.4499330962
0
LINE
5
269
100
AcDbEntity
8
0
100
AcDbLine
62
7
6
CONTINUOUS
10
120.2044943101
20
157.9499330962
11
116.2044943101
21
157.9499330962
0
LINE
5
26A
100
AcDbEntity
8
0
100
AcDbLine
62
7
6
CONTINUOUS
10
116.2044943101
20
158.6165996039
11
120.2044943101
21
158.6165996039
0
LINE
5
26B
100
AcDbEntity
8
0
100
AcDbLine
62
7
6
CONTINUOUS
10
116.2896006829
20
165.1166000808
11
116.4598134286
21
164.7832661117
0
LINE
5
26C
100
AcDbEntity
8
0
100
AcDbLine
62
7
6
CONTINUOUS
10
117.8215156324
20
160.9499330962
11
117.9066220052
21
160.6999330962
0
LINE
5
26D
100
AcDbEntity
8
0
100
AcDbLine
62
7
6
CONTINUOUS
10
116.8002389199
20
165.1999330962
11
116.7151325471
21
165.5332661117
0
LINE
5
26E
100
AcDbEntity
8
0
100
AcDbLine
62
7
6
CONTINUOUS
10
118.4172602422
20
160.6165996039
11
118.3321538694
21
161.0332665885
0
LINE
5
26F
100
AcDbEntity
8
0
100
AcDbLine
62
7
6
CONTINUOUS
10
116.2044943101
20
178.2832670653
11
116.2896006829
21
177.8665991271
0
LINE
5
270
100
AcDbEntity
8
0
100
AcDbLine
62
7
6
CONTINUOUS
10
120.2044943101
20
159.1165996039
11
118.4172602422
21
159.1165996039
0
LINE
5
271
100
AcDbEntity
8
0
100
AcDbLine
62
7
6
CONTINUOUS
10
117.9066220052
20
159.1165996039
11
116.6300261743
21
159.1165996039
0
LINE
5
272
100
AcDbEntity
8
0
100
AcDbLine
62
7
6
CONTINUOUS
10
117.3959837682
20
161.1999330962
11
117.6513028867
21
161.1165996039
0
LINE
5
273
100
AcDbEntity
8
0
100
AcDbLine
62
7
6
CONTINUOUS
10
118.0768347509
20
161.3665996039
11
117.7364092595
21
161.6166000808
0
LINE
5
274
100
AcDbEntity
8
0
100
AcDbLine
62
7
6
CONTINUOUS
10
117.6513028867
20
161.1165996039
11
117.8215156324
21
160.9499330962
0
LINE
5
275
100
AcDbEntity
8
0
100
AcDbLine
62
7
6
CONTINUOUS
10
116.4598134286
20
164.7832661117
11
116.8002389199
21
164.4499330962
0
LINE
5
276
100
AcDbEntity
8
0
100
AcDbLine
62
7
6
CONTINUOUS
10
118.3321538694
20
161.0332665885
11
118.0768347509
21
161.3665996039
0
LINE
5
277
100
AcDbEntity
8
0
100
AcDbLine
62
7
6
CONTINUOUS
10
116.9704516656
20
164.9499330962
11
116.8002389199
21
165.1999330962
0
LINE
5
278
100
AcDbEntity
8
0
100
AcDbLine
62
7
6
CONTINUOUS
10
116.7151325471
20
177.9499330962
11
116.6300261743
21
178.2832670653
0
LINE
5
279
100
AcDbEntity
8
0
100
AcDbLine
62
7
6
CONTINUOUS
10
119.6087496407
20
166.6166000808
11
119.6938560135
21
166.2832661117
0
LINE
5
27A
100
AcDbEntity
8
0
100
AcDbLine
62
7
6
CONTINUOUS
10
120.2044943101
20
166.2832661117
11
120.1193879298
21
166.6999330962
0
LINE
5
27B
100
AcDbEntity
8
0
100
AcDbLine
62
7
6
CONTINUOUS
10
117.1406644113
20
161.1999330962
11
117.3959837682
21
161.1999330962
0
LINE
5
27C
100
AcDbEntity
8
0
100
AcDbLine
62
7
6
CONTINUOUS
10
117.4810901410
20
161.6999330962
11
117.1406644113
21
161.6999330962
0
LINE
5
27D
100
AcDbEntity
8
0
100
AcDbLine
62
7
6
CONTINUOUS
10
118.3321538694
20
162.3666000808
11
118.7576858527
21
162.3666000808
0
LINE
5
27E
100
AcDbEntity
8
DEFAULT_2
100
AcDbLine
62
8
6
HIDDEN
10
108.2044943101
20
162.6499330962
11
128.2044943101
21
162.6499330962
0
LINE
5
27F
100
AcDbEntity
8
0
100
AcDbLine
62
7
6
CONTINUOUS
10
117.7364092595
20
161.6166000808
11
117.4810901410
21
161.6999330962
0
LINE
5
280
100
AcDbEntity
8
0
100
AcDbLine
62
7
6
CONTINUOUS
10
116.8002389199
20
164.4499330962
11
117.1406644113
21
164.2832661117
0
LINE
5
281
100
AcDbEntity
8
0
100
AcDbLine
62
7
6
CONTINUOUS
10
117.2257710225
20
164.7832661117
11
116.9704516656
21
164.9499330962
0
LINE
5
282
100
AcDbEntity
8
0
100
AcDbLine
62
7
6
CONTINUOUS
10
119.4385368354
20
166.8666000808
11
119.6087496407
21
166.6166000808
0
LINE
5
283
100
AcDbEntity
8
0
100
AcDbLine
62
7
6
CONTINUOUS
10
120.1193879298
20
166.6999330962
11
119.9491751618
21
167.0332661117
0
LINE
5
284
100
AcDbEntity
8
0
100
AcDbLine
62
7
6
CONTINUOUS
10
117.9066220052
20
178.9499330962
11
117.9917283780
21
178.6165991271
0
LINE
5
285
100
AcDbEntity
8
0
100
AcDbLine
62
7
6
CONTINUOUS
10
118.4172602422
20
177.9499330962
11
118.3321538694
21
178.2832670653
0
LINE
5
286
100
AcDbEntity
8
0
100
AcDbLine
62
7
6
CONTINUOUS
10
119.6938560135
20
178.9499330962
11
119.7789623863
21
178.6165991271
0
LINE
5
287
100
AcDbEntity
8
0
100
AcDbLine
62
7
6
CONTINUOUS
10
120.2044943101
20
178.6999330962
11
120.1193879298
21
179.1165991271
0
LINE
5
288
100
AcDbEntity
8
0
100
AcDbLine
62
7
6
CONTINUOUS
10
127.0044943101
20
189.4499330962
11
127.0044943101
21
153.4499330962
0
LINE
5
289
100
AcDbEntity
8
0
100
AcDbLine
62
7
6
CONTINUOUS
10
119.1832177169
20
164.7832661117
11
118.8427922256
21
164.6999330962
0
LINE
5
28A
100
AcDbEntity
8
0
100
AcDbLine
62
7
6
CONTINUOUS
10
118.8427922256
20
164.1999330962
11
119.2683240897
21
164.2832661117
0
LINE
5
28B
100
AcDbEntity
8
0
100
AcDbLine
62
7
6
CONTINUOUS
10
118.7576858527
20
163.5332661117
11
118.3321538694
21
163.5332661117
0
LINE
5
28C
100
AcDbEntity
8
0
100
AcDbLine
62
7
6
CONTINUOUS
10
117.5661965139
20
164.1999330962
11
118.8427922256
21
164.1999330962
0
LINE
5
28D
100
AcDbEntity
8
0
100
AcDbLine
62
7
6
CONTINUOUS
10
118.8427922256
20
164.6999330962
11
117.5661965139
21
164.6999330962
0
LINE
5
28E
100
AcDbEntity
8
0
100
AcDbLine
62
7
6
CONTINUOUS
10
117.1406644113
20
164.2832661117
11
117.5661965139
21
164.1999330962
0
LINE
5
28F
100
AcDbEntity
8
0
100
AcDbLine
62
7
6
CONTINUOUS
10
117.5661965139
20
164.6999330962
11
117.2257710225
21
164.7832661117
0
LINE
5
290
100
AcDbEntity
8
0
100
AcDbLine
62
7
6
CONTINUOUS
10
119.9491751618
20
167.0332661117
11
119.6087496407
21
167.3666000808
0
LINE
5
291
100
AcDbEntity
8
0
100
AcDbLine
62
7
6
CONTINUOUS
10
128.2044943101
20
183.8499330962
11
128.2044943101
21
155.0499330962
0
LINE
5
292
100
AcDbEntity
8
0
100
AcDbLine
62
7
6
CONTINUOUS
10
128.2044943101
20
153.4499330962
11
128.2044943101
21
133.0880785719
0
LINE
5
293
100
AcDbEntity
8
0
100
AcDbLine
62
7
6
CONTINUOUS
10
128.2044943101
20
133.0461414563
11
128.2044943101
21
131.0461414563
0
LINE
5
294
100
AcDbEntity
8
0
100
AcDbLine
62
7
6
CONTINUOUS
10
117.2257710225
20
167.4499330962
11
116.8002389199
21
167.3666000808
0
LINE
5
295
100
AcDbEntity
8
0
100
AcDbLine
62
7
6
CONTINUOUS
10
117.9917283780
20
166.1999330962
11
118.5023666150
21
166.1999330962
0
LINE
5
296
100
AcDbEntity
8
0
100
AcDbLine
62
7
6
CONTINUOUS
10
118.5023666150
20
166.9499330962
11
119.1832177169
21
166.9499330962
0
LINE
5
297
100
AcDbEntity
8
0
100
AcDbLine
62
7
6
CONTINUOUS
10
119.2683240897
20
167.4499330962
11
117.9917283780
21
167.4499330962
0
LINE
5
298
100
AcDbEntity
8
0
100
AcDbLine
62
7
6
CONTINUOUS
10
116.2044943101
20
168.1166000808
11
120.2044943101
21
168.1166000808
0
LINE
5
299
100
AcDbEntity
8
0
100
AcDbLine
62
7
6
CONTINUOUS
10
119.6087496407
20
167.3666000808
11
119.2683240897
21
167.4499330962
0
LINE
5
29A
100
AcDbEntity
8
0
100
AcDbLine
62
7
6
CONTINUOUS
10
119.1832177169
20
166.9499330962
11
119.4385368354
21
166.8666000808
0
LINE
5
29B
100
AcDbEntity
8
0
100
AcDbLine
62
7
6
CONTINUOUS
10
116.2896006829
20
177.8665991271
11
116.5449198014
21
177.4499330962
0
LINE
5
29C
100
AcDbEntity
8
0
100
AcDbLine
62
7
6
CONTINUOUS
10
118.1619411237
20
177.6165991271
11
118.2470474965
21
177.4499330962
0
LINE
5
29D
100
AcDbEntity
8
0
100
AcDbLine
62
7
6
CONTINUOUS
10
118.5874729879
20
177.6165991271
11
118.4172602422
21
177.9499330962
0
LINE
5
29E
100
AcDbEntity
8
0
100
AcDbLine
62
7
6
CONTINUOUS
10
118.1619411237
20
179.2832670653
11
118.0768347509
21
179.4499330962
0
LINE
5
29F
100
AcDbEntity
8
0
100
AcDbLine
62
7
6
CONTINUOUS
10
119.5236432678
20
179.2832670653
11
119.6938560135
21
178.9499330962
0
LINE
5
2A0
100
AcDbEntity
8
0
100
AcDbLine
62
7
6
CONTINUOUS
10
120.2044943101
20
168.6166000808
11
116.2044943101
21
168.6166000808
0
LINE
5
2A1
100
AcDbEntity
8
0
100
AcDbLine
62
7
6
CONTINUOUS
10
116.2044943101
20
169.2832661117
11
120.2044943101
21
169.2832661117
0
LINE
5
2A2
100
AcDbEntity
8
DEFAULT_1
100
AcDbLine
62
2
6
CENTER
10
131.2044943101
20
169.4499330962
11
105.2044943101
21
169.4499330962
0
LINE
5
2A3
100
AcDbEntity
8
0
100
AcDbLine
62
7
6
CONTINUOUS
10
119.6938560135
20
169.7832670653
11
116.2044943101
21
169.7832670653
0
LINE
5
2A4
100
AcDbEntity
8
0
100
AcDbLine
62
7
6
CONTINUOUS
10
116.5449198014
20
177.4499330962
11
116.8002389199
21
177.1999330962
0
LINE
5
2A5
100
AcDbEntity
8
0
100
AcDbLine
62
7
6
CONTINUOUS
10
116.9704516656
20
177.6165991271
11
116.7151325471
21
177.9499330962
0
LINE
5
2A6
100
AcDbEntity
8
0
100
AcDbLine
62
7
6
CONTINUOUS
10
118.2470474965
20
177.4499330962
11
118.5023666150
21
177.1165991271
0
LINE
5
2A7
100
AcDbEntity
8
0
100
AcDbLine
62
7
6
CONTINUOUS
10
117.6513028867
20
179.2832670653
11
117.9066220052
21
178.9499330962
0
LINE
5
2A8
100
AcDbEntity
8
0
100
AcDbLine
62
7
6
CONTINUOUS
10
120.1193879298
20
179.1165991271
11
119.8640687890
21
179.5332670653
0
LINE
5
2A9
100
AcDbEntity
8
0
100
AcDbLine
62
7
6
CONTINUOUS
10
120.2044943101
20
172.2832670653
11
119.6938560135
21
172.2832670653
0
LINE
5
2AA
100
AcDbEntity
8
0
100
AcDbLine
62
7
6
CONTINUOUS
10
118.0768347509
20
179.4499330962
11
117.8215156324
21
179.6999330962
0
LINE
5
2AB
100
AcDbEntity
8
0
100
AcDbLine
62
7
6
CONTINUOUS
10
117.2257710225
20
177.4499330962
11
116.9704516656
21
177.6165991271
0
LINE
5
2AC
100
AcDbEntity
8
0
100
AcDbLine
62
7
6
CONTINUOUS
10
118.9278985984
20
177.3665991271
11
118.5874729879
21
177.6165991271
0
LINE
5
2AD
100
AcDbEntity
8
0
100
AcDbLine
62
7
6
CONTINUOUS
10
119.8640687890
20
179.5332670653
11
119.6087496407
21
179.7832670653
0
LINE
5
2AE
100
AcDbEntity
8
DEFAULT_2
100
AcDbLine
62
8
6
HIDDEN
10
108.2044943101
20
176.2499330962
11
128.2044943101
21
176.2499330962
0
LINE
5
2AF
100
AcDbEntity
8
0
100
AcDbLine
62
7
6
CONTINUOUS
10
118.9278985984
20
176.9499330962
11
119.1832177169
21
176.9499330962
0
LINE
5
2B0
100
AcDbEntity
8
0
100
AcDbLine
62
7
6
CONTINUOUS
10
117.2257710225
20
177.0332670653
11
117.4810901410
21
177.0332670653
0
LINE
5
2B1
100
AcDbEntity
8
0
100
AcDbLine
62
7
6
CONTINUOUS
10
116.8002389199
20
177.1999330962
11
117.2257710225
21
177.0332670653
0
LINE
5
2B2
100
AcDbEntity
8
0
100
AcDbLine
62
7
6
CONTINUOUS
10
118.5023666150
20
177.1165991271
11
118.9278985984
21
176.9499330962
0
LINE
5
2B3
100
AcDbEntity
8
0
100
AcDbLine
62
7
6
CONTINUOUS
10
117.8215156324
20
179.6999330962
11
117.4810901410
21
179.8665991271
0
LINE
5
2B4
100
AcDbEntity
8
0
100
AcDbLine
62
7
6
CONTINUOUS
10
117.3959837682
20
179.4499330962
11
117.6513028867
21
179.2832670653
0
LINE
5
2B5
100
AcDbEntity
8
0
100
AcDbLine
62
7
6
CONTINUOUS
10
119.1832177169
20
179.5332670653
11
119.5236432678
21
179.2832670653
0
LINE
5
2B6
100
AcDbEntity
8
0
100
AcDbLine
62
7
6
CONTINUOUS
10
119.1832177169
20
177.3665991271
11
118.9278985984
21
177.3665991271
0
LINE
5
2B7
100
AcDbEntity
8
0
100
AcDbLine
62
7
6
CONTINUOUS
10
117.3959837682
20
177.4499330962
11
117.2257710225
21
177.4499330962
0
LINE
5
2B8
100
AcDbEntity
8
0
100
AcDbLine
62
7
6
CONTINUOUS
10
117.2257710225
20
179.4499330962
11
117.3959837682
21
179.4499330962
0
LINE
5
2B9
100
AcDbEntity
8
0
100
AcDbLine
62
7
6
CONTINUOUS
10
118.9278985984
20
179.5332670653
11
119.1832177169
21
179.5332670653
0
LINE
5
2BA
100
AcDbEntity
8
0
100
AcDbLine
62
7
6
CONTINUOUS
10
119.6087496407
20
179.7832670653
11
119.1832177169
21
179.9499330962
0
LINE
5
2BB
100
AcDbEntity
8
0
100
AcDbLine
62
7
6
CONTINUOUS
10
117.4810901410
20
179.8665991271
11
117.2257710225
21
179.8665991271
0
LINE
5
2BC
100
AcDbEntity
8
0
100
AcDbLine
62
7
6
CONTINUOUS
10
119.1832177169
20
179.9499330962
11
118.9278985984
21
179.9499330962
0
LINE
5
2BD
100
AcDbEntity
8
0
100
AcDbLine
62
7
6
CONTINUOUS
10
109.4044943101
20
183.8499330962
11
108.2044943101
21
183.8499330962
0
LINE
5
2BE
100
AcDbEntity
8
0
100
AcDbLine
62
7
6
CONTINUOUS
10
127.0044943101
20
183.8499330962
11
128.2044943101
21
183.8499330962
0
LINE
5
2BF
100
AcDbEntity
8
0
100
AcDbLine
62
7
6
CONTINUOUS
10
109.4044943101
20
189.4499330962
11
127.0044943101
21
189.4499330962
0
LINE
5
2C0
100
AcDbEntity
8
0
100
AcDbLine
62
7
6
CONTINUOUS
10
251.5601546244
20
123.0461414563
11
258.0311736823
21
123.0461414563
0
LINE
5
2C1
100
AcDbEntity
8
0
100
AcDbLine
62
7
6
CONTINUOUS
10
266.8311736823
20
123.0461414563
11
273.3021927401
21
123.0461414563
0
LINE
5
2C2
100
AcDbEntity
8
0
100
AcDbLine
62
7
6
CONTINUOUS
10
244.0311736823
20
125.5939330962
11
250.5340941944
21
123.2270635940
0
LINE
5
2C3
100
AcDbEntity
8
0
100
AcDbLine
62
7
6
CONTINUOUS
10
258.0311736823
20
128.6461414563
11
266.8311736823
21
128.6461414563
0
LINE
5
2C4
100
AcDbEntity
8
DEFAULT_1
100
AcDbLine
62
2
6
CENTER
10
276.0311736823
20
133.0461414563
11
271.0311736823
21
133.0461414563
0
LINE
5
2C5
100
AcDbEntity
8
DEFAULT_1
100
AcDbLine
62
2
6
CENTER
10
283.8311736823
20
133.0461414563
11
281.0311736823
21
133.0461414563
0
LINE
5
2C6
100
AcDbEntity
8
DEFAULT_1
100
AcDbLine
62
2
6
CENTER
10
271.0311736823
20
133.0461414563
11
241.0311736823
21
133.0461414563
0
LINE
5
2C7
100
AcDbEntity
8
DEFAULT_1
100
AcDbLine
62
2
6
CENTER
10
276.0311736823
20
133.0461414563
11
281.0311736823
21
133.0461414563
0
LINE
5
2C8
100
AcDbEntity
8
0
100
AcDbLine
62
7
6
CONTINUOUS
10
244.0311736823
20
125.5939330962
11
244.0311736823
21
189.4499330962
0
LINE
5
2C9
100
AcDbEntity
8
0
100
AcDbLine
62
7
6
CONTINUOUS
10
258.0311736823
20
137.4461414563
11
266.8311736823
21
137.4461414563
0
LINE
5
2CA
100
AcDbEntity
8
0
100
AcDbLine
62
7
6
CONTINUOUS
10
277.8789327473
20
132.2807745916
11
277.3246050278
21
132.5103846510
0
LINE
5
2CB
100
AcDbEntity
8
0
100
AcDbLine
62
7
6
CONTINUOUS
10
258.0311736823
20
142.6461414563
11
258.0311736823
21
123.0461414563
0
LINE
5
2CC
100
AcDbEntity
8
0
100
AcDbLine
62
7
6
CONTINUOUS
10
244.0311736823
20
153.4499330962
11
281.2311736823
21
153.4499330962
0
LINE
5
2CD
100
AcDbEntity
8
0
100
AcDbLine
62
7
6
CONTINUOUS
10
280.8311736823
20
153.9499330962
11
281.2311736823
21
153.9499330962
0
LINE
5
2CE
100
AcDbEntity
8
DEFAULT_1
100
AcDbLine
62
2
6
CENTER
10
262.4311736823
20
169.4499330962
11
262.4311736823
21
120.8363095238
0
LINE
5
2CF
100
AcDbEntity
8
DEFAULT_1
100
AcDbLine
62
2
6
CENTER
10
262.4311736823
20
169.4499330962
11
262.4311736823
21
195.1220238095
0
LINE
5
2D0
100
AcDbEntity
8
0
100
AcDbLine
62
7
6
CONTINUOUS
10
280.8311736823
20
155.1165997231
11
281.2311736823
21
155.1165997231
0
LINE
5
2D1
100
AcDbEntity
8
0
100
AcDbLine
62
7
6
CONTINUOUS
10
280.8311736823
20
156.2832663501
11
281.2311736823
21
156.2832663501
0
LINE
5
2D2
100
AcDbEntity
8
0
100
AcDbLine
62
7
6
CONTINUOUS
10
280.8311736823
20
156.7832663501
11
281.2311736823
21
156.7832663501
0
LINE
5
2D3
100
AcDbEntity
8
0
100
AcDbLine
62
7
6
CONTINUOUS
10
280.8311736823
20
157.4499330962
11
281.2311736823
21
157.4499330962
0
LINE
5
2D4
100
AcDbEntity
8
0
100
AcDbLine
62
7
6
CONTINUOUS
10
280.8311736823
20
157.9499330962
11
281.2311736823
21
157.9499330962
0
LINE
5
2D5
100
AcDbEntity
8
0
100
AcDbLine
62
7
6
CONTINUOUS
10
280.8311736823
20
158.6165996039
11
281.2311736823
21
158.6165996039
0
LINE
5
2D6
100
AcDbEntity
8
0
100
AcDbLine
62
7
6
CONTINUOUS
10
266.8311736823
20
123.0461414563
11
266.8311736823
21
142.6461414563
0
LINE
5
2D7
100
AcDbEntity
8
0
100
AcDbLine
62
7
6
CONTINUOUS
10
280.8311736823
20
160.6165996039
11
281.2311736823
21
160.6165996039
0
LINE
5
2D8
100
AcDbEntity
8
0
100
AcDbLine
62
7
6
CONTINUOUS
10
280.8311736823
20
161.0332665885
11
281.2311736823
21
161.0332665885
0
LINE
5
2D9
100
AcDbEntity
8
0
100
AcDbLine
62
7
6
CONTINUOUS
10
280.8311736823
20
161.3665996039
11
281.2311736823
21
161.3665996039
0
LINE
5
2DA
100
AcDbEntity
8
0
100
AcDbLine
62
7
6
CONTINUOUS
10
280.8311736823
20
161.6166000808
11
281.2311736823
21
161.6166000808
0
LINE
5
2DB
100
AcDbEntity
8
0
100
AcDbLine
62
7
6
CONTINUOUS
10
280.8311736823
20
161.6999330962
11
281.2311736823
21
161.6999330962
0
LINE
5
2DC
100
AcDbEntity
8
0
100
AcDbLine
62
7
6
CONTINUOUS
10
280.8311736823
20
162.3666000808
11
281.2311736823
21
162.3666000808
0
LINE
5
2DD
100
AcDbEntity
8
0
100
AcDbLine
62
7
6
CONTINUOUS
10
280.8311736823
20
163.5332661117
11
281.2311736823
21
163.5332661117
0
LINE
5
2DE
100
AcDbEntity
8
0
100
AcDbLine
62
7
6
CONTINUOUS
10
280.8311736823
20
164.1999330962
11
281.2311736823
21
164.1999330962
0
LINE
5
2DF
100
AcDbEntity
8
0
100
AcDbLine
62
7
6
CONTINUOUS
10
280.8311736823
20
164.2832661117
11
281.2311736823
21
164.2832661117
0
LINE
5
2E0
100
AcDbEntity
8
0
100
AcDbLine
62
7
6
CONTINUOUS
10
280.8311736823
20
164.4499330962
11
281.2311736823
21
164.4499330962
0
LINE
5
2E1
100
AcDbEntity
8
0
100
AcDbLine
62
7
6
CONTINUOUS
10
280.8311736823
20
164.7832661117
11
281.2311736823
21
164.7832661117
0
LINE
5
2E2
100
AcDbEntity
8
0
100
AcDbLine
62
7
6
CONTINUOUS
10
280.8311736823
20
165.1166000808
11
281.2311736823
21
165.1166000808
0
LINE
5
2E3
100
AcDbEntity
8
0
100
AcDbLine
62
7
6
CONTINUOUS
10
280.8311736823
20
165.5332661117
11
281.2311736823
21
165.5332661117
0
LINE
5
2E4
100
AcDbEntity
8
0
100
AcDbLine
62
7
6
CONTINUOUS
10
280.8311736823
20
166.2832661117
11
281.2311736823
21
166.2832661117
0
LINE
5
2E5
100
AcDbEntity
8
0
100
AcDbLine
62
7
6
CONTINUOUS
10
280.8311736823
20
166.6999330962
11
281.2311736823
21
166.6999330962
0
LINE
5
2E6
100
AcDbEntity
8
0
100
AcDbLine
62
7
6
CONTINUOUS
10
280.8311736823
20
167.0332661117
11
281.2311736823
21
167.0332661117
0
LINE
5
2E7
100
AcDbEntity
8
0
100
AcDbLine
62
7
6
CONTINUOUS
10
280.8311736823
20
167.3666000808
11
281.2311736823
21
167.3666000808
0
LINE
5
2E8
100
AcDbEntity
8
0
100
AcDbLine
62
7
6
CONTINUOUS
10
280.8311736823
20
167.4499330962
11
281.2311736823
21
167.4499330962
0
LINE
5
2E9
100
AcDbEntity
8
0
100
AcDbLine
62
7
6
CONTINUOUS
10
280.8311736823
20
168.1166000808
11
281.2311736823
21
168.1166000808
0
LINE
5
2EA
100
AcDbEntity
8
0
100
AcDbLine
62
7
6
CONTINUOUS
10
280.8311736823
20
168.6166000808
11
281.2311736823
21
168.6166000808
0
LINE
5
2EB
100
AcDbEntity
8
DEFAULT_1
100
AcDbLine
62
2
6
CENTER
10
276.0311736823
20
133.0461414563
11
276.0311736823
21
128.0461414563
0
LINE
5
2EC
100
AcDbEntity
8
DEFAULT_1
100
AcDbLine
62
2
6
CENTER
10
276.0311736823
20
133.0461414563
11
276.0311736823
21
138.0461414563
0
LINE
5
2ED
100
AcDbEntity
8
0
100
AcDbLine
62
7
6
CONTINUOUS
10
280.8311736823
20
169.2832661117
11
281.2311736823
21
169.2832661117
0
LINE
5
2EE
100
AcDbEntity
8
DEFAULT_1
100
AcDbLine
62
2
6
CENTER
10
262.4311736823
20
169.4499330962
11
240.4761904762
21
169.4499330962
0
LINE
5
2EF
100
AcDbEntity
8
DEFAULT_1
100
AcDbLine
62
2
6
CENTER
10
262.4311736823
20
169.4499330962
11
284.2857142857
21
169.4499330962
0
LINE
5
2F0
100
AcDbEntity
8
0
100
AcDbLine
62
7
6
CONTINUOUS
10
280.8311736823
20
169.7832670653
11
281.2311736823
21
169.7832670653
0
LINE
5
2F1
100
AcDbEntity
8
0
100
AcDbLine
62
7
6
CONTINUOUS
10
280.8311736823
20
172.2832670653
11
281.2311736823
21
172.2832670653
0
LINE
5
2F2
100
AcDbEntity
8
0
100
AcDbLine
62
7
6
CONTINUOUS
10
280.8311736823
20
189.4499330962
11
280.8311736823
21
125.5939330962
0
LINE
5
2F3
100
AcDbEntity
8
0
100
AcDbLine
62
7
6
CONTINUOUS
10
281.2311736823
20
179.9499330962
11
281.2311736823
21
176.9499330962
0
LINE
5
2F4
100
AcDbEntity
8
0
100
AcDbLine
62
7
6
CONTINUOUS
10
281.2311736823
20
172.2832670653
11
281.2311736823
21
169.2832661117
0
LINE
5
2F5
100
AcDbEntity
8
0
100
AcDbLine
62
7
6
CONTINUOUS
10
281.2311736823
20
168.6166000808
11
281.2311736823
21
168.1166000808
0
LINE
5
2F6
100
AcDbEntity
8
0
100
AcDbLine
62
7
6
CONTINUOUS
10
281.2311736823
20
167.4499330962
11
281.2311736823
21
164.1999330962
0
LINE
5
2F7
100
AcDbEntity
8
0
100
AcDbLine
62
7
6
CONTINUOUS
10
281.2311736823
20
163.5332661117
11
281.2311736823
21
162.3666000808
0
LINE
5
2F8
100
AcDbEntity
8
0
100
AcDbLine
62
7
6
CONTINUOUS
10
281.2311736823
20
161.6999330962
11
281.2311736823
21
158.6165996039
0
LINE
5
2F9
100
AcDbEntity
8
0
100
AcDbLine
62
7
6
CONTINUOUS
10
281.2311736823
20
157.9499330962
11
281.2311736823
21
157.4499330962
0
LINE
5
2FA
100
AcDbEntity
8
0
100
AcDbLine
62
7
6
CONTINUOUS
10
281.2311736823
20
156.7832663501
11
281.2311736823
21
153.4499330962
0
LINE
5
2FB
100
AcDbEntity
8
0
100
AcDbLine
62
7
6
CONTINUOUS
10
280.8311736823
20
176.9499330962
11
281.2311736823
21
176.9499330962
0
LINE
5
2FC
100
AcDbEntity
8
0
100
AcDbLine
62
7
6
CONTINUOUS
10
280.8311736823
20
177.0332670653
11
281.2311736823
21
177.0332670653
0
LINE
5
2FD
100
AcDbEntity
8
0
100
AcDbLine
62
7
6
CONTINUOUS
10
280.8311736823
20
177.1999330962
11
281.2311736823
21
177.1999330962
0
LINE
5
2FE
100
AcDbEntity
8
0
100
AcDbLine
62
7
6
CONTINUOUS
10
280.8311736823
20
177.4499330962
11
281.2311736823
21
177.4499330962
0
LINE
5
2FF
100
AcDbEntity
8
0
100
AcDbLine
62
7
6
CONTINUOUS
10
280.8311736823
20
177.8665991271
11
281.2311736823
21
177.8665991271
0
LINE
5
300
100
AcDbEntity
8
0
100
AcDbLine
62
7
6
CONTINUOUS
10
280.8311736823
20
178.2832670653
11
281.2311736823
21
178.2832670653
0
LINE
5
301
100
AcDbEntity
8
0
100
AcDbLine
62
7
6
CONTINUOUS
10
280.8311736823
20
178.6165991271
11
281.2311736823
21
178.6165991271
0
LINE
5
302
100
AcDbEntity
8
0
100
AcDbLine
62
7
6
CONTINUOUS
10
280.8311736823
20
179.0332670653
11
281.2311736823
21
179.0332670653
0
LINE
5
303
100
AcDbEntity
8
0
100
AcDbLine
62
7
6
CONTINUOUS
10
280.8311736823
20
179.4499330962
11
281.2311736823
21
179.4499330962
0
LINE
5
304
100
AcDbEntity
8
0
100
AcDbLine
62
7
6
CONTINUOUS
10
280.8311736823
20
179.6999330962
11
281.2311736823
21
179.6999330962
0
LINE
5
305
100
AcDbEntity
8
0
100
AcDbLine
62
7
6
CONTINUOUS
10
280.8311736823
20
179.8665991271
11
281.2311736823
21
179.8665991271
0
LINE
5
306
100
AcDbEntity
8
0
100
AcDbLine
62
7
6
CONTINUOUS
10
280.8311736823
20
179.9499330962
11
281.2311736823
21
179.9499330962
0
LINE
5
307
100
AcDbEntity
8
0
100
AcDbLine
62
7
6
CONTINUOUS
10
277.3246050278
20
133.5818982617
11
277.8789327473
21
133.8115083211
0
LINE
5
308
100
AcDbEntity
8
0
100
AcDbLine
62
7
6
CONTINUOUS
10
244.0311736823
20
189.4499330962
11
280.8311736823
21
189.4499330962
0
LINE
5
309
100
AcDbEntity
8
0
100
AcDbLine
62
7
6
CONTINUOUS
10
280.8311736823
20
125.5939330962
11
274.3282531701
21
123.2270635940
0
CIRCLE
5
30A
100
AcDbEntity
8
0
100
AcDbCircle
62
7
6
CONTINUOUS
10
118.2044943101
20
133.0461414563
40
4.4000000000
0
ARC
5
30B
100
AcDbEntity
8
0
100
AcDbCircle
62
7
6
CONTINUOUS
10
116.2044943101
20
131.0461414563
40
8.0000000000
100
AcDbArc
50
180.0000000000
51
270.0000000000
0
ARC
5
30C
100
AcDbEntity
8
0
100
AcDbCircle
62
7
6
CONTINUOUS
10
120.2044943101
20
131.0461414563
40
8.0000000000
100
AcDbArc
50
270.0000000000
51
360.0000000000
0
CIRCLE
5
30D
100
AcDbEntity
8
0
100
AcDbCircle
62
7
6
CONTINUOUS
10
262.4311736823
20
169.4499330962
40
6.8000000000
0
CIRCLE
5
30E
100
AcDbEntity
8
0
100
AcDbCircle
62
7
6
CONTINUOUS
10
262.4311736823
20
169.4499330962
40
14.4000000000
0
ARC
5
30F
100
AcDbEntity
8
0
100
AcDbCircle
62
7
6
CONTINUOUS
10
262.4311736823
20
142.6461414563
40
4.4000000000
100
AcDbArc
50
0.0000000000
51
180.0000000000
0
CIRCLE
5
310
100
AcDbEntity
8
0
100
AcDbCircle
62
7
6
CONTINUOUS
10
276.0311736823
20
133.0461414563
40
2.0000000000
0
ARC
5
311
100
AcDbEntity
8
0
100
AcDbCircle
62
7
6
CONTINUOUS
10
251.5601546244
20
126.0461414563
40
3.0000000000
100
AcDbArc
50
250.0000000000
51
270.0000000000
0
ARC
5
312
100
AcDbEntity
8
0
100
AcDbCircle
62
7
6
CONTINUOUS
10
273.3021927401
20
126.0461414563
40
3.0000000000
100
AcDbArc
50
270.0000000000
51
290.0000000000
0
ARC
5
313
100
AcDbEntity
8
0
100
AcDbCircle
62
7
6
CONTINUOUS
10
276.0311736823
20
133.0461414563
40
1.4000000000
100
AcDbArc
50
22.5000000000
51
337.5000000000
0
SPLINE
5
314
100
AcDbEntity
8
0
100
AcDbSpline
62
7
6
CONTINUOUS
70
0
71
3
72
9
73
5
74
3
42
0.0000001000
43
0.0000001000
44
0.0000000001
40
0.0000000000
40
0.0000000000
40
0.0000000000
40
0.0000000000
40
0.5001517608
40
1.0000000000
40
1.0000000000
40
1.0000000000
40
1.0000000000
10
108.2044943101
20
133.0880785719
30
0.0000000000
10
108.2044943101
20
133.0810869074
30
0.0000000000
10
108.2045107400
20
133.0671078168
30
0.0000000000
10
108.2045596471
20
133.0531288024
30
0.0000000000
10
108.2045921149
20
133.0461414563
30
0.0000000000
11
108.2044943101
21
133.0880785719
31
0.0000000000
11
108.2045188692
21
133.0671035929
31
0.0000000000
11
108.2045921149
21
133.0461414563
31
0.0000000000
0
SPLINE
5
315
100
AcDbEntity
8
0
100
AcDbSpline
62
7
6
CONTINUOUS
70
0
71
3
72
14
73
10
74
8
42
0.0000001000
43
0.0000001000
44
0.0000000001
40
0.0000000000
40
0.0000000000
40
0.0000000000
40
0.0000000000
40
0.0138621116
40
0.0710073479
40
0.1773688040
40
0.3383588543
40
0.5392347642
40
0.7655296718
40
1.0000000000
40
1.0000000000
40
1.0000000000
40
1.0000000000
10
128.1109410138
20
131.0492361766
30
0.0000000000
10
128.1053140238
20
131.0533145798
30
0.0000000000
10
128.0735798338
20
131.1056075819
30
0.0000000000
10
128.0992123838
20
131.2182538807
30
0.0000000000
10
128.0952549663
20
131.4386936154
30
0.0000000000
10
128.1315771681
20
131.7484269929
30
0.0000000000
10
128.1634443833
20
132.1406099135
30
0.0000000000
10
128.1945620928
20
132.5815281894
30
0.0000000000
10
128.2036684835
20
132.8894646887
30
0.0000000000
10
128.2043965053
20
133.0461414563
30
0.0000000000
11
128.1109410138
21
131.0492361766
31
0.0000000000
11
128.0945241865
21
131.0734576772
31
0.0000000000
11
128.0889700192
21
131.1878802332
31
0.0000000000
11
128.0997197107
21
131.4008285862
31
0.0000000000
11
128.1268076197
21
131.7224215380
31
0.0000000000
11
128.1613917527
21
132.1236233891
31
0.0000000000
11
128.1911470904
21
132.5762928544
31
0.0000000000
11
128.2043965053
21
133.0461414563
31
0.0000000000
0
SPLINE
5
316
100
AcDbEntity
8
0
100
AcDbSpline
62
7
6
CONTINUOUS
70
0
71
3
72
14
73
10
74
8
42
0.0000001000
43
0.0000001000
44
0.0000000001
40
0.0000000000
40
0.0000000000
40
0.0000000000
40
0.0000000000
40
0.2344703282
40
0.4607652358
40
0.6616411457
40
0.8226311960
40
0.9289926521
40
0.9861378884
40
1.0000000000
40
1.0000000000
40
1.0000000000
40
1.0000000000
10
108.2045921149
20
133.0461414563
30
0.0000000000
10
108.2053201367
20
132.8894646887
30
0.0000000000
10
108.2144265275
20
132.5815281894
30
0.0000000000
10
108.2455442369
20
132.1406099135
30
0.0000000000
10
108.2774114521
20
131.7484269929
30
0.0000000000
10
108.3137336539
20
131.4386936154
30
0.0000000000
10
108.3097762364
20
131.2182538807
30
0.0000000000
10
108.3354087864
20
131.1056075819
30
0.0000000000
10
108.3036745964
20
131.0533145798
30
0.0000000000
10
108.2980476064
20
131.0492361766
30
0.0000000000
11
108.2045921149
21
133.0461414563
31
0.0000000000
11
108.2178415298
21
132.5762928544
31
0.0000000000
11
108.2475968675
21
132.1236233891
31
0.0000000000
11
108.2821810005
21
131.7224215380
31
0.0000000000
11
108.3092689095
21
131.4008285862
31
0.0000000000
11
108.3200186010
21
131.1878802332
31
0.0000000000
11
108.3144644337
21
131.0734576772
31
0.0000000000
11
108.2980476064
21
131.0492361766
31
0.0000000000
0
SPLINE
5
317
100
AcDbEntity
8
0
100
AcDbSpline
62
7
6
CONTINUOUS
70
0
71
3
72
9
73
5
74
3
42
0.0000001000
43
0.0000001000
44
0.0000000001
40
0.0000000000
40
0.0000000000
40
0.0000000000
40
0.0000000000
40
0.4998482392
40
1.0000000000
40
1.0000000000
40
1.0000000000
40
1.0000000000
10
128.2043965053
20
133.0461414563
30
0.0000000000
10
128.2044289731
20
133.0531288024
30
0.0000000000
10
128.2044778802
20
133.0671078168
30
0.0000000000
10
128.2044943101
20
133.0810869074
30
0.0000000000
10
128.2044943101
20
133.0880785719
30
0.0000000000
11
128.2043965053
21
133.0461414563
31
0.0000000000
11
128.2044697510
21
133.0671035929
31
0.0000000000
11
128.2044943101
21
133.0880785719
31
0.0000000000
0
SPLINE
5
318
100
AcDbEntity
8
0
100
AcDbSpline
62
7
6
CONTINUOUS
70
0
71
3
72
10
73
6
74
4
42
0.0000001000
43
0.0000001000
44
0.0000000001
40
0.0000000000
40
0.0000000000
40
0.0000000000
40
0.0000000000
40
0.4637482130
40
0.8434060714
40
1.0000000000
40
1.0000000000
40
1.0000000000
40
1.0000000000
10
128.2044943101
20
131.7929745835
30
0.0000000000
10
128.2044943101
20
131.6954913026
30
0.0000000000
10
128.2002136369
20
131.5241391475
30
0.0000000000
10
128.1793647251
20
131.2958746514
30
0.0000000000
10
128.1624208035
20
131.2083352819
30
0.0000000000
10
128.1554919878
20
131.1755404055
30
0.0000000000
11
128.2044943101
21
131.7929745835
31
0.0000000000
11
128.1957647242
21
131.5006550581
31
0.0000000000
11
128.1718250999
21
131.2624343121
31
0.0000000000
11
128.1554919878
21
131.1755404055
31
0.0000000000
0
SPLINE
5
319
100
AcDbEntity
8
0
100
AcDbSpline
62
7
6
CONTINUOUS
70
0
71
3
72
10
73
6
74
4
42
0.0000001000
43
0.0000001000
44
0.0000000001
40
0.0000000000
40
0.0000000000
40
0.0000000000
40
0.0000000000
40
0.4395684492
40
0.9695821628
40
1.0000000000
40
1.0000000000
40
1.0000000000
40
1.0000000000
10
128.1554919878
20
131.1755404055
30
0.0000000000
10
128.1515207317
20
131.1567439969
30
0.0000000000
10
128.1413257269
20
131.1100433620
30
0.0000000000
10
128.1261382583
20
131.0403142700
30
0.0000000000
10
128.1117340972
20
131.0486613552
30
0.0000000000
10
128.1109410138
20
131.0492361766
30
0.0000000000
11
128.1554919878
21
131.1755404055
31
0.0000000000
11
128.1413455739
21
131.1101025316
31
0.0000000000
11
128.1132803314
21
131.0478949754
31
0.0000000000
11
128.1109410138
21
131.0492361766
31
0.0000000000
0
SPLINE
5
31A
100
AcDbEntity
8
0
100
AcDbSpline
62
7
6
CONTINUOUS
70
0
71
3
72
10
73
6
74
4
42
0.0000001000
43
0.0000001000
44
0.0000000001
40
0.0000000000
40
0.0000000000
40
0.0000000000
40
0.0000000000
40
0.0304178372
40
0.5604315508
40
1.0000000000
40
1.0000000000
40
1.0000000000
40
1.0000000000
10
108.2980476064
20
131.0492361766
30
0.0000000000
10
108.2972545230
20
131.0486613552
30
0.0000000000
10
108.2828503619
20
131.0403142700
30
0.0000000000
10
108.2676628933
20
131.1100433620
30
0.0000000000
10
108.2574678885
20
131.1567439969
30
0.0000000000
10
108.2534966324
20
131.1755404055
30
0.0000000000
11
108.2980476064
21
131.0492361766
31
0.0000000000
11
108.2957082888
21
131.0478949754
31
0.0000000000
11
108.2676430463
21
131.1101025316
31
0.0000000000
11
108.2534966324
21
131.1755404055
31
0.0000000000
0
SPLINE
5
31B
100
AcDbEntity
8
0
100
AcDbSpline
62
7
6
CONTINUOUS
70
0
71
3
72
10
73
6
74
4
42
0.0000001000
43
0.0000001000
44
0.0000000001
40
0.0000000000
40
0.0000000000
40
0.0000000000
40
0.0000000000
40
0.1565939286
40
0.5362517870
40
1.0000000000
40
1.0000000000
40
1.0000000000
40
1.0000000000
10
108.2534966324
20
131.1755404055
30
0.0000000000
10
108.2465678167
20
131.2083352819
30
0.0000000000
10
108.2296238951
20
131.2958746514
30
0.0000000000
10
108.2087749834
20
131.5241391475
30
0.0000000000
10
108.2044943101
20
131.6954913026
30
0.0000000000
10
108.2044943101
20
131.7929745835
30
0.0000000000
11
108.2534966324
21
131.1755404055
31
0.0000000000
11
108.2371635203
21
131.2624343121
31
0.0000000000
11
108.2132238960
21
131.5006550581
31
0.0000000000
11
108.2044943101
21
131.7929745835
31
0.0000000000
0
ENDSEC
0
SECTION
2
OBJECTS
0
DICTIONARY
5
31C
100
AcDbDictionary
3
ACAD_GROUP
350
31D
3
ACAD_MLINESTYLE
350
31E
0
DICTIONARY
5
31D
102
{ACAD_REACTORS
330
31C
102
}
100
AcDbDictionary
0
DICTIONARY
5
31E
102
{ACAD_REACTORS
330
31C
102
}
100
AcDbDictionary
3
STANDARD
350
31F
0
MLINESTYLE
5
31F
102
{ACAD_REACTORS
330
31E
102
}
100
AcDbMlineStyle
2
STANDARD
70
0
3

62
256
51
90.0
52
90.0
71
2
49
0.5
62
256
6
BYLAYER
49
-0.5
62
256
6
BYLAYER
0
ENDSEC
0
EOF
