999
DXF file: C:\Aktuell-Internet\CAD-Daten\2vcg16.dxf
999
Pro/ENGINEER 2001400 by Parametric Technology Corporation
0
SECTION
2
HEADER
9
$ACADVER
1
AC1014
9
$EXTMAX
10
420.0000000000
20
297.0000000000
9
$EXTMIN
10
0.0000000000
20
0.0000000000
9
$LIMMIN
10
0.0000000000
20
0.0000000000
9
$LIMMAX
10
420.0000000000
20
297.0000000000
9
$VIEWCTR
10
210.0000000000
20
148.5000000000
9
$VIEWSIZE
40
297.0000000000
9
$CLAYER
8
0
9
$LTSCALE
40
23.1000000000
9
$CELTYPE
6
BYLAYER
9
$DIMSCALE
40
1
9
$DIMASZ
40
3.5000000000
9
$DIMEXO
40
2.6250000000
9
$DIMDLI
40
15.9600000000
9
$DIMEXE
40
7.5600000000
9
$DIMCEN
40
3.7800000000
9
$DIMLFAC
40
1.0000000000
9
$DIMTXT
40
3.5000000000
9
$DIMTOL
70
1
9
$DIMTFAC
40
0.6000000000
9
$DIMTP
40
0.0050000000
9
$DIMTM
40
0.0050000000
9
$HANDSEED
5
469
0
ENDSEC
0
SECTION
2
CLASSES
0
ENDSEC
0
SECTION
2
TABLES
0
TABLE
2
VPORT
5
8
100
AcDbSymbolTable
70
2
0
VPORT
5
1F4
100
AcDbSymbolTableRecord
100
AcDbViewportTableRecord
2
*ACTIVE
70
0
10
0.0
20
0.0
11
1.0
21
1.0
12
210.0000000000
22
148.5000000000
13
0.0
23
0.0
14
1.0
24
1.0
15
0.0
25
0.0
16
0.0
26
0.0
36
1.0
17
0.0
27
0.0
37
0.0
40
297.0000000000
41
1.4141414141
42
50.0
43
0.0
44
0.0
50
0.0
51
0.0
71
0
72
100
73
1
74
1
75
0
76
0
77
0
78
0
0
ENDTAB
0
TABLE
2
LTYPE
5
5
100
AcDbSymbolTable
70
6
0
LTYPE
5
14
100
AcDbSymbolTableRecord
100
AcDbLinetypeTableRecord
2
BYBLOCK
70
0
3

72
65
73
0
40
0.0
0
LTYPE
5
15
100
AcDbSymbolTableRecord
100
AcDbLinetypeTableRecord
2
BYLAYER
70
0
3

72
65
73
0
40
0.0
0
LTYPE
5
16
100
AcDbSymbolTableRecord
100
AcDbLinetypeTableRecord
2
CONTINUOUS
70
64
3
Solid line
72
65
73
0
40
0
0
LTYPE
5
1F5
100
AcDbSymbolTableRecord
100
AcDbLinetypeTableRecord
2
CENTER
70
64
3
____ _ ____ _ ____ _ ____ _ ____ _ ____ _ ____
72
65
73
4
40
0.6
49
0.375
74
0
49
-0.075
74
0
49
0.075
74
0
49
-0.075
74
0
0
LTYPE
5
1F6
100
AcDbSymbolTableRecord
100
AcDbLinetypeTableRecord
2
HIDDEN
70
64
3
- - - - - - - - - - - - - - - - - - - -
72
65
73
2
40
0.2
49
0.1
74
0
49
-0.1
74
0
0
LTYPE
5
1F7
100
AcDbSymbolTableRecord
100
AcDbLinetypeTableRecord
2
PHANTOM
70
64
3
_____ _ _ _____ _ _ _____ _ _ _____
72
65
73
6
40
0.8
49
0.45
74
0
49
-0.05
74
0
49
0.1
74
0
49
-0.05
74
0
49
0.1
74
0
49
-0.05
74
0
0
LTYPE
5
1F8
100
AcDbSymbolTableRecord
100
AcDbLinetypeTableRecord
2
DOT
70
64
3
. . . . . . . . . . . . . . . . . . . .
72
65
73
2
40
0.2
49
0.1
74
0
49
-0.1
74
0
0
LTYPE
5
1F9
100
AcDbSymbolTableRecord
100
AcDbLinetypeTableRecord
2
DASHED
70
64
3
- - - - - - - - - - - - - - - - - - - -
72
65
73
2
40
0.2
49
0.1
74
0
49
-0.1
74
0
0
ENDTAB
0
TABLE
2
LAYER
5
2
100
AcDbSymbolTable
70
36
0
LAYER
5
10
100
AcDbSymbolTableRecord
100
AcDbLayerTableRecord
2
0
70
0
62
7
6
CONTINUOUS
0
LAYER
5
1FA
100
AcDbSymbolTableRecord
100
AcDbLayerTableRecord
2
DEFAULT_1
70
0
62
7
6
CENTER
0
LAYER
5
1FB
100
AcDbSymbolTableRecord
100
AcDbLayerTableRecord
2
DEFAULT_2
70
0
62
8
6
HIDDEN
0
LAYER
5
1FC
100
AcDbSymbolTableRecord
100
AcDbLayerTableRecord
2
DEFAULT_3
70
0
62
7
6
PHANTOM
0
ENDTAB
0
TABLE
2
STYLE
5
3
100
AcDbSymbolTable
70
1
0
STYLE
5
11
100
AcDbSymbolTableRecord
100
AcDbTextStyleTableRecord
2
STANDARD
70
0
40
0.0
41
1.0
50
0.0
71
0
42
0.0
3
txt
4

0
ENDTAB
0
TABLE
2
VIEW
5
6
100
AcDbSymbolTable
70
0
0
ENDTAB
0
TABLE
2
UCS
5
7
100
AcDbSymbolTable
70
0
0
ENDTAB
0
TABLE
2
APPID
5
9
100
AcDbSymbolTable
70
1
0
APPID
5
1FD
100
AcDbSymbolTableRecord
100
AcDbRegAppTableRecord
2
ACAD
70
0
0
ENDTAB
0
TABLE
2
DIMSTYLE
5
A
100
AcDbSymbolTable
70
1
0
DIMSTYLE
105
1FE
100
AcDbSymbolTableRecord
100
AcDbDimStyleTableRecord
2
STANDARD
70
0
3

4

5

6

7

40
1.0
41
0.18
42
0.0625
43
0.38
44
0.18
45
0.0
46
0.0
47
0.0050000000
48
0.0050000000
140
3.5000000000
141
0.09
142
0.0
143
25.4
144
1.0000000000
145
0.0
146
0.6000000000
147
0.09
71
1
72
0
73
1
74
1
75
0
76
0
77
0
78
0
170
0
171
2
172
0
173
0
174
0
175
0
176
0
177
0
178
0
270
2
271
3
272
4
273
2
274
2
340
11
275
0
280
0
281
0
282
0
283
1
284
0
285
0
286
0
287
3
288
0
0
ENDTAB
0
TABLE
2
BLOCK_RECORD
5
1
100
AcDbSymbolTable
70
0
0
BLOCK_RECORD
5
1B
100
AcDbSymbolTableRecord
100
AcDbBlockTableRecord
2
*MODEL_SPACE
0
BLOCK_RECORD
5
1C
100
AcDbSymbolTableRecord
100
AcDbBlockTableRecord
2
*PAPER_SPACE
0
ENDTAB
0
ENDSEC
0
SECTION
2
BLOCKS
0
BLOCK
5
1E
100
AcDbEntity
8
0
100
AcDbBlockBegin
2
*MODEL_SPACE
70
0
10
0.0
20
0.0
30
0.0
3
*MODEL_SPACE
1

0
ENDBLK
5
1F
100
AcDbEntity
8
0
100
AcDbBlockEnd
0
BLOCK
5
20
100
AcDbEntity
8
0
100
AcDbBlockBegin
2
*PAPER_SPACE
70
0
10
0.0
20
0.0
30
0.0
3
*PAPER_SPACE
1

0
ENDBLK
5
21
100
AcDbEntity
8
0
100
AcDbBlockEnd
0
ENDSEC
0
SECTION
2
ENTITIES
0
LINE
5
1FF
100
AcDbEntity
8
0
100
AcDbLine
62
7
6
CONTINUOUS
10
0.0000000000
20
0.0000000000
11
0.0000000000
21
297.0000000000
0
LINE
5
200
100
AcDbEntity
8
0
100
AcDbLine
62
7
6
CONTINUOUS
10
0.0000000000
20
0.0000000000
11
420.0000000000
21
0.0000000000
0
LINE
5
201
100
AcDbEntity
8
0
100
AcDbLine
62
7
6
CONTINUOUS
10
0.0000000000
20
297.0000000000
11
420.0000000000
21
297.0000000000
0
LINE
5
202
100
AcDbEntity
8
0
100
AcDbLine
62
7
6
CONTINUOUS
10
420.0000000000
20
0.0000000000
11
420.0000000000
21
297.0000000000
0
LINE
5
203
100
AcDbEntity
8
0
100
AcDbLine
62
7
6
CONTINUOUS
10
105.0409557601
20
170.7942341028
11
105.0409557601
21
140.7942341028
0
LINE
5
204
100
AcDbEntity
8
0
100
AcDbLine
62
7
6
CONTINUOUS
10
110.1452110549
20
177.5187255282
11
109.9409557601
21
176.8426404896
0
LINE
5
205
100
AcDbEntity
8
0
100
AcDbLine
62
7
6
CONTINUOUS
10
110.9622322341
20
176.9778581163
11
111.1664875289
21
177.3835079015
0
LINE
5
206
100
AcDbEntity
8
0
100
AcDbLine
62
7
6
CONTINUOUS
10
108.4911213248
20
170.7942341028
11
108.4911213248
21
140.7942341028
0
LINE
5
207
100
AcDbEntity
8
0
100
AcDbLine
62
7
6
CONTINUOUS
10
109.9409557601
20
176.8426404896
11
109.9409557601
21
173.5974422077
0
LINE
5
208
100
AcDbEntity
8
0
100
AcDbLine
62
7
6
CONTINUOUS
10
109.9409557601
20
172.5157104787
11
109.9409557601
21
171.7044109082
0
LINE
5
209
100
AcDbEntity
8
0
100
AcDbLine
62
7
6
CONTINUOUS
10
109.9409557601
20
170.6226791792
11
109.9409557601
21
169.8113796088
0
LINE
5
20A
100
AcDbEntity
8
0
100
AcDbLine
62
7
6
CONTINUOUS
10
109.9409557601
20
166.0253139149
11
109.9409557601
21
165.2140143445
0
LINE
5
20B
100
AcDbEntity
8
0
100
AcDbLine
62
7
6
CONTINUOUS
10
109.9409557601
20
158.9940499392
11
109.9409557601
21
158.4531856222
0
LINE
5
20C
100
AcDbEntity
8
0
100
AcDbLine
62
7
6
CONTINUOUS
10
109.9409557601
20
155.2079873403
11
109.9409557601
21
154.3966877698
0
LINE
5
20D
100
AcDbEntity
8
0
100
AcDbLine
62
7
6
CONTINUOUS
10
109.9409557601
20
144.1202255122
11
109.9409557601
21
142.9032761565
0
LINE
5
20E
100
AcDbEntity
8
0
100
AcDbLine
62
7
6
CONTINUOUS
10
109.9409557601
20
137.7650458015
11
109.9409557601
21
136.5480964458
0
LINE
5
20F
100
AcDbEntity
8
0
100
AcDbLine
62
7
6
CONTINUOUS
10
109.9409557601
20
133.3028977770
11
109.9409557601
21
132.4915982065
0
LINE
5
210
100
AcDbEntity
8
0
100
AcDbLine
62
7
6
CONTINUOUS
10
109.9409557601
20
128.7055336733
11
109.9409557601
21
127.8942341028
0
LINE
5
211
100
AcDbEntity
8
0
100
AcDbLine
62
7
6
CONTINUOUS
10
110.9622322341
20
158.3179679955
11
110.9622322341
21
159.1292675659
0
LINE
5
212
100
AcDbEntity
8
0
100
AcDbLine
62
7
6
CONTINUOUS
10
110.9622322341
20
174.4087417782
11
110.9622322341
21
176.9778581163
0
LINE
5
213
100
AcDbEntity
8
0
100
AcDbLine
62
7
6
CONTINUOUS
10
110.1452110549
20
159.6701349779
11
109.9409557601
21
158.9940499392
0
LINE
5
214
100
AcDbEntity
8
0
100
AcDbLine
62
7
6
CONTINUOUS
10
110.7579769393
20
178.0595898453
11
110.1452110549
21
177.5187255282
0
LINE
5
215
100
AcDbEntity
8
0
100
AcDbLine
62
7
6
CONTINUOUS
10
111.7792534133
20
135.6015800223
11
111.3707428237
21
136.0072298075
0
LINE
5
216
100
AcDbEntity
8
0
100
AcDbLine
62
7
6
CONTINUOUS
10
110.1452110549
20
135.8720129546
11
110.5537216445
21
135.3311470900
0
LINE
5
217
100
AcDbEntity
8
0
100
AcDbLine
62
7
6
CONTINUOUS
10
110.1452110549
20
142.2271926653
11
110.5537216445
21
141.6863268008
0
LINE
5
218
100
AcDbEntity
8
0
100
AcDbLine
62
7
6
CONTINUOUS
10
111.3707428237
20
136.0072298075
11
111.1664875289
21
136.5480964458
0
LINE
5
219
100
AcDbEntity
8
0
100
AcDbLine
62
7
6
CONTINUOUS
10
111.3707428237
20
142.3624102920
11
111.1664875289
21
142.9032761565
0
LINE
5
21A
100
AcDbEntity
8
0
100
AcDbLine
62
7
6
CONTINUOUS
10
109.9409557601
20
136.5480964458
11
110.1452110549
21
135.8720129546
0
LINE
5
21B
100
AcDbEntity
8
0
100
AcDbLine
62
7
6
CONTINUOUS
10
109.9409557601
20
142.9032761565
11
110.1452110549
21
142.2271926653
0
LINE
5
21C
100
AcDbEntity
8
0
100
AcDbLine
62
7
6
CONTINUOUS
10
111.1664875289
20
136.5480964458
11
111.1664875289
21
137.7650458015
0
LINE
5
21D
100
AcDbEntity
8
0
100
AcDbLine
62
7
6
CONTINUOUS
10
111.1664875289
20
142.9032761565
11
111.1664875289
21
144.1202255122
0
LINE
5
21E
100
AcDbEntity
8
0
100
AcDbLine
62
7
6
CONTINUOUS
10
112.1877640029
20
160.2109992949
11
112.1877640029
21
160.8870843336
0
LINE
5
21F
100
AcDbEntity
8
0
100
AcDbLine
62
7
6
CONTINUOUS
10
112.3920198699
20
138.8467783042
11
112.3920198699
21
139.6580778747
0
LINE
5
220
100
AcDbEntity
8
0
100
AcDbLine
62
7
6
CONTINUOUS
10
112.3920198699
20
145.2019587887
11
112.3920198699
21
146.0132583591
0
LINE
5
221
100
AcDbEntity
8
0
100
AcDbLine
62
7
6
CONTINUOUS
10
113.4132963439
20
159.1292675659
11
113.4132963439
21
158.4531856222
0
LINE
5
222
100
AcDbEntity
8
0
100
AcDbLine
62
7
6
CONTINUOUS
10
114.0260622283
20
176.9778581163
11
114.0260622283
21
174.4087417782
0
LINE
5
223
100
AcDbEntity
8
0
100
AcDbLine
62
7
6
CONTINUOUS
10
114.2303175231
20
146.0132583591
11
114.2303175231
21
143.9850094330
0
LINE
5
224
100
AcDbEntity
8
0
100
AcDbLine
62
7
6
CONTINUOUS
10
114.4345728179
20
158.3179679955
11
114.4345728179
21
159.2644851926
0
LINE
5
225
100
AcDbEntity
8
0
100
AcDbLine
62
7
6
CONTINUOUS
10
115.0473387023
20
164.1322826155
11
115.0473387023
21
162.2392482211
0
LINE
5
226
100
AcDbEntity
8
0
100
AcDbLine
62
7
6
CONTINUOUS
10
115.2515939971
20
174.4087417782
11
115.2515939971
21
176.8426404896
0
LINE
5
227
100
AcDbEntity
8
0
100
AcDbLine
62
7
6
CONTINUOUS
10
115.4558492919
20
143.9850094330
11
115.4558492919
21
145.2019587887
0
LINE
5
228
100
AcDbEntity
8
0
100
AcDbLine
62
7
6
CONTINUOUS
10
116.0686154624
20
162.2392482211
11
116.0686154624
21
164.1322826155
0
LINE
5
229
100
AcDbEntity
8
0
100
AcDbLine
62
7
6
CONTINUOUS
10
113.6175516387
20
159.8053495097
11
113.4132963439
21
159.1292675659
0
LINE
5
22A
100
AcDbEntity
8
0
100
AcDbLine
62
7
6
CONTINUOUS
10
110.1452110549
20
144.7963090034
11
109.9409557601
21
144.1202255122
0
LINE
5
22B
100
AcDbEntity
8
0
100
AcDbLine
62
7
6
CONTINUOUS
10
110.9622322341
20
159.1292675659
11
111.1664875289
21
159.5349173512
0
LINE
5
22C
100
AcDbEntity
8
0
100
AcDbLine
62
7
6
CONTINUOUS
10
111.1664875289
20
177.3835079015
11
111.5749981185
21
177.6539400601
0
LINE
5
22D
100
AcDbEntity
8
0
100
AcDbLine
62
7
6
CONTINUOUS
10
111.5749981185
20
178.4652396305
11
110.7579769393
21
178.0595898453
0
LINE
5
22E
100
AcDbEntity
8
0
100
AcDbLine
62
7
6
CONTINUOUS
10
110.5537216445
20
135.3311470900
11
111.3707428237
21
134.7902804518
0
LINE
5
22F
100
AcDbEntity
8
0
100
AcDbLine
62
7
6
CONTINUOUS
10
111.7792534133
20
141.9567605068
11
111.3707428237
21
142.3624102920
0
LINE
5
230
100
AcDbEntity
8
0
100
AcDbLine
62
7
6
CONTINUOUS
10
117.7026578208
20
138.7115614512
11
118.1111685535
21
138.3059116660
0
LINE
5
231
100
AcDbEntity
8
0
100
AcDbLine
62
7
6
CONTINUOUS
10
119.3367004474
20
138.4411285189
11
118.9281898042
21
138.9819951572
0
LINE
5
232
100
AcDbEntity
8
0
100
AcDbLine
62
7
6
CONTINUOUS
10
118.1111685535
20
138.3059116660
11
118.3154238483
21
137.7650458015
0
LINE
5
233
100
AcDbEntity
8
0
100
AcDbLine
62
7
6
CONTINUOUS
10
109.9409557601
20
158.4531856222
11
110.1452110549
21
157.7771005835
0
LINE
5
234
100
AcDbEntity
8
0
100
AcDbLine
62
7
6
CONTINUOUS
10
119.5409557601
20
137.7650458015
11
119.3367004474
21
138.4411285189
0
LINE
5
235
100
AcDbEntity
8
0
100
AcDbLine
62
7
6
CONTINUOUS
10
113.4132963439
20
158.4531856222
11
113.6175516387
21
157.7771005835
0
LINE
5
236
100
AcDbEntity
8
0
100
AcDbLine
62
7
6
CONTINUOUS
10
117.0898919364
20
139.6580778747
11
117.0898919364
21
138.8467783042
0
LINE
5
237
100
AcDbEntity
8
0
100
AcDbLine
62
7
6
CONTINUOUS
10
118.3154238483
20
144.1202255122
11
118.3154238483
21
142.9032761565
0
LINE
5
238
100
AcDbEntity
8
0
100
AcDbLine
62
7
6
CONTINUOUS
10
118.3154238483
20
137.7650458015
11
118.3154238483
21
136.5480964458
0
LINE
5
239
100
AcDbEntity
8
0
100
AcDbLine
62
7
6
CONTINUOUS
10
118.5196791431
20
159.2644851926
11
118.5196791431
21
158.3179679955
0
LINE
5
23A
100
AcDbEntity
8
0
100
AcDbLine
62
7
6
CONTINUOUS
10
119.5409557601
20
130.0576996886
11
119.5409557601
21
131.1394323847
0
LINE
5
23B
100
AcDbEntity
8
0
100
AcDbLine
62
7
6
CONTINUOUS
10
119.5409557601
20
136.5480964458
11
119.5409557601
21
137.7650458015
0
LINE
5
23C
100
AcDbEntity
8
0
100
AcDbLine
62
7
6
CONTINUOUS
10
119.5409557601
20
142.9032761565
11
119.5409557601
21
144.1202255122
0
LINE
5
23D
100
AcDbEntity
8
0
100
AcDbLine
62
7
6
CONTINUOUS
10
119.5409557601
20
154.3966877698
11
119.5409557601
21
155.2079873403
0
LINE
5
23E
100
AcDbEntity
8
0
100
AcDbLine
62
7
6
CONTINUOUS
10
119.5409557601
20
158.4531856222
11
119.5409557601
21
159.1292675659
0
LINE
5
23F
100
AcDbEntity
8
0
100
AcDbLine
62
7
6
CONTINUOUS
10
119.5409557601
20
167.3774808973
11
119.5409557601
21
168.4592126263
0
LINE
5
240
100
AcDbEntity
8
0
100
AcDbLine
62
7
6
CONTINUOUS
10
119.5409557601
20
171.7044109082
11
119.5409557601
21
172.5157104787
0
LINE
5
241
100
AcDbEntity
8
0
100
AcDbLine
62
7
6
CONTINUOUS
10
119.5409557601
20
173.5974422077
11
119.5409557601
21
174.4087417782
0
LINE
5
242
100
AcDbEntity
8
0
100
AcDbLine
62
7
6
CONTINUOUS
10
120.6895171267
20
151.7142341028
11
120.6895171267
21
150.9142341028
0
LINE
5
243
100
AcDbEntity
8
0
100
AcDbLine
62
7
6
CONTINUOUS
10
110.1452110549
20
138.4411285189
11
109.9409557601
21
137.7650458015
0
LINE
5
244
100
AcDbEntity
8
0
100
AcDbLine
62
7
6
CONTINUOUS
10
119.3367004474
20
157.7771005835
11
119.5409557601
21
158.4531856222
0
LINE
5
245
100
AcDbEntity
8
0
100
AcDbLine
62
7
6
CONTINUOUS
10
111.1664875289
20
144.1202255122
11
111.3707428237
21
144.6610913767
0
LINE
5
246
100
AcDbEntity
8
0
100
AcDbLine
62
7
6
CONTINUOUS
10
111.1664875289
20
137.7650458015
11
111.3707428237
21
138.3059116660
0
LINE
5
247
100
AcDbEntity
8
0
100
AcDbLine
62
7
6
CONTINUOUS
10
114.4345728179
20
159.2644851926
11
114.6388281127
21
159.6701349779
0
LINE
5
248
100
AcDbEntity
8
0
100
AcDbLine
62
7
6
CONTINUOUS
10
118.5196791431
20
158.3179679955
11
118.3154238483
21
157.9123182102
0
LINE
5
249
100
AcDbEntity
8
0
100
AcDbLine
62
7
6
CONTINUOUS
10
110.7579769393
20
160.3462169216
11
110.1452110549
21
159.6701349779
0
LINE
5
24A
100
AcDbEntity
8
0
100
AcDbLine
62
7
6
CONTINUOUS
10
114.2303175231
20
160.4814345483
11
113.6175516387
21
159.8053495097
0
LINE
5
24B
100
AcDbEntity
8
0
100
AcDbLine
62
7
6
CONTINUOUS
10
111.1664875289
20
159.5349173512
11
111.5749981185
21
159.9405671364
0
LINE
5
24C
100
AcDbEntity
8
0
100
AcDbLine
62
7
6
CONTINUOUS
10
119.5409557601
20
131.1394323847
11
109.9409557601
21
133.3028977770
0
LINE
5
24D
100
AcDbEntity
8
0
100
AcDbLine
62
7
6
CONTINUOUS
10
109.9409557601
20
132.4915982065
11
118.3154238483
21
130.5985659399
0
LINE
5
24E
100
AcDbEntity
8
0
100
AcDbLine
62
7
6
CONTINUOUS
10
111.3707428237
20
134.7902804518
11
112.1877640029
21
134.5198475196
0
LINE
5
24F
100
AcDbEntity
8
0
100
AcDbLine
62
7
6
CONTINUOUS
10
112.3920198699
20
135.3311470900
11
111.7792534133
21
135.6015800223
0
LINE
5
250
100
AcDbEntity
8
0
100
AcDbLine
62
7
6
CONTINUOUS
10
110.5537216445
20
141.6863268008
11
111.3707428237
21
141.1454609363
0
LINE
5
251
100
AcDbEntity
8
0
100
AcDbLine
62
7
6
CONTINUOUS
10
118.9281898042
20
138.9819951572
11
118.1111685535
21
139.5228610217
0
LINE
5
252
100
AcDbEntity
8
0
100
AcDbLine
62
7
6
CONTINUOUS
10
117.7026578208
20
145.0667411620
11
118.1111685535
21
144.6610913767
0
LINE
5
253
100
AcDbEntity
8
0
100
AcDbLine
62
7
6
CONTINUOUS
10
119.3367004474
20
144.7963090034
11
118.9281898042
21
145.3371748679
0
LINE
5
254
100
AcDbEntity
8
0
100
AcDbLine
62
7
6
CONTINUOUS
10
111.1664875289
20
157.9123182102
11
110.9622322341
21
158.3179679955
0
LINE
5
255
100
AcDbEntity
8
0
100
AcDbLine
62
7
6
CONTINUOUS
10
114.6388281127
20
157.9123182102
11
114.4345728179
21
158.3179679955
0
LINE
5
256
100
AcDbEntity
8
0
100
AcDbLine
62
7
6
CONTINUOUS
10
118.1111685535
20
144.6610913767
11
118.3154238483
21
144.1202255122
0
LINE
5
257
100
AcDbEntity
8
0
100
AcDbLine
62
7
6
CONTINUOUS
10
119.5409557601
20
144.1202255122
11
119.3367004474
21
144.7963090034
0
LINE
5
258
100
AcDbEntity
8
0
100
AcDbLine
62
7
6
CONTINUOUS
10
122.1679091685
20
160.6163619410
11
122.1679091685
21
160.0716807734
0
LINE
5
259
100
AcDbEntity
8
0
100
AcDbLine
62
7
6
CONTINUOUS
10
122.7747712285
20
160.2078509699
11
122.7747712285
21
160.4801913630
0
LINE
5
25A
100
AcDbEntity
8
0
100
AcDbLine
62
7
6
CONTINUOUS
10
124.9999320188
20
157.7567872416
11
124.9999320188
21
157.3482766520
0
LINE
5
25B
100
AcDbEntity
8
0
100
AcDbLine
62
7
6
CONTINUOUS
10
125.6067940788
20
157.2121064554
11
125.6067940788
21
157.8929574381
0
LINE
5
25C
100
AcDbEntity
8
0
100
AcDbLine
62
7
6
CONTINUOUS
10
126.4159435886
20
159.9355105768
11
126.4159435886
21
157.8929574381
0
LINE
5
25D
100
AcDbEntity
8
0
100
AcDbLine
62
7
6
CONTINUOUS
10
126.5170871689
20
160.6163619410
11
126.4159435886
21
159.9355105768
0
LINE
5
25E
100
AcDbEntity
8
0
100
AcDbLine
62
7
6
CONTINUOUS
10
122.2690528572
20
161.1610427271
11
122.1679091685
21
160.6163619410
0
LINE
5
25F
100
AcDbEntity
8
0
100
AcDbLine
62
7
6
CONTINUOUS
10
122.7747712285
20
160.4801913630
11
122.8759148811
21
160.8887023340
0
LINE
5
260
100
AcDbEntity
8
0
100
AcDbLine
62
7
6
CONTINUOUS
10
119.3367004474
20
142.2271926653
11
119.5409557601
21
142.9032761565
0
LINE
5
261
100
AcDbEntity
8
0
100
AcDbLine
62
7
6
CONTINUOUS
10
119.3367004474
20
135.8720129546
11
119.5409557601
21
136.5480964458
0
LINE
5
262
100
AcDbEntity
8
0
100
AcDbLine
62
7
6
CONTINUOUS
10
126.7193746187
20
161.1610427271
11
126.5170871689
21
160.6163619410
0
LINE
5
263
100
AcDbEntity
8
0
100
AcDbLine
62
7
6
CONTINUOUS
10
118.3154238483
20
142.9032761565
11
118.1111685535
21
142.3624102920
0
LINE
5
264
100
AcDbEntity
8
0
100
AcDbLine
62
7
6
CONTINUOUS
10
122.6736275759
20
161.7057235132
11
122.2690528572
21
161.1610427271
0
LINE
5
265
100
AcDbEntity
8
0
100
AcDbLine
62
7
6
CONTINUOUS
10
110.5537216445
20
145.3371748679
11
110.1452110549
21
144.7963090034
0
LINE
5
266
100
AcDbEntity
8
0
100
AcDbLine
62
7
6
CONTINUOUS
10
118.7239345094
20
157.1010186398
11
119.3367004474
21
157.7771005835
0
LINE
5
267
100
AcDbEntity
8
0
100
AcDbLine
62
7
6
CONTINUOUS
10
114.6388281127
20
159.6701349779
11
115.0473387023
21
160.0757847631
0
LINE
5
268
100
AcDbEntity
8
0
100
AcDbLine
62
7
6
CONTINUOUS
10
112.1877640029
20
134.5198475196
11
113.2090410491
21
134.3846306666
0
LINE
5
269
100
AcDbEntity
8
0
100
AcDbLine
62
7
6
CONTINUOUS
10
113.2090410491
20
135.1959302371
11
112.3920198699
21
135.3311470900
0
LINE
5
26A
100
AcDbEntity
8
0
100
AcDbLine
62
7
6
CONTINUOUS
10
111.3707428237
20
141.1454609363
11
112.1877640029
21
140.8750272304
0
LINE
5
26B
100
AcDbEntity
8
0
100
AcDbLine
62
7
6
CONTINUOUS
10
112.3920198699
20
141.6863268008
11
111.7792534133
21
141.9567605068
0
LINE
5
26C
100
AcDbEntity
8
0
100
AcDbLine
62
7
6
CONTINUOUS
10
118.9281898042
20
145.3371748679
11
118.1111685535
21
145.8780407324
0
LINE
5
26D
100
AcDbEntity
8
0
100
AcDbLine
62
7
6
CONTINUOUS
10
111.5749981185
20
157.5066684250
11
111.1664875289
21
157.9123182102
0
LINE
5
26E
100
AcDbEntity
8
0
100
AcDbLine
62
7
6
CONTINUOUS
10
113.6175516387
20
157.7771005835
11
114.4345728179
21
156.9658010131
0
LINE
5
26F
100
AcDbEntity
8
0
100
AcDbLine
62
7
6
CONTINUOUS
10
110.1452110549
20
157.7771005835
11
110.7579769393
21
157.1010186398
0
LINE
5
270
100
AcDbEntity
8
0
100
AcDbLine
62
7
6
CONTINUOUS
10
118.3154238483
20
159.6701349779
11
118.5196791431
21
159.2644851926
0
LINE
5
271
100
AcDbEntity
8
0
100
AcDbLine
62
7
6
CONTINUOUS
10
121.9656218182
20
156.9397660624
11
122.2690528572
21
156.2589149366
0
LINE
5
272
100
AcDbEntity
8
0
100
AcDbLine
62
7
6
CONTINUOUS
10
119.5409557601
20
159.1292675659
11
119.3367004474
21
159.8053495097
0
LINE
5
273
100
AcDbEntity
8
0
100
AcDbLine
62
7
6
CONTINUOUS
10
115.2515939971
20
176.8426404896
11
115.0473387023
21
177.5187255282
0
LINE
5
274
100
AcDbEntity
8
0
100
AcDbLine
62
7
6
CONTINUOUS
10
122.5724838510
20
157.0759362589
11
122.4713401985
21
157.4844468485
0
LINE
5
275
100
AcDbEntity
8
0
100
AcDbLine
62
7
6
CONTINUOUS
10
122.8759148811
20
159.7993403803
11
122.7747712285
21
160.2078509699
0
LINE
5
276
100
AcDbEntity
8
0
100
AcDbLine
62
7
6
CONTINUOUS
10
121.8644781385
20
157.4844468485
11
121.9656218182
21
156.9397660624
0
LINE
5
277
100
AcDbEntity
8
0
100
AcDbLine
62
7
6
CONTINUOUS
10
122.1679091685
20
160.0716807734
11
122.2690528572
21
159.5269999872
0
LINE
5
278
100
AcDbEntity
8
0
100
AcDbLine
62
7
6
CONTINUOUS
10
127.0228056487
20
157.8929574381
11
127.0228056487
21
159.9355105768
0
LINE
5
279
100
AcDbEntity
8
0
100
AcDbLine
62
7
6
CONTINUOUS
10
129.8548287884
20
159.9355105768
11
129.8548287884
21
157.8929574381
0
LINE
5
27A
100
AcDbEntity
8
0
100
AcDbLine
62
7
6
CONTINUOUS
10
130.4616908484
20
157.8929574381
11
130.4616908484
21
159.9355105768
0
LINE
5
27B
100
AcDbEntity
8
0
100
AcDbLine
62
7
6
CONTINUOUS
10
131.2708400688
20
162.1142341028
11
131.2708400688
21
155.7142341028
0
LINE
5
27C
100
AcDbEntity
8
0
100
AcDbLine
62
7
6
CONTINUOUS
10
130.3605469788
20
157.2121064554
11
130.4616908484
21
157.8929574381
0
LINE
5
27D
100
AcDbEntity
8
0
100
AcDbLine
62
7
6
CONTINUOUS
10
127.0228056487
20
159.9355105768
11
127.1239495183
21
160.4801913630
0
LINE
5
27E
100
AcDbEntity
8
0
100
AcDbLine
62
7
6
CONTINUOUS
10
129.8548287884
20
157.8929574381
11
129.7536849188
21
157.3482766520
0
LINE
5
27F
100
AcDbEntity
8
0
100
AcDbLine
62
7
6
CONTINUOUS
10
125.4045069184
20
156.6674255739
11
125.6067940788
21
157.2121064554
0
LINE
5
280
100
AcDbEntity
8
0
100
AcDbLine
62
7
6
CONTINUOUS
10
130.1582598184
20
156.6674255739
11
130.3605469788
21
157.2121064554
0
LINE
5
281
100
AcDbEntity
8
0
100
AcDbLine
62
7
6
CONTINUOUS
10
118.3154238483
20
136.5480964458
11
118.1111685535
21
136.0072298075
0
LINE
5
282
100
AcDbEntity
8
0
100
AcDbLine
62
7
6
CONTINUOUS
10
124.9999320188
20
157.3482766520
11
124.7976448584
21
156.9397660624
0
LINE
5
283
100
AcDbEntity
8
0
100
AcDbLine
62
7
6
CONTINUOUS
10
127.1239495183
20
160.4801913630
11
127.3262366787
21
160.8887023340
0
LINE
5
284
100
AcDbEntity
8
0
100
AcDbLine
62
7
6
CONTINUOUS
10
129.7536849188
20
157.3482766520
11
129.5513977583
21
156.9397660624
0
LINE
5
285
100
AcDbEntity
8
0
100
AcDbLine
62
7
6
CONTINUOUS
10
127.1239495183
20
161.7057235132
11
126.7193746187
21
161.1610427271
0
LINE
5
286
100
AcDbEntity
8
0
100
AcDbLine
62
7
6
CONTINUOUS
10
124.9999320188
20
156.1227447401
11
125.4045069184
21
156.6674255739
0
LINE
5
287
100
AcDbEntity
8
0
100
AcDbLine
62
7
6
CONTINUOUS
10
110.5537216445
20
138.9819951572
11
110.1452110549
21
138.4411285189
0
LINE
5
288
100
AcDbEntity
8
0
100
AcDbLine
62
7
6
CONTINUOUS
10
118.3154238483
20
157.9123182102
11
117.9069132587
21
157.5066684250
0
LINE
5
289
100
AcDbEntity
8
0
100
AcDbLine
62
7
6
CONTINUOUS
10
111.3707428237
20
144.6610913767
11
111.7792534133
21
145.0667411620
0
LINE
5
28A
100
AcDbEntity
8
0
100
AcDbLine
62
7
6
CONTINUOUS
10
122.8759148811
20
160.8887023340
11
123.1793459834
21
161.1610427271
0
LINE
5
28B
100
AcDbEntity
8
0
100
AcDbLine
62
7
6
CONTINUOUS
10
127.3262366787
20
160.8887023340
11
127.6296677087
21
161.1610427271
0
LINE
5
28C
100
AcDbEntity
8
0
100
AcDbLine
62
7
6
CONTINUOUS
10
123.0782022585
20
161.9780639063
11
122.6736275759
21
161.7057235132
0
LINE
5
28D
100
AcDbEntity
8
0
100
AcDbLine
62
7
6
CONTINUOUS
10
114.8430834075
20
160.8870843336
11
114.2303175231
21
160.4814345483
0
LINE
5
28E
100
AcDbEntity
8
0
100
AcDbLine
62
7
6
CONTINUOUS
10
115.0473387023
20
160.0757847631
11
115.4558492919
21
160.3462169216
0
LINE
5
28F
100
AcDbEntity
8
0
100
AcDbLine
62
7
6
CONTINUOUS
10
111.5749981185
20
160.7518667069
11
110.7579769393
21
160.3462169216
0
LINE
5
290
100
AcDbEntity
8
0
100
AcDbLine
62
7
6
CONTINUOUS
10
111.5749981185
20
159.9405671364
11
112.1877640029
21
160.2109992949
0
LINE
5
291
100
AcDbEntity
8
0
100
AcDbLine
62
7
6
CONTINUOUS
10
113.2090410491
20
134.3846306666
11
116.2728707572
21
134.3846306666
0
LINE
5
292
100
AcDbEntity
8
0
100
AcDbLine
62
7
6
CONTINUOUS
10
116.2728707572
20
135.1959302371
11
113.2090410491
21
135.1959302371
0
LINE
5
293
100
AcDbEntity
8
0
100
AcDbLine
62
7
6
CONTINUOUS
10
118.1111685535
20
139.5228610217
11
117.0898919364
21
139.6580778747
0
LINE
5
294
100
AcDbEntity
8
0
100
AcDbLine
62
7
6
CONTINUOUS
10
112.1877640029
20
140.8750272304
11
113.2090410491
21
140.7398103774
0
LINE
5
295
100
AcDbEntity
8
0
100
AcDbLine
62
7
6
CONTINUOUS
10
113.2090410491
20
141.5511107216
11
112.3920198699
21
141.6863268008
0
LINE
5
296
100
AcDbEntity
8
0
100
AcDbLine
62
7
6
CONTINUOUS
10
117.0898919364
20
138.8467783042
11
117.7026578208
21
138.7115614512
0
LINE
5
297
100
AcDbEntity
8
0
100
AcDbLine
62
7
6
CONTINUOUS
10
109.9409557601
20
154.3966877698
11
111.3707428237
21
153.5853866519
0
LINE
5
298
100
AcDbEntity
8
0
100
AcDbLine
62
7
6
CONTINUOUS
10
113.0047857543
20
153.5853866519
11
111.5749981185
21
154.3966877698
0
LINE
5
299
100
AcDbEntity
8
0
100
AcDbLine
62
7
6
CONTINUOUS
10
115.0473387023
20
157.5066684250
11
114.6388281127
21
157.9123182102
0
LINE
5
29A
100
AcDbEntity
8
0
100
AcDbLine
62
7
6
CONTINUOUS
10
117.9069132587
20
160.0757847631
11
118.3154238483
21
159.6701349779
0
LINE
5
29B
100
AcDbEntity
8
0
100
AcDbLine
62
7
6
CONTINUOUS
10
119.3367004474
20
159.8053495097
11
118.7239345094
21
160.4814345483
0
LINE
5
29C
100
AcDbEntity
8
0
100
AcDbLine
62
7
6
CONTINUOUS
10
122.8759148811
20
156.6674255739
11
122.5724838510
21
157.0759362589
0
LINE
5
29D
100
AcDbEntity
8
0
100
AcDbLine
62
7
6
CONTINUOUS
10
122.2690528572
20
159.5269999872
11
122.6736275759
21
158.9823192011
0
LINE
5
29E
100
AcDbEntity
8
0
100
AcDbLine
62
7
6
CONTINUOUS
10
125.2022194686
20
161.0248725306
11
124.8987884386
21
161.5695533167
0
LINE
5
29F
100
AcDbEntity
8
0
100
AcDbLine
62
7
6
CONTINUOUS
10
113.8218069335
20
177.3835079015
11
114.0260622283
21
176.9778581163
0
LINE
5
2A0
100
AcDbEntity
8
0
100
AcDbLine
62
7
6
CONTINUOUS
10
124.7976448584
20
158.1652980219
11
124.9999320188
21
157.7567872416
0
LINE
5
2A1
100
AcDbEntity
8
0
100
AcDbLine
62
7
6
CONTINUOUS
10
127.3262366787
20
156.9397660624
11
127.1239495183
21
157.3482766520
0
LINE
5
2A2
100
AcDbEntity
8
0
100
AcDbLine
62
7
6
CONTINUOUS
10
125.6067940788
20
157.8929574381
11
125.4045069184
21
158.4376384150
0
LINE
5
2A3
100
AcDbEntity
8
0
100
AcDbLine
62
7
6
CONTINUOUS
10
124.5953574086
20
160.8887023340
11
124.6965009888
21
160.6163619410
0
LINE
5
2A4
100
AcDbEntity
8
0
100
AcDbLine
62
7
6
CONTINUOUS
10
126.5170871689
20
157.2121064554
11
126.7193746187
21
156.6674255739
0
LINE
5
2A5
100
AcDbEntity
8
0
100
AcDbLine
62
7
6
CONTINUOUS
10
125.3033630488
20
160.6163619410
11
125.2022194686
21
161.0248725306
0
LINE
5
2A6
100
AcDbEntity
8
0
100
AcDbLine
62
7
6
CONTINUOUS
10
127.1239495183
20
157.3482766520
11
127.0228056487
21
157.8929574381
0
LINE
5
2A7
100
AcDbEntity
8
0
100
AcDbLine
62
7
6
CONTINUOUS
10
129.7536849188
20
160.4801913630
11
129.8548287884
21
159.9355105768
0
LINE
5
2A8
100
AcDbEntity
8
0
100
AcDbLine
62
7
6
CONTINUOUS
10
126.4159435886
20
157.8929574381
11
126.5170871689
21
157.2121064554
0
LINE
5
2A9
100
AcDbEntity
8
0
100
AcDbLine
62
7
6
CONTINUOUS
10
130.4616908484
20
159.9355105768
11
130.3605469788
21
160.6163619410
0
LINE
5
2AA
100
AcDbEntity
8
0
100
AcDbLine
62
7
6
CONTINUOUS
10
131.8777021289
20
156.5312553774
11
131.8777021289
21
162.1142341028
0
LINE
5
2AB
100
AcDbEntity
8
0
100
AcDbLine
62
7
6
CONTINUOUS
10
134.9120124290
20
155.7142341028
11
134.9120124290
21
156.5312553774
0
LINE
5
2AC
100
AcDbEntity
8
0
100
AcDbLine
62
7
6
CONTINUOUS
10
135.7211622282
20
162.1142341028
11
135.7211622282
21
155.7142341028
0
LINE
5
2AD
100
AcDbEntity
8
0
100
AcDbLine
62
7
6
CONTINUOUS
10
136.3280242882
20
156.5312553774
11
136.3280242882
21
162.1142341028
0
LINE
5
2AE
100
AcDbEntity
8
0
100
AcDbLine
62
7
6
CONTINUOUS
10
129.7536849188
20
156.1227447401
11
130.1582598184
21
156.6674255739
0
LINE
5
2AF
100
AcDbEntity
8
0
100
AcDbLine
62
7
6
CONTINUOUS
10
118.9281898042
20
141.6863268008
11
119.3367004474
21
142.2271926653
0
LINE
5
2B0
100
AcDbEntity
8
0
100
AcDbLine
62
7
6
CONTINUOUS
10
111.3707428237
20
138.3059116660
11
111.7792534133
21
138.7115614512
0
LINE
5
2B1
100
AcDbEntity
8
0
100
AcDbLine
62
7
6
CONTINUOUS
10
124.7976448584
20
156.9397660624
11
124.4942138284
21
156.6674255739
0
LINE
5
2B2
100
AcDbEntity
8
0
100
AcDbLine
62
7
6
CONTINUOUS
10
129.5513977583
20
156.9397660624
11
129.2479667283
21
156.6674255739
0
LINE
5
2B3
100
AcDbEntity
8
0
100
AcDbLine
62
7
6
CONTINUOUS
10
127.5285238391
20
161.9780639063
11
127.1239495183
21
161.7057235132
0
LINE
5
2B4
100
AcDbEntity
8
0
100
AcDbLine
62
7
6
CONTINUOUS
10
124.5953574086
20
155.8504043113
11
124.9999320188
21
156.1227447401
0
LINE
5
2B5
100
AcDbEntity
8
0
100
AcDbLine
62
7
6
CONTINUOUS
10
117.9069132587
20
156.6953688545
11
118.7239345094
21
157.1010186398
0
LINE
5
2B6
100
AcDbEntity
8
0
100
AcDbLine
62
7
6
CONTINUOUS
10
123.1793459834
20
161.1610427271
11
123.4827770134
21
161.2972129236
0
LINE
5
2B7
100
AcDbEntity
8
0
100
AcDbLine
62
7
6
CONTINUOUS
10
117.9069132587
20
157.5066684250
11
117.2941472312
21
157.2362362665
0
LINE
5
2B8
100
AcDbEntity
8
0
100
AcDbLine
62
7
6
CONTINUOUS
10
123.4827770134
20
162.1142341028
11
123.0782022585
21
161.9780639063
0
LINE
5
2B9
100
AcDbEntity
8
0
100
AcDbLine
62
7
6
CONTINUOUS
10
118.3154238483
20
130.5985659399
11
109.9409557601
21
128.7055336733
0
LINE
5
2BA
100
AcDbEntity
8
0
100
AcDbLine
62
7
6
CONTINUOUS
10
109.9409557601
20
127.8942341028
11
119.5409557601
21
130.0576996886
0
LINE
5
2BB
100
AcDbEntity
8
0
100
AcDbLine
62
7
6
CONTINUOUS
10
116.2728707572
20
134.3846306666
11
117.2941472312
21
134.5198475196
0
LINE
5
2BC
100
AcDbEntity
8
0
100
AcDbLine
62
7
6
CONTINUOUS
10
113.2090410491
20
140.7398103774
11
116.2728707572
21
140.7398103774
0
LINE
5
2BD
100
AcDbEntity
8
0
100
AcDbLine
62
7
6
CONTINUOUS
10
118.1111685535
20
145.8780407324
11
117.2941472312
21
146.0132583591
0
LINE
5
2BE
100
AcDbEntity
8
0
100
AcDbLine
62
7
6
CONTINUOUS
10
117.0898919364
20
145.2019587887
11
117.7026578208
21
145.0667411620
0
LINE
5
2BF
100
AcDbEntity
8
0
100
AcDbLine
62
7
6
CONTINUOUS
10
110.7579769393
20
157.1010186398
11
111.5749981185
21
156.6953688545
0
LINE
5
2C0
100
AcDbEntity
8
0
100
AcDbLine
62
7
6
CONTINUOUS
10
115.4558492919
20
157.2362362665
11
115.0473387023
21
157.5066684250
0
LINE
5
2C1
100
AcDbEntity
8
0
100
AcDbLine
62
7
6
CONTINUOUS
10
122.2690528572
20
156.2589149366
11
122.7747712285
21
155.8504043113
0
LINE
5
2C2
100
AcDbEntity
8
0
100
AcDbLine
62
7
6
CONTINUOUS
10
123.1793459834
20
159.5269999872
11
122.8759148811
21
159.7993403803
0
LINE
5
2C3
100
AcDbEntity
8
0
100
AcDbLine
62
7
6
CONTINUOUS
10
124.4942138284
20
158.4376384150
11
124.7976448584
21
158.1652980219
0
LINE
5
2C4
100
AcDbEntity
8
0
100
AcDbLine
62
7
6
CONTINUOUS
10
127.6296677087
20
156.6674255739
11
127.3262366787
21
156.9397660624
0
LINE
5
2C5
100
AcDbEntity
8
0
100
AcDbLine
62
7
6
CONTINUOUS
10
124.8987884386
20
161.5695533167
11
124.4942138284
21
161.9780639063
0
LINE
5
2C6
100
AcDbEntity
8
0
100
AcDbLine
62
7
6
CONTINUOUS
10
126.7193746187
20
156.6674255739
11
127.1239495183
21
156.1227447401
0
LINE
5
2C7
100
AcDbEntity
8
0
100
AcDbLine
62
7
6
CONTINUOUS
10
125.4045069184
20
158.4376384150
11
124.9999320188
21
158.9823192011
0
LINE
5
2C8
100
AcDbEntity
8
0
100
AcDbLine
62
7
6
CONTINUOUS
10
124.3930699588
20
161.1610427271
11
124.5953574086
21
160.8887023340
0
LINE
5
2C9
100
AcDbEntity
8
0
100
AcDbLine
62
7
6
CONTINUOUS
10
138.2895171267
20
148.5429528107
11
138.6895171267
21
147.8501324877
0
LINE
5
2CA
100
AcDbEntity
8
0
100
AcDbLine
62
7
6
CONTINUOUS
10
129.5513977583
20
160.8887023340
11
129.7536849188
21
160.4801913630
0
LINE
5
2CB
100
AcDbEntity
8
0
100
AcDbLine
62
7
6
CONTINUOUS
10
130.3605469788
20
160.6163619410
11
130.1582598184
21
161.1610427271
0
LINE
5
2CC
100
AcDbEntity
8
0
100
AcDbLine
62
7
6
CONTINUOUS
10
139.3623345883
20
155.7142341028
11
139.3623345883
21
156.5312553774
0
LINE
5
2CD
100
AcDbEntity
8
0
100
AcDbLine
62
7
6
CONTINUOUS
10
138.6895171267
20
154.7783357180
11
138.2895171267
21
154.0855153949
0
LINE
5
2CE
100
AcDbEntity
8
0
100
AcDbLine
62
7
6
CONTINUOUS
10
118.9281898042
20
135.3311470900
11
119.3367004474
21
135.8720129546
0
LINE
5
2CF
100
AcDbEntity
8
0
100
AcDbLine
62
7
6
CONTINUOUS
10
118.1111685535
20
142.3624102920
11
117.7026578208
21
141.9567605068
0
LINE
5
2D0
100
AcDbEntity
8
0
100
AcDbLine
62
7
6
CONTINUOUS
10
129.3491100192
20
155.8504043113
11
129.7536849188
21
156.1227447401
0
LINE
5
2D1
100
AcDbEntity
8
0
100
AcDbLine
62
7
6
CONTINUOUS
10
111.3707428237
20
145.8780407324
11
110.5537216445
21
145.3371748679
0
LINE
5
2D2
100
AcDbEntity
8
0
100
AcDbLine
62
7
6
CONTINUOUS
10
127.6296677087
20
161.1610427271
11
128.0342426083
21
161.2972129236
0
LINE
5
2D3
100
AcDbEntity
8
0
100
AcDbLine
62
7
6
CONTINUOUS
10
117.0898919364
20
135.3311470900
11
116.2728707572
21
135.1959302371
0
LINE
5
2D4
100
AcDbEntity
8
0
100
AcDbLine
62
7
6
CONTINUOUS
10
112.3920198699
20
139.6580778747
11
111.3707428237
21
139.5228610217
0
LINE
5
2D5
100
AcDbEntity
8
0
100
AcDbLine
62
7
6
CONTINUOUS
10
116.2728707572
20
140.7398103774
11
117.2941472312
21
140.8750272304
0
LINE
5
2D6
100
AcDbEntity
8
0
100
AcDbLine
62
7
6
CONTINUOUS
10
116.2728707572
20
141.5511107216
11
113.2090410491
21
141.5511107216
0
LINE
5
2D7
100
AcDbEntity
8
0
100
AcDbLine
62
7
6
CONTINUOUS
10
128.0622419964
20
143.7942341028
11
145.1370487232
21
143.7942341028
0
LINE
5
2D8
100
AcDbEntity
8
0
100
AcDbLine
62
7
6
CONTINUOUS
10
157.9448627970
20
143.7942341028
11
175.0196695239
21
143.7942341028
0
LINE
5
2D9
100
AcDbEntity
8
0
100
AcDbLine
62
7
6
CONTINUOUS
10
114.2303175231
20
143.9850094330
11
115.4558492919
21
143.9850094330
0
LINE
5
2DA
100
AcDbEntity
8
0
100
AcDbLine
62
7
6
CONTINUOUS
10
115.4558492919
20
145.2019587887
11
117.0898919364
21
145.2019587887
0
LINE
5
2DB
100
AcDbEntity
8
0
100
AcDbLine
62
7
6
CONTINUOUS
10
117.2941472312
20
146.0132583591
11
114.2303175231
21
146.0132583591
0
LINE
5
2DC
100
AcDbEntity
8
0
100
AcDbLine
62
7
6
CONTINUOUS
10
112.1877640029
20
157.2362362665
11
111.5749981185
21
157.5066684250
0
LINE
5
2DD
100
AcDbEntity
8
0
100
AcDbLine
62
7
6
CONTINUOUS
10
117.2941472312
20
160.3462169216
11
117.9069132587
21
160.0757847631
0
LINE
5
2DE
100
AcDbEntity
8
0
100
AcDbLine
62
7
6
CONTINUOUS
10
118.7239345094
20
160.4814345483
11
117.9069132587
21
160.8870843336
0
LINE
5
2DF
100
AcDbEntity
8
0
100
AcDbLine
62
7
6
CONTINUOUS
10
122.6736275759
20
158.9823192011
11
123.0782022585
21
158.7099788080
0
LINE
5
2E0
100
AcDbEntity
8
0
100
AcDbLine
62
7
6
CONTINUOUS
10
127.1239495183
20
156.1227447401
11
127.5285238391
21
155.8504043113
0
LINE
5
2E1
100
AcDbEntity
8
0
100
AcDbLine
62
7
6
CONTINUOUS
10
124.9999320188
20
158.9823192011
11
124.5953574086
21
159.2546595942
0
LINE
5
2E2
100
AcDbEntity
8
0
100
AcDbLine
62
7
6
CONTINUOUS
10
129.2479667283
20
161.1610427271
11
129.5513977583
21
160.8887023340
0
LINE
5
2E3
100
AcDbEntity
8
0
100
AcDbLine
62
7
6
CONTINUOUS
10
130.1582598184
20
161.1610427271
11
129.7536849188
21
161.7057235132
0
LINE
5
2E4
100
AcDbEntity
8
0
100
AcDbLine
62
7
6
CONTINUOUS
10
145.7909557601
20
143.9332458620
11
145.7909557601
21
167.6552223436
0
LINE
5
2E5
100
AcDbEntity
8
0
100
AcDbLine
62
7
6
CONTINUOUS
10
118.1111685535
20
136.0072298075
11
117.7026578208
21
135.6015800223
0
LINE
5
2E6
100
AcDbEntity
8
0
100
AcDbLine
62
7
6
CONTINUOUS
10
111.3707428237
20
139.5228610217
11
110.5537216445
21
138.9819951572
0
LINE
5
2E7
100
AcDbEntity
8
0
100
AcDbLine
62
7
6
CONTINUOUS
10
118.1111685535
20
141.1454609363
11
118.9281898042
21
141.6863268008
0
LINE
5
2E8
100
AcDbEntity
8
0
100
AcDbLine
62
7
6
CONTINUOUS
10
124.4942138284
20
156.6674255739
11
124.0896390734
21
156.5312553774
0
LINE
5
2E9
100
AcDbEntity
8
0
100
AcDbLine
62
7
6
CONTINUOUS
10
129.2479667283
20
156.6674255739
11
128.8433918287
21
156.5312553774
0
LINE
5
2EA
100
AcDbEntity
8
0
100
AcDbLine
62
7
6
CONTINUOUS
10
111.7792534133
20
138.7115614512
11
112.3920198699
21
138.8467783042
0
LINE
5
2EB
100
AcDbEntity
8
0
100
AcDbLine
62
7
6
CONTINUOUS
10
190.6898916503
20
158.0731094850
11
189.8728704711
21
157.9282228457
0
LINE
5
2EC
100
AcDbEntity
8
0
100
AcDbLine
62
7
6
CONTINUOUS
10
117.0898919364
20
141.6863268008
11
116.2728707572
21
141.5511107216
0
LINE
5
2ED
100
AcDbEntity
8
0
100
AcDbLine
62
7
6
CONTINUOUS
10
112.3920198699
20
146.0132583591
11
111.3707428237
21
145.8780407324
0
LINE
5
2EE
100
AcDbEntity
8
0
100
AcDbLine
62
7
6
CONTINUOUS
10
120.6895171267
20
150.9142341028
11
142.3966968037
21
150.9142341028
0
LINE
5
2EF
100
AcDbEntity
8
0
100
AcDbLine
62
7
6
CONTINUOUS
10
160.6852147165
20
150.9142341028
11
182.3923943935
21
150.9142341028
0
LINE
5
2F0
100
AcDbEntity
8
0
100
AcDbLine
62
7
6
CONTINUOUS
10
112.8005304595
20
157.1010186398
11
112.1877640029
21
157.2362362665
0
LINE
5
2F1
100
AcDbEntity
8
0
100
AcDbLine
62
7
6
CONTINUOUS
10
116.0686154624
20
157.1010186398
11
115.4558492919
21
157.2362362665
0
LINE
5
2F2
100
AcDbEntity
8
0
100
AcDbLine
62
7
6
CONTINUOUS
10
111.5749981185
20
156.6953688545
11
112.5962751647
21
156.4249366960
0
LINE
5
2F3
100
AcDbEntity
8
0
100
AcDbLine
62
7
6
CONTINUOUS
10
122.7747712285
20
155.8504043113
11
123.2804895636
21
155.7142341028
0
LINE
5
2F4
100
AcDbEntity
8
0
100
AcDbLine
62
7
6
CONTINUOUS
10
127.5285238391
20
155.8504043113
11
128.0342426083
21
155.7142341028
0
LINE
5
2F5
100
AcDbEntity
8
0
100
AcDbLine
62
7
6
CONTINUOUS
10
123.2804895636
20
156.5312553774
11
122.8759148811
21
156.6674255739
0
LINE
5
2F6
100
AcDbEntity
8
0
100
AcDbLine
62
7
6
CONTINUOUS
10
128.0342426083
20
156.5312553774
11
127.6296677087
21
156.6674255739
0
LINE
5
2F7
100
AcDbEntity
8
0
100
AcDbLine
62
7
6
CONTINUOUS
10
123.0782022585
20
158.7099788080
11
123.4827770134
21
158.5738086115
0
LINE
5
2F8
100
AcDbEntity
8
0
100
AcDbLine
62
7
6
CONTINUOUS
10
124.0896390734
20
158.5738086115
11
124.4942138284
21
158.4376384150
0
LINE
5
2F9
100
AcDbEntity
8
0
100
AcDbLine
62
7
6
CONTINUOUS
10
123.4827770134
20
159.3908297907
11
123.1793459834
21
159.5269999872
0
LINE
5
2FA
100
AcDbEntity
8
0
100
AcDbLine
62
7
6
CONTINUOUS
10
124.0896390734
20
161.2972129236
11
124.3930699588
21
161.1610427271
0
LINE
5
2FB
100
AcDbEntity
8
0
100
AcDbLine
62
7
6
CONTINUOUS
10
138.2895171267
20
154.0855153949
11
142.3966968037
21
151.7142341028
0
LINE
5
2FC
100
AcDbEntity
8
0
100
AcDbLine
62
7
6
CONTINUOUS
10
144.6895171267
20
151.3142341028
11
138.6895171267
21
154.7783357180
0
LINE
5
2FD
100
AcDbEntity
8
0
100
AcDbLine
62
7
6
CONTINUOUS
10
129.7536849188
20
161.7057235132
11
129.3491100192
21
161.9780639063
0
LINE
5
2FE
100
AcDbEntity
8
0
100
AcDbLine
62
7
6
CONTINUOUS
10
115.0473387023
20
177.5187255282
11
114.4345728179
21
178.0595898453
0
LINE
5
2FF
100
AcDbEntity
8
DEFAULT_1
100
AcDbLine
62
2
6
CENTER
10
151.5409557601
20
91.2942341028
11
151.5409557601
21
220.2942341028
0
LINE
5
300
100
AcDbEntity
8
0
100
AcDbLine
62
7
6
CONTINUOUS
10
118.1111685535
20
134.7902804518
11
118.9281898042
21
135.3311470900
0
LINE
5
301
100
AcDbEntity
8
0
100
AcDbLine
62
7
6
CONTINUOUS
10
142.3966968037
20
150.9142341028
11
138.2895171267
21
148.5429528107
0
LINE
5
302
100
AcDbEntity
8
0
100
AcDbLine
62
7
6
CONTINUOUS
10
138.6895171267
20
147.8501324877
11
144.6895171267
21
151.3142341028
0
LINE
5
303
100
AcDbEntity
8
0
100
AcDbLine
62
7
6
CONTINUOUS
10
117.7026578208
20
141.9567605068
11
117.0898919364
21
141.6863268008
0
LINE
5
304
100
AcDbEntity
8
0
100
AcDbLine
62
7
6
CONTINUOUS
10
185.7877642890
20
169.0845359399
11
184.9707429668
21
168.7947614177
0
LINE
5
305
100
AcDbEntity
8
0
100
AcDbLine
62
7
6
CONTINUOUS
10
111.7792534133
20
145.0667411620
11
112.3920198699
21
145.2019587887
0
LINE
5
306
100
AcDbEntity
8
0
100
AcDbLine
62
7
6
CONTINUOUS
10
189.8728704711
20
157.0588996936
11
190.8941475173
21
157.2037863329
0
LINE
5
307
100
AcDbEntity
8
0
100
AcDbLine
62
7
6
CONTINUOUS
10
182.3923943935
20
151.7142341028
11
160.6852147165
21
151.7142341028
0
LINE
5
308
100
AcDbEntity
8
0
100
AcDbLine
62
7
6
CONTINUOUS
10
142.3966968037
20
151.7142341028
11
120.6895171267
21
151.7142341028
0
LINE
5
309
100
AcDbEntity
8
0
100
AcDbLine
62
7
6
CONTINUOUS
10
111.3707428237
20
153.5853866519
11
113.0047857543
21
153.5853866519
0
LINE
5
30A
100
AcDbEntity
8
0
100
AcDbLine
62
7
6
CONTINUOUS
10
111.5749981185
20
154.3966877698
11
119.5409557601
21
154.3966877698
0
LINE
5
30B
100
AcDbEntity
8
0
100
AcDbLine
62
7
6
CONTINUOUS
10
119.5409557601
20
155.2079873403
11
109.9409557601
21
155.2079873403
0
LINE
5
30C
100
AcDbEntity
8
0
100
AcDbLine
62
7
6
CONTINUOUS
10
123.2804895636
20
155.7142341028
11
124.0896390734
21
155.7142341028
0
LINE
5
30D
100
AcDbEntity
8
0
100
AcDbLine
62
7
6
CONTINUOUS
10
128.0342426083
20
155.7142341028
11
128.8433918287
21
155.7142341028
0
LINE
5
30E
100
AcDbEntity
8
0
100
AcDbLine
62
7
6
CONTINUOUS
10
131.2708400688
20
155.7142341028
11
134.9120124290
21
155.7142341028
0
LINE
5
30F
100
AcDbEntity
8
0
100
AcDbLine
62
7
6
CONTINUOUS
10
135.7211622282
20
155.7142341028
11
139.3623345883
21
155.7142341028
0
LINE
5
310
100
AcDbEntity
8
0
100
AcDbLine
62
7
6
CONTINUOUS
10
163.2768028488
20
155.7142341028
11
163.9735737208
21
155.7142341028
0
LINE
5
311
100
AcDbEntity
8
0
100
AcDbLine
62
7
6
CONTINUOUS
10
165.5993725328
20
155.7142341028
11
166.2961434048
21
155.7142341028
0
LINE
5
312
100
AcDbEntity
8
0
100
AcDbLine
62
7
6
CONTINUOUS
10
167.2251710125
20
155.7142341028
11
167.8058135166
21
155.7142341028
0
LINE
5
313
100
AcDbEntity
8
0
100
AcDbLine
62
7
6
CONTINUOUS
10
169.0832265604
20
155.7142341028
11
169.6638693967
21
155.7142341028
0
LINE
5
314
100
AcDbEntity
8
0
100
AcDbLine
62
7
6
CONTINUOUS
10
170.9412824404
20
155.7142341028
11
171.5219246122
21
155.7142341028
0
LINE
5
315
100
AcDbEntity
8
0
100
AcDbLine
62
7
6
CONTINUOUS
10
172.4509528845
20
155.7142341028
11
173.0315950563
21
155.7142341028
0
LINE
5
316
100
AcDbEntity
8
0
100
AcDbLine
62
7
6
CONTINUOUS
10
174.3090087646
20
155.7142341028
11
174.8896502719
21
155.7142341028
0
LINE
5
317
100
AcDbEntity
8
0
100
AcDbLine
62
7
6
CONTINUOUS
10
176.1670639802
20
155.7142341028
11
176.7477068165
21
155.7142341028
0
LINE
5
318
100
AcDbEntity
8
0
100
AcDbLine
62
7
6
CONTINUOUS
10
114.0260622283
20
156.2897190693
11
115.4558492919
21
156.2897190693
0
LINE
5
319
100
AcDbEntity
8
0
100
AcDbLine
62
7
6
CONTINUOUS
10
112.5962751647
20
156.4249366960
11
114.0260622283
21
156.2897190693
0
LINE
5
31A
100
AcDbEntity
8
0
100
AcDbLine
62
7
6
CONTINUOUS
10
114.0260622283
20
156.9658010131
11
112.8005304595
21
157.1010186398
0
LINE
5
31B
100
AcDbEntity
8
0
100
AcDbLine
62
7
6
CONTINUOUS
10
116.6813813468
20
160.4814345483
11
117.2941472312
21
160.3462169216
0
LINE
5
31C
100
AcDbEntity
8
0
100
AcDbLine
62
7
6
CONTINUOUS
10
117.9069132587
20
160.8870843336
11
116.8856366416
21
161.1575164921
0
LINE
5
31D
100
AcDbEntity
8
0
100
AcDbLine
62
7
6
CONTINUOUS
10
124.5953574086
20
159.2546595942
11
124.0896390734
21
159.3908297907
0
LINE
5
31E
100
AcDbEntity
8
0
100
AcDbLine
62
7
6
CONTINUOUS
10
124.4942138284
20
161.9780639063
11
123.9884953485
21
162.1142341028
0
LINE
5
31F
100
AcDbEntity
8
0
100
AcDbLine
62
7
6
CONTINUOUS
10
129.3491100192
20
161.9780639063
11
128.8433918287
21
162.1142341028
0
LINE
5
320
100
AcDbEntity
8
0
100
AcDbLine
62
7
6
CONTINUOUS
10
128.8433918287
20
161.2972129236
11
129.2479667283
21
161.1610427271
0
LINE
5
321
100
AcDbEntity
8
0
100
AcDbLine
62
7
6
CONTINUOUS
10
158.3923943935
20
151.3142341028
11
164.3923943935
21
147.8501324877
0
LINE
5
322
100
AcDbEntity
8
0
100
AcDbLine
62
7
6
CONTINUOUS
10
164.7923943935
20
148.5429528107
11
160.6852147165
21
150.9142341028
0
LINE
5
323
100
AcDbEntity
8
0
100
AcDbLine
62
7
6
CONTINUOUS
10
113.4132963439
20
177.6539400601
11
113.8218069335
21
177.3835079015
0
LINE
5
324
100
AcDbEntity
8
0
100
AcDbLine
62
7
6
CONTINUOUS
10
157.2909557601
20
143.9332458620
11
157.2909557601
21
167.6552223436
0
LINE
5
325
100
AcDbEntity
8
0
100
AcDbLine
62
7
6
CONTINUOUS
10
163.2768028488
20
162.1142341028
11
162.5800319769
21
161.1610427271
0
LINE
5
326
100
AcDbEntity
8
0
100
AcDbLine
62
7
6
CONTINUOUS
10
191.5069134017
20
170.6782951903
11
192.3239345809
21
171.1129567663
0
LINE
5
327
100
AcDbEntity
8
0
100
AcDbLine
62
7
6
CONTINUOUS
10
185.3792536994
20
167.9254382657
11
185.9920195838
21
168.2152132024
0
LINE
5
328
100
AcDbEntity
8
0
100
AcDbLine
62
7
6
CONTINUOUS
10
117.7026578208
20
135.6015800223
11
117.0898919364
21
135.3311470900
0
LINE
5
329
100
AcDbEntity
8
0
100
AcDbLine
62
7
6
CONTINUOUS
10
168.3864556884
20
160.0716807734
11
168.0380705847
21
159.9355105768
0
LINE
5
32A
100
AcDbEntity
8
0
100
AcDbLine
62
7
6
CONTINUOUS
10
168.0380705847
20
159.3908297907
11
168.3864556884
21
159.5269999872
0
LINE
5
32B
100
AcDbEntity
8
0
100
AcDbLine
62
7
6
CONTINUOUS
10
170.2445115685
20
160.0716807734
11
169.8961261325
21
159.9355105768
0
LINE
5
32C
100
AcDbEntity
8
0
100
AcDbLine
62
7
6
CONTINUOUS
10
173.6122372281
20
160.0716807734
11
173.2638517922
21
159.9355105768
0
LINE
5
32D
100
AcDbEntity
8
0
100
AcDbLine
62
7
6
CONTINUOUS
10
173.2638517922
20
159.3908297907
11
173.6122372281
21
159.5269999872
0
LINE
5
32E
100
AcDbEntity
8
0
100
AcDbLine
62
7
6
CONTINUOUS
10
175.4702931082
20
160.0716807734
11
175.1219076722
21
159.9355105768
0
LINE
5
32F
100
AcDbEntity
8
0
100
AcDbLine
62
7
6
CONTINUOUS
10
117.2941472312
20
140.8750272304
11
118.1111685535
21
141.1454609363
0
LINE
5
330
100
AcDbEntity
8
0
100
AcDbLine
62
7
6
CONTINUOUS
10
183.5409557601
20
170.3885206681
11
188.2388281127
21
171.6925053962
0
LINE
5
331
100
AcDbEntity
8
0
100
AcDbLine
62
7
6
CONTINUOUS
10
128.8433918287
20
155.7142341028
11
129.3491100192
21
155.8504043113
0
LINE
5
332
100
AcDbEntity
8
0
100
AcDbLine
62
7
6
CONTINUOUS
10
190.8941475173
20
170.5334081365
11
191.5069134017
21
170.6782951903
0
LINE
5
333
100
AcDbEntity
8
0
100
AcDbLine
62
7
6
CONTINUOUS
10
115.4558492919
20
156.2897190693
11
116.8856366416
21
156.4249366960
0
LINE
5
334
100
AcDbEntity
8
0
100
AcDbLine
62
7
6
CONTINUOUS
10
139.3623345883
20
156.5312553774
11
136.3280242882
21
156.5312553774
0
LINE
5
335
100
AcDbEntity
8
0
100
AcDbLine
62
7
6
CONTINUOUS
10
134.9120124290
20
156.5312553774
11
131.8777021289
21
156.5312553774
0
LINE
5
336
100
AcDbEntity
8
0
100
AcDbLine
62
7
6
CONTINUOUS
10
128.8433918287
20
156.5312553774
11
128.0342426083
21
156.5312553774
0
LINE
5
337
100
AcDbEntity
8
0
100
AcDbLine
62
7
6
CONTINUOUS
10
124.0896390734
20
156.5312553774
11
123.2804895636
21
156.5312553774
0
LINE
5
338
100
AcDbEntity
8
0
100
AcDbLine
62
7
6
CONTINUOUS
10
114.4345728179
20
156.9658010131
11
114.0260622283
21
156.9658010131
0
LINE
5
339
100
AcDbEntity
8
0
100
AcDbLine
62
7
6
CONTINUOUS
10
186.8090407630
20
157.0588996936
11
189.8728704711
21
157.0588996936
0
LINE
5
33A
100
AcDbEntity
8
0
100
AcDbLine
62
7
6
CONTINUOUS
10
116.6813813468
20
157.1010186398
11
116.0686154624
21
157.1010186398
0
LINE
5
33B
100
AcDbEntity
8
0
100
AcDbLine
62
7
6
CONTINUOUS
10
122.4713401985
20
157.4844468485
11
121.8644781385
21
157.4844468485
0
LINE
5
33C
100
AcDbEntity
8
0
100
AcDbLine
62
7
6
CONTINUOUS
10
189.8728704711
20
157.9282228457
11
186.8090407630
21
157.9282228457
0
LINE
5
33D
100
AcDbEntity
8
0
100
AcDbLine
62
7
6
CONTINUOUS
10
123.4827770134
20
158.5738086115
11
124.0896390734
21
158.5738086115
0
LINE
5
33E
100
AcDbEntity
8
0
100
AcDbLine
62
7
6
CONTINUOUS
10
124.0896390734
20
159.3908297907
11
123.4827770134
21
159.3908297907
0
LINE
5
33F
100
AcDbEntity
8
0
100
AcDbLine
62
7
6
CONTINUOUS
10
168.3864556884
20
159.5269999872
11
168.6187130887
21
159.5269999872
0
LINE
5
340
100
AcDbEntity
8
0
100
AcDbLine
62
7
6
CONTINUOUS
10
170.1283828683
20
159.5269999872
11
170.4767683043
21
159.5269999872
0
LINE
5
341
100
AcDbEntity
8
0
100
AcDbLine
62
7
6
CONTINUOUS
10
173.6122372281
20
159.5269999872
11
173.8444939640
21
159.5269999872
0
LINE
5
342
100
AcDbEntity
8
0
100
AcDbLine
62
7
6
CONTINUOUS
10
175.3541650725
20
159.5269999872
11
175.7025505085
21
159.5269999872
0
LINE
5
343
100
AcDbEntity
8
0
100
AcDbLine
62
7
6
CONTINUOUS
10
175.9348065799
20
160.0716807734
11
175.4702931082
21
160.0716807734
0
LINE
5
344
100
AcDbEntity
8
0
100
AcDbLine
62
7
6
CONTINUOUS
10
174.0767513643
20
160.0716807734
11
173.6122372281
21
160.0716807734
0
LINE
5
345
100
AcDbEntity
8
0
100
AcDbLine
62
7
6
CONTINUOUS
10
173.0315950563
20
160.0716807734
11
172.4509528845
21
160.0716807734
0
LINE
5
346
100
AcDbEntity
8
0
100
AcDbLine
62
7
6
CONTINUOUS
10
170.7090257046
20
160.0716807734
11
170.2445115685
21
160.0716807734
0
LINE
5
347
100
AcDbEntity
8
0
100
AcDbLine
62
7
6
CONTINUOUS
10
168.8509698245
20
160.0716807734
11
168.3864556884
21
160.0716807734
0
LINE
5
348
100
AcDbEntity
8
0
100
AcDbLine
62
7
6
CONTINUOUS
10
167.8058135166
20
160.0716807734
11
167.2251710125
21
160.0716807734
0
LINE
5
349
100
AcDbEntity
8
0
100
AcDbLine
62
7
6
CONTINUOUS
10
116.0686154624
20
160.4814345483
11
116.6813813468
21
160.4814345483
0
LINE
5
34A
100
AcDbEntity
8
0
100
AcDbLine
62
7
6
CONTINUOUS
10
124.6965009888
20
160.6163619410
11
125.3033630488
21
160.6163619410
0
LINE
5
34B
100
AcDbEntity
8
0
100
AcDbLine
62
7
6
CONTINUOUS
10
116.8856366416
20
161.1575164921
11
115.8643598815
21
161.1575164921
0
LINE
5
34C
100
AcDbEntity
8
0
100
AcDbLine
62
7
6
CONTINUOUS
10
123.4827770134
20
161.2972129236
11
124.0896390734
21
161.2972129236
0
LINE
5
34D
100
AcDbEntity
8
0
100
AcDbLine
62
7
6
CONTINUOUS
10
128.0342426083
20
161.2972129236
11
128.8433918287
21
161.2972129236
0
LINE
5
34E
100
AcDbEntity
8
0
100
AcDbLine
62
7
6
CONTINUOUS
10
119.5409557601
20
168.4592126263
11
109.9409557601
21
170.6226791792
0
LINE
5
34F
100
AcDbEntity
8
0
100
AcDbLine
62
7
6
CONTINUOUS
10
109.9409557601
20
169.8113796088
11
118.3154238483
21
167.9183452144
0
LINE
5
350
100
AcDbEntity
8
0
100
AcDbLine
62
7
6
CONTINUOUS
10
114.4345728179
20
178.0595898453
11
113.6175516387
21
178.4652396305
0
LINE
5
351
100
AcDbEntity
8
0
100
AcDbLine
62
7
6
CONTINUOUS
10
162.5800319769
20
160.0716807734
11
163.2768028488
21
161.0248725306
0
LINE
5
352
100
AcDbEntity
8
0
100
AcDbLine
62
7
6
CONTINUOUS
10
165.5993725328
20
162.1142341028
11
164.9026014947
21
161.1610427271
0
LINE
5
353
100
AcDbEntity
8
0
100
AcDbLine
62
7
6
CONTINUOUS
10
164.9026014947
20
160.0716807734
11
165.5993725328
21
161.0248725306
0
LINE
5
354
100
AcDbEntity
8
0
100
AcDbLine
62
7
6
CONTINUOUS
10
168.0380705847
20
159.9355105768
11
167.8058135166
21
159.6631701838
0
LINE
5
355
100
AcDbEntity
8
0
100
AcDbLine
62
7
6
CONTINUOUS
10
167.8058135166
20
159.1184893976
11
168.0380705847
21
159.3908297907
0
LINE
5
356
100
AcDbEntity
8
0
100
AcDbLine
62
7
6
CONTINUOUS
10
184.9707429668
20
168.7947614177
11
184.1537217160
21
168.2152132024
0
LINE
5
357
100
AcDbEntity
8
0
100
AcDbLine
62
7
6
CONTINUOUS
10
191.9154239913
20
171.8373928646
11
191.5069134017
21
171.5476183424
0
LINE
5
358
100
AcDbEntity
8
0
100
AcDbLine
62
7
6
CONTINUOUS
10
169.8961261325
20
159.3908297907
11
170.1283828683
21
159.5269999872
0
LINE
5
359
100
AcDbEntity
8
0
100
AcDbLine
62
7
6
CONTINUOUS
10
175.1219076722
20
159.3908297907
11
175.3541650725
21
159.5269999872
0
LINE
5
35A
100
AcDbEntity
8
0
100
AcDbLine
62
7
6
CONTINUOUS
10
164.3923943935
20
154.7783357180
11
158.3923943935
21
151.3142341028
0
LINE
5
35B
100
AcDbEntity
8
0
100
AcDbLine
62
7
6
CONTINUOUS
10
160.6852147165
20
151.7142341028
11
164.7923943935
21
154.0855153949
0
LINE
5
35C
100
AcDbEntity
8
0
100
AcDbLine
62
7
6
CONTINUOUS
10
117.2941472312
20
134.5198475196
11
118.1111685535
21
134.7902804518
0
LINE
5
35D
100
AcDbEntity
8
0
100
AcDbLine
62
7
6
CONTINUOUS
10
187.8303175231
20
172.5618287556
11
183.5409557601
21
171.4027312885
0
LINE
5
35E
100
AcDbEntity
8
0
100
AcDbLine
62
7
6
CONTINUOUS
10
124.0896390734
20
155.7142341028
11
124.5953574086
21
155.8504043113
0
LINE
5
35F
100
AcDbEntity
8
0
100
AcDbLine
62
7
6
CONTINUOUS
10
116.8856366416
20
156.4249366960
11
117.9069132587
21
156.6953688545
0
LINE
5
360
100
AcDbEntity
8
0
100
AcDbLine
62
7
6
CONTINUOUS
10
191.5069134017
20
171.5476183424
11
190.8941475173
21
171.4027312885
0
LINE
5
361
100
AcDbEntity
8
0
100
AcDbLine
62
7
6
CONTINUOUS
10
117.2941472312
20
157.2362362665
11
116.6813813468
21
157.1010186398
0
LINE
5
362
100
AcDbEntity
8
0
100
AcDbLine
62
7
6
CONTINUOUS
10
185.9920195838
20
168.2152132024
11
186.8090407630
21
168.3600998417
0
LINE
5
363
100
AcDbEntity
8
0
100
AcDbLine
62
7
6
CONTINUOUS
10
186.8090407630
20
169.2294234083
11
185.7877642890
21
169.0845359399
0
LINE
5
364
100
AcDbEntity
8
0
100
AcDbLine
62
7
6
CONTINUOUS
10
184.7664876720
20
161.9850636694
11
191.9154239913
21
161.9850636694
0
LINE
5
365
100
AcDbEntity
8
0
100
AcDbLine
62
7
6
CONTINUOUS
10
166.2961434048
20
162.1142341028
11
165.5993725328
21
162.1142341028
0
LINE
5
366
100
AcDbEntity
8
0
100
AcDbLine
62
7
6
CONTINUOUS
10
163.9735737208
20
162.1142341028
11
163.2768028488
21
162.1142341028
0
LINE
5
367
100
AcDbEntity
8
0
100
AcDbLine
62
7
6
CONTINUOUS
10
136.3280242882
20
162.1142341028
11
135.7211622282
21
162.1142341028
0
LINE
5
368
100
AcDbEntity
8
0
100
AcDbLine
62
7
6
CONTINUOUS
10
131.8777021289
20
162.1142341028
11
131.2708400688
21
162.1142341028
0
LINE
5
369
100
AcDbEntity
8
0
100
AcDbLine
62
7
6
CONTINUOUS
10
128.8433918287
20
162.1142341028
11
128.0342426083
21
162.1142341028
0
LINE
5
36A
100
AcDbEntity
8
0
100
AcDbLine
62
7
6
CONTINUOUS
10
123.9884953485
20
162.1142341028
11
123.4827770134
21
162.1142341028
0
LINE
5
36B
100
AcDbEntity
8
0
100
AcDbLine
62
7
6
CONTINUOUS
10
115.0473387023
20
162.2392482211
11
116.0686154624
21
162.2392482211
0
LINE
5
36C
100
AcDbEntity
8
0
100
AcDbLine
62
7
6
CONTINUOUS
10
193.1409557601
20
162.8543868215
11
183.5409557601
21
162.8543868215
0
LINE
5
36D
100
AcDbEntity
8
0
100
AcDbLine
62
7
6
CONTINUOUS
10
186.8090407630
20
164.0134840812
11
193.1409557601
21
164.0134840812
0
LINE
5
36E
100
AcDbEntity
8
0
100
AcDbLine
62
7
6
CONTINUOUS
10
116.0686154624
20
164.1322826155
11
115.0473387023
21
164.1322826155
0
LINE
5
36F
100
AcDbEntity
8
0
100
AcDbLine
62
7
6
CONTINUOUS
10
193.1409557601
20
164.8828072333
11
186.8090407630
21
164.8828072333
0
LINE
5
370
100
AcDbEntity
8
0
100
AcDbLine
62
7
6
CONTINUOUS
10
185.7877642890
20
157.2037863329
11
186.8090407630
21
157.0588996936
0
LINE
5
371
100
AcDbEntity
8
0
100
AcDbLine
62
7
6
CONTINUOUS
10
186.8090407630
20
157.9282228457
11
185.9920195838
21
158.0731094850
0
LINE
5
372
100
AcDbEntity
8
0
100
AcDbLine
62
7
6
CONTINUOUS
10
169.1993552605
20
159.9355105768
11
168.8509698245
21
160.0716807734
0
LINE
5
373
100
AcDbEntity
8
0
100
AcDbLine
62
7
6
CONTINUOUS
10
171.0574111406
20
159.9355105768
11
170.7090257046
21
160.0716807734
0
LINE
5
374
100
AcDbEntity
8
0
100
AcDbLine
62
7
6
CONTINUOUS
10
164.7923943935
20
154.0855153949
11
164.3923943935
21
154.7783357180
0
LINE
5
375
100
AcDbEntity
8
0
100
AcDbLine
62
7
6
CONTINUOUS
10
162.5800319769
20
161.1610427271
11
162.5800319769
21
160.0716807734
0
LINE
5
376
100
AcDbEntity
8
0
100
AcDbLine
62
7
6
CONTINUOUS
10
163.2768028488
20
161.0248725306
11
163.2768028488
21
155.7142341028
0
LINE
5
377
100
AcDbEntity
8
0
100
AcDbLine
62
7
6
CONTINUOUS
10
163.9735737208
20
155.7142341028
11
163.9735737208
21
162.1142341028
0
LINE
5
378
100
AcDbEntity
8
0
100
AcDbLine
62
7
6
CONTINUOUS
10
164.9026014947
20
161.1610427271
11
164.9026014947
21
160.0716807734
0
LINE
5
379
100
AcDbEntity
8
0
100
AcDbLine
62
7
6
CONTINUOUS
10
165.5993725328
20
161.0248725306
11
165.5993725328
21
155.7142341028
0
LINE
5
37A
100
AcDbEntity
8
0
100
AcDbLine
62
7
6
CONTINUOUS
10
166.2961434048
20
155.7142341028
11
166.2961434048
21
162.1142341028
0
LINE
5
37B
100
AcDbEntity
8
0
100
AcDbLine
62
7
6
CONTINUOUS
10
167.2251710125
20
160.0716807734
11
167.2251710125
21
155.7142341028
0
LINE
5
37C
100
AcDbEntity
8
0
100
AcDbLine
62
7
6
CONTINUOUS
10
169.6638693967
20
158.9823192011
11
169.7799974323
21
159.2546595942
0
LINE
5
37D
100
AcDbEntity
8
0
100
AcDbLine
62
7
6
CONTINUOUS
10
164.3923943935
20
147.8501324877
11
164.7923943935
21
148.5429528107
0
LINE
5
37E
100
AcDbEntity
8
0
100
AcDbLine
62
7
6
CONTINUOUS
10
169.8961261325
20
159.9355105768
11
169.5477406965
21
159.5269999872
0
LINE
5
37F
100
AcDbEntity
8
0
100
AcDbLine
62
7
6
CONTINUOUS
10
169.7799974323
20
159.2546595942
11
169.8961261325
21
159.3908297907
0
LINE
5
380
100
AcDbEntity
8
0
100
AcDbLine
62
7
6
CONTINUOUS
10
173.2638517922
20
159.9355105768
11
173.0315950563
21
159.6631701838
0
LINE
5
381
100
AcDbEntity
8
0
100
AcDbLine
62
7
6
CONTINUOUS
10
173.0315950563
20
159.1184893976
11
173.2638517922
21
159.3908297907
0
LINE
5
382
100
AcDbEntity
8
0
100
AcDbLine
62
7
6
CONTINUOUS
10
175.1219076722
20
159.9355105768
11
174.7735222362
21
159.5269999872
0
LINE
5
383
100
AcDbEntity
8
0
100
AcDbLine
62
7
6
CONTINUOUS
10
175.0057796366
20
159.2546595942
11
175.1219076722
21
159.3908297907
0
LINE
5
384
100
AcDbEntity
8
0
100
AcDbLine
62
7
6
CONTINUOUS
10
191.3026581069
20
158.3628844217
11
190.6898916503
21
158.0731094850
0
LINE
5
385
100
AcDbEntity
8
0
100
AcDbLine
62
7
6
CONTINUOUS
10
190.8941475173
20
157.2037863329
11
191.7111686965
21
157.4935612696
0
LINE
5
386
100
AcDbEntity
8
0
100
AcDbLine
62
7
6
CONTINUOUS
10
128.0342426083
20
162.1142341028
11
127.5285238391
21
161.9780639063
0
LINE
5
387
100
AcDbEntity
8
0
100
AcDbLine
62
7
6
CONTINUOUS
10
115.8643598815
20
161.1575164921
11
114.8430834075
21
160.8870843336
0
LINE
5
388
100
AcDbEntity
8
0
100
AcDbLine
62
7
6
CONTINUOUS
10
115.4558492919
20
160.3462169216
11
116.0686154624
21
160.4814345483
0
LINE
5
389
100
AcDbEntity
8
0
100
AcDbLine
62
7
6
CONTINUOUS
10
112.1877640029
20
160.8870843336
11
111.5749981185
21
160.7518667069
0
LINE
5
38A
100
AcDbEntity
8
0
100
AcDbLine
62
7
6
CONTINUOUS
10
175.0196695239
20
167.7942341028
11
157.9448627970
21
167.7942341028
0
LINE
5
38B
100
AcDbEntity
8
0
100
AcDbLine
62
7
6
CONTINUOUS
10
145.1370487232
20
167.7942341028
11
128.0622419964
21
167.7942341028
0
LINE
5
38C
100
AcDbEntity
8
0
100
AcDbLine
62
7
6
CONTINUOUS
10
186.8090407630
20
168.3600998417
11
193.1409557601
21
168.3600998417
0
LINE
5
38D
100
AcDbEntity
8
0
100
AcDbLine
62
7
6
CONTINUOUS
10
193.1409557601
20
169.2294234083
11
186.8090407630
21
169.2294234083
0
LINE
5
38E
100
AcDbEntity
8
0
100
AcDbLine
62
7
6
CONTINUOUS
10
190.0771257659
20
170.5334081365
11
190.8941475173
21
170.5334081365
0
LINE
5
38F
100
AcDbEntity
8
0
100
AcDbLine
62
7
6
CONTINUOUS
10
190.8941475173
20
171.4027312885
11
190.2813810607
21
171.4027312885
0
LINE
5
390
100
AcDbEntity
8
0
100
AcDbLine
62
7
6
CONTINUOUS
10
109.9409557601
20
171.7044109082
11
119.5409557601
21
171.7044109082
0
LINE
5
391
100
AcDbEntity
8
0
100
AcDbLine
62
7
6
CONTINUOUS
10
185.7877642890
20
164.1583715496
11
186.8090407630
21
164.0134840812
0
LINE
5
392
100
AcDbEntity
8
0
100
AcDbLine
62
7
6
CONTINUOUS
10
186.8090407630
20
164.8828072333
11
185.9920195838
21
165.0276947017
0
LINE
5
393
100
AcDbEntity
8
0
100
AcDbLine
62
7
6
CONTINUOUS
10
112.8005304595
20
177.7891576868
11
113.4132963439
21
177.6539400601
0
LINE
5
394
100
AcDbEntity
8
0
100
AcDbLine
62
7
6
CONTINUOUS
10
113.6175516387
20
178.4652396305
11
113.0047857543
21
178.6004572572
0
LINE
5
395
100
AcDbEntity
8
0
100
AcDbLine
62
7
6
CONTINUOUS
10
184.9707429668
20
157.4935612696
11
185.7877642890
21
157.2037863329
0
LINE
5
396
100
AcDbEntity
8
0
100
AcDbLine
62
7
6
CONTINUOUS
10
174.4251368003
20
159.9355105768
11
174.0767513643
21
160.0716807734
0
LINE
5
397
100
AcDbEntity
8
0
100
AcDbLine
62
7
6
CONTINUOUS
10
176.2831920158
20
159.9355105768
11
175.9348065799
21
160.0716807734
0
LINE
5
398
100
AcDbEntity
8
0
100
AcDbLine
62
7
6
CONTINUOUS
10
170.4767683043
20
159.5269999872
11
170.7090257046
21
159.3908297907
0
LINE
5
399
100
AcDbEntity
8
0
100
AcDbLine
62
7
6
CONTINUOUS
10
173.8444939640
20
159.5269999872
11
174.0767513643
21
159.3908297907
0
LINE
5
39A
100
AcDbEntity
8
0
100
AcDbLine
62
7
6
CONTINUOUS
10
168.6187130887
20
159.5269999872
11
168.8509698245
21
159.3908297907
0
LINE
5
39B
100
AcDbEntity
8
0
100
AcDbLine
62
7
6
CONTINUOUS
10
175.7025505085
20
159.5269999872
11
175.9348065799
21
159.3908297907
0
LINE
5
39C
100
AcDbEntity
8
0
100
AcDbLine
62
7
6
CONTINUOUS
10
168.8509698245
20
159.3908297907
11
168.9670985247
21
159.2546595942
0
LINE
5
39D
100
AcDbEntity
8
0
100
AcDbLine
62
7
6
CONTINUOUS
10
167.8058135166
20
155.7142341028
11
167.8058135166
21
159.1184893976
0
LINE
5
39E
100
AcDbEntity
8
0
100
AcDbLine
62
7
6
CONTINUOUS
10
167.8058135166
20
159.6631701838
11
167.8058135166
21
160.0716807734
0
LINE
5
39F
100
AcDbEntity
8
0
100
AcDbLine
62
7
6
CONTINUOUS
10
169.0832265604
20
158.9823192011
11
169.0832265604
21
155.7142341028
0
LINE
5
3A0
100
AcDbEntity
8
0
100
AcDbLine
62
7
6
CONTINUOUS
10
169.6638693967
20
155.7142341028
11
169.6638693967
21
158.9823192011
0
LINE
5
3A1
100
AcDbEntity
8
0
100
AcDbLine
62
7
6
CONTINUOUS
10
170.9412824404
20
158.9823192011
11
170.9412824404
21
155.7142341028
0
LINE
5
3A2
100
AcDbEntity
8
0
100
AcDbLine
62
7
6
CONTINUOUS
10
171.5219246122
20
155.7142341028
11
171.5219246122
21
158.9823192011
0
LINE
5
3A3
100
AcDbEntity
8
0
100
AcDbLine
62
7
6
CONTINUOUS
10
172.4509528845
20
160.0716807734
11
172.4509528845
21
155.7142341028
0
LINE
5
3A4
100
AcDbEntity
8
0
100
AcDbLine
62
7
6
CONTINUOUS
10
174.8896502719
20
158.9823192011
11
175.0057796366
21
159.2546595942
0
LINE
5
3A5
100
AcDbEntity
8
0
100
AcDbLine
62
7
6
CONTINUOUS
10
184.1537217160
20
168.2152132024
11
183.7452110728
21
167.6356641580
0
LINE
5
3A6
100
AcDbEntity
8
0
100
AcDbLine
62
7
6
CONTINUOUS
10
184.9707429668
20
167.4907766896
11
185.3792536994
21
167.9254382657
0
LINE
5
3A7
100
AcDbEntity
8
0
100
AcDbLine
62
7
6
CONTINUOUS
10
192.3239345809
20
171.1129567663
11
192.9367004653
21
171.6925053962
0
LINE
5
3A8
100
AcDbEntity
8
0
100
AcDbLine
62
7
6
CONTINUOUS
10
118.3154238483
20
167.9183452144
11
109.9409557601
21
166.0253139149
0
LINE
5
3A9
100
AcDbEntity
8
0
100
AcDbLine
62
7
6
CONTINUOUS
10
109.9409557601
20
165.2140143445
11
119.5409557601
21
167.3774808973
0
LINE
5
3AA
100
AcDbEntity
8
0
100
AcDbLine
62
7
6
CONTINUOUS
10
119.5409557601
20
172.5157104787
11
109.9409557601
21
172.5157104787
0
LINE
5
3AB
100
AcDbEntity
8
0
100
AcDbLine
62
7
6
CONTINUOUS
10
109.9409557601
20
173.5974422077
11
119.5409557601
21
173.5974422077
0
LINE
5
3AC
100
AcDbEntity
8
0
100
AcDbLine
62
7
6
CONTINUOUS
10
119.5409557601
20
174.4087417782
11
115.2515939971
21
174.4087417782
0
LINE
5
3AD
100
AcDbEntity
8
0
100
AcDbLine
62
7
6
CONTINUOUS
10
114.0260622283
20
174.4087417782
11
110.9622322341
21
174.4087417782
0
LINE
5
3AE
100
AcDbEntity
8
0
100
AcDbLine
62
7
6
CONTINUOUS
10
183.5409557601
20
175.0249109507
11
187.8303175231
21
175.0249109507
0
LINE
5
3AF
100
AcDbEntity
8
0
100
AcDbLine
62
7
6
CONTINUOUS
10
189.0558492919
20
175.0249109507
11
192.1196792861
21
175.0249109507
0
LINE
5
3B0
100
AcDbEntity
8
0
100
AcDbLine
62
7
6
CONTINUOUS
10
193.1409557601
20
175.8942341028
11
183.5409557601
21
175.8942341028
0
LINE
5
3B1
100
AcDbEntity
8
0
100
AcDbLine
62
7
6
CONTINUOUS
10
184.9707429668
20
164.4481456573
11
185.7877642890
21
164.1583715496
0
LINE
5
3B2
100
AcDbEntity
8
0
100
AcDbLine
62
7
6
CONTINUOUS
10
185.9920195838
20
158.0731094850
11
185.3792536994
21
158.3628844217
0
LINE
5
3B3
100
AcDbEntity
8
0
100
AcDbLine
62
7
6
CONTINUOUS
10
184.1537217160
20
158.0731094850
11
184.9707429668
21
157.4935612696
0
LINE
5
3B4
100
AcDbEntity
8
0
100
AcDbLine
62
7
6
CONTINUOUS
10
169.5477406965
20
159.5269999872
11
169.1993552605
21
159.9355105768
0
LINE
5
3B5
100
AcDbEntity
8
0
100
AcDbLine
62
7
6
CONTINUOUS
10
170.7090257046
20
159.3908297907
11
170.8251537403
21
159.2546595942
0
LINE
5
3B6
100
AcDbEntity
8
0
100
AcDbLine
62
7
6
CONTINUOUS
10
171.2896678764
20
159.6631701838
11
171.0574111406
21
159.9355105768
0
LINE
5
3B7
100
AcDbEntity
8
0
100
AcDbLine
62
7
6
CONTINUOUS
10
174.0767513643
20
159.3908297907
11
174.1928793999
21
159.2546595942
0
LINE
5
3B8
100
AcDbEntity
8
0
100
AcDbLine
62
7
6
CONTINUOUS
10
174.7735222362
20
159.5269999872
11
174.4251368003
21
159.9355105768
0
LINE
5
3B9
100
AcDbEntity
8
0
100
AcDbLine
62
7
6
CONTINUOUS
10
175.9348065799
20
159.3908297907
11
176.0509359445
21
159.2546595942
0
LINE
5
3BA
100
AcDbEntity
8
0
100
AcDbLine
62
7
6
CONTINUOUS
10
168.9670985247
20
159.2546595942
11
169.0832265604
21
158.9823192011
0
LINE
5
3BB
100
AcDbEntity
8
0
100
AcDbLine
62
7
6
CONTINUOUS
10
170.8251537403
20
159.2546595942
11
170.9412824404
21
158.9823192011
0
LINE
5
3BC
100
AcDbEntity
8
0
100
AcDbLine
62
7
6
CONTINUOUS
10
171.5219246122
20
158.9823192011
11
171.2896678764
21
159.6631701838
0
LINE
5
3BD
100
AcDbEntity
8
0
100
AcDbLine
62
7
6
CONTINUOUS
10
173.0315950563
20
155.7142341028
11
173.0315950563
21
159.1184893976
0
LINE
5
3BE
100
AcDbEntity
8
0
100
AcDbLine
62
7
6
CONTINUOUS
10
173.0315950563
20
159.6631701838
11
173.0315950563
21
160.0716807734
0
LINE
5
3BF
100
AcDbEntity
8
0
100
AcDbLine
62
7
6
CONTINUOUS
10
174.3090087646
20
158.9823192011
11
174.3090087646
21
155.7142341028
0
LINE
5
3C0
100
AcDbEntity
8
0
100
AcDbLine
62
7
6
CONTINUOUS
10
174.8896502719
20
155.7142341028
11
174.8896502719
21
158.9823192011
0
LINE
5
3C1
100
AcDbEntity
8
0
100
AcDbLine
62
7
6
CONTINUOUS
10
176.1670639802
20
158.9823192011
11
176.1670639802
21
155.7142341028
0
LINE
5
3C2
100
AcDbEntity
8
0
100
AcDbLine
62
7
6
CONTINUOUS
10
176.7477068165
20
155.7142341028
11
176.7477068165
21
158.9823192011
0
LINE
5
3C3
100
AcDbEntity
8
0
100
AcDbLine
62
7
6
CONTINUOUS
10
191.7111686965
20
157.4935612696
11
192.5281898757
21
158.0731094850
0
LINE
5
3C4
100
AcDbEntity
8
0
100
AcDbLine
62
7
6
CONTINUOUS
10
112.1877640029
20
177.7891576868
11
112.8005304595
21
177.7891576868
0
LINE
5
3C5
100
AcDbEntity
8
0
100
AcDbLine
62
7
6
CONTINUOUS
10
113.0047857543
20
178.6004572572
11
112.1877640029
21
178.6004572572
0
LINE
5
3C6
100
AcDbEntity
8
0
100
AcDbLine
62
7
6
CONTINUOUS
10
189.4643598815
20
170.6782951903
11
190.0771257659
21
170.5334081365
0
LINE
5
3C7
100
AcDbEntity
8
0
100
AcDbLine
62
7
6
CONTINUOUS
10
190.2813810607
20
171.4027312885
11
189.6686151763
21
171.5476183424
0
LINE
5
3C8
100
AcDbEntity
8
0
100
AcDbLine
62
7
6
CONTINUOUS
10
185.9920195838
20
165.0276947017
11
185.3792536994
21
165.3174688094
0
LINE
5
3C9
100
AcDbEntity
8
0
100
AcDbLine
62
7
6
CONTINUOUS
10
176.5154494162
20
159.6631701838
11
176.2831920158
21
159.9355105768
0
LINE
5
3CA
100
AcDbEntity
8
0
100
AcDbLine
62
7
6
CONTINUOUS
10
174.1928793999
20
159.2546595942
11
174.3090087646
21
158.9823192011
0
LINE
5
3CB
100
AcDbEntity
8
0
100
AcDbLine
62
7
6
CONTINUOUS
10
176.0509359445
20
159.2546595942
11
176.1670639802
21
158.9823192011
0
LINE
5
3CC
100
AcDbEntity
8
0
100
AcDbLine
62
7
6
CONTINUOUS
10
176.7477068165
20
158.9823192011
11
176.5154494162
21
159.6631701838
0
LINE
5
3CD
100
AcDbEntity
8
0
100
AcDbLine
62
7
6
CONTINUOUS
10
182.3923943935
20
150.9142341028
11
182.3923943935
21
151.7142341028
0
LINE
5
3CE
100
AcDbEntity
8
0
100
AcDbLine
62
7
6
CONTINUOUS
10
183.7452110728
20
167.6356641580
11
183.5409557601
21
166.9112284743
0
LINE
5
3CF
100
AcDbEntity
8
0
100
AcDbLine
62
7
6
CONTINUOUS
10
184.7664876720
20
166.9112284743
11
184.9707429668
21
167.4907766896
0
LINE
5
3D0
100
AcDbEntity
8
0
100
AcDbLine
62
7
6
CONTINUOUS
10
192.1196792861
20
172.2720544406
11
191.9154239913
21
171.8373928646
0
LINE
5
3D1
100
AcDbEntity
8
0
100
AcDbLine
62
7
6
CONTINUOUS
10
191.7111686965
20
158.7975459978
11
191.3026581069
21
158.3628844217
0
LINE
5
3D2
100
AcDbEntity
8
0
100
AcDbLine
62
7
6
CONTINUOUS
10
111.5749981185
20
177.6539400601
11
112.1877640029
21
177.7891576868
0
LINE
5
3D3
100
AcDbEntity
8
0
100
AcDbLine
62
7
6
CONTINUOUS
10
112.1877640029
20
178.6004572572
11
111.5749981185
21
178.4652396305
0
LINE
5
3D4
100
AcDbEntity
8
0
100
AcDbLine
62
7
6
CONTINUOUS
10
188.6473387023
20
171.1129567663
11
189.4643598815
21
170.6782951903
0
LINE
5
3D5
100
AcDbEntity
8
0
100
AcDbLine
62
7
6
CONTINUOUS
10
184.1537217160
20
165.0276947017
11
184.9707429668
21
164.4481456573
0
LINE
5
3D6
100
AcDbEntity
8
0
100
AcDbLine
62
7
6
CONTINUOUS
10
185.3792536994
20
158.3628844217
11
184.9707429668
21
158.7975459978
0
LINE
5
3D7
100
AcDbEntity
8
0
100
AcDbLine
62
7
6
CONTINUOUS
10
185.3792536994
20
165.3174688094
11
184.9707429668
21
165.7521303854
0
LINE
5
3D8
100
AcDbEntity
8
0
100
AcDbLine
62
7
6
CONTINUOUS
10
183.7452110728
20
158.6526577003
11
184.1537217160
21
158.0731094850
0
LINE
5
3D9
100
AcDbEntity
8
0
100
AcDbLine
62
7
6
CONTINUOUS
10
183.5409557601
20
175.8942341028
11
183.5409557601
21
175.0249109507
0
LINE
5
3DA
100
AcDbEntity
8
0
100
AcDbLine
62
7
6
CONTINUOUS
10
183.5409557601
20
171.4027312885
11
183.5409557601
21
170.3885206681
0
LINE
5
3DB
100
AcDbEntity
8
0
100
AcDbLine
62
7
6
CONTINUOUS
10
183.5409557601
20
166.9112284743
11
183.5409557601
21
166.3316794298
0
LINE
5
3DC
100
AcDbEntity
8
0
100
AcDbLine
62
7
6
CONTINUOUS
10
183.5409557601
20
162.8543868215
11
183.5409557601
21
159.3770942131
0
LINE
5
3DD
100
AcDbEntity
8
0
100
AcDbLine
62
7
6
CONTINUOUS
10
184.7664876720
20
159.3770942131
11
184.7664876720
21
161.9850636694
0
LINE
5
3DE
100
AcDbEntity
8
0
100
AcDbLine
62
7
6
CONTINUOUS
10
184.7664876720
20
166.3316794298
11
184.7664876720
21
166.9112284743
0
LINE
5
3DF
100
AcDbEntity
8
0
100
AcDbLine
62
7
6
CONTINUOUS
10
187.8303175231
20
175.0249109507
11
187.8303175231
21
172.5618287556
0
LINE
5
3E0
100
AcDbEntity
8
0
100
AcDbLine
62
7
6
CONTINUOUS
10
192.9367004653
20
171.6925053962
11
193.1409557601
21
172.4169414945
0
LINE
5
3E1
100
AcDbEntity
8
0
100
AcDbLine
62
7
6
CONTINUOUS
10
192.5281898757
20
158.0731094850
11
192.9367004653
21
158.6526577003
0
LINE
5
3E2
100
AcDbEntity
8
0
100
AcDbLine
62
7
6
CONTINUOUS
10
189.6686151763
20
171.5476183424
11
189.2601045867
21
171.8373928646
0
LINE
5
3E3
100
AcDbEntity
8
0
100
AcDbLine
62
7
6
CONTINUOUS
10
183.7452110728
20
165.6072437461
11
184.1537217160
21
165.0276947017
0
LINE
5
3E4
100
AcDbEntity
8
0
100
AcDbLine
62
7
6
CONTINUOUS
10
184.9707429668
20
158.7975459978
11
184.7664876720
21
159.3770942131
0
LINE
5
3E5
100
AcDbEntity
8
0
100
AcDbLine
62
7
6
CONTINUOUS
10
184.9707429668
20
165.7521303854
11
184.7664876720
21
166.3316794298
0
LINE
5
3E6
100
AcDbEntity
8
0
100
AcDbLine
62
7
6
CONTINUOUS
10
183.5409557601
20
159.3770942131
11
183.7452110728
21
158.6526577003
0
LINE
5
3E7
100
AcDbEntity
8
0
100
AcDbLine
62
7
6
CONTINUOUS
10
183.5409557601
20
166.3316794298
11
183.7452110728
21
165.6072437461
0
LINE
5
3E8
100
AcDbEntity
8
0
100
AcDbLine
62
7
6
CONTINUOUS
10
189.0558492919
20
172.2720544406
11
189.0558492919
21
175.0249109507
0
LINE
5
3E9
100
AcDbEntity
8
0
100
AcDbLine
62
7
6
CONTINUOUS
10
191.9154239913
20
161.9850636694
11
191.9154239913
21
159.3770942131
0
LINE
5
3EA
100
AcDbEntity
8
0
100
AcDbLine
62
7
6
CONTINUOUS
10
192.1196792861
20
175.0249109507
11
192.1196792861
21
172.2720544406
0
LINE
5
3EB
100
AcDbEntity
8
0
100
AcDbLine
62
7
6
CONTINUOUS
10
193.1409557601
20
159.3770942131
11
193.1409557601
21
162.8543868215
0
LINE
5
3EC
100
AcDbEntity
8
0
100
AcDbLine
62
7
6
CONTINUOUS
10
193.1409557601
20
164.0134840812
11
193.1409557601
21
164.8828072333
0
LINE
5
3ED
100
AcDbEntity
8
0
100
AcDbLine
62
7
6
CONTINUOUS
10
193.1409557601
20
168.3600998417
11
193.1409557601
21
169.2294234083
0
LINE
5
3EE
100
AcDbEntity
8
0
100
AcDbLine
62
7
6
CONTINUOUS
10
193.1409557601
20
172.4169414945
11
193.1409557601
21
175.8942341028
0
LINE
5
3EF
100
AcDbEntity
8
0
100
AcDbLine
62
7
6
CONTINUOUS
10
192.9367004653
20
158.6526577003
11
193.1409557601
21
159.3770942131
0
LINE
5
3F0
100
AcDbEntity
8
0
100
AcDbLine
62
7
6
CONTINUOUS
10
191.9154239913
20
159.3770942131
11
191.7111686965
21
158.7975459978
0
LINE
5
3F1
100
AcDbEntity
8
0
100
AcDbLine
62
7
6
CONTINUOUS
10
188.2388281127
20
171.6925053962
11
188.6473387023
21
171.1129567663
0
LINE
5
3F2
100
AcDbEntity
8
0
100
AcDbLine
62
7
6
CONTINUOUS
10
189.2601045867
20
171.8373928646
11
189.0558492919
21
172.2720544406
0
LINE
5
3F3
100
AcDbEntity
8
0
100
AcDbLine
62
7
6
CONTINUOUS
10
194.5907901954
20
140.7942341028
11
194.5907901954
21
170.7942341028
0
LINE
5
3F4
100
AcDbEntity
8
0
100
AcDbLine
62
7
6
CONTINUOUS
10
198.0409557601
20
140.7942341028
11
198.0409557601
21
170.7942341028
0
LINE
5
3F5
100
AcDbEntity
8
DEFAULT_2
100
AcDbLine
62
8
6
HIDDEN
10
291.3771299929
20
113.2942341028
11
299.3771299929
21
113.2942341028
0
LINE
5
3F6
100
AcDbEntity
8
0
100
AcDbLine
62
7
6
CONTINUOUS
10
303.3771299929
20
127.8942341028
11
304.1771299929
21
127.8942341028
0
LINE
5
3F7
100
AcDbEntity
8
0
100
AcDbLine
62
7
6
CONTINUOUS
10
303.3771299929
20
128.7055336733
11
304.1771299929
21
128.7055336733
0
LINE
5
3F8
100
AcDbEntity
8
0
100
AcDbLine
62
7
6
CONTINUOUS
10
303.3771299929
20
130.5985659399
11
304.1771299929
21
130.5985659399
0
LINE
5
3F9
100
AcDbEntity
8
0
100
AcDbLine
62
7
6
CONTINUOUS
10
303.3771299929
20
132.4915982065
11
304.1771299929
21
132.4915982065
0
LINE
5
3FA
100
AcDbEntity
8
0
100
AcDbLine
62
7
6
CONTINUOUS
10
303.3771299929
20
133.3028977770
11
304.1771299929
21
133.3028977770
0
LINE
5
3FB
100
AcDbEntity
8
0
100
AcDbLine
62
7
6
CONTINUOUS
10
303.3771299929
20
134.3846306666
11
304.1771299929
21
134.3846306666
0
LINE
5
3FC
100
AcDbEntity
8
0
100
AcDbLine
62
7
6
CONTINUOUS
10
303.3771299929
20
134.5198475196
11
304.1771299929
21
134.5198475196
0
LINE
5
3FD
100
AcDbEntity
8
0
100
AcDbLine
62
7
6
CONTINUOUS
10
303.3771299929
20
134.7902804518
11
304.1771299929
21
134.7902804518
0
LINE
5
3FE
100
AcDbEntity
8
0
100
AcDbLine
62
7
6
CONTINUOUS
10
303.3771299929
20
135.3311470900
11
304.1771299929
21
135.3311470900
0
LINE
5
3FF
100
AcDbEntity
8
0
100
AcDbLine
62
7
6
CONTINUOUS
10
303.3771299929
20
135.8720129546
11
304.1771299929
21
135.8720129546
0
LINE
5
400
100
AcDbEntity
8
0
100
AcDbLine
62
7
6
CONTINUOUS
10
303.3771299929
20
136.5480964458
11
304.1771299929
21
136.5480964458
0
LINE
5
401
100
AcDbEntity
8
0
100
AcDbLine
62
7
6
CONTINUOUS
10
303.3771299929
20
137.7650458015
11
304.1771299929
21
137.7650458015
0
LINE
5
402
100
AcDbEntity
8
0
100
AcDbLine
62
7
6
CONTINUOUS
10
303.3771299929
20
138.4411285189
11
304.1771299929
21
138.4411285189
0
LINE
5
403
100
AcDbEntity
8
0
100
AcDbLine
62
7
6
CONTINUOUS
10
303.3771299929
20
138.9819951572
11
304.1771299929
21
138.9819951572
0
LINE
5
404
100
AcDbEntity
8
0
100
AcDbLine
62
7
6
CONTINUOUS
10
303.3771299929
20
139.5228610217
11
304.1771299929
21
139.5228610217
0
LINE
5
405
100
AcDbEntity
8
0
100
AcDbLine
62
7
6
CONTINUOUS
10
303.3771299929
20
139.6580778747
11
304.1771299929
21
139.6580778747
0
LINE
5
406
100
AcDbEntity
8
0
100
AcDbLine
62
7
6
CONTINUOUS
10
303.3771299929
20
140.7398103774
11
304.1771299929
21
140.7398103774
0
LINE
5
407
100
AcDbEntity
8
0
100
AcDbLine
62
7
6
CONTINUOUS
10
303.3771299929
20
140.8750272304
11
304.1771299929
21
140.8750272304
0
LINE
5
408
100
AcDbEntity
8
0
100
AcDbLine
62
7
6
CONTINUOUS
10
303.3771299929
20
141.1454609363
11
304.1771299929
21
141.1454609363
0
LINE
5
409
100
AcDbEntity
8
0
100
AcDbLine
62
7
6
CONTINUOUS
10
303.3771299929
20
141.6863268008
11
304.1771299929
21
141.6863268008
0
LINE
5
40A
100
AcDbEntity
8
0
100
AcDbLine
62
7
6
CONTINUOUS
10
303.3771299929
20
142.2271926653
11
304.1771299929
21
142.2271926653
0
LINE
5
40B
100
AcDbEntity
8
0
100
AcDbLine
62
7
6
CONTINUOUS
10
303.3771299929
20
142.9032761565
11
304.1771299929
21
142.9032761565
0
LINE
5
40C
100
AcDbEntity
8
0
100
AcDbLine
62
7
6
CONTINUOUS
10
286.5771299929
20
154.5154741483
11
286.5771299929
21
147.4729940573
0
LINE
5
40D
100
AcDbEntity
8
0
100
AcDbLine
62
7
6
CONTINUOUS
10
287.3771299929
20
213.8440685381
11
287.3771299929
21
97.7443996676
0
LINE
5
40E
100
AcDbEntity
8
0
100
AcDbLine
62
7
6
CONTINUOUS
10
303.3771299929
20
144.1202255122
11
304.1771299929
21
144.1202255122
0
LINE
5
40F
100
AcDbEntity
8
0
100
AcDbLine
62
7
6
CONTINUOUS
10
303.3771299929
20
144.7963090034
11
304.1771299929
21
144.7963090034
0
LINE
5
410
100
AcDbEntity
8
0
100
AcDbLine
62
7
6
CONTINUOUS
10
303.3771299929
20
145.3371748679
11
304.1771299929
21
145.3371748679
0
LINE
5
411
100
AcDbEntity
8
0
100
AcDbLine
62
7
6
CONTINUOUS
10
303.3771299929
20
145.8780407324
11
304.1771299929
21
145.8780407324
0
LINE
5
412
100
AcDbEntity
8
0
100
AcDbLine
62
7
6
CONTINUOUS
10
303.3771299929
20
146.0132583591
11
304.1771299929
21
146.0132583591
0
LINE
5
413
100
AcDbEntity
8
0
100
AcDbLine
62
7
6
CONTINUOUS
10
287.3771299929
20
147.4729940573
11
286.5771299929
21
147.4729940573
0
LINE
5
414
100
AcDbEntity
8
0
100
AcDbLine
62
7
6
CONTINUOUS
10
303.3771299929
20
147.8501324877
11
304.1771299929
21
147.8501324877
0
LINE
5
415
100
AcDbEntity
8
0
100
AcDbLine
62
7
6
CONTINUOUS
10
287.3771299929
20
148.1658143803
11
286.5771299929
21
148.1658143803
0
LINE
5
416
100
AcDbEntity
8
0
100
AcDbLine
62
7
6
CONTINUOUS
10
303.3771299929
20
148.5429528107
11
304.1771299929
21
148.5429528107
0
LINE
5
417
100
AcDbEntity
8
0
100
AcDbLine
62
7
6
CONTINUOUS
10
287.3771299929
20
150.5942341028
11
286.5771299929
21
150.5942341028
0
LINE
5
418
100
AcDbEntity
8
0
100
AcDbLine
62
7
6
CONTINUOUS
10
303.3771299929
20
150.9142341028
11
304.1771299929
21
150.9142341028
0
LINE
5
419
100
AcDbEntity
8
0
100
AcDbLine
62
7
6
CONTINUOUS
10
287.3771299929
20
151.3942341028
11
286.5771299929
21
151.3942341028
0
LINE
5
41A
100
AcDbEntity
8
0
100
AcDbLine
62
7
6
CONTINUOUS
10
303.3771299929
20
151.7142341028
11
304.1771299929
21
151.7142341028
0
LINE
5
41B
100
AcDbEntity
8
DEFAULT_1
100
AcDbLine
62
2
6
CENTER
10
295.3771299929
20
91.2942341028
11
295.3771299929
21
220.2942341028
0
LINE
5
41C
100
AcDbEntity
8
0
100
AcDbLine
62
7
6
CONTINUOUS
10
303.3771299929
20
153.5853866519
11
304.1771299929
21
153.5853866519
0
LINE
5
41D
100
AcDbEntity
8
0
100
AcDbLine
62
7
6
CONTINUOUS
10
287.3771299929
20
153.8226538253
11
286.5771299929
21
153.8226538253
0
LINE
5
41E
100
AcDbEntity
8
0
100
AcDbLine
62
7
6
CONTINUOUS
10
303.3771299929
20
154.3966877698
11
304.1771299929
21
154.3966877698
0
LINE
5
41F
100
AcDbEntity
8
0
100
AcDbLine
62
7
6
CONTINUOUS
10
287.3771299929
20
154.5154741483
11
286.5771299929
21
154.5154741483
0
LINE
5
420
100
AcDbEntity
8
0
100
AcDbLine
62
7
6
CONTINUOUS
10
303.3771299929
20
155.2079873403
11
304.1771299929
21
155.2079873403
0
LINE
5
421
100
AcDbEntity
8
0
100
AcDbLine
62
7
6
CONTINUOUS
10
303.3771299929
20
155.7142341028
11
304.1771299929
21
155.7142341028
0
LINE
5
422
100
AcDbEntity
8
0
100
AcDbLine
62
7
6
CONTINUOUS
10
303.3771299929
20
155.8504043113
11
304.1771299929
21
155.8504043113
0
LINE
5
423
100
AcDbEntity
8
0
100
AcDbLine
62
7
6
CONTINUOUS
10
303.3771299929
20
156.2589149366
11
304.1771299929
21
156.2589149366
0
LINE
5
424
100
AcDbEntity
8
0
100
AcDbLine
62
7
6
CONTINUOUS
10
303.3771299929
20
156.2897190693
11
304.1771299929
21
156.2897190693
0
LINE
5
425
100
AcDbEntity
8
0
100
AcDbLine
62
7
6
CONTINUOUS
10
303.3771299929
20
156.4249366960
11
304.1771299929
21
156.4249366960
0
LINE
5
426
100
AcDbEntity
8
0
100
AcDbLine
62
7
6
CONTINUOUS
10
303.3771299929
20
156.6953688545
11
304.1771299929
21
156.6953688545
0
LINE
5
427
100
AcDbEntity
8
0
100
AcDbLine
62
7
6
CONTINUOUS
10
303.3771299929
20
157.1010186398
11
304.1771299929
21
157.1010186398
0
LINE
5
428
100
AcDbEntity
8
0
100
AcDbLine
62
7
6
CONTINUOUS
10
303.3771299929
20
157.7771005835
11
304.1771299929
21
157.7771005835
0
LINE
5
429
100
AcDbEntity
8
0
100
AcDbLine
62
7
6
CONTINUOUS
10
303.3771299929
20
158.4531856222
11
304.1771299929
21
158.4531856222
0
LINE
5
42A
100
AcDbEntity
8
0
100
AcDbLine
62
7
6
CONTINUOUS
10
303.3771299929
20
158.9940499392
11
304.1771299929
21
158.9940499392
0
LINE
5
42B
100
AcDbEntity
8
0
100
AcDbLine
62
7
6
CONTINUOUS
10
303.3771299929
20
159.6701349779
11
304.1771299929
21
159.6701349779
0
LINE
5
42C
100
AcDbEntity
8
0
100
AcDbLine
62
7
6
CONTINUOUS
10
303.3771299929
20
160.3462169216
11
304.1771299929
21
160.3462169216
0
LINE
5
42D
100
AcDbEntity
8
0
100
AcDbLine
62
7
6
CONTINUOUS
10
303.3771299929
20
213.8440685381
11
303.3771299929
21
97.7444218202
0
LINE
5
42E
100
AcDbEntity
8
0
100
AcDbLine
62
7
6
CONTINUOUS
10
304.1771299929
20
178.6004572572
11
304.1771299929
21
164.1583715496
0
LINE
5
42F
100
AcDbEntity
8
0
100
AcDbLine
62
7
6
CONTINUOUS
10
304.1771299929
20
164.1322826155
11
304.1771299929
21
161.1610427271
0
LINE
5
430
100
AcDbEntity
8
0
100
AcDbLine
62
7
6
CONTINUOUS
10
304.1771299929
20
161.1575164921
11
304.1771299929
21
155.7142341028
0
LINE
5
431
100
AcDbEntity
8
0
100
AcDbLine
62
7
6
CONTINUOUS
10
304.1771299929
20
155.2079873403
11
304.1771299929
21
147.8501324877
0
LINE
5
432
100
AcDbEntity
8
0
100
AcDbLine
62
7
6
CONTINUOUS
10
304.1771299929
20
146.0132583591
11
304.1771299929
21
140.7398103774
0
LINE
5
433
100
AcDbEntity
8
0
100
AcDbLine
62
7
6
CONTINUOUS
10
304.1771299929
20
139.6580778747
11
304.1771299929
21
134.3846306666
0
LINE
5
434
100
AcDbEntity
8
0
100
AcDbLine
62
7
6
CONTINUOUS
10
304.1771299929
20
133.3028977770
11
304.1771299929
21
127.8942341028
0
LINE
5
435
100
AcDbEntity
8
0
100
AcDbLine
62
7
6
CONTINUOUS
10
303.3771299929
20
160.7518667069
11
304.1771299929
21
160.7518667069
0
LINE
5
436
100
AcDbEntity
8
0
100
AcDbLine
62
7
6
CONTINUOUS
10
303.3771299929
20
160.8870843336
11
304.1771299929
21
160.8870843336
0
LINE
5
437
100
AcDbEntity
8
0
100
AcDbLine
62
7
6
CONTINUOUS
10
303.3771299929
20
161.1575164921
11
304.1771299929
21
161.1575164921
0
LINE
5
438
100
AcDbEntity
8
0
100
AcDbLine
62
7
6
CONTINUOUS
10
303.3771299929
20
161.7057235132
11
304.1771299929
21
161.7057235132
0
LINE
5
439
100
AcDbEntity
8
0
100
AcDbLine
62
7
6
CONTINUOUS
10
303.3771299929
20
161.9780639063
11
304.1771299929
21
161.9780639063
0
LINE
5
43A
100
AcDbEntity
8
0
100
AcDbLine
62
7
6
CONTINUOUS
10
303.3771299929
20
162.1142341028
11
304.1771299929
21
162.1142341028
0
LINE
5
43B
100
AcDbEntity
8
0
100
AcDbLine
62
7
6
CONTINUOUS
10
303.3771299929
20
162.2392482211
11
304.1771299929
21
162.2392482211
0
LINE
5
43C
100
AcDbEntity
8
0
100
AcDbLine
62
7
6
CONTINUOUS
10
303.3771299929
20
164.1322826155
11
304.1771299929
21
164.1322826155
0
LINE
5
43D
100
AcDbEntity
8
0
100
AcDbLine
62
7
6
CONTINUOUS
10
303.3771299929
20
164.1583715496
11
304.1771299929
21
164.1583715496
0
LINE
5
43E
100
AcDbEntity
8
0
100
AcDbLine
62
7
6
CONTINUOUS
10
303.3771299929
20
164.4481456573
11
304.1771299929
21
164.4481456573
0
LINE
5
43F
100
AcDbEntity
8
0
100
AcDbLine
62
7
6
CONTINUOUS
10
303.3771299929
20
165.0276947017
11
304.1771299929
21
165.0276947017
0
LINE
5
440
100
AcDbEntity
8
0
100
AcDbLine
62
7
6
CONTINUOUS
10
303.3771299929
20
165.2140143445
11
304.1771299929
21
165.2140143445
0
LINE
5
441
100
AcDbEntity
8
0
100
AcDbLine
62
7
6
CONTINUOUS
10
303.3771299929
20
166.0253139149
11
304.1771299929
21
166.0253139149
0
LINE
5
442
100
AcDbEntity
8
0
100
AcDbLine
62
7
6
CONTINUOUS
10
303.3771299929
20
167.9183452144
11
304.1771299929
21
167.9183452144
0
LINE
5
443
100
AcDbEntity
8
0
100
AcDbLine
62
7
6
CONTINUOUS
10
303.3771299929
20
169.8113796088
11
304.1771299929
21
169.8113796088
0
LINE
5
444
100
AcDbEntity
8
0
100
AcDbLine
62
7
6
CONTINUOUS
10
303.3771299929
20
170.6226791792
11
304.1771299929
21
170.6226791792
0
LINE
5
445
100
AcDbEntity
8
0
100
AcDbLine
62
7
6
CONTINUOUS
10
303.3771299929
20
171.4027312885
11
304.1771299929
21
171.4027312885
0
LINE
5
446
100
AcDbEntity
8
0
100
AcDbLine
62
7
6
CONTINUOUS
10
303.3771299929
20
171.7044109082
11
304.1771299929
21
171.7044109082
0
LINE
5
447
100
AcDbEntity
8
0
100
AcDbLine
62
7
6
CONTINUOUS
10
303.3771299929
20
172.5157104787
11
304.1771299929
21
172.5157104787
0
LINE
5
448
100
AcDbEntity
8
0
100
AcDbLine
62
7
6
CONTINUOUS
10
303.3771299929
20
172.5618287556
11
304.1771299929
21
172.5618287556
0
LINE
5
449
100
AcDbEntity
8
0
100
AcDbLine
62
7
6
CONTINUOUS
10
303.3771299929
20
173.5974422077
11
304.1771299929
21
173.5974422077
0
LINE
5
44A
100
AcDbEntity
8
0
100
AcDbLine
62
7
6
CONTINUOUS
10
303.3771299929
20
176.8426404896
11
304.1771299929
21
176.8426404896
0
LINE
5
44B
100
AcDbEntity
8
0
100
AcDbLine
62
7
6
CONTINUOUS
10
303.3771299929
20
177.5187255282
11
304.1771299929
21
177.5187255282
0
LINE
5
44C
100
AcDbEntity
8
0
100
AcDbLine
62
7
6
CONTINUOUS
10
303.3771299929
20
178.0595898453
11
304.1771299929
21
178.0595898453
0
LINE
5
44D
100
AcDbEntity
8
0
100
AcDbLine
62
7
6
CONTINUOUS
10
303.3771299929
20
178.4652396305
11
304.1771299929
21
178.4652396305
0
LINE
5
44E
100
AcDbEntity
8
0
100
AcDbLine
62
7
6
CONTINUOUS
10
303.3771299929
20
178.6004572572
11
304.1771299929
21
178.6004572572
0
LINE
5
44F
100
AcDbEntity
8
DEFAULT_2
100
AcDbLine
62
8
6
HIDDEN
10
291.3771299929
20
198.2942341028
11
299.3771299929
21
198.2942341028
0
ARC
5
450
100
AcDbEntity
8
0
100
AcDbCircle
62
7
6
CONTINUOUS
10
151.5409557601
20
140.7942341028
40
46.5000000000
100
AcDbArc
50
180.0000000000
51
360.0000000000
0
ARC
5
451
100
AcDbEntity
8
0
100
AcDbCircle
62
7
6
CONTINUOUS
10
151.5409557601
20
170.7942341028
40
46.5000000000
100
AcDbArc
50
0.0000000000
51
180.0000000000
0
ARC
5
452
100
AcDbEntity
8
0
100
AcDbCircle
62
7
6
CONTINUOUS
10
175.0196695239
20
171.7942341028
40
4.0000000000
100
AcDbArc
50
270.0000000000
51
2.4388546909
0
ARC
5
453
100
AcDbEntity
8
0
100
AcDbCircle
62
7
6
CONTINUOUS
10
151.5409557601
20
170.7942341028
40
27.5000000000
100
AcDbArc
50
2.4388546909
51
177.5611453091
0
ARC
5
454
100
AcDbEntity
8
0
100
AcDbCircle
62
7
6
CONTINUOUS
10
128.0622419964
20
171.7942341028
40
4.0000000000
100
AcDbArc
50
177.5611453091
51
270.0000000000
0
ARC
5
455
100
AcDbEntity
8
0
100
AcDbCircle
62
7
6
CONTINUOUS
10
128.0622419964
20
139.7942341028
40
4.0000000000
100
AcDbArc
50
90.0000000000
51
182.4388546910
0
ARC
5
456
100
AcDbEntity
8
0
100
AcDbCircle
62
7
6
CONTINUOUS
10
151.5409557601
20
140.7942341028
40
27.5000000000
100
AcDbArc
50
182.4388546909
51
357.5611453091
0
ARC
5
457
100
AcDbEntity
8
0
100
AcDbCircle
62
7
6
CONTINUOUS
10
175.0196695239
20
139.7942341028
40
4.0000000000
100
AcDbArc
50
357.5611453090
51
90.0000000000
0
ARC
5
458
100
AcDbEntity
8
0
100
AcDbCircle
62
7
6
CONTINUOUS
10
151.5409557601
20
140.7942341028
40
43.0498344353
100
AcDbArc
50
197.2816309586
51
360.0000000000
0
ARC
5
459
100
AcDbEntity
8
0
100
AcDbCircle
62
7
6
CONTINUOUS
10
151.5409557601
20
140.7942341028
40
43.0498344353
100
AcDbArc
50
180.0000000000
51
196.2253822385
0
ARC
5
45A
100
AcDbEntity
8
0
100
AcDbCircle
62
7
6
CONTINUOUS
10
151.5409557601
20
170.7942341028
40
43.0498344353
100
AcDbArc
50
0.0000000000
51
180.0000000000
0
ARC
5
45B
100
AcDbEntity
8
DEFAULT_2
100
AcDbCircle
62
8
6
HIDDEN
10
291.3771299929
20
109.2942341028
40
4.0000000000
100
AcDbArc
50
90.0000000000
51
179.9999983610
0
ARC
5
45C
100
AcDbEntity
8
DEFAULT_2
100
AcDbCircle
62
8
6
HIDDEN
10
291.3771299929
20
202.2942341028
40
4.0000000000
100
AcDbArc
50
180.0000016390
51
270.0000000000
0
ARC
5
45D
100
AcDbEntity
8
DEFAULT_2
100
AcDbCircle
62
8
6
HIDDEN
10
299.3771299929
20
109.2942341028
40
4.0000000000
100
AcDbArc
50
0.0000016390
51
90.0000000000
0
ARC
5
45E
100
AcDbEntity
8
DEFAULT_2
100
AcDbCircle
62
8
6
HIDDEN
10
299.3771299929
20
202.2942341028
40
4.0000000000
100
AcDbArc
50
270.0000000000
51
359.9999983610
0
ARC
5
45F
100
AcDbEntity
8
0
100
AcDbCircle
62
7
6
CONTINUOUS
10
295.3771299929
20
105.2942341028
40
11.0000000000
100
AcDbArc
50
223.3417582272
51
316.6582417728
0
ARC
5
460
100
AcDbEntity
8
0
100
AcDbCircle
62
7
6
CONTINUOUS
10
295.3771299929
20
206.2942341028
40
11.0000000000
100
AcDbArc
50
43.3417582272
51
136.6582417728
0
SPLINE
5
461
100
AcDbEntity
8
0
100
AcDbSpline
62
7
6
CONTINUOUS
70
0
71
3
72
9
73
5
74
3
42
0.0000001000
43
0.0000001000
44
0.0000000001
40
0.0000000000
40
0.0000000000
40
0.0000000000
40
0.0000000000
40
0.4998483919
40
1.0000000000
40
1.0000000000
40
1.0000000000
40
1.0000000000
10
145.7909557077
20
143.9332459744
30
0.0000000000
10
145.6886449863
20
143.8876767632
30
0.0000000000
10
145.4738067697
20
143.8177855345
30
0.0000000000
10
145.2491168283
20
143.7942341028
30
0.0000000000
10
145.1370487232
20
143.7942341028
30
0.0000000000
11
145.7909557077
21
143.9332459744
31
0.0000000000
11
145.4714104743
21
143.8293846515
31
0.0000000000
11
145.1370487232
21
143.7942341028
31
0.0000000000
0
SPLINE
5
462
100
AcDbEntity
8
0
100
AcDbSpline
62
7
6
CONTINUOUS
70
0
71
3
72
9
73
5
74
3
42
0.0000001000
43
0.0000001000
44
0.0000000001
40
0.0000000000
40
0.0000000000
40
0.0000000000
40
0.0000000000
40
0.4998483919
40
1.0000000000
40
1.0000000000
40
1.0000000000
40
1.0000000000
10
145.7909557077
20
167.6552222312
30
0.0000000000
10
145.6886449863
20
167.7007914424
30
0.0000000000
10
145.4738067697
20
167.7706826712
30
0.0000000000
10
145.2491168283
20
167.7942341028
30
0.0000000000
10
145.1370487232
20
167.7942341028
30
0.0000000000
11
145.7909557077
21
167.6552222312
31
0.0000000000
11
145.4714104743
21
167.7590835542
31
0.0000000000
11
145.1370487232
21
167.7942341028
31
0.0000000000
0
SPLINE
5
463
100
AcDbEntity
8
0
100
AcDbSpline
62
7
6
CONTINUOUS
70
0
71
3
72
9
73
5
74
3
42
0.0000001000
43
0.0000001000
44
0.0000000001
40
0.0000000000
40
0.0000000000
40
0.0000000000
40
0.0000000000
40
0.4998483919
40
1.0000000000
40
1.0000000000
40
1.0000000000
40
1.0000000000
10
157.2909558125
20
167.6552222312
30
0.0000000000
10
157.3932665340
20
167.7007914424
30
0.0000000000
10
157.6081047505
20
167.7706826712
30
0.0000000000
10
157.8327946919
20
167.7942341028
30
0.0000000000
10
157.9448627970
20
167.7942341028
30
0.0000000000
11
157.2909558125
21
167.6552222312
31
0.0000000000
11
157.6105010459
21
167.7590835542
31
0.0000000000
11
157.9448627970
21
167.7942341028
31
0.0000000000
0
SPLINE
5
464
100
AcDbEntity
8
0
100
AcDbSpline
62
7
6
CONTINUOUS
70
0
71
3
72
9
73
5
74
3
42
0.0000001000
43
0.0000001000
44
0.0000000001
40
0.0000000000
40
0.0000000000
40
0.0000000000
40
0.0000000000
40
0.4998483919
40
1.0000000000
40
1.0000000000
40
1.0000000000
40
1.0000000000
10
157.2909558125
20
143.9332459744
30
0.0000000000
10
157.3932665340
20
143.8876767632
30
0.0000000000
10
157.6081047505
20
143.8177855345
30
0.0000000000
10
157.8327946919
20
143.7942341028
30
0.0000000000
10
157.9448627970
20
143.7942341028
30
0.0000000000
11
157.2909558125
21
143.9332459744
31
0.0000000000
11
157.6105010459
21
143.8293846515
31
0.0000000000
11
157.9448627970
21
143.7942341028
31
0.0000000000
0
ENDSEC
0
SECTION
2
OBJECTS
0
DICTIONARY
5
465
100
AcDbDictionary
3
ACAD_GROUP
350
466
3
ACAD_MLINESTYLE
350
467
0
DICTIONARY
5
466
102
{ACAD_REACTORS
330
465
102
}
100
AcDbDictionary
0
DICTIONARY
5
467
102
{ACAD_REACTORS
330
465
102
}
100
AcDbDictionary
3
STANDARD
350
468
0
MLINESTYLE
5
468
102
{ACAD_REACTORS
330
467
102
}
100
AcDbMlineStyle
2
STANDARD
70
0
3

62
256
51
90.0
52
90.0
71
2
49
0.5
62
256
6
BYLAYER
49
-0.5
62
256
6
BYLAYER
0
ENDSEC
0
EOF
