999
DXF file: C:\Aktuell-Internet\CAD-Daten\2vcg13.dxf
999
Pro/ENGINEER 2001400 by Parametric Technology Corporation
0
SECTION
2
HEADER
9
$ACADVER
1
AC1014
9
$EXTMAX
10
420.0000000000
20
297.0000000000
9
$EXTMIN
10
0.0000000000
20
0.0000000000
9
$LIMMIN
10
0.0000000000
20
0.0000000000
9
$LIMMAX
10
420.0000000000
20
297.0000000000
9
$VIEWCTR
10
210.0000000000
20
148.5000000000
9
$VIEWSIZE
40
297.0000000000
9
$CLAYER
8
0
9
$LTSCALE
40
23.1000000000
9
$CELTYPE
6
BYLAYER
9
$DIMSCALE
40
1
9
$DIMASZ
40
3.5000000000
9
$DIMEXO
40
2.6250000000
9
$DIMDLI
40
15.9600000000
9
$DIMEXE
40
7.5600000000
9
$DIMCEN
40
3.7800000000
9
$DIMLFAC
40
1.0000000000
9
$DIMTXT
40
3.5000000000
9
$DIMTOL
70
1
9
$DIMTFAC
40
0.6000000000
9
$DIMTP
40
0.0050000000
9
$DIMTM
40
0.0050000000
9
$HANDSEED
5
484
0
ENDSEC
0
SECTION
2
CLASSES
0
ENDSEC
0
SECTION
2
TABLES
0
TABLE
2
VPORT
5
8
100
AcDbSymbolTable
70
2
0
VPORT
5
1F4
100
AcDbSymbolTableRecord
100
AcDbViewportTableRecord
2
*ACTIVE
70
0
10
0.0
20
0.0
11
1.0
21
1.0
12
210.0000000000
22
148.5000000000
13
0.0
23
0.0
14
1.0
24
1.0
15
0.0
25
0.0
16
0.0
26
0.0
36
1.0
17
0.0
27
0.0
37
0.0
40
297.0000000000
41
1.4141414141
42
50.0
43
0.0
44
0.0
50
0.0
51
0.0
71
0
72
100
73
1
74
1
75
0
76
0
77
0
78
0
0
ENDTAB
0
TABLE
2
LTYPE
5
5
100
AcDbSymbolTable
70
6
0
LTYPE
5
14
100
AcDbSymbolTableRecord
100
AcDbLinetypeTableRecord
2
BYBLOCK
70
0
3

72
65
73
0
40
0.0
0
LTYPE
5
15
100
AcDbSymbolTableRecord
100
AcDbLinetypeTableRecord
2
BYLAYER
70
0
3

72
65
73
0
40
0.0
0
LTYPE
5
16
100
AcDbSymbolTableRecord
100
AcDbLinetypeTableRecord
2
CONTINUOUS
70
64
3
Solid line
72
65
73
0
40
0
0
LTYPE
5
1F5
100
AcDbSymbolTableRecord
100
AcDbLinetypeTableRecord
2
CENTER
70
64
3
____ _ ____ _ ____ _ ____ _ ____ _ ____ _ ____
72
65
73
4
40
0.6
49
0.375
74
0
49
-0.075
74
0
49
0.075
74
0
49
-0.075
74
0
0
LTYPE
5
1F6
100
AcDbSymbolTableRecord
100
AcDbLinetypeTableRecord
2
HIDDEN
70
64
3
- - - - - - - - - - - - - - - - - - - -
72
65
73
2
40
0.2
49
0.1
74
0
49
-0.1
74
0
0
LTYPE
5
1F7
100
AcDbSymbolTableRecord
100
AcDbLinetypeTableRecord
2
PHANTOM
70
64
3
_____ _ _ _____ _ _ _____ _ _ _____
72
65
73
6
40
0.8
49
0.45
74
0
49
-0.05
74
0
49
0.1
74
0
49
-0.05
74
0
49
0.1
74
0
49
-0.05
74
0
0
LTYPE
5
1F8
100
AcDbSymbolTableRecord
100
AcDbLinetypeTableRecord
2
DOT
70
64
3
. . . . . . . . . . . . . . . . . . . .
72
65
73
2
40
0.2
49
0.1
74
0
49
-0.1
74
0
0
LTYPE
5
1F9
100
AcDbSymbolTableRecord
100
AcDbLinetypeTableRecord
2
DASHED
70
64
3
- - - - - - - - - - - - - - - - - - - -
72
65
73
2
40
0.2
49
0.1
74
0
49
-0.1
74
0
0
ENDTAB
0
TABLE
2
LAYER
5
2
100
AcDbSymbolTable
70
36
0
LAYER
5
10
100
AcDbSymbolTableRecord
100
AcDbLayerTableRecord
2
0
70
0
62
7
6
CONTINUOUS
0
LAYER
5
1FA
100
AcDbSymbolTableRecord
100
AcDbLayerTableRecord
2
DEFAULT_1
70
0
62
7
6
CENTER
0
LAYER
5
1FB
100
AcDbSymbolTableRecord
100
AcDbLayerTableRecord
2
DEFAULT_2
70
0
62
8
6
HIDDEN
0
LAYER
5
1FC
100
AcDbSymbolTableRecord
100
AcDbLayerTableRecord
2
DEFAULT_3
70
0
62
7
6
PHANTOM
0
ENDTAB
0
TABLE
2
STYLE
5
3
100
AcDbSymbolTable
70
1
0
STYLE
5
11
100
AcDbSymbolTableRecord
100
AcDbTextStyleTableRecord
2
STANDARD
70
0
40
0.0
41
1.0
50
0.0
71
0
42
0.0
3
txt
4

0
ENDTAB
0
TABLE
2
VIEW
5
6
100
AcDbSymbolTable
70
0
0
ENDTAB
0
TABLE
2
UCS
5
7
100
AcDbSymbolTable
70
0
0
ENDTAB
0
TABLE
2
APPID
5
9
100
AcDbSymbolTable
70
1
0
APPID
5
1FD
100
AcDbSymbolTableRecord
100
AcDbRegAppTableRecord
2
ACAD
70
0
0
ENDTAB
0
TABLE
2
DIMSTYLE
5
A
100
AcDbSymbolTable
70
1
0
DIMSTYLE
105
1FE
100
AcDbSymbolTableRecord
100
AcDbDimStyleTableRecord
2
STANDARD
70
0
3

4

5

6

7

40
1.0
41
0.18
42
0.0625
43
0.38
44
0.18
45
0.0
46
0.0
47
0.0050000000
48
0.0050000000
140
3.5000000000
141
0.09
142
0.0
143
25.4
144
1.0000000000
145
0.0
146
0.6000000000
147
0.09
71
1
72
0
73
1
74
1
75
0
76
0
77
0
78
0
170
0
171
2
172
0
173
0
174
0
175
0
176
0
177
0
178
0
270
2
271
3
272
4
273
2
274
2
340
11
275
0
280
0
281
0
282
0
283
1
284
0
285
0
286
0
287
3
288
0
0
ENDTAB
0
TABLE
2
BLOCK_RECORD
5
1
100
AcDbSymbolTable
70
0
0
BLOCK_RECORD
5
1B
100
AcDbSymbolTableRecord
100
AcDbBlockTableRecord
2
*MODEL_SPACE
0
BLOCK_RECORD
5
1C
100
AcDbSymbolTableRecord
100
AcDbBlockTableRecord
2
*PAPER_SPACE
0
ENDTAB
0
ENDSEC
0
SECTION
2
BLOCKS
0
BLOCK
5
1E
100
AcDbEntity
8
0
100
AcDbBlockBegin
2
*MODEL_SPACE
70
0
10
0.0
20
0.0
30
0.0
3
*MODEL_SPACE
1

0
ENDBLK
5
1F
100
AcDbEntity
8
0
100
AcDbBlockEnd
0
BLOCK
5
20
100
AcDbEntity
8
0
100
AcDbBlockBegin
2
*PAPER_SPACE
70
0
10
0.0
20
0.0
30
0.0
3
*PAPER_SPACE
1

0
ENDBLK
5
21
100
AcDbEntity
8
0
100
AcDbBlockEnd
0
ENDSEC
0
SECTION
2
ENTITIES
0
LINE
5
1FF
100
AcDbEntity
8
0
100
AcDbLine
62
7
6
CONTINUOUS
10
0.0000000000
20
0.0000000000
11
0.0000000000
21
297.0000000000
0
LINE
5
200
100
AcDbEntity
8
0
100
AcDbLine
62
7
6
CONTINUOUS
10
0.0000000000
20
0.0000000000
11
420.0000000000
21
0.0000000000
0
LINE
5
201
100
AcDbEntity
8
0
100
AcDbLine
62
7
6
CONTINUOUS
10
0.0000000000
20
297.0000000000
11
420.0000000000
21
297.0000000000
0
LINE
5
202
100
AcDbEntity
8
0
100
AcDbLine
62
7
6
CONTINUOUS
10
420.0000000000
20
0.0000000000
11
420.0000000000
21
297.0000000000
0
LINE
5
203
100
AcDbEntity
8
0
100
AcDbLine
62
7
6
CONTINUOUS
10
113.0409557601
20
168.2942341028
11
113.0409557601
21
143.2942341028
0
LINE
5
204
100
AcDbEntity
8
0
100
AcDbLine
62
7
6
CONTINUOUS
10
116.0916502492
20
168.2942341028
11
116.0916502492
21
143.2942341028
0
LINE
5
205
100
AcDbEntity
8
0
100
AcDbLine
62
7
6
CONTINUOUS
10
117.7409557601
20
173.3648142921
11
117.7409557601
21
170.7280906880
0
LINE
5
206
100
AcDbEntity
8
0
100
AcDbLine
62
7
6
CONTINUOUS
10
117.7409557601
20
169.8491836582
11
117.7409557601
21
169.1900027572
0
LINE
5
207
100
AcDbEntity
8
0
100
AcDbLine
62
7
6
CONTINUOUS
10
117.7409557601
20
168.3110957274
11
117.7409557601
21
167.6519148264
0
LINE
5
208
100
AcDbEntity
8
0
100
AcDbLine
62
7
6
CONTINUOUS
10
117.7409557601
20
164.5757364502
11
117.7409557601
21
163.9165555492
0
LINE
5
209
100
AcDbEntity
8
0
100
AcDbLine
62
7
6
CONTINUOUS
10
117.7409557601
20
158.7529726628
11
117.7409557601
21
158.5332440194
0
LINE
5
20A
100
AcDbEntity
8
0
100
AcDbLine
62
7
6
CONTINUOUS
10
117.7409557601
20
155.7866586083
11
117.7409557601
21
155.1274777073
0
LINE
5
20B
100
AcDbEntity
8
0
100
AcDbLine
62
7
6
CONTINUOUS
10
117.7409557601
20
146.7778521230
11
117.7409557601
21
145.7890807715
0
LINE
5
20C
100
AcDbEntity
8
0
100
AcDbLine
62
7
6
CONTINUOUS
10
117.7409557601
20
141.6142686080
11
117.7409557601
21
140.6254972565
0
LINE
5
20D
100
AcDbEntity
8
0
100
AcDbLine
62
7
6
CONTINUOUS
10
117.7409557601
20
137.9887733381
11
117.7409557601
21
137.3295924371
0
LINE
5
20E
100
AcDbEntity
8
0
100
AcDbLine
62
7
6
CONTINUOUS
10
117.7409557601
20
134.2534150038
11
117.7409557601
21
133.5942341028
0
LINE
5
20F
100
AcDbEntity
8
0
100
AcDbLine
62
7
6
CONTINUOUS
10
117.9069131871
20
159.5220153709
11
117.7409557601
21
158.7529726628
0
LINE
5
210
100
AcDbEntity
8
0
100
AcDbLine
62
7
6
CONTINUOUS
10
117.9069131871
20
173.9141333860
11
117.7409557601
21
173.3648142921
0
LINE
5
211
100
AcDbEntity
8
0
100
AcDbLine
62
7
6
CONTINUOUS
10
118.5707428952
20
173.4746786138
11
118.7367003223
21
173.8042690643
0
LINE
5
212
100
AcDbEntity
8
0
100
AcDbLine
62
7
6
CONTINUOUS
10
118.4047854682
20
174.3535856436
11
117.9069131871
21
173.9141333860
0
LINE
5
213
100
AcDbEntity
8
0
100
AcDbLine
62
7
6
CONTINUOUS
10
119.2345726033
20
139.8564526624
11
118.9026577493
21
140.1860431129
0
LINE
5
214
100
AcDbEntity
8
0
100
AcDbLine
62
7
6
CONTINUOUS
10
117.9069131871
20
140.0761794199
11
118.2388280412
21
139.6367259049
0
LINE
5
215
100
AcDbEntity
8
0
100
AcDbLine
62
7
6
CONTINUOUS
10
118.9026577493
20
140.1860431129
11
118.7367003223
21
140.6254972565
0
LINE
5
216
100
AcDbEntity
8
0
100
AcDbLine
62
7
6
CONTINUOUS
10
118.9026577493
20
145.3496272566
11
118.7367003223
21
145.7890807715
0
LINE
5
217
100
AcDbEntity
8
0
100
AcDbLine
62
7
6
CONTINUOUS
10
117.7409557601
20
140.6254972565
11
117.9069131871
21
140.0761794199
0
LINE
5
218
100
AcDbEntity
8
0
100
AcDbLine
62
7
6
CONTINUOUS
10
117.7409557601
20
145.7890807715
11
117.9069131871
21
145.2397629349
0
LINE
5
219
100
AcDbEntity
8
0
100
AcDbLine
62
7
6
CONTINUOUS
10
118.5707428952
20
158.4233822123
11
118.5707428952
21
158.8628344699
0
LINE
5
21A
100
AcDbEntity
8
0
100
AcDbLine
62
7
6
CONTINUOUS
10
118.5707428952
20
171.3872715890
11
118.5707428952
21
173.4746786138
0
LINE
5
21B
100
AcDbEntity
8
0
100
AcDbLine
62
7
6
CONTINUOUS
10
118.7367003223
20
140.6254972565
11
118.7367003223
21
141.6142686080
0
LINE
5
21C
100
AcDbEntity
8
0
100
AcDbLine
62
7
6
CONTINUOUS
10
118.7367003223
20
145.7890807715
11
118.7367003223
21
146.7778521230
0
LINE
5
21D
100
AcDbEntity
8
0
100
AcDbLine
62
7
6
CONTINUOUS
10
119.5664874574
20
156.7754299598
11
119.5664874574
21
157.3247465391
0
LINE
5
21E
100
AcDbEntity
8
0
100
AcDbLine
62
7
6
CONTINUOUS
10
119.7324453493
20
142.4931762664
11
119.7324453493
21
143.1523571674
0
LINE
5
21F
100
AcDbEntity
8
0
100
AcDbLine
62
7
6
CONTINUOUS
10
119.7324453493
20
147.6567604101
11
119.7324453493
21
148.3159413111
0
LINE
5
220
100
AcDbEntity
8
0
100
AcDbLine
62
7
6
CONTINUOUS
10
121.0601047655
20
173.4746786138
11
121.0601047655
21
171.3872715890
0
LINE
5
221
100
AcDbEntity
8
0
100
AcDbLine
62
7
6
CONTINUOUS
10
121.2260621926
20
158.8628344699
11
121.2260621926
21
158.4233822123
0
LINE
5
222
100
AcDbEntity
8
0
100
AcDbLine
62
7
6
CONTINUOUS
10
121.2260621926
20
148.3159413111
11
121.2260621926
21
146.6679890586
0
LINE
5
223
100
AcDbEntity
8
0
100
AcDbLine
62
7
6
CONTINUOUS
10
121.8898919007
20
163.0376485193
11
121.8898919007
21
161.4995580739
0
LINE
5
224
100
AcDbEntity
8
0
100
AcDbLine
62
7
6
CONTINUOUS
10
121.8898919007
20
158.4233822123
11
121.8898919007
21
158.8628344699
0
LINE
5
225
100
AcDbEntity
8
0
100
AcDbLine
62
7
6
CONTINUOUS
10
122.0558493277
20
171.3872715890
11
122.0558493277
21
173.3648142921
0
LINE
5
226
100
AcDbEntity
8
0
100
AcDbLine
62
7
6
CONTINUOUS
10
122.2218067547
20
146.6679890586
11
122.2218067547
21
147.6567604101
0
LINE
5
227
100
AcDbEntity
8
0
100
AcDbLine
62
7
6
CONTINUOUS
10
121.8898919007
20
158.8628344699
11
122.0558493277
21
159.5220153709
0
LINE
5
228
100
AcDbEntity
8
0
100
AcDbLine
62
7
6
CONTINUOUS
10
118.5707428952
20
158.8628344699
11
118.7367003223
21
159.4121535638
0
LINE
5
229
100
AcDbEntity
8
0
100
AcDbLine
62
7
6
CONTINUOUS
10
117.9069131871
20
147.3271699596
11
117.7409557601
21
146.7778521230
0
LINE
5
22A
100
AcDbEntity
8
0
100
AcDbLine
62
7
6
CONTINUOUS
10
118.7367003223
20
173.8042690643
11
119.0686151763
21
174.0239951931
0
LINE
5
22B
100
AcDbEntity
8
0
100
AcDbLine
62
7
6
CONTINUOUS
10
119.0686151763
20
174.6831760941
11
118.4047854682
21
174.3535856436
0
LINE
5
22C
100
AcDbEntity
8
0
100
AcDbLine
62
7
6
CONTINUOUS
10
118.2388280412
20
139.6367259049
11
118.9026577493
21
139.1972717614
0
LINE
5
22D
100
AcDbEntity
8
0
100
AcDbLine
62
7
6
CONTINUOUS
10
119.2345726033
20
145.0200368061
11
118.9026577493
21
145.3496272566
0
LINE
5
22E
100
AcDbEntity
8
0
100
AcDbLine
62
7
6
CONTINUOUS
10
117.9069131871
20
145.2397629349
11
118.2388280412
21
144.8003094200
0
LINE
5
22F
100
AcDbEntity
8
0
100
AcDbLine
62
7
6
CONTINUOUS
10
124.3792536547
20
142.0537221229
11
124.5452110817
21
141.6142686080
0
LINE
5
230
100
AcDbEntity
8
0
100
AcDbLine
62
7
6
CONTINUOUS
10
118.7367003223
20
157.8740631184
11
118.5707428952
21
158.4233822123
0
LINE
5
231
100
AcDbEntity
8
0
100
AcDbLine
62
7
6
CONTINUOUS
10
117.7409557601
20
158.5332440194
11
117.9069131871
21
157.7642013113
0
LINE
5
232
100
AcDbEntity
8
0
100
AcDbLine
62
7
6
CONTINUOUS
10
122.7196792682
20
161.4995580739
11
122.7196792682
21
163.0376485193
0
LINE
5
233
100
AcDbEntity
8
0
100
AcDbLine
62
7
6
CONTINUOUS
10
123.5494664034
20
143.1523571674
11
123.5494664034
21
142.4931762664
0
LINE
5
234
100
AcDbEntity
8
0
100
AcDbLine
62
7
6
CONTINUOUS
10
123.7154238304
20
157.2148822174
11
123.7154238304
21
156.6655656381
0
LINE
5
235
100
AcDbEntity
8
0
100
AcDbLine
62
7
6
CONTINUOUS
10
124.5452110817
20
146.7778521230
11
124.5452110817
21
145.7890807715
0
LINE
5
236
100
AcDbEntity
8
0
100
AcDbLine
62
7
6
CONTINUOUS
10
124.5452110817
20
141.6142686080
11
124.5452110817
21
140.6254972565
0
LINE
5
237
100
AcDbEntity
8
0
100
AcDbLine
62
7
6
CONTINUOUS
10
124.7111685088
20
158.9726987916
11
124.7111685088
21
158.3135178906
0
LINE
5
238
100
AcDbEntity
8
0
100
AcDbLine
62
7
6
CONTINUOUS
10
125.5409557601
20
135.3520498912
11
125.5409557601
21
136.2309577069
0
LINE
5
239
100
AcDbEntity
8
0
100
AcDbLine
62
7
6
CONTINUOUS
10
125.5409557601
20
140.6254972565
11
125.5409557601
21
141.6142686080
0
LINE
5
23A
100
AcDbEntity
8
0
100
AcDbLine
62
7
6
CONTINUOUS
10
125.5409557601
20
145.7890807715
11
125.5409557601
21
146.7778521230
0
LINE
5
23B
100
AcDbEntity
8
0
100
AcDbLine
62
7
6
CONTINUOUS
10
125.5409557601
20
155.1274777073
11
125.5409557601
21
155.7866586083
0
LINE
5
23C
100
AcDbEntity
8
0
100
AcDbLine
62
7
6
CONTINUOUS
10
125.5409557601
20
158.2036535689
11
125.5409557601
21
159.0825631133
0
LINE
5
23D
100
AcDbEntity
8
0
100
AcDbLine
62
7
6
CONTINUOUS
10
125.5409557601
20
165.6743721234
11
125.5409557601
21
166.5532791532
0
LINE
5
23E
100
AcDbEntity
8
0
100
AcDbLine
62
7
6
CONTINUOUS
10
125.5409557601
20
169.1900027572
11
125.5409557601
21
169.8491836582
0
LINE
5
23F
100
AcDbEntity
8
0
100
AcDbLine
62
7
6
CONTINUOUS
10
125.5409557601
20
170.7280906880
11
125.5409557601
21
171.3872715890
0
LINE
5
240
100
AcDbEntity
8
0
100
AcDbLine
62
7
6
CONTINUOUS
10
126.4741618705
20
151.1792341028
11
126.4741618705
21
150.5292341028
0
LINE
5
241
100
AcDbEntity
8
0
100
AcDbLine
62
7
6
CONTINUOUS
10
117.9069131871
20
142.1635858159
11
117.7409557601
21
141.6142686080
0
LINE
5
242
100
AcDbEntity
8
0
100
AcDbLine
62
7
6
CONTINUOUS
10
124.7111685088
20
158.3135178906
11
124.5452110817
21
157.7642013113
0
LINE
5
243
100
AcDbEntity
8
0
100
AcDbLine
62
7
6
CONTINUOUS
10
118.7367003223
20
146.7778521230
11
118.9026577493
21
147.2173056379
0
LINE
5
244
100
AcDbEntity
8
0
100
AcDbLine
62
7
6
CONTINUOUS
10
118.7367003223
20
141.6142686080
11
118.9026577493
21
142.0537221229
0
LINE
5
245
100
AcDbEntity
8
0
100
AcDbLine
62
7
6
CONTINUOUS
10
125.3749983186
20
157.7642013113
11
125.5409557601
21
158.2036535689
0
LINE
5
246
100
AcDbEntity
8
0
100
AcDbLine
62
7
6
CONTINUOUS
10
121.8898919007
20
160.2910605936
11
121.5579770466
21
159.7417440143
0
LINE
5
247
100
AcDbEntity
8
0
100
AcDbLine
62
7
6
CONTINUOUS
10
118.2388280412
20
159.9614701431
11
117.9069131871
21
159.5220153709
0
LINE
5
248
100
AcDbEntity
8
0
100
AcDbLine
62
7
6
CONTINUOUS
10
118.7367003223
20
159.4121535638
11
119.0686151763
21
159.7417440143
0
LINE
5
249
100
AcDbEntity
8
0
100
AcDbLine
62
7
6
CONTINUOUS
10
117.7409557601
20
137.3295924371
11
124.5452110817
21
135.7915037205
0
LINE
5
24A
100
AcDbEntity
8
0
100
AcDbLine
62
7
6
CONTINUOUS
10
118.9026577493
20
139.1972717614
11
119.5664874574
21
138.9775450039
0
LINE
5
24B
100
AcDbEntity
8
0
100
AcDbLine
62
7
6
CONTINUOUS
10
119.7324453493
20
139.6367259049
11
119.2345726033
21
139.8564526624
0
LINE
5
24C
100
AcDbEntity
8
0
100
AcDbLine
62
7
6
CONTINUOUS
10
118.2388280412
20
144.8003094200
11
118.9026577493
21
144.3608559050
0
LINE
5
24D
100
AcDbEntity
8
0
100
AcDbLine
62
7
6
CONTINUOUS
10
125.0430834209
20
142.6030399595
11
124.3792536547
21
143.0424934744
0
LINE
5
24E
100
AcDbEntity
8
0
100
AcDbLine
62
7
6
CONTINUOUS
10
124.0473386844
20
142.3833125734
11
124.3792536547
21
142.0537221229
0
LINE
5
24F
100
AcDbEntity
8
0
100
AcDbLine
62
7
6
CONTINUOUS
10
124.0473386844
20
147.5468960884
11
124.3792536547
21
147.2173056379
0
LINE
5
250
100
AcDbEntity
8
0
100
AcDbLine
62
7
6
CONTINUOUS
10
125.3749983186
20
142.1635858159
11
125.0430834209
21
142.6030399595
0
LINE
5
251
100
AcDbEntity
8
0
100
AcDbLine
62
7
6
CONTINUOUS
10
125.3749983186
20
147.3271699596
11
125.0430834209
21
147.7666234745
0
LINE
5
252
100
AcDbEntity
8
0
100
AcDbLine
62
7
6
CONTINUOUS
10
117.9069131871
20
157.7642013113
11
118.2388280412
21
157.3247465391
0
LINE
5
253
100
AcDbEntity
8
0
100
AcDbLine
62
7
6
CONTINUOUS
10
120.8941473385
20
159.5220153709
11
121.2260621926
21
158.8628344699
0
LINE
5
254
100
AcDbEntity
8
0
100
AcDbLine
62
7
6
CONTINUOUS
10
124.3792536547
20
147.2173056379
11
124.5452110817
21
146.7778521230
0
LINE
5
255
100
AcDbEntity
8
0
100
AcDbLine
62
7
6
CONTINUOUS
10
125.5409557601
20
141.6142686080
11
125.3749983186
21
142.1635858159
0
LINE
5
256
100
AcDbEntity
8
0
100
AcDbLine
62
7
6
CONTINUOUS
10
125.5409557601
20
146.7778521230
11
125.3749983186
21
147.3271699596
0
LINE
5
257
100
AcDbEntity
8
0
100
AcDbLine
62
7
6
CONTINUOUS
10
127.6753554044
20
158.4122129713
11
127.6753554044
21
157.9696595226
0
LINE
5
258
100
AcDbEntity
8
0
100
AcDbLine
62
7
6
CONTINUOUS
10
128.1684308282
20
158.0802978073
11
128.1684308282
21
158.3015743767
0
LINE
5
259
100
AcDbEntity
8
0
100
AcDbLine
62
7
6
CONTINUOUS
10
129.9763739703
20
156.0888085281
11
129.9763739703
21
155.7568936740
0
LINE
5
25A
100
AcDbEntity
8
0
100
AcDbLine
62
7
6
CONTINUOUS
10
130.4694493941
20
155.6462553893
11
130.4694493941
21
156.1994468127
0
LINE
5
25B
100
AcDbEntity
8
0
100
AcDbLine
62
7
6
CONTINUOUS
10
127.7575346515
20
158.8547661100
11
127.6753554044
21
158.4122129713
0
LINE
5
25C
100
AcDbEntity
8
0
100
AcDbLine
62
7
6
CONTINUOUS
10
128.1684308282
20
158.3015743767
11
128.2506100459
21
158.6334895407
0
LINE
5
25D
100
AcDbEntity
8
0
100
AcDbLine
62
7
6
CONTINUOUS
10
125.3749983186
20
145.2397629349
11
125.5409557601
21
145.7890807715
0
LINE
5
25E
100
AcDbEntity
8
0
100
AcDbLine
62
7
6
CONTINUOUS
10
124.5452110817
20
145.7890807715
11
124.3792536547
21
145.3496272566
0
LINE
5
25F
100
AcDbEntity
8
0
100
AcDbLine
62
7
6
CONTINUOUS
10
128.0862516105
20
159.2973192488
11
127.7575346515
21
158.8547661100
0
LINE
5
260
100
AcDbEntity
8
0
100
AcDbLine
62
7
6
CONTINUOUS
10
124.5452110817
20
157.7642013113
11
124.3792536547
21
157.5444726679
0
LINE
5
261
100
AcDbEntity
8
0
100
AcDbLine
62
7
6
CONTINUOUS
10
125.0430834209
20
157.3247465391
11
125.3749983186
21
157.7642013113
0
LINE
5
262
100
AcDbEntity
8
0
100
AcDbLine
62
7
6
CONTINUOUS
10
118.2388280412
20
147.7666234745
11
117.9069131871
21
147.3271699596
0
LINE
5
263
100
AcDbEntity
8
0
100
AcDbLine
62
7
6
CONTINUOUS
10
122.0558493277
20
159.5220153709
11
122.3877641817
21
159.8516058214
0
LINE
5
264
100
AcDbEntity
8
0
100
AcDbLine
62
7
6
CONTINUOUS
10
118.9026577493
20
160.4009249153
11
118.2388280412
21
159.9614701431
0
LINE
5
265
100
AcDbEntity
8
0
100
AcDbLine
62
7
6
CONTINUOUS
10
119.5664874574
20
138.9775450039
11
120.3962750574
21
138.8676813109
0
LINE
5
266
100
AcDbEntity
8
0
100
AcDbLine
62
7
6
CONTINUOUS
10
120.3962750574
20
139.5268622119
11
119.7324453493
21
139.6367259049
0
LINE
5
267
100
AcDbEntity
8
0
100
AcDbLine
62
7
6
CONTINUOUS
10
125.5409557601
20
136.2309577069
11
117.7409557601
21
137.9887733381
0
LINE
5
268
100
AcDbEntity
8
0
100
AcDbLine
62
7
6
CONTINUOUS
10
118.9026577493
20
144.3608559050
11
119.5664874574
21
144.1411285189
0
LINE
5
269
100
AcDbEntity
8
0
100
AcDbLine
62
7
6
CONTINUOUS
10
119.7324453493
20
144.8003094200
11
119.2345726033
21
145.0200368061
0
LINE
5
26A
100
AcDbEntity
8
0
100
AcDbLine
62
7
6
CONTINUOUS
10
125.0430834209
20
147.7666234745
11
124.3792536547
21
148.2060769894
0
LINE
5
26B
100
AcDbEntity
8
0
100
AcDbLine
62
7
6
CONTINUOUS
10
119.0686151763
20
157.5444726679
11
118.7367003223
21
157.8740631184
0
LINE
5
26C
100
AcDbEntity
8
0
100
AcDbLine
62
7
6
CONTINUOUS
10
127.5109969323
20
155.4249788200
11
127.7575346515
21
154.8717872803
0
LINE
5
26D
100
AcDbEntity
8
0
100
AcDbLine
62
7
6
CONTINUOUS
10
125.5409557601
20
159.0825631133
11
125.3749983186
21
159.5220153709
0
LINE
5
26E
100
AcDbEntity
8
0
100
AcDbLine
62
7
6
CONTINUOUS
10
124.5452110817
20
159.5220153709
11
124.7111685088
21
158.9726987916
0
LINE
5
26F
100
AcDbEntity
8
0
100
AcDbLine
62
7
6
CONTINUOUS
10
122.0558493277
20
173.3648142921
11
121.8898919007
21
173.9141333860
0
LINE
5
270
100
AcDbEntity
8
0
100
AcDbLine
62
7
6
CONTINUOUS
10
128.0040723340
20
155.5356171046
11
127.9218931163
21
155.8675319587
0
LINE
5
271
100
AcDbEntity
8
0
100
AcDbLine
62
7
6
CONTINUOUS
10
128.2506100459
20
157.7483829533
11
128.1684308282
21
158.0802978073
0
LINE
5
272
100
AcDbEntity
8
0
100
AcDbLine
62
7
6
CONTINUOUS
10
127.4288176925
20
155.8675319587
11
127.5109969323
21
155.4249788200
0
LINE
5
273
100
AcDbEntity
8
0
100
AcDbLine
62
7
6
CONTINUOUS
10
127.6753554044
20
157.9696595226
11
127.7575346515
21
157.5271063839
0
LINE
5
274
100
AcDbEntity
8
0
100
AcDbLine
62
7
6
CONTINUOUS
10
131.1268833708
20
157.8590212380
11
131.1268833708
21
156.1994468127
0
LINE
5
275
100
AcDbEntity
8
0
100
AcDbLine
62
7
6
CONTINUOUS
10
131.6199587946
20
156.1994468127
11
131.6199587946
21
157.8590212380
0
LINE
5
276
100
AcDbEntity
8
0
100
AcDbLine
62
7
6
CONTINUOUS
10
133.9209775956
20
157.8590212380
11
133.9209775956
21
156.1994468127
0
LINE
5
277
100
AcDbEntity
8
0
100
AcDbLine
62
7
6
CONTINUOUS
10
134.4140530193
20
156.1994468127
11
134.4140530193
21
157.8590212380
0
LINE
5
278
100
AcDbEntity
8
0
100
AcDbLine
62
7
6
CONTINUOUS
10
135.0714867609
20
159.6292341028
11
135.0714867609
21
154.4292341028
0
LINE
5
279
100
AcDbEntity
8
0
100
AcDbLine
62
7
6
CONTINUOUS
10
131.2090625297
20
158.4122129713
11
131.1268833708
21
157.8590212380
0
LINE
5
27A
100
AcDbEntity
8
0
100
AcDbLine
62
7
6
CONTINUOUS
10
134.3318736253
20
155.6462553893
11
134.4140530193
21
156.1994468127
0
LINE
5
27B
100
AcDbEntity
8
0
100
AcDbLine
62
7
6
CONTINUOUS
10
131.6199587946
20
157.8590212380
11
131.7021381886
21
158.3015743767
0
LINE
5
27C
100
AcDbEntity
8
0
100
AcDbLine
62
7
6
CONTINUOUS
10
133.9209775956
20
156.1994468127
11
133.8387982015
21
155.7568936740
0
LINE
5
27D
100
AcDbEntity
8
0
100
AcDbLine
62
7
6
CONTINUOUS
10
125.3749983186
20
140.0761794199
11
125.5409557601
21
140.6254972565
0
LINE
5
27E
100
AcDbEntity
8
0
100
AcDbLine
62
7
6
CONTINUOUS
10
131.3734210827
20
158.8547661100
11
131.2090625297
21
158.4122129713
0
LINE
5
27F
100
AcDbEntity
8
0
100
AcDbLine
62
7
6
CONTINUOUS
10
130.3050910762
20
155.2037021731
11
130.4694493941
21
155.6462553893
0
LINE
5
280
100
AcDbEntity
8
0
100
AcDbLine
62
7
6
CONTINUOUS
10
124.5452110817
20
140.6254972565
11
124.3792536547
21
140.1860431129
0
LINE
5
281
100
AcDbEntity
8
0
100
AcDbLine
62
7
6
CONTINUOUS
10
129.9763739703
20
155.7568936740
11
129.8120156524
21
155.4249788200
0
LINE
5
282
100
AcDbEntity
8
0
100
AcDbLine
62
7
6
CONTINUOUS
10
131.7021381886
20
158.3015743767
11
131.8664965064
21
158.6334895407
0
LINE
5
283
100
AcDbEntity
8
0
100
AcDbLine
62
7
6
CONTINUOUS
10
131.7021381886
20
159.2973192488
11
131.3734210827
21
158.8547661100
0
LINE
5
284
100
AcDbEntity
8
0
100
AcDbLine
62
7
6
CONTINUOUS
10
129.9763739703
20
154.7611489956
11
130.3050910762
21
155.2037021731
0
LINE
5
285
100
AcDbEntity
8
0
100
AcDbLine
62
7
6
CONTINUOUS
10
118.2388280412
20
142.6030399595
11
117.9069131871
21
142.1635858159
0
LINE
5
286
100
AcDbEntity
8
0
100
AcDbLine
62
7
6
CONTINUOUS
10
124.7111685088
20
156.9951560886
11
125.0430834209
21
157.3247465391
0
LINE
5
287
100
AcDbEntity
8
0
100
AcDbLine
62
7
6
CONTINUOUS
10
118.9026577493
20
147.2173056379
11
119.2345726033
21
147.5468960884
0
LINE
5
288
100
AcDbEntity
8
0
100
AcDbLine
62
7
6
CONTINUOUS
10
128.2506100459
20
158.6334895407
11
128.4971478165
21
158.8547661100
0
LINE
5
289
100
AcDbEntity
8
0
100
AcDbLine
62
7
6
CONTINUOUS
10
119.0686151763
20
159.7417440143
11
119.5664874574
21
159.9614701431
0
LINE
5
28A
100
AcDbEntity
8
0
100
AcDbLine
62
7
6
CONTINUOUS
10
120.3962750574
20
138.8676813109
11
122.8856366953
21
138.8676813109
0
LINE
5
28B
100
AcDbEntity
8
0
100
AcDbLine
62
7
6
CONTINUOUS
10
123.5494664034
20
142.4931762664
11
124.0473386844
21
142.3833125734
0
LINE
5
28C
100
AcDbEntity
8
0
100
AcDbLine
62
7
6
CONTINUOUS
10
117.7409557601
20
155.1274777073
11
118.9026577493
21
154.4682955490
0
LINE
5
28D
100
AcDbEntity
8
0
100
AcDbLine
62
7
6
CONTINUOUS
10
120.2303176304
20
154.4682955490
11
119.0686151763
21
155.1274777073
0
LINE
5
28E
100
AcDbEntity
8
0
100
AcDbLine
62
7
6
CONTINUOUS
10
118.2388280412
20
157.3247465391
11
118.9026577493
21
156.8852917669
0
LINE
5
28F
100
AcDbEntity
8
0
100
AcDbLine
62
7
6
CONTINUOUS
10
121.5579770466
20
159.7417440143
11
121.0601047655
21
160.1811962719
0
LINE
5
290
100
AcDbEntity
8
0
100
AcDbLine
62
7
6
CONTINUOUS
10
124.3792536547
20
159.7417440143
11
124.5452110817
21
159.5220153709
0
LINE
5
291
100
AcDbEntity
8
0
100
AcDbLine
62
7
6
CONTINUOUS
10
125.3749983186
20
159.5220153709
11
125.0430834209
21
159.9614701431
0
LINE
5
292
100
AcDbEntity
8
0
100
AcDbLine
62
7
6
CONTINUOUS
10
128.2506100459
20
155.2037021731
11
128.0040723340
21
155.5356171046
0
LINE
5
293
100
AcDbEntity
8
0
100
AcDbLine
62
7
6
CONTINUOUS
10
127.7575346515
20
157.5271063839
11
128.0862516105
21
157.0845532452
0
LINE
5
294
100
AcDbEntity
8
0
100
AcDbLine
62
7
6
CONTINUOUS
10
131.3734210827
20
155.2037021731
11
131.7021381886
21
154.7611489956
0
LINE
5
295
100
AcDbEntity
8
0
100
AcDbLine
62
7
6
CONTINUOUS
10
130.3050910762
20
156.6420001064
11
129.9763739703
21
157.0845532452
0
LINE
5
296
100
AcDbEntity
8
0
100
AcDbLine
62
7
6
CONTINUOUS
10
130.1407325233
20
158.7441278254
11
129.8941948114
21
159.1866809641
0
LINE
5
297
100
AcDbEntity
8
0
100
AcDbLine
62
7
6
CONTINUOUS
10
120.8941473385
20
173.8042690643
11
121.0601047655
21
173.4746786138
0
LINE
5
298
100
AcDbEntity
8
0
100
AcDbLine
62
7
6
CONTINUOUS
10
129.8120156524
20
156.4207235371
11
129.9763739703
21
156.0888085281
0
LINE
5
299
100
AcDbEntity
8
0
100
AcDbLine
62
7
6
CONTINUOUS
10
131.8664965064
20
155.4249788200
11
131.7021381886
21
155.7568936740
0
LINE
5
29A
100
AcDbEntity
8
0
100
AcDbLine
62
7
6
CONTINUOUS
10
130.4694493941
20
156.1994468127
11
130.3050910762
21
156.6420001064
0
LINE
5
29B
100
AcDbEntity
8
0
100
AcDbLine
62
7
6
CONTINUOUS
10
129.6476570995
20
158.6334895407
11
129.7298362584
21
158.4122129713
0
LINE
5
29C
100
AcDbEntity
8
0
100
AcDbLine
62
7
6
CONTINUOUS
10
131.2090625297
20
155.6462553893
11
131.3734210827
21
155.2037021731
0
LINE
5
29D
100
AcDbEntity
8
0
100
AcDbLine
62
7
6
CONTINUOUS
10
130.2229116822
20
158.4122129713
11
130.1407325233
21
158.7441278254
0
LINE
5
29E
100
AcDbEntity
8
0
100
AcDbLine
62
7
6
CONTINUOUS
10
131.7021381886
20
155.7568936740
11
131.6199587946
21
156.1994468127
0
LINE
5
29F
100
AcDbEntity
8
0
100
AcDbLine
62
7
6
CONTINUOUS
10
133.8387982015
20
158.3015743767
11
133.9209775956
21
157.8590212380
0
LINE
5
2A0
100
AcDbEntity
8
0
100
AcDbLine
62
7
6
CONTINUOUS
10
131.1268833708
20
156.1994468127
11
131.2090625297
21
155.6462553893
0
LINE
5
2A1
100
AcDbEntity
8
0
100
AcDbLine
62
7
6
CONTINUOUS
10
134.4140530193
20
157.8590212380
11
134.3318736253
21
158.4122129713
0
LINE
5
2A2
100
AcDbEntity
8
0
100
AcDbLine
62
7
6
CONTINUOUS
10
135.5645621847
20
155.0930638884
11
135.5645621847
21
159.6292341028
0
LINE
5
2A3
100
AcDbEntity
8
0
100
AcDbLine
62
7
6
CONTINUOUS
10
138.0299393036
20
154.4292341028
11
138.0299393036
21
155.0930638884
0
LINE
5
2A4
100
AcDbEntity
8
0
100
AcDbLine
62
7
6
CONTINUOUS
10
138.6873735154
20
159.6292341028
11
138.6873735154
21
154.4292341028
0
LINE
5
2A5
100
AcDbEntity
8
0
100
AcDbLine
62
7
6
CONTINUOUS
10
139.1804489392
20
155.0930638884
11
139.1804489392
21
159.6292341028
0
LINE
5
2A6
100
AcDbEntity
8
0
100
AcDbLine
62
7
6
CONTINUOUS
10
134.1675153074
20
155.2037021731
11
134.3318736253
21
155.6462553893
0
LINE
5
2A7
100
AcDbEntity
8
0
100
AcDbLine
62
7
6
CONTINUOUS
10
133.8387982015
20
155.7568936740
11
133.6744398837
21
155.4249788200
0
LINE
5
2A8
100
AcDbEntity
8
0
100
AcDbLine
62
7
6
CONTINUOUS
10
133.8387982015
20
154.7611489956
11
134.1675153074
21
155.2037021731
0
LINE
5
2A9
100
AcDbEntity
8
0
100
AcDbLine
62
7
6
CONTINUOUS
10
125.0430834209
20
144.8003094200
11
125.3749983186
21
145.2397629349
0
LINE
5
2AA
100
AcDbEntity
8
0
100
AcDbLine
62
7
6
CONTINUOUS
10
118.9026577493
20
142.0537221229
11
119.2345726033
21
142.3833125734
0
LINE
5
2AB
100
AcDbEntity
8
0
100
AcDbLine
62
7
6
CONTINUOUS
10
131.8664965064
20
158.6334895407
11
132.1130342183
21
158.8547661100
0
LINE
5
2AC
100
AcDbEntity
8
0
100
AcDbLine
62
7
6
CONTINUOUS
10
129.8120156524
20
155.4249788200
11
129.5654779406
21
155.2037021731
0
LINE
5
2AD
100
AcDbEntity
8
0
100
AcDbLine
62
7
6
CONTINUOUS
10
128.4149685401
20
159.5185958181
11
128.0862516105
21
159.2973192488
0
LINE
5
2AE
100
AcDbEntity
8
0
100
AcDbLine
62
7
6
CONTINUOUS
10
132.0308548243
20
159.5185958181
11
131.7021381886
21
159.2973192488
0
LINE
5
2AF
100
AcDbEntity
8
0
100
AcDbLine
62
7
6
CONTINUOUS
10
124.3792536547
20
157.5444726679
11
124.0473386844
21
157.3247465391
0
LINE
5
2B0
100
AcDbEntity
8
0
100
AcDbLine
62
7
6
CONTINUOUS
10
128.4971478165
20
158.8547661100
11
128.7436855284
21
158.9654043947
0
LINE
5
2B1
100
AcDbEntity
8
0
100
AcDbLine
62
7
6
CONTINUOUS
10
122.3877641817
20
160.5107867224
11
121.8898919007
21
160.2910605936
0
LINE
5
2B2
100
AcDbEntity
8
0
100
AcDbLine
62
7
6
CONTINUOUS
10
122.3877641817
20
159.8516058214
11
123.0515941223
21
160.0713344648
0
LINE
5
2B3
100
AcDbEntity
8
0
100
AcDbLine
62
7
6
CONTINUOUS
10
124.5452110817
20
135.7915037205
11
117.7409557601
21
134.2534150038
0
LINE
5
2B4
100
AcDbEntity
8
0
100
AcDbLine
62
7
6
CONTINUOUS
10
117.7409557601
20
133.5942341028
11
125.5409557601
21
135.3520498912
0
LINE
5
2B5
100
AcDbEntity
8
0
100
AcDbLine
62
7
6
CONTINUOUS
10
122.8856366953
20
138.8676813109
11
123.7154238304
21
138.9775450039
0
LINE
5
2B6
100
AcDbEntity
8
0
100
AcDbLine
62
7
6
CONTINUOUS
10
122.8856366953
20
139.5268622119
11
120.3962750574
21
139.5268622119
0
LINE
5
2B7
100
AcDbEntity
8
0
100
AcDbLine
62
7
6
CONTINUOUS
10
124.3792536547
20
143.0424934744
11
123.5494664034
21
143.1523571674
0
LINE
5
2B8
100
AcDbEntity
8
0
100
AcDbLine
62
7
6
CONTINUOUS
10
119.5664874574
20
144.1411285189
11
120.3962750574
21
144.0312648259
0
LINE
5
2B9
100
AcDbEntity
8
0
100
AcDbLine
62
7
6
CONTINUOUS
10
120.3962750574
20
144.6904463555
11
119.7324453493
21
144.8003094200
0
LINE
5
2BA
100
AcDbEntity
8
0
100
AcDbLine
62
7
6
CONTINUOUS
10
123.5494664034
20
147.6567604101
11
124.0473386844
21
147.5468960884
0
LINE
5
2BB
100
AcDbEntity
8
0
100
AcDbLine
62
7
6
CONTINUOUS
10
120.5622324845
20
159.7417440143
11
120.8941473385
21
159.5220153709
0
LINE
5
2BC
100
AcDbEntity
8
0
100
AcDbLine
62
7
6
CONTINUOUS
10
127.7575346515
20
154.8717872803
11
128.1684308282
21
154.5398723972
0
LINE
5
2BD
100
AcDbEntity
8
0
100
AcDbLine
62
7
6
CONTINUOUS
10
128.4971478165
20
157.5271063839
11
128.2506100459
21
157.7483829533
0
LINE
5
2BE
100
AcDbEntity
8
0
100
AcDbLine
62
7
6
CONTINUOUS
10
129.5654779406
20
156.6420001064
11
129.8120156524
21
156.4207235371
0
LINE
5
2BF
100
AcDbEntity
8
0
100
AcDbLine
62
7
6
CONTINUOUS
10
132.1130342183
20
155.2037021731
11
131.8664965064
21
155.4249788200
0
LINE
5
2C0
100
AcDbEntity
8
0
100
AcDbLine
62
7
6
CONTINUOUS
10
125.0430834209
20
159.9614701431
11
124.7111685088
21
160.2910605936
0
LINE
5
2C1
100
AcDbEntity
8
0
100
AcDbLine
62
7
6
CONTINUOUS
10
129.8941948114
20
159.1866809641
11
129.5654779406
21
159.5185958181
0
LINE
5
2C2
100
AcDbEntity
8
0
100
AcDbLine
62
7
6
CONTINUOUS
10
129.4832985465
20
158.8547661100
11
129.6476570995
21
158.6334895407
0
LINE
5
2C3
100
AcDbEntity
8
0
100
AcDbLine
62
7
6
CONTINUOUS
10
140.7741618705
20
148.6025680530
11
141.0991618705
21
148.0396515405
0
LINE
5
2C4
100
AcDbEntity
8
0
100
AcDbLine
62
7
6
CONTINUOUS
10
133.6744398837
20
158.6334895407
11
133.8387982015
21
158.3015743767
0
LINE
5
2C5
100
AcDbEntity
8
0
100
AcDbLine
62
7
6
CONTINUOUS
10
134.3318736253
20
158.4122129713
11
134.1675153074
21
158.8547661100
0
LINE
5
2C6
100
AcDbEntity
8
0
100
AcDbLine
62
7
6
CONTINUOUS
10
141.6458260580
20
154.4292341028
11
141.6458260580
21
155.0930638884
0
LINE
5
2C7
100
AcDbEntity
8
0
100
AcDbLine
62
7
6
CONTINUOUS
10
141.0991618705
20
153.6688166651
11
140.7741618705
21
153.1059001527
0
LINE
5
2C8
100
AcDbEntity
8
0
100
AcDbLine
62
7
6
CONTINUOUS
10
125.0430834209
20
139.6367259049
11
125.3749983186
21
140.0761794199
0
LINE
5
2C9
100
AcDbEntity
8
0
100
AcDbLine
62
7
6
CONTINUOUS
10
124.3792536547
20
145.3496272566
11
124.0473386844
21
145.0200368061
0
LINE
5
2CA
100
AcDbEntity
8
0
100
AcDbLine
62
7
6
CONTINUOUS
10
124.3792536547
20
140.1860431129
11
124.0473386844
21
139.8564526624
0
LINE
5
2CB
100
AcDbEntity
8
0
100
AcDbLine
62
7
6
CONTINUOUS
10
133.6744398837
20
155.4249788200
11
133.4279021718
21
155.2037021731
0
LINE
5
2CC
100
AcDbEntity
8
0
100
AcDbLine
62
7
6
CONTINUOUS
10
129.6476570995
20
154.5398723972
11
129.9763739703
21
154.7611489956
0
LINE
5
2CD
100
AcDbEntity
8
0
100
AcDbLine
62
7
6
CONTINUOUS
10
133.5100810956
20
154.5398723972
11
133.8387982015
21
154.7611489956
0
LINE
5
2CE
100
AcDbEntity
8
0
100
AcDbLine
62
7
6
CONTINUOUS
10
118.9026577493
20
148.2060769894
11
118.2388280412
21
147.7666234745
0
LINE
5
2CF
100
AcDbEntity
8
0
100
AcDbLine
62
7
6
CONTINUOUS
10
124.2132962277
20
156.7754299598
11
124.7111685088
21
156.9951560886
0
LINE
5
2D0
100
AcDbEntity
8
0
100
AcDbLine
62
7
6
CONTINUOUS
10
128.7436855284
20
159.6292341028
11
128.4149685401
21
159.5185958181
0
LINE
5
2D1
100
AcDbEntity
8
0
100
AcDbLine
62
7
6
CONTINUOUS
10
132.1130342183
20
158.8547661100
11
132.4417513243
21
158.9654043947
0
LINE
5
2D2
100
AcDbEntity
8
0
100
AcDbLine
62
7
6
CONTINUOUS
10
124.0473386844
20
157.3247465391
11
123.7154238304
21
157.2148822174
0
LINE
5
2D3
100
AcDbEntity
8
0
100
AcDbLine
62
7
6
CONTINUOUS
10
123.5494664034
20
139.6367259049
11
122.8856366953
21
139.5268622119
0
LINE
5
2D4
100
AcDbEntity
8
0
100
AcDbLine
62
7
6
CONTINUOUS
10
119.7324453493
20
143.1523571674
11
118.9026577493
21
143.0424934744
0
LINE
5
2D5
100
AcDbEntity
8
0
100
AcDbLine
62
7
6
CONTINUOUS
10
120.3962750574
20
144.0312648259
11
122.8856366953
21
144.0312648259
0
LINE
5
2D6
100
AcDbEntity
8
0
100
AcDbLine
62
7
6
CONTINUOUS
10
122.8856366953
20
144.6904463555
11
120.3962750574
21
144.6904463555
0
LINE
5
2D7
100
AcDbEntity
8
0
100
AcDbLine
62
7
6
CONTINUOUS
10
133.0282574155
20
145.3942341028
11
146.2909557601
21
145.3942341028
0
LINE
5
2D8
100
AcDbEntity
8
0
100
AcDbLine
62
7
6
CONTINUOUS
10
156.7909557601
20
145.3942341028
11
170.0536541048
21
145.3942341028
0
LINE
5
2D9
100
AcDbEntity
8
0
100
AcDbLine
62
7
6
CONTINUOUS
10
121.2260621926
20
146.6679890586
11
122.2218067547
21
146.6679890586
0
LINE
5
2DA
100
AcDbEntity
8
0
100
AcDbLine
62
7
6
CONTINUOUS
10
122.2218067547
20
147.6567604101
11
123.5494664034
21
147.6567604101
0
LINE
5
2DB
100
AcDbEntity
8
0
100
AcDbLine
62
7
6
CONTINUOUS
10
124.3792536547
20
148.2060769894
11
123.7154238304
21
148.3159413111
0
LINE
5
2DC
100
AcDbEntity
8
0
100
AcDbLine
62
7
6
CONTINUOUS
10
128.5793269755
20
155.0930638884
11
128.2506100459
21
155.2037021731
0
LINE
5
2DD
100
AcDbEntity
8
0
100
AcDbLine
62
7
6
CONTINUOUS
10
119.5664874574
20
157.3247465391
11
119.0686151763
21
157.5444726679
0
LINE
5
2DE
100
AcDbEntity
8
0
100
AcDbLine
62
7
6
CONTINUOUS
10
121.0601047655
20
160.1811962719
11
120.5622324845
21
160.4009249153
0
LINE
5
2DF
100
AcDbEntity
8
0
100
AcDbLine
62
7
6
CONTINUOUS
10
124.0473386844
20
159.9614701431
11
124.3792536547
21
159.7417440143
0
LINE
5
2E0
100
AcDbEntity
8
0
100
AcDbLine
62
7
6
CONTINUOUS
10
128.0862516105
20
157.0845532452
11
128.4149685401
21
156.8632766758
0
LINE
5
2E1
100
AcDbEntity
8
0
100
AcDbLine
62
7
6
CONTINUOUS
10
131.7021381886
20
154.7611489956
11
132.0308548243
21
154.5398723972
0
LINE
5
2E2
100
AcDbEntity
8
0
100
AcDbLine
62
7
6
CONTINUOUS
10
129.9763739703
20
157.0845532452
11
129.6476570995
21
157.3058298145
0
LINE
5
2E3
100
AcDbEntity
8
0
100
AcDbLine
62
7
6
CONTINUOUS
10
133.4279021718
20
158.8547661100
11
133.6744398837
21
158.6334895407
0
LINE
5
2E4
100
AcDbEntity
8
0
100
AcDbLine
62
7
6
CONTINUOUS
10
134.1675153074
20
158.8547661100
11
133.8387982015
21
159.2973192488
0
LINE
5
2E5
100
AcDbEntity
8
0
100
AcDbLine
62
7
6
CONTINUOUS
10
146.2909557601
20
145.3942341028
11
146.2909557601
21
166.1942341028
0
LINE
5
2E6
100
AcDbEntity
8
0
100
AcDbLine
62
7
6
CONTINUOUS
10
118.9026577493
20
143.0424934744
11
118.2388280412
21
142.6030399595
0
LINE
5
2E7
100
AcDbEntity
8
0
100
AcDbLine
62
7
6
CONTINUOUS
10
124.3792536547
20
144.3608559050
11
125.0430834209
21
144.8003094200
0
LINE
5
2E8
100
AcDbEntity
8
0
100
AcDbLine
62
7
6
CONTINUOUS
10
129.5654779406
20
155.2037021731
11
129.2367609522
21
155.0930638884
0
LINE
5
2E9
100
AcDbEntity
8
0
100
AcDbLine
62
7
6
CONTINUOUS
10
133.4279021718
20
155.2037021731
11
133.0991850659
21
155.0930638884
0
LINE
5
2EA
100
AcDbEntity
8
0
100
AcDbLine
62
7
6
CONTINUOUS
10
119.2345726033
20
142.3833125734
11
119.7324453493
21
142.4931762664
0
LINE
5
2EB
100
AcDbEntity
8
0
100
AcDbLine
62
7
6
CONTINUOUS
10
164.0956720549
20
154.4292341028
11
164.6617983883
21
154.5398723972
0
LINE
5
2EC
100
AcDbEntity
8
0
100
AcDbLine
62
7
6
CONTINUOUS
10
123.5494664034
20
144.8003094200
11
122.8856366953
21
144.6904463555
0
LINE
5
2ED
100
AcDbEntity
8
0
100
AcDbLine
62
7
6
CONTINUOUS
10
122.8856366953
20
144.0312648259
11
123.7154238304
21
144.1411285189
0
LINE
5
2EE
100
AcDbEntity
8
0
100
AcDbLine
62
7
6
CONTINUOUS
10
123.7154238304
20
148.3159413111
11
121.2260621926
21
148.3159413111
0
LINE
5
2EF
100
AcDbEntity
8
0
100
AcDbLine
62
7
6
CONTINUOUS
10
126.4741618705
20
150.5292341028
11
144.1112453580
21
150.5292341028
0
LINE
5
2F0
100
AcDbEntity
8
0
100
AcDbLine
62
7
6
CONTINUOUS
10
158.9706661622
20
150.5292341028
11
176.6077496497
21
150.5292341028
0
LINE
5
2F1
100
AcDbEntity
8
0
100
AcDbLine
62
7
6
CONTINUOUS
10
176.6077496497
20
151.1792341028
11
158.9706661622
21
151.1792341028
0
LINE
5
2F2
100
AcDbEntity
8
0
100
AcDbLine
62
7
6
CONTINUOUS
10
144.1112453580
20
151.1792341028
11
126.4741618705
21
151.1792341028
0
LINE
5
2F3
100
AcDbEntity
8
0
100
AcDbLine
62
7
6
CONTINUOUS
10
118.9026577493
20
156.8852917669
11
119.5664874574
21
156.7754299598
0
LINE
5
2F4
100
AcDbEntity
8
0
100
AcDbLine
62
7
6
CONTINUOUS
10
128.1684308282
20
154.5398723972
11
128.5793269755
21
154.4292341028
0
LINE
5
2F5
100
AcDbEntity
8
0
100
AcDbLine
62
7
6
CONTINUOUS
10
132.0308548243
20
154.5398723972
11
132.4417513243
21
154.4292341028
0
LINE
5
2F6
100
AcDbEntity
8
0
100
AcDbLine
62
7
6
CONTINUOUS
10
129.6476570995
20
157.3058298145
11
129.2367609522
21
157.4164680992
0
LINE
5
2F7
100
AcDbEntity
8
0
100
AcDbLine
62
7
6
CONTINUOUS
10
119.8984027764
20
159.9614701431
11
120.5622324845
21
159.7417440143
0
LINE
5
2F8
100
AcDbEntity
8
0
100
AcDbLine
62
7
6
CONTINUOUS
10
123.7154238304
20
160.0713344648
11
124.0473386844
21
159.9614701431
0
LINE
5
2F9
100
AcDbEntity
8
0
100
AcDbLine
62
7
6
CONTINUOUS
10
132.4417513243
20
155.0930638884
11
132.1130342183
21
155.2037021731
0
LINE
5
2FA
100
AcDbEntity
8
0
100
AcDbLine
62
7
6
CONTINUOUS
10
128.4149685401
20
156.8632766758
11
128.7436855284
21
156.7526383911
0
LINE
5
2FB
100
AcDbEntity
8
0
100
AcDbLine
62
7
6
CONTINUOUS
10
129.2367609522
20
156.7526383911
11
129.5654779406
21
156.6420001064
0
LINE
5
2FC
100
AcDbEntity
8
0
100
AcDbLine
62
7
6
CONTINUOUS
10
124.7111685088
20
160.2910605936
11
124.2132962277
21
160.5107867224
0
LINE
5
2FD
100
AcDbEntity
8
0
100
AcDbLine
62
7
6
CONTINUOUS
10
128.7436855284
20
157.4164680992
11
128.4971478165
21
157.5271063839
0
LINE
5
2FE
100
AcDbEntity
8
0
100
AcDbLine
62
7
6
CONTINUOUS
10
129.2367609522
20
158.9654043947
11
129.4832985465
21
158.8547661100
0
LINE
5
2FF
100
AcDbEntity
8
0
100
AcDbLine
62
7
6
CONTINUOUS
10
140.7741618705
20
153.1059001527
11
144.1112453580
21
151.1792341028
0
LINE
5
300
100
AcDbEntity
8
0
100
AcDbLine
62
7
6
CONTINUOUS
10
145.9741618705
20
150.8542341028
11
141.0991618705
21
153.6688166651
0
LINE
5
301
100
AcDbEntity
8
0
100
AcDbLine
62
7
6
CONTINUOUS
10
133.8387982015
20
159.2973192488
11
133.5100810956
21
159.5185958181
0
LINE
5
302
100
AcDbEntity
8
0
100
AcDbLine
62
7
6
CONTINUOUS
10
121.8898919007
20
173.9141333860
11
121.3920196196
21
174.3535856436
0
LINE
5
303
100
AcDbEntity
8
DEFAULT_1
100
AcDbLine
62
2
6
CENTER
10
151.5409557601
20
101.7942341028
11
151.5409557601
21
209.7942341028
0
LINE
5
304
100
AcDbEntity
8
0
100
AcDbLine
62
7
6
CONTINUOUS
10
124.3792536547
20
139.1972717614
11
125.0430834209
21
139.6367259049
0
LINE
5
305
100
AcDbEntity
8
0
100
AcDbLine
62
7
6
CONTINUOUS
10
124.0473386844
20
145.0200368061
11
123.5494664034
21
144.8003094200
0
LINE
5
306
100
AcDbEntity
8
0
100
AcDbLine
62
7
6
CONTINUOUS
10
179.3664876898
20
167.0613543455
11
178.7026578655
21
166.8259125462
0
LINE
5
307
100
AcDbEntity
8
0
100
AcDbLine
62
7
6
CONTINUOUS
10
164.5674438195
20
155.0930638884
11
164.0956720549
21
154.9824256037
0
LINE
5
308
100
AcDbEntity
8
0
100
AcDbLine
62
7
6
CONTINUOUS
10
163.6239000203
20
158.9654043947
11
164.0956720549
21
159.0760426794
0
LINE
5
309
100
AcDbEntity
8
0
100
AcDbLine
62
7
6
CONTINUOUS
10
119.2345726033
20
147.5468960884
11
119.7324453493
21
147.6567604101
0
LINE
5
30A
100
AcDbEntity
8
0
100
AcDbLine
62
7
6
CONTINUOUS
10
183.3494661709
20
158.1145703508
11
182.6856364628
21
157.9968499564
0
LINE
5
30B
100
AcDbEntity
8
0
100
AcDbLine
62
7
6
CONTINUOUS
10
182.6856364628
20
157.2905248953
11
183.5154240628
21
157.4082452898
0
LINE
5
30C
100
AcDbEntity
8
0
100
AcDbLine
62
7
6
CONTINUOUS
10
119.7324453493
20
148.3159413111
11
118.9026577493
21
148.2060769894
0
LINE
5
30D
100
AcDbEntity
8
0
100
AcDbLine
62
7
6
CONTINUOUS
10
128.5793269755
20
154.4292341028
11
129.2367609522
21
154.4292341028
0
LINE
5
30E
100
AcDbEntity
8
0
100
AcDbLine
62
7
6
CONTINUOUS
10
132.4417513243
20
154.4292341028
11
133.0991850659
21
154.4292341028
0
LINE
5
30F
100
AcDbEntity
8
0
100
AcDbLine
62
7
6
CONTINUOUS
10
135.0714867609
20
154.4292341028
11
138.0299393036
21
154.4292341028
0
LINE
5
310
100
AcDbEntity
8
0
100
AcDbLine
62
7
6
CONTINUOUS
10
138.6873735154
20
154.4292341028
11
141.6458260580
21
154.4292341028
0
LINE
5
311
100
AcDbEntity
8
0
100
AcDbLine
62
7
6
CONTINUOUS
10
161.0763315197
20
154.4292341028
11
161.6424578532
21
154.4292341028
0
LINE
5
312
100
AcDbEntity
8
0
100
AcDbLine
62
7
6
CONTINUOUS
10
166.5488862566
20
154.4292341028
11
167.0206580211
21
154.4292341028
0
LINE
5
313
100
AcDbEntity
8
0
100
AcDbLine
62
7
6
CONTINUOUS
10
168.0585561192
20
154.4292341028
11
168.5303284237
21
154.4292341028
0
LINE
5
314
100
AcDbEntity
8
0
100
AcDbLine
62
7
6
CONTINUOUS
10
169.5682265218
20
154.4292341028
11
170.0399988263
21
154.4292341028
0
LINE
5
315
100
AcDbEntity
8
0
100
AcDbLine
62
7
6
CONTINUOUS
10
170.7948332177
20
154.4292341028
11
171.2666055222
21
154.4292341028
0
LINE
5
316
100
AcDbEntity
8
0
100
AcDbLine
62
7
6
CONTINUOUS
10
172.3045041601
20
154.4292341028
11
172.7762753848
21
154.4292341028
0
LINE
5
317
100
AcDbEntity
8
0
100
AcDbLine
62
7
6
CONTINUOUS
10
173.8141740228
20
154.4292341028
11
174.2859463273
21
154.4292341028
0
LINE
5
318
100
AcDbEntity
8
0
100
AcDbLine
62
7
6
CONTINUOUS
10
118.9026577493
20
154.4682955490
11
120.2303176304
21
154.4682955490
0
LINE
5
319
100
AcDbEntity
8
0
100
AcDbLine
62
7
6
CONTINUOUS
10
141.6458260580
20
155.0930638884
11
139.1804489392
21
155.0930638884
0
LINE
5
31A
100
AcDbEntity
8
0
100
AcDbLine
62
7
6
CONTINUOUS
10
138.0299393036
20
155.0930638884
11
135.5645621847
21
155.0930638884
0
LINE
5
31B
100
AcDbEntity
8
0
100
AcDbLine
62
7
6
CONTINUOUS
10
133.0991850659
20
155.0930638884
11
132.4417513243
21
155.0930638884
0
LINE
5
31C
100
AcDbEntity
8
0
100
AcDbLine
62
7
6
CONTINUOUS
10
129.2367609522
20
155.0930638884
11
128.5793269755
21
155.0930638884
0
LINE
5
31D
100
AcDbEntity
8
0
100
AcDbLine
62
7
6
CONTINUOUS
10
119.0686151763
20
155.1274777073
11
125.5409557601
21
155.1274777073
0
LINE
5
31E
100
AcDbEntity
8
0
100
AcDbLine
62
7
6
CONTINUOUS
10
125.5409557601
20
155.7866586083
11
117.7409557601
21
155.7866586083
0
LINE
5
31F
100
AcDbEntity
8
0
100
AcDbLine
62
7
6
CONTINUOUS
10
127.9218931163
20
155.8675319587
11
127.4288176925
21
155.8675319587
0
LINE
5
320
100
AcDbEntity
8
0
100
AcDbLine
62
7
6
CONTINUOUS
10
120.5622324845
20
160.4009249153
11
119.8984027764
21
160.5107867224
0
LINE
5
321
100
AcDbEntity
8
0
100
AcDbLine
62
7
6
CONTINUOUS
10
124.2132962277
20
160.5107867224
11
123.7154238304
21
160.6206510441
0
LINE
5
322
100
AcDbEntity
8
0
100
AcDbLine
62
7
6
CONTINUOUS
10
129.5654779406
20
159.5185958181
11
129.1545816757
21
159.6292341028
0
LINE
5
323
100
AcDbEntity
8
0
100
AcDbLine
62
7
6
CONTINUOUS
10
133.5100810956
20
159.5185958181
11
133.0991850659
21
159.6292341028
0
LINE
5
324
100
AcDbEntity
8
0
100
AcDbLine
62
7
6
CONTINUOUS
10
133.0991850659
20
158.9654043947
11
133.4279021718
21
158.8547661100
0
LINE
5
325
100
AcDbEntity
8
0
100
AcDbLine
62
7
6
CONTINUOUS
10
157.1077496497
20
150.8542341028
11
161.9827496497
21
148.0396515405
0
LINE
5
326
100
AcDbEntity
8
0
100
AcDbLine
62
7
6
CONTINUOUS
10
162.3077496497
20
148.6025680530
11
158.9706661622
21
150.5292341028
0
LINE
5
327
100
AcDbEntity
8
0
100
AcDbLine
62
7
6
CONTINUOUS
10
120.5622324845
20
174.0239951931
11
120.8941473385
21
173.8042690643
0
LINE
5
328
100
AcDbEntity
8
0
100
AcDbLine
62
7
6
CONTINUOUS
10
163.5295457214
20
159.5185958181
11
163.0577736868
21
159.1866809641
0
LINE
5
329
100
AcDbEntity
8
0
100
AcDbLine
62
7
6
CONTINUOUS
10
144.1112453580
20
150.5292341028
11
140.7741618705
21
148.6025680530
0
LINE
5
32A
100
AcDbEntity
8
0
100
AcDbLine
62
7
6
CONTINUOUS
10
141.0991618705
20
148.0396515405
11
145.9741618705
21
150.8542341028
0
LINE
5
32B
100
AcDbEntity
8
0
100
AcDbLine
62
7
6
CONTINUOUS
10
184.0132963439
20
168.3562837364
11
184.6771260520
21
168.7094462669
0
LINE
5
32C
100
AcDbEntity
8
0
100
AcDbLine
62
7
6
CONTINUOUS
10
179.0345728358
20
166.1195874851
11
179.5324451169
21
166.3550296212
0
LINE
5
32D
100
AcDbEntity
8
0
100
AcDbLine
62
7
6
CONTINUOUS
10
124.0473386844
20
139.8564526624
11
123.5494664034
21
139.6367259049
0
LINE
5
32E
100
AcDbEntity
8
0
100
AcDbLine
62
7
6
CONTINUOUS
10
167.4924297857
20
157.9696595226
11
167.2093666190
21
157.8590212380
0
LINE
5
32F
100
AcDbEntity
8
0
100
AcDbLine
62
7
6
CONTINUOUS
10
167.2093666190
20
157.4164680992
11
167.4924297857
21
157.5271063839
0
LINE
5
330
100
AcDbEntity
8
0
100
AcDbLine
62
7
6
CONTINUOUS
10
169.0021001883
20
157.9696595226
11
168.7190370216
21
157.8590212380
0
LINE
5
331
100
AcDbEntity
8
0
100
AcDbLine
62
7
6
CONTINUOUS
10
123.7154238304
20
144.1411285189
11
124.3792536547
21
144.3608559050
0
LINE
5
332
100
AcDbEntity
8
0
100
AcDbLine
62
7
6
CONTINUOUS
10
133.0991850659
20
154.4292341028
11
133.5100810956
21
154.5398723972
0
LINE
5
333
100
AcDbEntity
8
0
100
AcDbLine
62
7
6
CONTINUOUS
10
129.2367609522
20
154.4292341028
11
129.6476570995
21
154.5398723972
0
LINE
5
334
100
AcDbEntity
8
0
100
AcDbLine
62
7
6
CONTINUOUS
10
183.5154240628
20
168.2385630051
11
184.0132963439
21
168.3562837364
0
LINE
5
335
100
AcDbEntity
8
0
100
AcDbLine
62
7
6
CONTINUOUS
10
164.0956720549
20
159.6292341028
11
163.5295457214
21
159.5185958181
0
LINE
5
336
100
AcDbEntity
8
0
100
AcDbLine
62
7
6
CONTINUOUS
10
128.7436855284
20
156.7526383911
11
129.2367609522
21
156.7526383911
0
LINE
5
337
100
AcDbEntity
8
0
100
AcDbLine
62
7
6
CONTINUOUS
10
180.1962748250
20
157.2905248953
11
182.6856364628
21
157.2905248953
0
LINE
5
338
100
AcDbEntity
8
0
100
AcDbLine
62
7
6
CONTINUOUS
10
129.2367609522
20
157.4164680992
11
128.7436855284
21
157.4164680992
0
LINE
5
339
100
AcDbEntity
8
0
100
AcDbLine
62
7
6
CONTINUOUS
10
167.4924297857
20
157.5271063839
11
167.6811389235
21
157.5271063839
0
LINE
5
33A
100
AcDbEntity
8
0
100
AcDbLine
62
7
6
CONTINUOUS
10
168.9077456194
20
157.5271063839
11
169.1908087862
21
157.5271063839
0
LINE
5
33B
100
AcDbEntity
8
0
100
AcDbLine
62
7
6
CONTINUOUS
10
171.7383778267
20
157.5271063839
11
171.9270858846
21
157.5271063839
0
LINE
5
33C
100
AcDbEntity
8
0
100
AcDbLine
62
7
6
CONTINUOUS
10
173.1536936604
20
157.5271063839
11
173.4367568271
21
157.5271063839
0
LINE
5
33D
100
AcDbEntity
8
0
100
AcDbLine
62
7
6
CONTINUOUS
10
173.6254648850
20
157.9696595226
11
173.2480476893
21
157.9696595226
0
LINE
5
33E
100
AcDbEntity
8
0
100
AcDbLine
62
7
6
CONTINUOUS
10
172.1157950224
20
157.9696595226
11
171.7383778267
21
157.9696595226
0
LINE
5
33F
100
AcDbEntity
8
0
100
AcDbLine
62
7
6
CONTINUOUS
10
171.2666055222
20
157.9696595226
11
170.7948332177
21
157.9696595226
0
LINE
5
340
100
AcDbEntity
8
0
100
AcDbLine
62
7
6
CONTINUOUS
10
169.3795179239
20
157.9696595226
11
169.0021001883
21
157.9696595226
0
LINE
5
341
100
AcDbEntity
8
0
100
AcDbLine
62
7
6
CONTINUOUS
10
167.8698475214
20
157.9696595226
11
167.4924297857
21
157.9696595226
0
LINE
5
342
100
AcDbEntity
8
0
100
AcDbLine
62
7
6
CONTINUOUS
10
167.0206580211
20
157.9696595226
11
166.5488862566
21
157.9696595226
0
LINE
5
343
100
AcDbEntity
8
0
100
AcDbLine
62
7
6
CONTINUOUS
10
182.6856364628
20
157.9968499564
11
180.1962748250
21
157.9968499564
0
LINE
5
344
100
AcDbEntity
8
0
100
AcDbLine
62
7
6
CONTINUOUS
10
129.7298362584
20
158.4122129713
11
130.2229116822
21
158.4122129713
0
LINE
5
345
100
AcDbEntity
8
0
100
AcDbLine
62
7
6
CONTINUOUS
10
121.2260621926
20
158.4233822123
11
121.8898919007
21
158.4233822123
0
LINE
5
346
100
AcDbEntity
8
0
100
AcDbLine
62
7
6
CONTINUOUS
10
128.7436855284
20
158.9654043947
11
129.2367609522
21
158.9654043947
0
LINE
5
347
100
AcDbEntity
8
0
100
AcDbLine
62
7
6
CONTINUOUS
10
132.4417513243
20
158.9654043947
11
133.0991850659
21
158.9654043947
0
LINE
5
348
100
AcDbEntity
8
0
100
AcDbLine
62
7
6
CONTINUOUS
10
161.6424578532
20
159.6292341028
11
161.0763315197
21
159.6292341028
0
LINE
5
349
100
AcDbEntity
8
0
100
AcDbLine
62
7
6
CONTINUOUS
10
139.1804489392
20
159.6292341028
11
138.6873735154
21
159.6292341028
0
LINE
5
34A
100
AcDbEntity
8
0
100
AcDbLine
62
7
6
CONTINUOUS
10
135.5645621847
20
159.6292341028
11
135.0714867609
21
159.6292341028
0
LINE
5
34B
100
AcDbEntity
8
0
100
AcDbLine
62
7
6
CONTINUOUS
10
133.0991850659
20
159.6292341028
11
132.4417513243
21
159.6292341028
0
LINE
5
34C
100
AcDbEntity
8
0
100
AcDbLine
62
7
6
CONTINUOUS
10
129.1545816757
20
159.6292341028
11
128.7436855284
21
159.6292341028
0
LINE
5
34D
100
AcDbEntity
8
0
100
AcDbLine
62
7
6
CONTINUOUS
10
119.5664874574
20
159.9614701431
11
119.8984027764
21
159.9614701431
0
LINE
5
34E
100
AcDbEntity
8
0
100
AcDbLine
62
7
6
CONTINUOUS
10
123.0515941223
20
160.0713344648
11
123.7154238304
21
160.0713344648
0
LINE
5
34F
100
AcDbEntity
8
0
100
AcDbLine
62
7
6
CONTINUOUS
10
119.8984027764
20
160.5107867224
11
119.5664874574
21
160.5107867224
0
LINE
5
350
100
AcDbEntity
8
0
100
AcDbLine
62
7
6
CONTINUOUS
10
123.7154238304
20
160.6206510441
11
123.0515941223
21
160.6206510441
0
LINE
5
351
100
AcDbEntity
8
0
100
AcDbLine
62
7
6
CONTINUOUS
10
163.5295457214
20
154.5398723972
11
164.0956720549
21
154.4292341028
0
LINE
5
352
100
AcDbEntity
8
0
100
AcDbLine
62
7
6
CONTINUOUS
10
125.5409557601
20
166.5532791532
11
117.7409557601
21
168.3110957274
0
LINE
5
353
100
AcDbEntity
8
0
100
AcDbLine
62
7
6
CONTINUOUS
10
117.7409557601
20
167.6519148264
11
124.5452110817
21
166.1138243810
0
LINE
5
354
100
AcDbEntity
8
0
100
AcDbLine
62
7
6
CONTINUOUS
10
164.0956720549
20
154.9824256037
11
163.6239000203
21
155.0930638884
0
LINE
5
355
100
AcDbEntity
8
0
100
AcDbLine
62
7
6
CONTINUOUS
10
121.3920196196
20
174.3535856436
11
120.7281899115
21
174.6831760941
0
LINE
5
356
100
AcDbEntity
8
0
100
AcDbLine
62
7
6
CONTINUOUS
10
156.7909557601
20
145.3942341028
11
156.7909557601
21
166.1942341028
0
LINE
5
357
100
AcDbEntity
8
0
100
AcDbLine
62
7
6
CONTINUOUS
10
160.5102051862
20
158.8547661100
11
160.5102051862
21
157.9696595226
0
LINE
5
358
100
AcDbEntity
8
0
100
AcDbLine
62
7
6
CONTINUOUS
10
162.9634193879
20
158.0802978073
11
163.3408368536
21
158.7441278254
0
LINE
5
359
100
AcDbEntity
8
0
100
AcDbLine
62
7
6
CONTINUOUS
10
161.0763315197
20
159.6292341028
11
160.5102051862
21
158.8547661100
0
LINE
5
35A
100
AcDbEntity
8
0
100
AcDbLine
62
7
6
CONTINUOUS
10
160.5102051862
20
157.9696595226
11
161.0763315197
21
158.7441278254
0
LINE
5
35B
100
AcDbEntity
8
0
100
AcDbLine
62
7
6
CONTINUOUS
10
163.0577736868
20
159.1866809641
11
162.7747105201
21
158.8547661100
0
LINE
5
35C
100
AcDbEntity
8
0
100
AcDbLine
62
7
6
CONTINUOUS
10
163.3408368536
20
158.7441278254
11
163.6239000203
21
158.9654043947
0
LINE
5
35D
100
AcDbEntity
8
0
100
AcDbLine
62
7
6
CONTINUOUS
10
164.8505069862
20
155.3143404578
11
164.5674438195
21
155.0930638884
0
LINE
5
35E
100
AcDbEntity
8
0
100
AcDbLine
62
7
6
CONTINUOUS
10
178.7026578655
20
166.8259125462
11
178.0388280993
21
166.3550296212
0
LINE
5
35F
100
AcDbEntity
8
0
100
AcDbLine
62
7
6
CONTINUOUS
10
184.3452111980
20
169.2980505968
11
184.0132963439
21
169.0626087975
0
LINE
5
360
100
AcDbEntity
8
0
100
AcDbLine
62
7
6
CONTINUOUS
10
164.6617983883
20
154.5398723972
11
165.1335704229
21
154.8717872803
0
LINE
5
361
100
AcDbEntity
8
0
100
AcDbLine
62
7
6
CONTINUOUS
10
168.7190370216
20
157.4164680992
11
168.9077456194
21
157.5271063839
0
LINE
5
362
100
AcDbEntity
8
0
100
AcDbLine
62
7
6
CONTINUOUS
10
161.9827496497
20
153.6688166651
11
157.1077496497
21
150.8542341028
0
LINE
5
363
100
AcDbEntity
8
0
100
AcDbLine
62
7
6
CONTINUOUS
10
158.9706661622
20
151.1792341028
11
162.3077496497
21
153.1059001527
0
LINE
5
364
100
AcDbEntity
8
0
100
AcDbLine
62
7
6
CONTINUOUS
10
171.7383778267
20
157.9696595226
11
171.4553146599
21
157.8590212380
0
LINE
5
365
100
AcDbEntity
8
0
100
AcDbLine
62
7
6
CONTINUOUS
10
171.4553146599
20
157.4164680992
11
171.7383778267
21
157.5271063839
0
LINE
5
366
100
AcDbEntity
8
0
100
AcDbLine
62
7
6
CONTINUOUS
10
173.2480476893
20
157.9696595226
11
172.9649845226
21
157.8590212380
0
LINE
5
367
100
AcDbEntity
8
0
100
AcDbLine
62
7
6
CONTINUOUS
10
123.7154238304
20
138.9775450039
11
124.3792536547
21
139.1972717614
0
LINE
5
368
100
AcDbEntity
8
0
100
AcDbLine
62
7
6
CONTINUOUS
10
177.5409557601
20
168.1208419371
11
181.3579770466
21
169.1803295287
0
LINE
5
369
100
AcDbEntity
8
0
100
AcDbLine
62
7
6
CONTINUOUS
10
181.0260621926
20
169.8866547582
11
177.5409557601
21
168.9448880662
0
LINE
5
36A
100
AcDbEntity
8
0
100
AcDbLine
62
7
6
CONTINUOUS
10
132.4417513243
20
159.6292341028
11
132.0308548243
21
159.5185958181
0
LINE
5
36B
100
AcDbEntity
8
0
100
AcDbLine
62
7
6
CONTINUOUS
10
184.0132963439
20
169.0626087975
11
183.5154240628
21
168.9448880662
0
LINE
5
36C
100
AcDbEntity
8
0
100
AcDbLine
62
7
6
CONTINUOUS
10
123.7154238304
20
156.6655656381
11
124.2132962277
21
156.7754299598
0
LINE
5
36D
100
AcDbEntity
8
0
100
AcDbLine
62
7
6
CONTINUOUS
10
179.5324451169
20
166.3550296212
11
180.1962748250
21
166.4727500157
0
LINE
5
36E
100
AcDbEntity
8
0
100
AcDbLine
62
7
6
CONTINUOUS
10
180.1962748250
20
167.1790754135
11
179.3664876898
21
167.0613543455
0
LINE
5
36F
100
AcDbEntity
8
0
100
AcDbLine
62
7
6
CONTINUOUS
10
178.5367004385
20
161.2930331257
11
184.3452111980
21
161.2930331257
0
LINE
5
370
100
AcDbEntity
8
0
100
AcDbLine
62
7
6
CONTINUOUS
10
121.8898919007
20
161.4995580739
11
122.7196792682
21
161.4995580739
0
LINE
5
371
100
AcDbEntity
8
0
100
AcDbLine
62
7
6
CONTINUOUS
10
185.3409557601
20
161.9993581867
11
177.5409557601
21
161.9993581867
0
LINE
5
372
100
AcDbEntity
8
0
100
AcDbLine
62
7
6
CONTINUOUS
10
180.1962748250
20
162.9411247103
11
185.3409557601
21
162.9411247103
0
LINE
5
373
100
AcDbEntity
8
0
100
AcDbLine
62
7
6
CONTINUOUS
10
122.7196792682
20
163.0376485193
11
121.8898919007
21
163.0376485193
0
LINE
5
374
100
AcDbEntity
8
0
100
AcDbLine
62
7
6
CONTINUOUS
10
185.3409557601
20
163.6474497714
11
180.1962748250
21
163.6474497714
0
LINE
5
375
100
AcDbEntity
8
0
100
AcDbLine
62
7
6
CONTINUOUS
10
179.3664876898
20
157.4082452898
11
180.1962748250
21
157.2905248953
0
LINE
5
376
100
AcDbEntity
8
0
100
AcDbLine
62
7
6
CONTINUOUS
10
180.1962748250
20
157.9968499564
11
179.5324451169
21
158.1145703508
0
LINE
5
377
100
AcDbEntity
8
0
100
AcDbLine
62
7
6
CONTINUOUS
10
164.6617983883
20
159.5185958181
11
164.0956720549
21
159.6292341028
0
LINE
5
378
100
AcDbEntity
8
0
100
AcDbLine
62
7
6
CONTINUOUS
10
164.0956720549
20
159.0760426794
11
164.5674438195
21
158.9654043947
0
LINE
5
379
100
AcDbEntity
8
0
100
AcDbLine
62
7
6
CONTINUOUS
10
168.1529106881
20
157.8590212380
11
167.8698475214
21
157.9696595226
0
LINE
5
37A
100
AcDbEntity
8
0
100
AcDbLine
62
7
6
CONTINUOUS
10
169.6625805507
20
157.8590212380
11
169.3795179239
21
157.9696595226
0
LINE
5
37B
100
AcDbEntity
8
0
100
AcDbLine
62
7
6
CONTINUOUS
10
163.0577736868
20
154.8717872803
11
163.5295457214
21
154.5398723972
0
LINE
5
37C
100
AcDbEntity
8
0
100
AcDbLine
62
7
6
CONTINUOUS
10
163.6239000203
20
155.0930638884
11
163.3408368536
21
155.3143404578
0
LINE
5
37D
100
AcDbEntity
8
0
100
AcDbLine
62
7
6
CONTINUOUS
10
162.7747105201
20
155.2037021731
11
163.0577736868
21
154.8717872803
0
LINE
5
37E
100
AcDbEntity
8
0
100
AcDbLine
62
7
6
CONTINUOUS
10
162.3077496497
20
153.1059001527
11
161.9827496497
21
153.6688166651
0
LINE
5
37F
100
AcDbEntity
8
0
100
AcDbLine
62
7
6
CONTINUOUS
10
161.0763315197
20
158.7441278254
11
161.0763315197
21
154.4292341028
0
LINE
5
380
100
AcDbEntity
8
0
100
AcDbLine
62
7
6
CONTINUOUS
10
161.6424578532
20
154.4292341028
11
161.6424578532
21
159.6292341028
0
LINE
5
381
100
AcDbEntity
8
0
100
AcDbLine
62
7
6
CONTINUOUS
10
162.3972929195
20
157.5271063839
11
162.3972929195
21
156.5313618218
0
LINE
5
382
100
AcDbEntity
8
0
100
AcDbLine
62
7
6
CONTINUOUS
10
162.8690648190
20
156.6420001064
11
162.8690648190
21
157.4164680992
0
LINE
5
383
100
AcDbEntity
8
0
100
AcDbLine
62
7
6
CONTINUOUS
10
162.8690648190
20
157.4164680992
11
162.9634193879
21
158.0802978073
0
LINE
5
384
100
AcDbEntity
8
0
100
AcDbLine
62
7
6
CONTINUOUS
10
162.4916473534
20
158.0802978073
11
162.3972929195
21
157.5271063839
0
LINE
5
385
100
AcDbEntity
8
0
100
AcDbLine
62
7
6
CONTINUOUS
10
162.5860017873
20
158.4122129713
11
162.4916473534
21
158.0802978073
0
LINE
5
386
100
AcDbEntity
8
0
100
AcDbLine
62
7
6
CONTINUOUS
10
162.7747105201
20
158.8547661100
11
162.5860017873
21
158.4122129713
0
LINE
5
387
100
AcDbEntity
8
0
100
AcDbLine
62
7
6
CONTINUOUS
10
165.4166335896
20
155.2037021731
11
165.6053421875
21
155.6462553893
0
LINE
5
388
100
AcDbEntity
8
0
100
AcDbLine
62
7
6
CONTINUOUS
10
165.2279244519
20
155.9781702434
11
164.8505069862
21
155.3143404578
0
LINE
5
389
100
AcDbEntity
8
0
100
AcDbLine
62
7
6
CONTINUOUS
10
161.9827496497
20
148.0396515405
11
162.3077496497
21
148.6025680530
0
LINE
5
38A
100
AcDbEntity
8
0
100
AcDbLine
62
7
6
CONTINUOUS
10
167.2093666190
20
157.8590212380
11
167.0206580211
21
157.6377446686
0
LINE
5
38B
100
AcDbEntity
8
0
100
AcDbLine
62
7
6
CONTINUOUS
10
167.0206580211
20
157.1951915299
11
167.2093666190
21
157.4164680992
0
LINE
5
38C
100
AcDbEntity
8
0
100
AcDbLine
62
7
6
CONTINUOUS
10
165.1335704229
20
154.8717872803
11
165.4166335896
21
155.2037021731
0
LINE
5
38D
100
AcDbEntity
8
0
100
AcDbLine
62
7
6
CONTINUOUS
10
168.7190370216
20
157.8590212380
11
168.4359738548
21
157.5271063839
0
LINE
5
38E
100
AcDbEntity
8
0
100
AcDbLine
62
7
6
CONTINUOUS
10
168.6246824527
20
157.3058298145
11
168.7190370216
21
157.4164680992
0
LINE
5
38F
100
AcDbEntity
8
0
100
AcDbLine
62
7
6
CONTINUOUS
10
178.7026578655
20
165.7664249546
11
179.0345728358
21
166.1195874851
0
LINE
5
390
100
AcDbEntity
8
0
100
AcDbLine
62
7
6
CONTINUOUS
10
172.9649845226
20
157.4164680992
11
173.1536936604
21
157.5271063839
0
LINE
5
391
100
AcDbEntity
8
0
100
AcDbLine
62
7
6
CONTINUOUS
10
183.8473389169
20
158.3500124869
11
183.3494661709
21
158.1145703508
0
LINE
5
392
100
AcDbEntity
8
0
100
AcDbLine
62
7
6
CONTINUOUS
10
183.5154240628
20
157.4082452898
11
184.1792537709
21
157.6436874259
0
LINE
5
393
100
AcDbEntity
8
0
100
AcDbLine
62
7
6
CONTINUOUS
10
123.0515941223
20
160.6206510441
11
122.3877641817
21
160.5107867224
0
LINE
5
394
100
AcDbEntity
8
0
100
AcDbLine
62
7
6
CONTINUOUS
10
119.5664874574
20
160.5107867224
11
118.9026577493
21
160.4009249153
0
LINE
5
395
100
AcDbEntity
8
0
100
AcDbLine
62
7
6
CONTINUOUS
10
170.0536541048
20
166.1942341028
11
156.7909557601
21
166.1942341028
0
LINE
5
396
100
AcDbEntity
8
0
100
AcDbLine
62
7
6
CONTINUOUS
10
146.2909557601
20
166.1942341028
11
133.0282574155
21
166.1942341028
0
LINE
5
397
100
AcDbEntity
8
0
100
AcDbLine
62
7
6
CONTINUOUS
10
180.1962748250
20
166.4727500157
11
185.3409557601
21
166.4727500157
0
LINE
5
398
100
AcDbEntity
8
0
100
AcDbLine
62
7
6
CONTINUOUS
10
185.3409557601
20
167.1790754135
11
180.1962748250
21
167.1790754135
0
LINE
5
399
100
AcDbEntity
8
0
100
AcDbLine
62
7
6
CONTINUOUS
10
182.8515938898
20
168.2385630051
11
183.5154240628
21
168.2385630051
0
LINE
5
39A
100
AcDbEntity
8
0
100
AcDbLine
62
7
6
CONTINUOUS
10
183.5154240628
20
168.9448880662
11
183.0175513168
21
168.9448880662
0
LINE
5
39B
100
AcDbEntity
8
0
100
AcDbLine
62
7
6
CONTINUOUS
10
179.3664876898
20
163.0588457783
11
180.1962748250
21
162.9411247103
0
LINE
5
39C
100
AcDbEntity
8
0
100
AcDbLine
62
7
6
CONTINUOUS
10
180.1962748250
20
163.6474497714
11
179.5324451169
21
163.7651708394
0
LINE
5
39D
100
AcDbEntity
8
0
100
AcDbLine
62
7
6
CONTINUOUS
10
120.0643602034
20
174.1338595148
11
120.5622324845
21
174.0239951931
0
LINE
5
39E
100
AcDbEntity
8
0
100
AcDbLine
62
7
6
CONTINUOUS
10
120.7281899115
20
174.6831760941
11
120.2303176304
21
174.7930404158
0
LINE
5
39F
100
AcDbEntity
8
0
100
AcDbLine
62
7
6
CONTINUOUS
10
178.7026578655
20
157.6436874259
11
179.3664876898
21
157.4082452898
0
LINE
5
3A0
100
AcDbEntity
8
0
100
AcDbLine
62
7
6
CONTINUOUS
10
172.3988581891
20
157.8590212380
11
172.1157950224
21
157.9696595226
0
LINE
5
3A1
100
AcDbEntity
8
0
100
AcDbLine
62
7
6
CONTINUOUS
10
173.9085280518
20
157.8590212380
11
173.6254648850
21
157.9696595226
0
LINE
5
3A2
100
AcDbEntity
8
0
100
AcDbLine
62
7
6
CONTINUOUS
10
169.1908087862
20
157.5271063839
11
169.3795179239
21
157.4164680992
0
LINE
5
3A3
100
AcDbEntity
8
0
100
AcDbLine
62
7
6
CONTINUOUS
10
171.9270858846
20
157.5271063839
11
172.1157950224
21
157.4164680992
0
LINE
5
3A4
100
AcDbEntity
8
0
100
AcDbLine
62
7
6
CONTINUOUS
10
167.6811389235
20
157.5271063839
11
167.8698475214
21
157.4164680992
0
LINE
5
3A5
100
AcDbEntity
8
0
100
AcDbLine
62
7
6
CONTINUOUS
10
173.4367568271
20
157.5271063839
11
173.6254648850
21
157.4164680992
0
LINE
5
3A6
100
AcDbEntity
8
0
100
AcDbLine
62
7
6
CONTINUOUS
10
165.1335704229
20
159.1866809641
11
164.6617983883
21
159.5185958181
0
LINE
5
3A7
100
AcDbEntity
8
0
100
AcDbLine
62
7
6
CONTINUOUS
10
164.5674438195
20
158.9654043947
11
164.8505069862
21
158.7441278254
0
LINE
5
3A8
100
AcDbEntity
8
0
100
AcDbLine
62
7
6
CONTINUOUS
10
165.4166335896
20
158.8547661100
11
165.1335704229
21
159.1866809641
0
LINE
5
3A9
100
AcDbEntity
8
0
100
AcDbLine
62
7
6
CONTINUOUS
10
163.3408368536
20
155.3143404578
11
162.9634193879
21
155.9781702434
0
LINE
5
3AA
100
AcDbEntity
8
0
100
AcDbLine
62
7
6
CONTINUOUS
10
164.8505069862
20
158.7441278254
11
165.2279244519
21
158.0802978073
0
LINE
5
3AB
100
AcDbEntity
8
0
100
AcDbLine
62
7
6
CONTINUOUS
10
162.5860017873
20
155.6462553893
11
162.7747105201
21
155.2037021731
0
LINE
5
3AC
100
AcDbEntity
8
0
100
AcDbLine
62
7
6
CONTINUOUS
10
162.4916473534
20
155.9781702434
11
162.5860017873
21
155.6462553893
0
LINE
5
3AD
100
AcDbEntity
8
0
100
AcDbLine
62
7
6
CONTINUOUS
10
162.3972929195
20
156.5313618218
11
162.4916473534
21
155.9781702434
0
LINE
5
3AE
100
AcDbEntity
8
0
100
AcDbLine
62
7
6
CONTINUOUS
10
162.9634193879
20
155.9781702434
11
162.8690648190
21
156.6420001064
0
LINE
5
3AF
100
AcDbEntity
8
0
100
AcDbLine
62
7
6
CONTINUOUS
10
165.3222790207
20
157.4164680992
11
165.3222790207
21
156.6420001064
0
LINE
5
3B0
100
AcDbEntity
8
0
100
AcDbLine
62
7
6
CONTINUOUS
10
165.7940507853
20
156.5313618218
11
165.7940507853
21
157.5271063839
0
LINE
5
3B1
100
AcDbEntity
8
0
100
AcDbLine
62
7
6
CONTINUOUS
10
166.5488862566
20
157.9696595226
11
166.5488862566
21
154.4292341028
0
LINE
5
3B2
100
AcDbEntity
8
0
100
AcDbLine
62
7
6
CONTINUOUS
10
167.0206580211
20
154.4292341028
11
167.0206580211
21
157.1951915299
0
LINE
5
3B3
100
AcDbEntity
8
0
100
AcDbLine
62
7
6
CONTINUOUS
10
167.0206580211
20
157.6377446686
11
167.0206580211
21
157.9696595226
0
LINE
5
3B4
100
AcDbEntity
8
0
100
AcDbLine
62
7
6
CONTINUOUS
10
168.0585561192
20
157.0845532452
11
168.0585561192
21
154.4292341028
0
LINE
5
3B5
100
AcDbEntity
8
0
100
AcDbLine
62
7
6
CONTINUOUS
10
168.5303284237
20
154.4292341028
11
168.5303284237
21
157.0845532452
0
LINE
5
3B6
100
AcDbEntity
8
0
100
AcDbLine
62
7
6
CONTINUOUS
10
165.3222790207
20
156.6420001064
11
165.2279244519
21
155.9781702434
0
LINE
5
3B7
100
AcDbEntity
8
0
100
AcDbLine
62
7
6
CONTINUOUS
10
165.6996967563
20
155.9781702434
11
165.7940507853
21
156.5313618218
0
LINE
5
3B8
100
AcDbEntity
8
0
100
AcDbLine
62
7
6
CONTINUOUS
10
165.6053421875
20
155.6462553893
11
165.6996967563
21
155.9781702434
0
LINE
5
3B9
100
AcDbEntity
8
0
100
AcDbLine
62
7
6
CONTINUOUS
10
168.5303284237
20
157.0845532452
11
168.6246824527
21
157.3058298145
0
LINE
5
3BA
100
AcDbEntity
8
0
100
AcDbLine
62
7
6
CONTINUOUS
10
178.0388280993
20
166.3550296212
11
177.7069132017
21
165.8841460226
0
LINE
5
3BB
100
AcDbEntity
8
0
100
AcDbLine
62
7
6
CONTINUOUS
10
171.4553146599
20
157.8590212380
11
171.2666055222
21
157.6377446686
0
LINE
5
3BC
100
AcDbEntity
8
0
100
AcDbLine
62
7
6
CONTINUOUS
10
171.2666055222
20
157.1951915299
11
171.4553146599
21
157.4164680992
0
LINE
5
3BD
100
AcDbEntity
8
0
100
AcDbLine
62
7
6
CONTINUOUS
10
172.9649845226
20
157.8590212380
11
172.6819213559
21
157.5271063839
0
LINE
5
3BE
100
AcDbEntity
8
0
100
AcDbLine
62
7
6
CONTINUOUS
10
172.8706304936
20
157.3058298145
11
172.9649845226
21
157.4164680992
0
LINE
5
3BF
100
AcDbEntity
8
0
100
AcDbLine
62
7
6
CONTINUOUS
10
184.6771260520
20
168.7094462669
11
185.1749983331
21
169.1803295287
0
LINE
5
3C0
100
AcDbEntity
8
0
100
AcDbLine
62
7
6
CONTINUOUS
10
184.1792537709
20
157.6436874259
11
184.8430834790
21
158.1145703508
0
LINE
5
3C1
100
AcDbEntity
8
0
100
AcDbLine
62
7
6
CONTINUOUS
10
124.5452110817
20
166.1138243810
11
117.7409557601
21
164.5757364502
0
LINE
5
3C2
100
AcDbEntity
8
0
100
AcDbLine
62
7
6
CONTINUOUS
10
117.7409557601
20
163.9165555492
11
125.5409557601
21
165.6743721234
0
LINE
5
3C3
100
AcDbEntity
8
0
100
AcDbLine
62
7
6
CONTINUOUS
10
117.7409557601
20
169.1900027572
11
125.5409557601
21
169.1900027572
0
LINE
5
3C4
100
AcDbEntity
8
0
100
AcDbLine
62
7
6
CONTINUOUS
10
125.5409557601
20
169.8491836582
11
117.7409557601
21
169.8491836582
0
LINE
5
3C5
100
AcDbEntity
8
0
100
AcDbLine
62
7
6
CONTINUOUS
10
117.7409557601
20
170.7280906880
11
125.5409557601
21
170.7280906880
0
LINE
5
3C6
100
AcDbEntity
8
0
100
AcDbLine
62
7
6
CONTINUOUS
10
125.5409557601
20
171.3872715890
11
122.0558493277
21
171.3872715890
0
LINE
5
3C7
100
AcDbEntity
8
0
100
AcDbLine
62
7
6
CONTINUOUS
10
121.0601047655
20
171.3872715890
11
118.5707428952
21
171.3872715890
0
LINE
5
3C8
100
AcDbEntity
8
0
100
AcDbLine
62
7
6
CONTINUOUS
10
177.5409557601
20
171.8879090418
11
181.0260621926
21
171.8879090418
0
LINE
5
3C9
100
AcDbEntity
8
0
100
AcDbLine
62
7
6
CONTINUOUS
10
182.0218067547
20
171.8879090418
11
184.5111686250
21
171.8879090418
0
LINE
5
3CA
100
AcDbEntity
8
0
100
AcDbLine
62
7
6
CONTINUOUS
10
185.3409557601
20
172.5942341028
11
177.5409557601
21
172.5942341028
0
LINE
5
3CB
100
AcDbEntity
8
0
100
AcDbLine
62
7
6
CONTINUOUS
10
178.7026578655
20
163.2942872408
11
179.3664876898
21
163.0588457783
0
LINE
5
3CC
100
AcDbEntity
8
0
100
AcDbLine
62
7
6
CONTINUOUS
10
179.5324451169
20
158.1145703508
11
179.0345728358
21
158.3500124869
0
LINE
5
3CD
100
AcDbEntity
8
0
100
AcDbLine
62
7
6
CONTINUOUS
10
178.0388280993
20
158.1145703508
11
178.7026578655
21
157.6436874259
0
LINE
5
3CE
100
AcDbEntity
8
0
100
AcDbLine
62
7
6
CONTINUOUS
10
167.8698475214
20
157.4164680992
11
167.9642020902
21
157.3058298145
0
LINE
5
3CF
100
AcDbEntity
8
0
100
AcDbLine
62
7
6
CONTINUOUS
10
168.4359738548
20
157.5271063839
11
168.1529106881
21
157.8590212380
0
LINE
5
3D0
100
AcDbEntity
8
0
100
AcDbLine
62
7
6
CONTINUOUS
10
169.3795179239
20
157.4164680992
11
169.4738719529
21
157.3058298145
0
LINE
5
3D1
100
AcDbEntity
8
0
100
AcDbLine
62
7
6
CONTINUOUS
10
169.8512896885
20
157.6377446686
11
169.6625805507
21
157.8590212380
0
LINE
5
3D2
100
AcDbEntity
8
0
100
AcDbLine
62
7
6
CONTINUOUS
10
172.1157950224
20
157.4164680992
11
172.2101490514
21
157.3058298145
0
LINE
5
3D3
100
AcDbEntity
8
0
100
AcDbLine
62
7
6
CONTINUOUS
10
172.6819213559
20
157.5271063839
11
172.3988581891
21
157.8590212380
0
LINE
5
3D4
100
AcDbEntity
8
0
100
AcDbLine
62
7
6
CONTINUOUS
10
165.6053421875
20
158.4122129713
11
165.4166335896
21
158.8547661100
0
LINE
5
3D5
100
AcDbEntity
8
0
100
AcDbLine
62
7
6
CONTINUOUS
10
167.9642020902
20
157.3058298145
11
168.0585561192
21
157.0845532452
0
LINE
5
3D6
100
AcDbEntity
8
0
100
AcDbLine
62
7
6
CONTINUOUS
10
169.4738719529
20
157.3058298145
11
169.5682265218
21
157.0845532452
0
LINE
5
3D7
100
AcDbEntity
8
0
100
AcDbLine
62
7
6
CONTINUOUS
10
165.6996967563
20
158.0802978073
11
165.6053421875
21
158.4122129713
0
LINE
5
3D8
100
AcDbEntity
8
0
100
AcDbLine
62
7
6
CONTINUOUS
10
165.7940507853
20
157.5271063839
11
165.6996967563
21
158.0802978073
0
LINE
5
3D9
100
AcDbEntity
8
0
100
AcDbLine
62
7
6
CONTINUOUS
10
165.2279244519
20
158.0802978073
11
165.3222790207
21
157.4164680992
0
LINE
5
3DA
100
AcDbEntity
8
0
100
AcDbLine
62
7
6
CONTINUOUS
10
169.5682265218
20
157.0845532452
11
169.5682265218
21
154.4292341028
0
LINE
5
3DB
100
AcDbEntity
8
0
100
AcDbLine
62
7
6
CONTINUOUS
10
170.0399988263
20
154.4292341028
11
170.0399988263
21
157.0845532452
0
LINE
5
3DC
100
AcDbEntity
8
0
100
AcDbLine
62
7
6
CONTINUOUS
10
170.7948332177
20
157.9696595226
11
170.7948332177
21
154.4292341028
0
LINE
5
3DD
100
AcDbEntity
8
0
100
AcDbLine
62
7
6
CONTINUOUS
10
171.2666055222
20
154.4292341028
11
171.2666055222
21
157.1951915299
0
LINE
5
3DE
100
AcDbEntity
8
0
100
AcDbLine
62
7
6
CONTINUOUS
10
171.2666055222
20
157.6377446686
11
171.2666055222
21
157.9696595226
0
LINE
5
3DF
100
AcDbEntity
8
0
100
AcDbLine
62
7
6
CONTINUOUS
10
172.3045041601
20
157.0845532452
11
172.3045041601
21
154.4292341028
0
LINE
5
3E0
100
AcDbEntity
8
0
100
AcDbLine
62
7
6
CONTINUOUS
10
172.7762753848
20
154.4292341028
11
172.7762753848
21
157.0845532452
0
LINE
5
3E1
100
AcDbEntity
8
0
100
AcDbLine
62
7
6
CONTINUOUS
10
172.7762753848
20
157.0845532452
11
172.8706304936
21
157.3058298145
0
LINE
5
3E2
100
AcDbEntity
8
0
100
AcDbLine
62
7
6
CONTINUOUS
10
184.1792537709
20
158.7031750175
11
183.8473389169
21
158.3500124869
0
LINE
5
3E3
100
AcDbEntity
8
0
100
AcDbLine
62
7
6
CONTINUOUS
10
119.5664874574
20
174.1338595148
11
120.0643602034
21
174.1338595148
0
LINE
5
3E4
100
AcDbEntity
8
0
100
AcDbLine
62
7
6
CONTINUOUS
10
120.2303176304
20
174.7930404158
11
119.5664874574
21
174.7930404158
0
LINE
5
3E5
100
AcDbEntity
8
0
100
AcDbLine
62
7
6
CONTINUOUS
10
182.3537216088
20
168.3562837364
11
182.8515938898
21
168.2385630051
0
LINE
5
3E6
100
AcDbEntity
8
0
100
AcDbLine
62
7
6
CONTINUOUS
10
183.0175513168
20
168.9448880662
11
182.5196790358
21
169.0626087975
0
LINE
5
3E7
100
AcDbEntity
8
0
100
AcDbLine
62
7
6
CONTINUOUS
10
179.5324451169
20
163.7651708394
11
179.0345728358
21
164.0006123019
0
LINE
5
3E8
100
AcDbEntity
8
0
100
AcDbLine
62
7
6
CONTINUOUS
10
178.0388280993
20
163.7651708394
11
178.7026578655
21
163.2942872408
0
LINE
5
3E9
100
AcDbEntity
8
0
100
AcDbLine
62
7
6
CONTINUOUS
10
179.0345728358
20
158.3500124869
11
178.7026578655
21
158.7031750175
0
LINE
5
3EA
100
AcDbEntity
8
0
100
AcDbLine
62
7
6
CONTINUOUS
10
173.6254648850
20
157.4164680992
11
173.7198199938
21
157.3058298145
0
LINE
5
3EB
100
AcDbEntity
8
0
100
AcDbLine
62
7
6
CONTINUOUS
10
174.0972371895
20
157.6377446686
11
173.9085280518
21
157.8590212380
0
LINE
5
3EC
100
AcDbEntity
8
0
100
AcDbLine
62
7
6
CONTINUOUS
10
172.2101490514
20
157.3058298145
11
172.3045041601
21
157.0845532452
0
LINE
5
3ED
100
AcDbEntity
8
0
100
AcDbLine
62
7
6
CONTINUOUS
10
173.7198199938
20
157.3058298145
11
173.8141740228
21
157.0845532452
0
LINE
5
3EE
100
AcDbEntity
8
0
100
AcDbLine
62
7
6
CONTINUOUS
10
170.0399988263
20
157.0845532452
11
169.8512896885
21
157.6377446686
0
LINE
5
3EF
100
AcDbEntity
8
0
100
AcDbLine
62
7
6
CONTINUOUS
10
173.8141740228
20
157.0845532452
11
173.8141740228
21
154.4292341028
0
LINE
5
3F0
100
AcDbEntity
8
0
100
AcDbLine
62
7
6
CONTINUOUS
10
174.2859463273
20
154.4292341028
11
174.2859463273
21
157.0845532452
0
LINE
5
3F1
100
AcDbEntity
8
0
100
AcDbLine
62
7
6
CONTINUOUS
10
176.6077496497
20
150.5292341028
11
176.6077496497
21
151.1792341028
0
LINE
5
3F2
100
AcDbEntity
8
0
100
AcDbLine
62
7
6
CONTINUOUS
10
177.5409557601
20
172.5942341028
11
177.5409557601
21
171.8879090418
0
LINE
5
3F3
100
AcDbEntity
8
0
100
AcDbLine
62
7
6
CONTINUOUS
10
177.5409557601
20
168.9448880662
11
177.5409557601
21
168.1208419371
0
LINE
5
3F4
100
AcDbEntity
8
0
100
AcDbLine
62
7
6
CONTINUOUS
10
177.5409557601
20
165.2955420296
11
177.5409557601
21
164.8246584310
0
LINE
5
3F5
100
AcDbEntity
8
0
100
AcDbLine
62
7
6
CONTINUOUS
10
177.5409557601
20
161.9993581867
11
177.5409557601
21
159.1740579424
0
LINE
5
3F6
100
AcDbEntity
8
0
100
AcDbLine
62
7
6
CONTINUOUS
10
177.7069132017
20
165.8841460226
11
177.5409557601
21
165.2955420296
0
LINE
5
3F7
100
AcDbEntity
8
0
100
AcDbLine
62
7
6
CONTINUOUS
10
178.5367004385
20
165.2955420296
11
178.7026578655
21
165.7664249546
0
LINE
5
3F8
100
AcDbEntity
8
0
100
AcDbLine
62
7
6
CONTINUOUS
10
184.5111686250
20
169.6512131273
11
184.3452111980
21
169.2980505968
0
LINE
5
3F9
100
AcDbEntity
8
0
100
AcDbLine
62
7
6
CONTINUOUS
10
184.8430834790
20
158.1145703508
11
185.1749983331
21
158.5854532758
0
LINE
5
3FA
100
AcDbEntity
8
0
100
AcDbLine
62
7
6
CONTINUOUS
10
119.0686151763
20
174.0239951931
11
119.5664874574
21
174.1338595148
0
LINE
5
3FB
100
AcDbEntity
8
0
100
AcDbLine
62
7
6
CONTINUOUS
10
119.5664874574
20
174.7930404158
11
119.0686151763
21
174.6831760941
0
LINE
5
3FC
100
AcDbEntity
8
0
100
AcDbLine
62
7
6
CONTINUOUS
10
181.6898919007
20
168.7094462669
11
182.3537216088
21
168.3562837364
0
LINE
5
3FD
100
AcDbEntity
8
0
100
AcDbLine
62
7
6
CONTINUOUS
10
179.0345728358
20
164.0006123019
11
178.7026578655
21
164.3537748324
0
LINE
5
3FE
100
AcDbEntity
8
0
100
AcDbLine
62
7
6
CONTINUOUS
10
177.7069132017
20
158.5854532758
11
178.0388280993
21
158.1145703508
0
LINE
5
3FF
100
AcDbEntity
8
0
100
AcDbLine
62
7
6
CONTINUOUS
10
174.2859463273
20
157.0845532452
11
174.0972371895
21
157.6377446686
0
LINE
5
400
100
AcDbEntity
8
0
100
AcDbLine
62
7
6
CONTINUOUS
10
177.5409557601
20
159.1740579424
11
177.7069132017
21
158.5854532758
0
LINE
5
401
100
AcDbEntity
8
0
100
AcDbLine
62
7
6
CONTINUOUS
10
178.5367004385
20
159.1740579424
11
178.5367004385
21
161.2930331257
0
LINE
5
402
100
AcDbEntity
8
0
100
AcDbLine
62
7
6
CONTINUOUS
10
178.5367004385
20
164.8246584310
11
178.5367004385
21
165.2955420296
0
LINE
5
403
100
AcDbEntity
8
0
100
AcDbLine
62
7
6
CONTINUOUS
10
181.0260621926
20
171.8879090418
11
181.0260621926
21
169.8866547582
0
LINE
5
404
100
AcDbEntity
8
0
100
AcDbLine
62
7
6
CONTINUOUS
10
185.1749983331
20
169.1803295287
11
185.3409557601
21
169.7689338585
0
LINE
5
405
100
AcDbEntity
8
0
100
AcDbLine
62
7
6
CONTINUOUS
10
184.3452111980
20
159.1740579424
11
184.1792537709
21
158.7031750175
0
LINE
5
406
100
AcDbEntity
8
0
100
AcDbLine
62
7
6
CONTINUOUS
10
182.5196790358
20
169.0626087975
11
182.1877641817
21
169.2980505968
0
LINE
5
407
100
AcDbEntity
8
0
100
AcDbLine
62
7
6
CONTINUOUS
10
177.7069132017
20
164.2360544380
11
178.0388280993
21
163.7651708394
0
LINE
5
408
100
AcDbEntity
8
0
100
AcDbLine
62
7
6
CONTINUOUS
10
178.7026578655
20
158.7031750175
11
178.5367004385
21
159.1740579424
0
LINE
5
409
100
AcDbEntity
8
0
100
AcDbLine
62
7
6
CONTINUOUS
10
178.7026578655
20
164.3537748324
11
178.5367004385
21
164.8246584310
0
LINE
5
40A
100
AcDbEntity
8
0
100
AcDbLine
62
7
6
CONTINUOUS
10
177.5409557601
20
164.8246584310
11
177.7069132017
21
164.2360544380
0
LINE
5
40B
100
AcDbEntity
8
0
100
AcDbLine
62
7
6
CONTINUOUS
10
182.0218067547
20
169.6512131273
11
182.0218067547
21
171.8879090418
0
LINE
5
40C
100
AcDbEntity
8
0
100
AcDbLine
62
7
6
CONTINUOUS
10
184.3452111980
20
161.2930331257
11
184.3452111980
21
159.1740579424
0
LINE
5
40D
100
AcDbEntity
8
0
100
AcDbLine
62
7
6
CONTINUOUS
10
184.5111686250
20
171.8879090418
11
184.5111686250
21
169.6512131273
0
LINE
5
40E
100
AcDbEntity
8
0
100
AcDbLine
62
7
6
CONTINUOUS
10
185.3409557601
20
159.1740579424
11
185.3409557601
21
161.9993581867
0
LINE
5
40F
100
AcDbEntity
8
0
100
AcDbLine
62
7
6
CONTINUOUS
10
185.3409557601
20
162.9411247103
11
185.3409557601
21
163.6474497714
0
LINE
5
410
100
AcDbEntity
8
0
100
AcDbLine
62
7
6
CONTINUOUS
10
185.3409557601
20
166.4727500157
11
185.3409557601
21
167.1790754135
0
LINE
5
411
100
AcDbEntity
8
0
100
AcDbLine
62
7
6
CONTINUOUS
10
185.3409557601
20
169.7689338585
11
185.3409557601
21
172.5942341028
0
LINE
5
412
100
AcDbEntity
8
0
100
AcDbLine
62
7
6
CONTINUOUS
10
185.1749983331
20
158.5854532758
11
185.3409557601
21
159.1740579424
0
LINE
5
413
100
AcDbEntity
8
0
100
AcDbLine
62
7
6
CONTINUOUS
10
181.3579770466
20
169.1803295287
11
181.6898919007
21
168.7094462669
0
LINE
5
414
100
AcDbEntity
8
0
100
AcDbLine
62
7
6
CONTINUOUS
10
182.1877641817
20
169.2980505968
11
182.0218067547
21
169.6512131273
0
LINE
5
415
100
AcDbEntity
8
0
100
AcDbLine
62
7
6
CONTINUOUS
10
186.9902612710
20
143.2942341028
11
186.9902612710
21
168.2942341028
0
LINE
5
416
100
AcDbEntity
8
0
100
AcDbLine
62
7
6
CONTINUOUS
10
190.0409557601
20
143.2942341028
11
190.0409557601
21
168.2942341028
0
LINE
5
417
100
AcDbEntity
8
DEFAULT_2
100
AcDbLine
62
8
6
HIDDEN
10
291.4771299929
20
120.7942341028
11
299.2771299929
21
120.7942341028
0
LINE
5
418
100
AcDbEntity
8
0
100
AcDbLine
62
7
6
CONTINUOUS
10
301.8771299929
20
133.5942341028
11
302.5271299929
21
133.5942341028
0
LINE
5
419
100
AcDbEntity
8
0
100
AcDbLine
62
7
6
CONTINUOUS
10
301.8771299929
20
134.2534150038
11
302.5271299929
21
134.2534150038
0
LINE
5
41A
100
AcDbEntity
8
0
100
AcDbLine
62
7
6
CONTINUOUS
10
301.8771299929
20
135.7915037205
11
302.5271299929
21
135.7915037205
0
LINE
5
41B
100
AcDbEntity
8
0
100
AcDbLine
62
7
6
CONTINUOUS
10
301.8771299929
20
137.3295924371
11
302.5271299929
21
137.3295924371
0
LINE
5
41C
100
AcDbEntity
8
0
100
AcDbLine
62
7
6
CONTINUOUS
10
301.8771299929
20
137.9887733381
11
302.5271299929
21
137.9887733381
0
LINE
5
41D
100
AcDbEntity
8
0
100
AcDbLine
62
7
6
CONTINUOUS
10
301.8771299929
20
138.8676813109
11
302.5271299929
21
138.8676813109
0
LINE
5
41E
100
AcDbEntity
8
0
100
AcDbLine
62
7
6
CONTINUOUS
10
301.8771299929
20
138.9775450039
11
302.5271299929
21
138.9775450039
0
LINE
5
41F
100
AcDbEntity
8
0
100
AcDbLine
62
7
6
CONTINUOUS
10
301.8771299929
20
139.1972717614
11
302.5271299929
21
139.1972717614
0
LINE
5
420
100
AcDbEntity
8
0
100
AcDbLine
62
7
6
CONTINUOUS
10
301.8771299929
20
139.6367259049
11
302.5271299929
21
139.6367259049
0
LINE
5
421
100
AcDbEntity
8
0
100
AcDbLine
62
7
6
CONTINUOUS
10
301.8771299929
20
140.0761794199
11
302.5271299929
21
140.0761794199
0
LINE
5
422
100
AcDbEntity
8
0
100
AcDbLine
62
7
6
CONTINUOUS
10
301.8771299929
20
140.6254972565
11
302.5271299929
21
140.6254972565
0
LINE
5
423
100
AcDbEntity
8
0
100
AcDbLine
62
7
6
CONTINUOUS
10
301.8771299929
20
141.6142686080
11
302.5271299929
21
141.6142686080
0
LINE
5
424
100
AcDbEntity
8
0
100
AcDbLine
62
7
6
CONTINUOUS
10
301.8771299929
20
142.1635858159
11
302.5271299929
21
142.1635858159
0
LINE
5
425
100
AcDbEntity
8
0
100
AcDbLine
62
7
6
CONTINUOUS
10
301.8771299929
20
142.6030399595
11
302.5271299929
21
142.6030399595
0
LINE
5
426
100
AcDbEntity
8
0
100
AcDbLine
62
7
6
CONTINUOUS
10
301.8771299929
20
143.0424934744
11
302.5271299929
21
143.0424934744
0
LINE
5
427
100
AcDbEntity
8
0
100
AcDbLine
62
7
6
CONTINUOUS
10
301.8771299929
20
143.1523571674
11
302.5271299929
21
143.1523571674
0
LINE
5
428
100
AcDbEntity
8
0
100
AcDbLine
62
7
6
CONTINUOUS
10
301.8771299929
20
144.0312648259
11
302.5271299929
21
144.0312648259
0
LINE
5
429
100
AcDbEntity
8
0
100
AcDbLine
62
7
6
CONTINUOUS
10
301.8771299929
20
144.1411285189
11
302.5271299929
21
144.1411285189
0
LINE
5
42A
100
AcDbEntity
8
0
100
AcDbLine
62
7
6
CONTINUOUS
10
301.8771299929
20
144.3608559050
11
302.5271299929
21
144.3608559050
0
LINE
5
42B
100
AcDbEntity
8
0
100
AcDbLine
62
7
6
CONTINUOUS
10
301.8771299929
20
144.8003094200
11
302.5271299929
21
144.8003094200
0
LINE
5
42C
100
AcDbEntity
8
0
100
AcDbLine
62
7
6
CONTINUOUS
10
301.8771299929
20
145.2397629349
11
302.5271299929
21
145.2397629349
0
LINE
5
42D
100
AcDbEntity
8
0
100
AcDbLine
62
7
6
CONTINUOUS
10
301.8771299929
20
145.7890807715
11
302.5271299929
21
145.7890807715
0
LINE
5
42E
100
AcDbEntity
8
0
100
AcDbLine
62
7
6
CONTINUOUS
10
288.2271299929
20
153.4552416398
11
288.2271299929
21
147.7332265658
0
LINE
5
42F
100
AcDbEntity
8
0
100
AcDbLine
62
7
6
CONTINUOUS
10
288.8771299929
20
203.7435396137
11
288.8771299929
21
107.8449285919
0
LINE
5
430
100
AcDbEntity
8
0
100
AcDbLine
62
7
6
CONTINUOUS
10
301.8771299929
20
146.7778521230
11
302.5271299929
21
146.7778521230
0
LINE
5
431
100
AcDbEntity
8
0
100
AcDbLine
62
7
6
CONTINUOUS
10
301.8771299929
20
147.3271699596
11
302.5271299929
21
147.3271699596
0
LINE
5
432
100
AcDbEntity
8
0
100
AcDbLine
62
7
6
CONTINUOUS
10
288.8771299929
20
147.7332265658
11
288.2271299929
21
147.7332265658
0
LINE
5
433
100
AcDbEntity
8
0
100
AcDbLine
62
7
6
CONTINUOUS
10
301.8771299929
20
147.7666234745
11
302.5271299929
21
147.7666234745
0
LINE
5
434
100
AcDbEntity
8
0
100
AcDbLine
62
7
6
CONTINUOUS
10
301.8771299929
20
148.2060769894
11
302.5271299929
21
148.2060769894
0
LINE
5
435
100
AcDbEntity
8
0
100
AcDbLine
62
7
6
CONTINUOUS
10
288.8771299929
20
148.2961430783
11
288.2271299929
21
148.2961430783
0
LINE
5
436
100
AcDbEntity
8
0
100
AcDbLine
62
7
6
CONTINUOUS
10
301.8771299929
20
148.3159413111
11
302.5271299929
21
148.3159413111
0
LINE
5
437
100
AcDbEntity
8
0
100
AcDbLine
62
7
6
CONTINUOUS
10
301.8771299929
20
148.6025680530
11
302.5271299929
21
148.6025680530
0
LINE
5
438
100
AcDbEntity
8
0
100
AcDbLine
62
7
6
CONTINUOUS
10
288.8771299929
20
150.2692341028
11
288.2271299929
21
150.2692341028
0
LINE
5
439
100
AcDbEntity
8
0
100
AcDbLine
62
7
6
CONTINUOUS
10
301.8771299929
20
150.5292341028
11
302.5271299929
21
150.5292341028
0
LINE
5
43A
100
AcDbEntity
8
0
100
AcDbLine
62
7
6
CONTINUOUS
10
288.8771299929
20
150.9192341028
11
288.2271299929
21
150.9192341028
0
LINE
5
43B
100
AcDbEntity
8
0
100
AcDbLine
62
7
6
CONTINUOUS
10
301.8771299929
20
151.1792341028
11
302.5271299929
21
151.1792341028
0
LINE
5
43C
100
AcDbEntity
8
DEFAULT_1
100
AcDbLine
62
2
6
CENTER
10
295.3771299929
20
101.7942341028
11
295.3771299929
21
209.7942341028
0
LINE
5
43D
100
AcDbEntity
8
0
100
AcDbLine
62
7
6
CONTINUOUS
10
288.8771299929
20
152.8923251274
11
288.2271299929
21
152.8923251274
0
LINE
5
43E
100
AcDbEntity
8
0
100
AcDbLine
62
7
6
CONTINUOUS
10
301.8771299929
20
153.1059001527
11
302.5271299929
21
153.1059001527
0
LINE
5
43F
100
AcDbEntity
8
0
100
AcDbLine
62
7
6
CONTINUOUS
10
288.8771299929
20
153.4552416398
11
288.2271299929
21
153.4552416398
0
LINE
5
440
100
AcDbEntity
8
0
100
AcDbLine
62
7
6
CONTINUOUS
10
301.8771299929
20
153.6688166651
11
302.5271299929
21
153.6688166651
0
LINE
5
441
100
AcDbEntity
8
0
100
AcDbLine
62
7
6
CONTINUOUS
10
301.8771299929
20
154.4292341028
11
302.5271299929
21
154.4292341028
0
LINE
5
442
100
AcDbEntity
8
0
100
AcDbLine
62
7
6
CONTINUOUS
10
301.8771299929
20
154.4682955490
11
302.5271299929
21
154.4682955490
0
LINE
5
443
100
AcDbEntity
8
0
100
AcDbLine
62
7
6
CONTINUOUS
10
301.8771299929
20
155.1274777073
11
302.5271299929
21
155.1274777073
0
LINE
5
444
100
AcDbEntity
8
0
100
AcDbLine
62
7
6
CONTINUOUS
10
301.8771299929
20
155.7866586083
11
302.5271299929
21
155.7866586083
0
LINE
5
445
100
AcDbEntity
8
0
100
AcDbLine
62
7
6
CONTINUOUS
10
301.8771299929
20
155.8675319587
11
302.5271299929
21
155.8675319587
0
LINE
5
446
100
AcDbEntity
8
0
100
AcDbLine
62
7
6
CONTINUOUS
10
301.8771299929
20
156.0888085281
11
302.5271299929
21
156.0888085281
0
LINE
5
447
100
AcDbEntity
8
0
100
AcDbLine
62
7
6
CONTINUOUS
10
301.8771299929
20
156.4207235371
11
302.5271299929
21
156.4207235371
0
LINE
5
448
100
AcDbEntity
8
0
100
AcDbLine
62
7
6
CONTINUOUS
10
301.8771299929
20
156.6420001064
11
302.5271299929
21
156.6420001064
0
LINE
5
449
100
AcDbEntity
8
0
100
AcDbLine
62
7
6
CONTINUOUS
10
301.8771299929
20
156.6655656381
11
302.5271299929
21
156.6655656381
0
LINE
5
44A
100
AcDbEntity
8
0
100
AcDbLine
62
7
6
CONTINUOUS
10
301.8771299929
20
156.7754299598
11
302.5271299929
21
156.7754299598
0
LINE
5
44B
100
AcDbEntity
8
0
100
AcDbLine
62
7
6
CONTINUOUS
10
301.8771299929
20
156.8852917669
11
302.5271299929
21
156.8852917669
0
LINE
5
44C
100
AcDbEntity
8
0
100
AcDbLine
62
7
6
CONTINUOUS
10
301.8771299929
20
157.3247465391
11
302.5271299929
21
157.3247465391
0
LINE
5
44D
100
AcDbEntity
8
0
100
AcDbLine
62
7
6
CONTINUOUS
10
301.8771299929
20
157.7642013113
11
302.5271299929
21
157.7642013113
0
LINE
5
44E
100
AcDbEntity
8
0
100
AcDbLine
62
7
6
CONTINUOUS
10
301.8771299929
20
158.5332440194
11
302.5271299929
21
158.5332440194
0
LINE
5
44F
100
AcDbEntity
8
0
100
AcDbLine
62
7
6
CONTINUOUS
10
301.8771299929
20
158.7529726628
11
302.5271299929
21
158.7529726628
0
LINE
5
450
100
AcDbEntity
8
0
100
AcDbLine
62
7
6
CONTINUOUS
10
301.8771299929
20
159.5220153709
11
302.5271299929
21
159.5220153709
0
LINE
5
451
100
AcDbEntity
8
0
100
AcDbLine
62
7
6
CONTINUOUS
10
301.8771299929
20
203.7435396137
11
301.8771299929
21
107.8449285919
0
LINE
5
452
100
AcDbEntity
8
0
100
AcDbLine
62
7
6
CONTINUOUS
10
302.5271299929
20
174.7930404158
11
302.5271299929
21
163.0588457783
0
LINE
5
453
100
AcDbEntity
8
0
100
AcDbLine
62
7
6
CONTINUOUS
10
302.5271299929
20
163.0376485193
11
302.5271299929
21
154.4292341028
0
LINE
5
454
100
AcDbEntity
8
0
100
AcDbLine
62
7
6
CONTINUOUS
10
302.5271299929
20
153.6688166651
11
302.5271299929
21
144.0312648259
0
LINE
5
455
100
AcDbEntity
8
0
100
AcDbLine
62
7
6
CONTINUOUS
10
302.5271299929
20
143.1523571674
11
302.5271299929
21
138.8676813109
0
LINE
5
456
100
AcDbEntity
8
0
100
AcDbLine
62
7
6
CONTINUOUS
10
302.5271299929
20
137.9887733381
11
302.5271299929
21
133.5942341028
0
LINE
5
457
100
AcDbEntity
8
0
100
AcDbLine
62
7
6
CONTINUOUS
10
301.8771299929
20
159.9614701431
11
302.5271299929
21
159.9614701431
0
LINE
5
458
100
AcDbEntity
8
0
100
AcDbLine
62
7
6
CONTINUOUS
10
301.8771299929
20
160.4009249153
11
302.5271299929
21
160.4009249153
0
LINE
5
459
100
AcDbEntity
8
0
100
AcDbLine
62
7
6
CONTINUOUS
10
301.8771299929
20
160.5107867224
11
302.5271299929
21
160.5107867224
0
LINE
5
45A
100
AcDbEntity
8
0
100
AcDbLine
62
7
6
CONTINUOUS
10
301.8771299929
20
160.6206510441
11
302.5271299929
21
160.6206510441
0
LINE
5
45B
100
AcDbEntity
8
0
100
AcDbLine
62
7
6
CONTINUOUS
10
301.8771299929
20
161.4995580739
11
302.5271299929
21
161.4995580739
0
LINE
5
45C
100
AcDbEntity
8
0
100
AcDbLine
62
7
6
CONTINUOUS
10
301.8771299929
20
163.0376485193
11
302.5271299929
21
163.0376485193
0
LINE
5
45D
100
AcDbEntity
8
0
100
AcDbLine
62
7
6
CONTINUOUS
10
301.8771299929
20
163.0588457783
11
302.5271299929
21
163.0588457783
0
LINE
5
45E
100
AcDbEntity
8
0
100
AcDbLine
62
7
6
CONTINUOUS
10
301.8771299929
20
163.2942872408
11
302.5271299929
21
163.2942872408
0
LINE
5
45F
100
AcDbEntity
8
0
100
AcDbLine
62
7
6
CONTINUOUS
10
301.8771299929
20
163.7651708394
11
302.5271299929
21
163.7651708394
0
LINE
5
460
100
AcDbEntity
8
0
100
AcDbLine
62
7
6
CONTINUOUS
10
301.8771299929
20
163.9165555492
11
302.5271299929
21
163.9165555492
0
LINE
5
461
100
AcDbEntity
8
0
100
AcDbLine
62
7
6
CONTINUOUS
10
301.8771299929
20
164.5757364502
11
302.5271299929
21
164.5757364502
0
LINE
5
462
100
AcDbEntity
8
0
100
AcDbLine
62
7
6
CONTINUOUS
10
301.8771299929
20
166.1138243810
11
302.5271299929
21
166.1138243810
0
LINE
5
463
100
AcDbEntity
8
0
100
AcDbLine
62
7
6
CONTINUOUS
10
301.8771299929
20
167.6519148264
11
302.5271299929
21
167.6519148264
0
LINE
5
464
100
AcDbEntity
8
0
100
AcDbLine
62
7
6
CONTINUOUS
10
301.8771299929
20
168.3110957274
11
302.5271299929
21
168.3110957274
0
LINE
5
465
100
AcDbEntity
8
0
100
AcDbLine
62
7
6
CONTINUOUS
10
301.8771299929
20
168.9448880662
11
302.5271299929
21
168.9448880662
0
LINE
5
466
100
AcDbEntity
8
0
100
AcDbLine
62
7
6
CONTINUOUS
10
301.8771299929
20
169.1900027572
11
302.5271299929
21
169.1900027572
0
LINE
5
467
100
AcDbEntity
8
0
100
AcDbLine
62
7
6
CONTINUOUS
10
301.8771299929
20
169.8491836582
11
302.5271299929
21
169.8491836582
0
LINE
5
468
100
AcDbEntity
8
0
100
AcDbLine
62
7
6
CONTINUOUS
10
301.8771299929
20
169.8866547582
11
302.5271299929
21
169.8866547582
0
LINE
5
469
100
AcDbEntity
8
0
100
AcDbLine
62
7
6
CONTINUOUS
10
301.8771299929
20
170.7280906880
11
302.5271299929
21
170.7280906880
0
LINE
5
46A
100
AcDbEntity
8
0
100
AcDbLine
62
7
6
CONTINUOUS
10
301.8771299929
20
173.3648142921
11
302.5271299929
21
173.3648142921
0
LINE
5
46B
100
AcDbEntity
8
0
100
AcDbLine
62
7
6
CONTINUOUS
10
301.8771299929
20
173.9141333860
11
302.5271299929
21
173.9141333860
0
LINE
5
46C
100
AcDbEntity
8
0
100
AcDbLine
62
7
6
CONTINUOUS
10
301.8771299929
20
174.3535856436
11
302.5271299929
21
174.3535856436
0
LINE
5
46D
100
AcDbEntity
8
0
100
AcDbLine
62
7
6
CONTINUOUS
10
301.8771299929
20
174.6831760941
11
302.5271299929
21
174.6831760941
0
LINE
5
46E
100
AcDbEntity
8
0
100
AcDbLine
62
7
6
CONTINUOUS
10
301.8771299929
20
174.7930404158
11
302.5271299929
21
174.7930404158
0
LINE
5
46F
100
AcDbEntity
8
DEFAULT_2
100
AcDbLine
62
8
6
HIDDEN
10
291.4771299929
20
190.7942341028
11
299.2771299929
21
190.7942341028
0
ARC
5
470
100
AcDbEntity
8
0
100
AcDbCircle
62
7
6
CONTINUOUS
10
151.5409557601
20
143.2942341028
40
38.5000000000
100
AcDbArc
50
180.0000000000
51
360.0000000000
0
ARC
5
471
100
AcDbEntity
8
0
100
AcDbCircle
62
7
6
CONTINUOUS
10
151.5409557601
20
168.2942341028
40
38.5000000000
100
AcDbArc
50
0.0000000000
51
180.0000000000
0
ARC
5
472
100
AcDbEntity
8
0
100
AcDbCircle
62
7
6
CONTINUOUS
10
170.0536541048
20
170.0942341028
40
3.9000000000
100
AcDbArc
50
270.0000000000
51
5.5534441957
0
ARC
5
473
100
AcDbEntity
8
0
100
AcDbCircle
62
7
6
CONTINUOUS
10
151.5409557601
20
168.2942341028
40
22.5000000000
100
AcDbArc
50
5.5534441957
51
174.4465558043
0
ARC
5
474
100
AcDbEntity
8
0
100
AcDbCircle
62
7
6
CONTINUOUS
10
133.0282574155
20
170.0942341028
40
3.9000000000
100
AcDbArc
50
174.4465558043
51
270.0000000000
0
ARC
5
475
100
AcDbEntity
8
0
100
AcDbCircle
62
7
6
CONTINUOUS
10
133.0282574155
20
141.4942341028
40
3.9000000000
100
AcDbArc
50
90.0000000000
51
185.5534441957
0
ARC
5
476
100
AcDbEntity
8
0
100
AcDbCircle
62
7
6
CONTINUOUS
10
151.5409557601
20
143.2942341028
40
22.5000000000
100
AcDbArc
50
185.5534441957
51
354.4465558043
0
ARC
5
477
100
AcDbEntity
8
0
100
AcDbCircle
62
7
6
CONTINUOUS
10
170.0536541048
20
141.4942341028
40
3.9000000000
100
AcDbArc
50
354.4465558043
51
90.0000000000
0
ARC
5
478
100
AcDbEntity
8
0
100
AcDbCircle
62
7
6
CONTINUOUS
10
151.5409557601
20
143.2942341028
40
35.4493055109
100
AcDbArc
50
180.0000000000
51
360.0000000000
0
ARC
5
479
100
AcDbEntity
8
0
100
AcDbCircle
62
7
6
CONTINUOUS
10
151.5409557601
20
168.2942341028
40
35.4493055109
100
AcDbArc
50
0.0000000000
51
180.0000000000
0
ARC
5
47A
100
AcDbEntity
8
DEFAULT_2
100
AcDbCircle
62
8
6
HIDDEN
10
291.4771299929
20
118.1942341028
40
2.6000000000
100
AcDbArc
50
90.0000000000
51
179.9999974851
0
ARC
5
47B
100
AcDbEntity
8
DEFAULT_2
100
AcDbCircle
62
8
6
HIDDEN
10
291.4771299929
20
193.3942341028
40
2.6000000000
100
AcDbArc
50
180.0000025149
51
270.0000000000
0
ARC
5
47C
100
AcDbEntity
8
DEFAULT_2
100
AcDbCircle
62
8
6
HIDDEN
10
299.2771299929
20
118.1942341028
40
2.6000000000
100
AcDbArc
50
0.0000025149
51
90.0000000000
0
ARC
5
47D
100
AcDbEntity
8
DEFAULT_2
100
AcDbCircle
62
8
6
HIDDEN
10
299.2771299929
20
193.3942341028
40
2.6000000000
100
AcDbArc
50
270.0000000000
51
359.9999974851
0
ARC
5
47E
100
AcDbEntity
8
0
100
AcDbCircle
62
7
6
CONTINUOUS
10
295.3771299929
20
113.2442341028
40
8.4500000000
100
AcDbArc
50
219.7151372318
51
320.2848627682
0
ARC
5
47F
100
AcDbEntity
8
0
100
AcDbCircle
62
7
6
CONTINUOUS
10
295.3771299929
20
198.3442341028
40
8.4500000000
100
AcDbArc
50
39.7151372318
51
140.2848627682
0
ENDSEC
0
SECTION
2
OBJECTS
0
DICTIONARY
5
480
100
AcDbDictionary
3
ACAD_GROUP
350
481
3
ACAD_MLINESTYLE
350
482
0
DICTIONARY
5
481
102
{ACAD_REACTORS
330
480
102
}
100
AcDbDictionary
0
DICTIONARY
5
482
102
{ACAD_REACTORS
330
480
102
}
100
AcDbDictionary
3
STANDARD
350
483
0
MLINESTYLE
5
483
102
{ACAD_REACTORS
330
482
102
}
100
AcDbMlineStyle
2
STANDARD
70
0
3

62
256
51
90.0
52
90.0
71
2
49
0.5
62
256
6
BYLAYER
49
-0.5
62
256
6
BYLAYER
0
ENDSEC
0
EOF
