999
DXF file: C:\Aktuell-Internet\CAD-Daten\2vcg10.dxf
999
Pro/ENGINEER 2001400 by Parametric Technology Corporation
0
SECTION
2
HEADER
9
$ACADVER
1
AC1014
9
$EXTMAX
10
420.0000000000
20
297.0000000000
9
$EXTMIN
10
0.0000000000
20
0.0000000000
9
$LIMMIN
10
0.0000000000
20
0.0000000000
9
$LIMMAX
10
420.0000000000
20
297.0000000000
9
$VIEWCTR
10
210.0000000000
20
148.5000000000
9
$VIEWSIZE
40
297.0000000000
9
$CLAYER
8
0
9
$LTSCALE
40
23.1000000000
9
$CELTYPE
6
BYLAYER
9
$DIMSCALE
40
1
9
$DIMASZ
40
3.5000000000
9
$DIMEXO
40
2.6250000000
9
$DIMDLI
40
15.9600000000
9
$DIMEXE
40
7.5600000000
9
$DIMCEN
40
3.7800000000
9
$DIMLFAC
40
1.0000000000
9
$DIMTXT
40
3.5000000000
9
$DIMTOL
70
1
9
$DIMTFAC
40
0.6000000000
9
$DIMTP
40
0.0050000000
9
$DIMTM
40
0.0050000000
9
$HANDSEED
5
45A
0
ENDSEC
0
SECTION
2
CLASSES
0
ENDSEC
0
SECTION
2
TABLES
0
TABLE
2
VPORT
5
8
100
AcDbSymbolTable
70
2
0
VPORT
5
1F4
100
AcDbSymbolTableRecord
100
AcDbViewportTableRecord
2
*ACTIVE
70
0
10
0.0
20
0.0
11
1.0
21
1.0
12
210.0000000000
22
148.5000000000
13
0.0
23
0.0
14
1.0
24
1.0
15
0.0
25
0.0
16
0.0
26
0.0
36
1.0
17
0.0
27
0.0
37
0.0
40
297.0000000000
41
1.4141414141
42
50.0
43
0.0
44
0.0
50
0.0
51
0.0
71
0
72
100
73
1
74
1
75
0
76
0
77
0
78
0
0
ENDTAB
0
TABLE
2
LTYPE
5
5
100
AcDbSymbolTable
70
6
0
LTYPE
5
14
100
AcDbSymbolTableRecord
100
AcDbLinetypeTableRecord
2
BYBLOCK
70
0
3

72
65
73
0
40
0.0
0
LTYPE
5
15
100
AcDbSymbolTableRecord
100
AcDbLinetypeTableRecord
2
BYLAYER
70
0
3

72
65
73
0
40
0.0
0
LTYPE
5
16
100
AcDbSymbolTableRecord
100
AcDbLinetypeTableRecord
2
CONTINUOUS
70
64
3
Solid line
72
65
73
0
40
0
0
LTYPE
5
1F5
100
AcDbSymbolTableRecord
100
AcDbLinetypeTableRecord
2
CENTER
70
64
3
____ _ ____ _ ____ _ ____ _ ____ _ ____ _ ____
72
65
73
4
40
0.6
49
0.375
74
0
49
-0.075
74
0
49
0.075
74
0
49
-0.075
74
0
0
LTYPE
5
1F6
100
AcDbSymbolTableRecord
100
AcDbLinetypeTableRecord
2
HIDDEN
70
64
3
- - - - - - - - - - - - - - - - - - - -
72
65
73
2
40
0.2
49
0.1
74
0
49
-0.1
74
0
0
LTYPE
5
1F7
100
AcDbSymbolTableRecord
100
AcDbLinetypeTableRecord
2
PHANTOM
70
64
3
_____ _ _ _____ _ _ _____ _ _ _____
72
65
73
6
40
0.8
49
0.45
74
0
49
-0.05
74
0
49
0.1
74
0
49
-0.05
74
0
49
0.1
74
0
49
-0.05
74
0
0
LTYPE
5
1F8
100
AcDbSymbolTableRecord
100
AcDbLinetypeTableRecord
2
DOT
70
64
3
. . . . . . . . . . . . . . . . . . . .
72
65
73
2
40
0.2
49
0.1
74
0
49
-0.1
74
0
0
LTYPE
5
1F9
100
AcDbSymbolTableRecord
100
AcDbLinetypeTableRecord
2
DASHED
70
64
3
- - - - - - - - - - - - - - - - - - - -
72
65
73
2
40
0.2
49
0.1
74
0
49
-0.1
74
0
0
ENDTAB
0
TABLE
2
LAYER
5
2
100
AcDbSymbolTable
70
36
0
LAYER
5
10
100
AcDbSymbolTableRecord
100
AcDbLayerTableRecord
2
0
70
0
62
7
6
CONTINUOUS
0
LAYER
5
1FA
100
AcDbSymbolTableRecord
100
AcDbLayerTableRecord
2
DEFAULT_1
70
0
62
7
6
CENTER
0
LAYER
5
1FB
100
AcDbSymbolTableRecord
100
AcDbLayerTableRecord
2
DEFAULT_2
70
0
62
8
6
HIDDEN
0
LAYER
5
1FC
100
AcDbSymbolTableRecord
100
AcDbLayerTableRecord
2
DEFAULT_3
70
0
62
7
6
PHANTOM
0
ENDTAB
0
TABLE
2
STYLE
5
3
100
AcDbSymbolTable
70
1
0
STYLE
5
11
100
AcDbSymbolTableRecord
100
AcDbTextStyleTableRecord
2
STANDARD
70
0
40
0.0
41
1.0
50
0.0
71
0
42
0.0
3
txt
4

0
ENDTAB
0
TABLE
2
VIEW
5
6
100
AcDbSymbolTable
70
0
0
ENDTAB
0
TABLE
2
UCS
5
7
100
AcDbSymbolTable
70
0
0
ENDTAB
0
TABLE
2
APPID
5
9
100
AcDbSymbolTable
70
1
0
APPID
5
1FD
100
AcDbSymbolTableRecord
100
AcDbRegAppTableRecord
2
ACAD
70
0
0
ENDTAB
0
TABLE
2
DIMSTYLE
5
A
100
AcDbSymbolTable
70
1
0
DIMSTYLE
105
1FE
100
AcDbSymbolTableRecord
100
AcDbDimStyleTableRecord
2
STANDARD
70
0
3

4

5

6

7

40
1.0
41
0.18
42
0.0625
43
0.38
44
0.18
45
0.0
46
0.0
47
0.0050000000
48
0.0050000000
140
3.5000000000
141
0.09
142
0.0
143
25.4
144
1.0000000000
145
0.0
146
0.6000000000
147
0.09
71
1
72
0
73
1
74
1
75
0
76
0
77
0
78
0
170
0
171
2
172
0
173
0
174
0
175
0
176
0
177
0
178
0
270
2
271
3
272
4
273
2
274
2
340
11
275
0
280
0
281
0
282
0
283
1
284
0
285
0
286
0
287
3
288
0
0
ENDTAB
0
TABLE
2
BLOCK_RECORD
5
1
100
AcDbSymbolTable
70
0
0
BLOCK_RECORD
5
1B
100
AcDbSymbolTableRecord
100
AcDbBlockTableRecord
2
*MODEL_SPACE
0
BLOCK_RECORD
5
1C
100
AcDbSymbolTableRecord
100
AcDbBlockTableRecord
2
*PAPER_SPACE
0
ENDTAB
0
ENDSEC
0
SECTION
2
BLOCKS
0
BLOCK
5
1E
100
AcDbEntity
8
0
100
AcDbBlockBegin
2
*MODEL_SPACE
70
0
10
0.0
20
0.0
30
0.0
3
*MODEL_SPACE
1

0
ENDBLK
5
1F
100
AcDbEntity
8
0
100
AcDbBlockEnd
0
BLOCK
5
20
100
AcDbEntity
8
0
100
AcDbBlockBegin
2
*PAPER_SPACE
70
0
10
0.0
20
0.0
30
0.0
3
*PAPER_SPACE
1

0
ENDBLK
5
21
100
AcDbEntity
8
0
100
AcDbBlockEnd
0
ENDSEC
0
SECTION
2
ENTITIES
0
LINE
5
1FF
100
AcDbEntity
8
0
100
AcDbLine
62
7
6
CONTINUOUS
10
0.0000000000
20
0.0000000000
11
0.0000000000
21
297.0000000000
0
LINE
5
200
100
AcDbEntity
8
0
100
AcDbLine
62
7
6
CONTINUOUS
10
0.0000000000
20
0.0000000000
11
420.0000000000
21
0.0000000000
0
LINE
5
201
100
AcDbEntity
8
0
100
AcDbLine
62
7
6
CONTINUOUS
10
0.0000000000
20
297.0000000000
11
420.0000000000
21
297.0000000000
0
LINE
5
202
100
AcDbEntity
8
0
100
AcDbLine
62
7
6
CONTINUOUS
10
420.0000000000
20
0.0000000000
11
420.0000000000
21
297.0000000000
0
LINE
5
203
100
AcDbEntity
8
0
100
AcDbLine
62
7
6
CONTINUOUS
10
119.5409557601
20
165.7942341028
11
119.5409557601
21
145.7942341028
0
LINE
5
204
100
AcDbEntity
8
0
100
AcDbLine
62
7
6
CONTINUOUS
10
123.3686153194
20
171.8095412437
11
123.2409557601
21
171.3869880946
0
LINE
5
205
100
AcDbEntity
8
0
100
AcDbLine
62
7
6
CONTINUOUS
10
123.8792535564
20
171.4714991112
11
124.0069131156
21
171.7250302270
0
LINE
5
206
100
AcDbEntity
8
0
100
AcDbLine
62
7
6
CONTINUOUS
10
121.8876438287
20
165.7942341028
11
121.8876438287
21
145.7942341028
0
LINE
5
207
100
AcDbEntity
8
0
100
AcDbLine
62
7
6
CONTINUOUS
10
123.2409557601
20
171.3869880946
11
123.2409557601
21
169.3587391684
0
LINE
5
208
100
AcDbEntity
8
0
100
AcDbLine
62
7
6
CONTINUOUS
10
123.2409557601
20
168.6826568377
11
123.2409557601
21
168.1755946062
0
LINE
5
209
100
AcDbEntity
8
0
100
AcDbLine
62
7
6
CONTINUOUS
10
123.2409557601
20
167.4995122756
11
123.2409557601
21
166.9924500440
0
LINE
5
20A
100
AcDbEntity
8
0
100
AcDbLine
62
7
6
CONTINUOUS
10
123.2409557601
20
164.6261589854
11
123.2409557601
21
164.1190967539
0
LINE
5
20B
100
AcDbEntity
8
0
100
AcDbLine
62
7
6
CONTINUOUS
10
123.2409557601
20
157.8653298762
11
123.2409557601
21
157.3582676447
0
LINE
5
20C
100
AcDbEntity
8
0
100
AcDbLine
62
7
6
CONTINUOUS
10
123.2409557601
20
150.9354787337
11
123.2409557601
21
150.1748853864
0
LINE
5
20D
100
AcDbEntity
8
0
100
AcDbLine
62
7
6
CONTINUOUS
10
123.2409557601
20
146.9634914145
11
123.2409557601
21
146.2028980672
0
LINE
5
20E
100
AcDbEntity
8
0
100
AcDbLine
62
7
6
CONTINUOUS
10
123.2409557601
20
144.1746488992
11
123.2409557601
21
143.6675866677
0
LINE
5
20F
100
AcDbEntity
8
0
100
AcDbLine
62
7
6
CONTINUOUS
10
123.2409557601
20
141.3012963344
11
123.2409557601
21
140.7942341028
0
LINE
5
210
100
AcDbEntity
8
0
100
AcDbLine
62
7
6
CONTINUOUS
10
123.3686153194
20
160.5696611330
11
123.2409557601
21
160.0625989015
0
LINE
5
211
100
AcDbEntity
8
0
100
AcDbLine
62
7
6
CONTINUOUS
10
123.8792535564
20
160.0625989015
11
124.0069131156
21
160.4851501164
0
LINE
5
212
100
AcDbEntity
8
0
100
AcDbLine
62
7
6
CONTINUOUS
10
123.7515939971
20
172.1475814419
11
123.3686153194
21
171.8095412437
0
LINE
5
213
100
AcDbEntity
8
0
100
AcDbLine
62
7
6
CONTINUOUS
10
124.0069131156
20
171.7250302270
11
124.2622322341
21
171.8940503261
0
LINE
5
214
100
AcDbEntity
8
0
100
AcDbLine
62
7
6
CONTINUOUS
10
123.3686153194
20
145.7803458852
11
123.6239344379
21
145.4423047198
0
LINE
5
215
100
AcDbEntity
8
0
100
AcDbLine
62
7
6
CONTINUOUS
10
124.1345726749
20
145.8648564183
11
124.0069131156
21
146.2028980672
0
LINE
5
216
100
AcDbEntity
8
0
100
AcDbLine
62
7
6
CONTINUOUS
10
124.1345726749
20
149.8368442211
11
124.0069131156
21
150.1748853864
0
LINE
5
217
100
AcDbEntity
8
0
100
AcDbLine
62
7
6
CONTINUOUS
10
123.2409557601
20
146.2028980672
11
123.3686153194
21
145.7803458852
0
LINE
5
218
100
AcDbEntity
8
0
100
AcDbLine
62
7
6
CONTINUOUS
10
123.2409557601
20
150.1748853864
11
123.3686153194
21
149.7523332044
0
LINE
5
219
100
AcDbEntity
8
0
100
AcDbLine
62
7
6
CONTINUOUS
10
123.8792535564
20
169.8658013999
11
123.8792535564
21
171.4714991112
0
LINE
5
21A
100
AcDbEntity
8
0
100
AcDbLine
62
7
6
CONTINUOUS
10
124.0069131156
20
146.2028980672
11
124.0069131156
21
146.9634914145
0
LINE
5
21B
100
AcDbEntity
8
0
100
AcDbLine
62
7
6
CONTINUOUS
10
124.0069131156
20
150.1748853864
11
124.0069131156
21
150.9354787337
0
LINE
5
21C
100
AcDbEntity
8
0
100
AcDbLine
62
7
6
CONTINUOUS
10
124.7728708287
20
147.6395742287
11
124.7728708287
21
148.1466364602
0
LINE
5
21D
100
AcDbEntity
8
0
100
AcDbLine
62
7
6
CONTINUOUS
10
124.7728708287
20
151.6115620315
11
124.7728708287
21
152.1186242630
0
LINE
5
21E
100
AcDbEntity
8
0
100
AcDbLine
62
7
6
CONTINUOUS
10
125.7941473027
20
171.4714991112
11
125.7941473027
21
169.8658013999
0
LINE
5
21F
100
AcDbEntity
8
0
100
AcDbLine
62
7
6
CONTINUOUS
10
125.9218068620
20
152.1186242630
11
125.9218068620
21
150.8509686842
0
LINE
5
220
100
AcDbEntity
8
0
100
AcDbLine
62
7
6
CONTINUOUS
10
126.4324450990
20
163.4430144232
11
126.4324450990
21
162.2598679268
0
LINE
5
221
100
AcDbEntity
8
0
100
AcDbLine
62
7
6
CONTINUOUS
10
126.5601046582
20
169.8658013999
11
126.5601046582
21
171.3869880946
0
LINE
5
222
100
AcDbEntity
8
0
100
AcDbLine
62
7
6
CONTINUOUS
10
126.6877642175
20
150.8509686842
11
126.6877642175
21
151.6115620315
0
LINE
5
223
100
AcDbEntity
8
0
100
AcDbLine
62
7
6
CONTINUOUS
10
127.0707430741
20
162.2598679268
11
127.0707430741
21
163.4430144232
0
LINE
5
224
100
AcDbEntity
8
0
100
AcDbLine
62
7
6
CONTINUOUS
10
123.3686153194
20
151.3580309157
11
123.2409557601
21
150.9354787337
0
LINE
5
225
100
AcDbEntity
8
0
100
AcDbLine
62
7
6
CONTINUOUS
10
123.3686153194
20
147.3860431129
11
123.2409557601
21
146.9634914145
0
LINE
5
226
100
AcDbEntity
8
0
100
AcDbLine
62
7
6
CONTINUOUS
10
124.2622322341
20
172.4011125576
11
123.7515939971
21
172.1475814419
0
LINE
5
227
100
AcDbEntity
8
0
100
AcDbLine
62
7
6
CONTINUOUS
10
124.3898917934
20
145.6113253025
11
124.1345726749
21
145.8648564183
0
LINE
5
228
100
AcDbEntity
8
0
100
AcDbLine
62
7
6
CONTINUOUS
10
123.3686153194
20
149.7523332044
11
123.6239344379
21
149.4142920391
0
LINE
5
229
100
AcDbEntity
8
0
100
AcDbLine
62
7
6
CONTINUOUS
10
128.3473387560
20
147.3015325798
11
128.4749983152
21
146.9634914145
0
LINE
5
22A
100
AcDbEntity
8
0
100
AcDbLine
62
7
6
CONTINUOUS
10
124.0069131156
20
159.6400476866
11
123.8792535564
21
160.0625989015
0
LINE
5
22B
100
AcDbEntity
8
0
100
AcDbLine
62
7
6
CONTINUOUS
10
123.2409557601
20
160.0625989015
11
123.3686153194
21
159.5555366700
0
LINE
5
22C
100
AcDbEntity
8
0
100
AcDbLine
62
7
6
CONTINUOUS
10
127.7090408703
20
148.1466364602
11
127.7090408703
21
147.6395742287
0
LINE
5
22D
100
AcDbEntity
8
0
100
AcDbLine
62
7
6
CONTINUOUS
10
128.4749983152
20
150.9354787337
11
128.4749983152
21
150.1748853864
0
LINE
5
22E
100
AcDbEntity
8
0
100
AcDbLine
62
7
6
CONTINUOUS
10
128.4749983152
20
146.9634914145
11
128.4749983152
21
146.2028980672
0
LINE
5
22F
100
AcDbEntity
8
0
100
AcDbLine
62
7
6
CONTINUOUS
10
129.2409557601
20
142.1464000939
11
129.2409557601
21
142.8224830290
0
LINE
5
230
100
AcDbEntity
8
0
100
AcDbLine
62
7
6
CONTINUOUS
10
129.2409557601
20
146.2028980672
11
129.2409557601
21
146.9634914145
0
LINE
5
231
100
AcDbEntity
8
0
100
AcDbLine
62
7
6
CONTINUOUS
10
129.2409557601
20
150.1748853864
11
129.2409557601
21
150.9354787337
0
LINE
5
232
100
AcDbEntity
8
0
100
AcDbLine
62
7
6
CONTINUOUS
10
129.2409557601
20
157.3582676447
11
129.2409557601
21
157.8653298762
0
LINE
5
233
100
AcDbEntity
8
0
100
AcDbLine
62
7
6
CONTINUOUS
10
129.2409557601
20
165.4712633494
11
129.2409557601
21
166.1473456800
0
LINE
5
234
100
AcDbEntity
8
0
100
AcDbLine
62
7
6
CONTINUOUS
10
129.2409557601
20
168.1755946062
11
129.2409557601
21
168.6826568377
0
LINE
5
235
100
AcDbEntity
8
0
100
AcDbLine
62
7
6
CONTINUOUS
10
129.2409557601
20
169.3587391684
11
129.2409557601
21
169.8658013999
0
LINE
5
236
100
AcDbEntity
8
0
100
AcDbLine
62
7
6
CONTINUOUS
10
129.1132961897
20
159.5555366700
11
129.2409557601
21
160.0625989015
0
LINE
5
237
100
AcDbEntity
8
0
100
AcDbLine
62
7
6
CONTINUOUS
10
128.6026578745
20
160.0625989015
11
128.4749983152
21
159.6400476866
0
LINE
5
238
100
AcDbEntity
8
0
100
AcDbLine
62
7
6
CONTINUOUS
10
124.0069131156
20
150.9354787337
11
124.1345726749
21
151.2735198990
0
LINE
5
239
100
AcDbEntity
8
0
100
AcDbLine
62
7
6
CONTINUOUS
10
124.0069131156
20
146.9634914145
11
124.1345726749
21
147.3015325798
0
LINE
5
23A
100
AcDbEntity
8
0
100
AcDbLine
62
7
6
CONTINUOUS
10
123.7515939971
20
160.9922123479
11
123.3686153194
21
160.5696611330
0
LINE
5
23B
100
AcDbEntity
8
0
100
AcDbLine
62
7
6
CONTINUOUS
10
124.0069131156
20
160.4851501164
11
124.2622322341
21
160.7386812321
0
LINE
5
23C
100
AcDbEntity
8
0
100
AcDbLine
62
7
6
CONTINUOUS
10
123.6239344379
20
145.4423047198
11
124.1345726749
21
145.1042630710
0
LINE
5
23D
100
AcDbEntity
8
0
100
AcDbLine
62
7
6
CONTINUOUS
10
123.6239344379
20
149.4142920391
11
124.1345726749
21
149.0762508738
0
LINE
5
23E
100
AcDbEntity
8
0
100
AcDbLine
62
7
6
CONTINUOUS
10
124.3898917934
20
149.5833131053
11
124.1345726749
21
149.8368442211
0
LINE
5
23F
100
AcDbEntity
8
0
100
AcDbLine
62
7
6
CONTINUOUS
10
128.0920195481
20
147.5550636956
11
128.3473387560
21
147.3015325798
0
LINE
5
240
100
AcDbEntity
8
0
100
AcDbLine
62
7
6
CONTINUOUS
10
129.1132961897
20
147.3860431129
11
128.8579770377
21
147.7240847618
0
LINE
5
241
100
AcDbEntity
8
0
100
AcDbLine
62
7
6
CONTINUOUS
10
128.3473387560
20
151.2735198990
11
128.4749983152
21
150.9354787337
0
LINE
5
242
100
AcDbEntity
8
0
100
AcDbLine
62
7
6
CONTINUOUS
10
129.2409557601
20
146.9634914145
11
129.1132961897
21
147.3860431129
0
LINE
5
243
100
AcDbEntity
8
0
100
AcDbLine
62
7
6
CONTINUOUS
10
129.2409557601
20
150.9354787337
11
129.1132961897
21
151.3580309157
0
LINE
5
244
100
AcDbEntity
8
0
100
AcDbLine
62
7
6
CONTINUOUS
10
128.4749983152
20
160.4851501164
11
128.6026578745
21
160.0625989015
0
LINE
5
245
100
AcDbEntity
8
0
100
AcDbLine
62
7
6
CONTINUOUS
10
132.2588066143
20
152.2442341028
11
132.2588066143
21
151.7442341028
0
LINE
5
246
100
AcDbEntity
8
0
100
AcDbLine
62
7
6
CONTINUOUS
10
133.1828016403
20
157.8080640017
11
133.1828016403
21
157.4676382719
0
LINE
5
247
100
AcDbEntity
8
0
100
AcDbLine
62
7
6
CONTINUOUS
10
133.5620904279
20
157.5527446447
11
133.5620904279
21
157.7229573904
0
LINE
5
248
100
AcDbEntity
8
0
100
AcDbLine
62
7
6
CONTINUOUS
10
133.2460164458
20
158.1484894930
11
133.1828016403
21
157.8080640017
0
LINE
5
249
100
AcDbEntity
8
0
100
AcDbLine
62
7
6
CONTINUOUS
10
133.5620904279
20
157.7229573904
11
133.6253052107
21
157.9782767473
0
LINE
5
24A
100
AcDbEntity
8
0
100
AcDbLine
62
7
6
CONTINUOUS
10
129.1132961897
20
149.7523332044
11
129.2409557601
21
150.1748853864
0
LINE
5
24B
100
AcDbEntity
8
0
100
AcDbLine
62
7
6
CONTINUOUS
10
129.1132961897
20
145.7803458852
11
129.2409557601
21
146.2028980672
0
LINE
5
24C
100
AcDbEntity
8
0
100
AcDbLine
62
7
6
CONTINUOUS
10
128.4749983152
20
150.1748853864
11
128.3473387560
21
149.8368442211
0
LINE
5
24D
100
AcDbEntity
8
0
100
AcDbLine
62
7
6
CONTINUOUS
10
128.4749983152
20
146.2028980672
11
128.3473387560
21
145.8648564183
0
LINE
5
24E
100
AcDbEntity
8
0
100
AcDbLine
62
7
6
CONTINUOUS
10
123.6239344379
20
151.6960720810
11
123.3686153194
21
151.3580309157
0
LINE
5
24F
100
AcDbEntity
8
0
100
AcDbLine
62
7
6
CONTINUOUS
10
123.6239344379
20
147.7240847618
11
123.3686153194
21
147.3860431129
0
LINE
5
250
100
AcDbEntity
8
0
100
AcDbLine
62
7
6
CONTINUOUS
10
128.7303174784
20
159.1329854551
11
129.1132961897
21
159.5555366700
0
LINE
5
251
100
AcDbEntity
8
0
100
AcDbLine
62
7
6
CONTINUOUS
10
128.4749983152
20
159.6400476866
11
128.2196791967
21
159.3865165709
0
LINE
5
252
100
AcDbEntity
8
0
100
AcDbLine
62
7
6
CONTINUOUS
10
124.1345726749
20
161.2457434637
11
123.7515939971
21
160.9922123479
0
LINE
5
253
100
AcDbEntity
8
0
100
AcDbLine
62
7
6
CONTINUOUS
10
129.2409557601
20
142.8224830290
11
123.2409557601
21
144.1746488992
0
LINE
5
254
100
AcDbEntity
8
0
100
AcDbLine
62
7
6
CONTINUOUS
10
123.2409557601
20
143.6675866677
11
128.4749983152
21
142.4844415010
0
LINE
5
255
100
AcDbEntity
8
0
100
AcDbLine
62
7
6
CONTINUOUS
10
124.1345726749
20
145.1042630710
11
124.6452109119
21
144.9352424883
0
LINE
5
256
100
AcDbEntity
8
0
100
AcDbLine
62
7
6
CONTINUOUS
10
124.7728708287
20
145.4423047198
11
124.3898917934
21
145.6113253025
0
LINE
5
257
100
AcDbEntity
8
0
100
AcDbLine
62
7
6
CONTINUOUS
10
128.8579770377
20
147.7240847618
11
128.3473387560
21
148.0621259271
0
LINE
5
258
100
AcDbEntity
8
0
100
AcDbLine
62
7
6
CONTINUOUS
10
128.0920195481
20
151.5270510148
11
128.3473387560
21
151.2735198990
0
LINE
5
259
100
AcDbEntity
8
0
100
AcDbLine
62
7
6
CONTINUOUS
10
123.3686153194
20
159.5555366700
11
123.7515939971
21
159.1329854551
0
LINE
5
25A
100
AcDbEntity
8
0
100
AcDbLine
62
7
6
CONTINUOUS
10
129.1132961897
20
151.3580309157
11
128.8579770377
21
151.6960720810
0
LINE
5
25B
100
AcDbEntity
8
0
100
AcDbLine
62
7
6
CONTINUOUS
10
126.5601046582
20
171.3869880946
11
126.4324450990
21
171.8095412437
0
LINE
5
25C
100
AcDbEntity
8
0
100
AcDbLine
62
7
6
CONTINUOUS
10
129.2409557601
20
160.0625989015
11
129.1132961897
21
160.5696611330
0
LINE
5
25D
100
AcDbEntity
8
0
100
AcDbLine
62
7
6
CONTINUOUS
10
133.4356608169
20
155.5952979504
11
133.3724460341
21
155.8506170689
0
LINE
5
25E
100
AcDbEntity
8
0
100
AcDbLine
62
7
6
CONTINUOUS
10
132.9931572466
20
155.8506170689
11
133.0563720464
21
155.5101915775
0
LINE
5
25F
100
AcDbEntity
8
0
100
AcDbLine
62
7
6
CONTINUOUS
10
133.1828016403
20
157.4676382719
11
133.2460164458
21
157.1272127806
0
LINE
5
260
100
AcDbEntity
8
0
100
AcDbLine
62
7
6
CONTINUOUS
10
134.9528159218
20
156.0208298145
11
134.9528159218
21
155.7655106960
0
LINE
5
261
100
AcDbEntity
8
0
100
AcDbLine
62
7
6
CONTINUOUS
10
135.3321047093
20
155.6804043232
11
135.3321047093
21
156.1059361874
0
LINE
5
262
100
AcDbEntity
8
0
100
AcDbLine
62
7
6
CONTINUOUS
10
135.8378231529
20
157.3825318991
11
135.8378231529
21
156.1059361874
0
LINE
5
263
100
AcDbEntity
8
0
100
AcDbLine
62
7
6
CONTINUOUS
10
136.2171119405
20
156.1059361874
11
136.2171119405
21
157.3825318991
0
LINE
5
264
100
AcDbEntity
8
0
100
AcDbLine
62
7
6
CONTINUOUS
10
135.9010378906
20
157.8080640017
11
135.8378231529
21
157.3825318991
0
LINE
5
265
100
AcDbEntity
8
0
100
AcDbLine
62
7
6
CONTINUOUS
10
136.2171119405
20
157.3825318991
11
136.2803268589
21
157.7229573904
0
LINE
5
266
100
AcDbEntity
8
0
100
AcDbLine
62
7
6
CONTINUOUS
10
136.0274675467
20
158.1484894930
11
135.9010378906
21
157.8080640017
0
LINE
5
267
100
AcDbEntity
8
0
100
AcDbLine
62
7
6
CONTINUOUS
10
135.2056752340
20
155.3399787723
11
135.3321047093
21
155.6804043232
0
LINE
5
268
100
AcDbEntity
8
0
100
AcDbLine
62
7
6
CONTINUOUS
10
134.9528159218
20
155.7655106960
11
134.8263864465
21
155.5101915775
0
LINE
5
269
100
AcDbEntity
8
0
100
AcDbLine
62
7
6
CONTINUOUS
10
136.2803268589
20
157.7229573904
11
136.4067563342
21
157.9782767473
0
LINE
5
26A
100
AcDbEntity
8
0
100
AcDbLine
62
7
6
CONTINUOUS
10
133.4988756450
20
158.4889149843
11
133.2460164458
21
158.1484894930
0
LINE
5
26B
100
AcDbEntity
8
0
100
AcDbLine
62
7
6
CONTINUOUS
10
136.2803268589
20
158.4889149843
11
136.0274675467
21
158.1484894930
0
LINE
5
26C
100
AcDbEntity
8
0
100
AcDbLine
62
7
6
CONTINUOUS
10
128.8579770377
20
149.4142920391
11
129.1132961897
21
149.7523332044
0
LINE
5
26D
100
AcDbEntity
8
0
100
AcDbLine
62
7
6
CONTINUOUS
10
124.1345726749
20
151.2735198990
11
124.3898917934
21
151.5270510148
0
LINE
5
26E
100
AcDbEntity
8
0
100
AcDbLine
62
7
6
CONTINUOUS
10
128.3473387560
20
158.8794543393
11
128.7303174784
21
159.1329854551
0
LINE
5
26F
100
AcDbEntity
8
0
100
AcDbLine
62
7
6
CONTINUOUS
10
124.2622322341
20
160.7386812321
11
125.0281899472
21
161.0767233646
0
LINE
5
270
100
AcDbEntity
8
0
100
AcDbLine
62
7
6
CONTINUOUS
10
124.6452109119
20
161.4147654970
11
124.1345726749
21
161.2457434637
0
LINE
5
271
100
AcDbEntity
8
0
100
AcDbLine
62
7
6
CONTINUOUS
10
124.6452109119
20
144.9352424883
11
125.2835090657
21
144.8507319552
0
LINE
5
272
100
AcDbEntity
8
0
100
AcDbLine
62
7
6
CONTINUOUS
10
125.2835090657
20
145.3577941867
11
124.7728708287
21
145.4423047198
0
LINE
5
273
100
AcDbEntity
8
0
100
AcDbLine
62
7
6
CONTINUOUS
10
124.1345726749
20
149.0762508738
11
124.6452109119
21
148.9072298075
0
LINE
5
274
100
AcDbEntity
8
0
100
AcDbLine
62
7
6
CONTINUOUS
10
124.7728708287
20
149.4142920391
11
124.3898917934
21
149.5833131053
0
LINE
5
275
100
AcDbEntity
8
0
100
AcDbLine
62
7
6
CONTINUOUS
10
128.8579770377
20
151.6960720810
11
128.3473387560
21
152.0341132463
0
LINE
5
276
100
AcDbEntity
8
0
100
AcDbLine
62
7
6
CONTINUOUS
10
124.2622322341
20
159.3865165709
11
124.0069131156
21
159.6400476866
0
LINE
5
277
100
AcDbEntity
8
0
100
AcDbLine
62
7
6
CONTINUOUS
10
133.6253052107
20
155.3399787723
11
133.4356608169
21
155.5952979504
0
LINE
5
278
100
AcDbEntity
8
0
100
AcDbLine
62
7
6
CONTINUOUS
10
133.2460164458
20
157.1272127806
11
133.4988756450
21
156.7867872892
0
LINE
5
279
100
AcDbEntity
8
0
100
AcDbLine
62
7
6
CONTINUOUS
10
125.6664877435
20
171.7250302270
11
125.7941473027
21
171.4714991112
0
LINE
5
27A
100
AcDbEntity
8
0
100
AcDbLine
62
7
6
CONTINUOUS
10
134.8263864465
20
156.2761490522
11
134.9528159218
21
156.0208298145
0
LINE
5
27B
100
AcDbEntity
8
0
100
AcDbLine
62
7
6
CONTINUOUS
10
136.4067563342
20
155.5101915775
11
136.2803268589
21
155.7655106960
0
LINE
5
27C
100
AcDbEntity
8
0
100
AcDbLine
62
7
6
CONTINUOUS
10
133.0563720464
20
155.5101915775
11
133.2460164458
21
155.0846596240
0
LINE
5
27D
100
AcDbEntity
8
0
100
AcDbLine
62
7
6
CONTINUOUS
10
135.3321047093
20
156.1059361874
11
135.2056752340
21
156.4463617979
0
LINE
5
27E
100
AcDbEntity
8
0
100
AcDbLine
62
7
6
CONTINUOUS
10
134.6999567904
20
157.9782767473
11
134.7631715280
21
157.8080640017
0
LINE
5
27F
100
AcDbEntity
8
0
100
AcDbLine
62
7
6
CONTINUOUS
10
135.9010378906
20
155.6804043232
11
136.0274675467
21
155.3399787723
0
LINE
5
280
100
AcDbEntity
8
0
100
AcDbLine
62
7
6
CONTINUOUS
10
133.6253052107
20
157.2974255262
11
133.5620904279
21
157.5527446447
0
LINE
5
281
100
AcDbEntity
8
0
100
AcDbLine
62
7
6
CONTINUOUS
10
135.1424603155
20
157.8080640017
11
135.0792455779
21
158.0633831202
0
LINE
5
282
100
AcDbEntity
8
0
100
AcDbLine
62
7
6
CONTINUOUS
10
136.2803268589
20
155.7655106960
11
136.2171119405
21
156.1059361874
0
LINE
5
283
100
AcDbEntity
8
0
100
AcDbLine
62
7
6
CONTINUOUS
10
135.8378231529
20
156.1059361874
11
135.9010378906
21
155.6804043232
0
LINE
5
284
100
AcDbEntity
8
0
100
AcDbLine
62
7
6
CONTINUOUS
10
137.9871264028
20
157.3825318991
11
137.9871264028
21
156.1059361874
0
LINE
5
285
100
AcDbEntity
8
0
100
AcDbLine
62
7
6
CONTINUOUS
10
138.3664151903
20
156.1059361874
11
138.3664151903
21
157.3825318991
0
LINE
5
286
100
AcDbEntity
8
0
100
AcDbLine
62
7
6
CONTINUOUS
10
138.8721334531
20
158.7442341028
11
138.8721334531
21
154.7442341028
0
LINE
5
287
100
AcDbEntity
8
0
100
AcDbLine
62
7
6
CONTINUOUS
10
139.2514222406
20
155.2548723994
11
139.2514222406
21
158.7442341028
0
LINE
5
288
100
AcDbEntity
8
0
100
AcDbLine
62
7
6
CONTINUOUS
10
141.1478661781
20
154.7442341028
11
141.1478661781
21
155.2548723994
0
LINE
5
289
100
AcDbEntity
8
0
100
AcDbLine
62
7
6
CONTINUOUS
10
138.3032002718
20
155.6804043232
11
138.3664151903
21
156.1059361874
0
LINE
5
28A
100
AcDbEntity
8
0
100
AcDbLine
62
7
6
CONTINUOUS
10
137.9871264028
20
156.1059361874
11
137.9239114843
21
155.7655106960
0
LINE
5
28B
100
AcDbEntity
8
0
100
AcDbLine
62
7
6
CONTINUOUS
10
138.1767707965
20
155.3399787723
11
138.3032002718
21
155.6804043232
0
LINE
5
28C
100
AcDbEntity
8
0
100
AcDbLine
62
7
6
CONTINUOUS
10
137.9239114843
20
155.7655106960
11
137.7974820090
21
155.5101915775
0
LINE
5
28D
100
AcDbEntity
8
0
100
AcDbLine
62
7
6
CONTINUOUS
10
134.9528159218
20
154.9995532511
11
135.2056752340
21
155.3399787723
0
LINE
5
28E
100
AcDbEntity
8
0
100
AcDbLine
62
7
6
CONTINUOUS
10
137.9239114843
20
154.9995532511
11
138.1767707965
21
155.3399787723
0
LINE
5
28F
100
AcDbEntity
8
0
100
AcDbLine
62
7
6
CONTINUOUS
10
128.8579770377
20
145.4423047198
11
129.1132961897
21
145.7803458852
0
LINE
5
290
100
AcDbEntity
8
0
100
AcDbLine
62
7
6
CONTINUOUS
10
124.1345726749
20
147.3015325798
11
124.3898917934
21
147.5550636956
0
LINE
5
291
100
AcDbEntity
8
0
100
AcDbLine
62
7
6
CONTINUOUS
10
128.3473387560
20
149.8368442211
11
128.0920195481
21
149.5833131053
0
LINE
5
292
100
AcDbEntity
8
0
100
AcDbLine
62
7
6
CONTINUOUS
10
133.6253052107
20
157.9782767473
11
133.8149496497
21
158.1484894930
0
LINE
5
293
100
AcDbEntity
8
0
100
AcDbLine
62
7
6
CONTINUOUS
10
136.4067563342
20
157.9782767473
11
136.5964007280
21
158.1484894930
0
LINE
5
294
100
AcDbEntity
8
0
100
AcDbLine
62
7
6
CONTINUOUS
10
134.8263864465
20
155.5101915775
11
134.6367420528
21
155.3399787723
0
LINE
5
295
100
AcDbEntity
8
0
100
AcDbLine
62
7
6
CONTINUOUS
10
133.7517348216
20
158.6591277300
11
133.4988756450
21
158.4889149843
0
LINE
5
296
100
AcDbEntity
8
0
100
AcDbLine
62
7
6
CONTINUOUS
10
136.5331858095
20
158.6591277300
11
136.2803268589
21
158.4889149843
0
LINE
5
297
100
AcDbEntity
8
0
100
AcDbLine
62
7
6
CONTINUOUS
10
124.1345726749
20
152.0341132463
11
123.6239344379
21
151.6960720810
0
LINE
5
298
100
AcDbEntity
8
0
100
AcDbLine
62
7
6
CONTINUOUS
10
128.2196791967
20
159.3865165709
11
127.4537217518
21
159.0484744384
0
LINE
5
299
100
AcDbEntity
8
0
100
AcDbLine
62
7
6
CONTINUOUS
10
127.8367004296
20
158.7104323060
11
128.3473387560
21
158.8794543393
0
LINE
5
29A
100
AcDbEntity
8
0
100
AcDbLine
62
7
6
CONTINUOUS
10
125.2835090657
20
144.8507319552
11
127.1984026333
21
144.8507319552
0
LINE
5
29B
100
AcDbEntity
8
0
100
AcDbLine
62
7
6
CONTINUOUS
10
127.1984026333
20
145.3577941867
11
125.2835090657
21
145.3577941867
0
LINE
5
29C
100
AcDbEntity
8
0
100
AcDbLine
62
7
6
CONTINUOUS
10
128.3473387560
20
148.0621259271
11
127.7090408703
21
148.1466364602
0
LINE
5
29D
100
AcDbEntity
8
0
100
AcDbLine
62
7
6
CONTINUOUS
10
124.6452109119
20
148.9072298075
11
125.2835090657
21
148.8227192744
0
LINE
5
29E
100
AcDbEntity
8
0
100
AcDbLine
62
7
6
CONTINUOUS
10
125.2835090657
20
149.3297819895
11
124.7728708287
21
149.4142920391
0
LINE
5
29F
100
AcDbEntity
8
0
100
AcDbLine
62
7
6
CONTINUOUS
10
127.7090408703
20
147.6395742287
11
128.0920195481
21
147.5550636956
0
LINE
5
2A0
100
AcDbEntity
8
0
100
AcDbLine
62
7
6
CONTINUOUS
10
123.2409557601
20
157.3582676447
11
124.1345726749
21
156.8512044460
0
LINE
5
2A1
100
AcDbEntity
8
0
100
AcDbLine
62
7
6
CONTINUOUS
10
125.1558495065
20
156.8512044460
11
124.2622322341
21
157.3582676447
0
LINE
5
2A2
100
AcDbEntity
8
0
100
AcDbLine
62
7
6
CONTINUOUS
10
123.7515939971
20
159.1329854551
11
124.1345726749
21
158.8794543393
0
LINE
5
2A3
100
AcDbEntity
8
0
100
AcDbLine
62
7
6
CONTINUOUS
10
133.2460164458
20
155.0846596240
11
133.5620904279
21
154.8293404831
0
LINE
5
2A4
100
AcDbEntity
8
0
100
AcDbLine
62
7
6
CONTINUOUS
10
133.8149496497
20
157.1272127806
11
133.6253052107
21
157.2974255262
0
LINE
5
2A5
100
AcDbEntity
8
0
100
AcDbLine
62
7
6
CONTINUOUS
10
134.6367420528
20
156.4463617979
11
134.8263864465
21
156.2761490522
0
LINE
5
2A6
100
AcDbEntity
8
0
100
AcDbLine
62
7
6
CONTINUOUS
10
136.5964007280
20
155.3399787723
11
136.4067563342
21
155.5101915775
0
LINE
5
2A7
100
AcDbEntity
8
0
100
AcDbLine
62
7
6
CONTINUOUS
10
128.2196791967
20
160.7386812321
11
128.4749983152
21
160.4851501164
0
LINE
5
2A8
100
AcDbEntity
8
0
100
AcDbLine
62
7
6
CONTINUOUS
10
129.1132961897
20
160.5696611330
11
128.7303174784
21
160.9922123479
0
LINE
5
2A9
100
AcDbEntity
8
0
100
AcDbLine
62
7
6
CONTINUOUS
10
136.0274675467
20
155.3399787723
11
136.2803268589
21
154.9995532511
0
LINE
5
2AA
100
AcDbEntity
8
0
100
AcDbLine
62
7
6
CONTINUOUS
10
135.2056752340
20
156.4463617979
11
134.9528159218
21
156.7867872892
0
LINE
5
2AB
100
AcDbEntity
8
0
100
AcDbLine
62
7
6
CONTINUOUS
10
134.5735271343
20
158.1484894930
11
134.6999567904
21
157.9782767473
0
LINE
5
2AC
100
AcDbEntity
8
0
100
AcDbLine
62
7
6
CONTINUOUS
10
135.0792455779
20
158.0633831202
11
134.8896011842
21
158.4038086115
0
LINE
5
2AD
100
AcDbEntity
8
0
100
AcDbLine
62
7
6
CONTINUOUS
10
137.7974820090
20
157.9782767473
11
137.9239114843
21
157.7229573904
0
LINE
5
2AE
100
AcDbEntity
8
0
100
AcDbLine
62
7
6
CONTINUOUS
10
138.3032002718
20
157.8080640017
11
138.1767707965
21
158.1484894930
0
LINE
5
2AF
100
AcDbEntity
8
0
100
AcDbLine
62
7
6
CONTINUOUS
10
137.9239114843
20
157.7229573904
11
137.9871264028
21
157.3825318991
0
LINE
5
2B0
100
AcDbEntity
8
0
100
AcDbLine
62
7
6
CONTINUOUS
10
138.3664151903
20
157.3825318991
11
138.3032002718
21
157.8080640017
0
LINE
5
2B1
100
AcDbEntity
8
0
100
AcDbLine
62
7
6
CONTINUOUS
10
141.6535848026
20
158.7442341028
11
141.6535848026
21
154.7442341028
0
LINE
5
2B2
100
AcDbEntity
8
0
100
AcDbLine
62
7
6
CONTINUOUS
10
142.0328735902
20
155.2548723994
11
142.0328735902
21
158.7442341028
0
LINE
5
2B3
100
AcDbEntity
8
0
100
AcDbLine
62
7
6
CONTINUOUS
10
143.9293175277
20
154.7442341028
11
143.9293175277
21
155.2548723994
0
LINE
5
2B4
100
AcDbEntity
8
0
100
AcDbLine
62
7
6
CONTINUOUS
10
128.3473387560
20
145.8648564183
11
128.0920195481
21
145.6113253025
0
LINE
5
2B5
100
AcDbEntity
8
0
100
AcDbLine
62
7
6
CONTINUOUS
10
137.7974820090
20
155.5101915775
11
137.6078376153
21
155.3399787723
0
LINE
5
2B6
100
AcDbEntity
8
0
100
AcDbLine
62
7
6
CONTINUOUS
10
134.6999567904
20
154.8293404831
11
134.9528159218
21
154.9995532511
0
LINE
5
2B7
100
AcDbEntity
8
0
100
AcDbLine
62
7
6
CONTINUOUS
10
137.6710521720
20
154.8293404831
11
137.9239114843
21
154.9995532511
0
LINE
5
2B8
100
AcDbEntity
8
0
100
AcDbLine
62
7
6
CONTINUOUS
10
124.1345726749
20
148.0621259271
11
123.6239344379
21
147.7240847618
0
LINE
5
2B9
100
AcDbEntity
8
0
100
AcDbLine
62
7
6
CONTINUOUS
10
128.3473387560
20
149.0762508738
11
128.8579770377
21
149.4142920391
0
LINE
5
2BA
100
AcDbEntity
8
0
100
AcDbLine
62
7
6
CONTINUOUS
10
133.8149496497
20
158.1484894930
11
134.0045940434
21
158.2335958658
0
LINE
5
2BB
100
AcDbEntity
8
0
100
AcDbLine
62
7
6
CONTINUOUS
10
134.0045940434
20
158.7442341028
11
133.7517348216
21
158.6591277300
0
LINE
5
2BC
100
AcDbEntity
8
0
100
AcDbLine
62
7
6
CONTINUOUS
10
136.5964007280
20
158.1484894930
11
136.8492600402
21
158.2335958658
0
LINE
5
2BD
100
AcDbEntity
8
0
100
AcDbLine
62
7
6
CONTINUOUS
10
128.4749983152
20
142.4844415010
11
123.2409557601
21
141.3012963344
0
LINE
5
2BE
100
AcDbEntity
8
0
100
AcDbLine
62
7
6
CONTINUOUS
10
123.2409557601
20
140.7942341028
11
129.2409557601
21
142.1464000939
0
LINE
5
2BF
100
AcDbEntity
8
0
100
AcDbLine
62
7
6
CONTINUOUS
10
127.1984026333
20
144.8507319552
11
127.8367004296
21
144.9352424883
0
LINE
5
2C0
100
AcDbEntity
8
0
100
AcDbLine
62
7
6
CONTINUOUS
10
135.5722363374
20
147.7942341028
11
147.5385138620
21
147.7942341028
0
LINE
5
2C1
100
AcDbEntity
8
0
100
AcDbLine
62
7
6
CONTINUOUS
10
155.5433976582
20
147.7942341028
11
167.5096751828
21
147.7942341028
0
LINE
5
2C2
100
AcDbEntity
8
0
100
AcDbLine
62
7
6
CONTINUOUS
10
125.2835090657
20
148.8227192744
11
127.1984026333
21
148.8227192744
0
LINE
5
2C3
100
AcDbEntity
8
0
100
AcDbLine
62
7
6
CONTINUOUS
10
128.3473387560
20
152.0341132463
11
127.8367004296
21
152.1186242630
0
LINE
5
2C4
100
AcDbEntity
8
0
100
AcDbLine
62
7
6
CONTINUOUS
10
127.7090408703
20
151.6115620315
11
128.0920195481
21
151.5270510148
0
LINE
5
2C5
100
AcDbEntity
8
0
100
AcDbLine
62
7
6
CONTINUOUS
10
125.0281899472
20
159.0484744384
11
124.2622322341
21
159.3865165709
0
LINE
5
2C6
100
AcDbEntity
8
0
100
AcDbLine
62
7
6
CONTINUOUS
10
128.7303174784
20
160.9922123479
11
128.3473387560
21
161.2457434637
0
LINE
5
2C7
100
AcDbEntity
8
0
100
AcDbLine
62
7
6
CONTINUOUS
10
133.4988756450
20
156.7867872892
11
133.7517348216
21
156.6165745436
0
LINE
5
2C8
100
AcDbEntity
8
0
100
AcDbLine
62
7
6
CONTINUOUS
10
136.2803268589
20
154.9995532511
11
136.5331858095
21
154.8293404831
0
LINE
5
2C9
100
AcDbEntity
8
0
100
AcDbLine
62
7
6
CONTINUOUS
10
134.9528159218
20
156.7867872892
11
134.6999567904
21
156.9570000349
0
LINE
5
2CA
100
AcDbEntity
8
0
100
AcDbLine
62
7
6
CONTINUOUS
10
137.6078376153
20
158.1484894930
11
137.7974820090
21
157.9782767473
0
LINE
5
2CB
100
AcDbEntity
8
0
100
AcDbLine
62
7
6
CONTINUOUS
10
134.8896011842
20
158.4038086115
11
134.6367420528
21
158.6591277300
0
LINE
5
2CC
100
AcDbEntity
8
0
100
AcDbLine
62
7
6
CONTINUOUS
10
138.1767707965
20
158.1484894930
11
137.9239114843
21
158.4889149843
0
LINE
5
2CD
100
AcDbEntity
8
0
100
AcDbLine
62
7
6
CONTINUOUS
10
143.2588066143
20
150.2621832953
11
143.5088066143
21
149.8291705934
0
LINE
5
2CE
100
AcDbEntity
8
0
100
AcDbLine
62
7
6
CONTINUOUS
10
147.7909557601
20
147.8264620026
11
147.7909557601
21
163.7620062031
0
LINE
5
2CF
100
AcDbEntity
8
0
100
AcDbLine
62
7
6
CONTINUOUS
10
143.5088066143
20
154.1592976123
11
143.2588066143
21
153.7262849104
0
LINE
5
2D0
100
AcDbEntity
8
0
100
AcDbLine
62
7
6
CONTINUOUS
10
128.3473387560
20
145.1042630710
11
128.8579770377
21
145.4423047198
0
LINE
5
2D1
100
AcDbEntity
8
0
100
AcDbLine
62
7
6
CONTINUOUS
10
128.0920195481
20
149.5833131053
11
127.7090408703
21
149.4142920391
0
LINE
5
2D2
100
AcDbEntity
8
0
100
AcDbLine
62
7
6
CONTINUOUS
10
134.6367420528
20
155.3399787723
11
134.3838828309
21
155.2548723994
0
LINE
5
2D3
100
AcDbEntity
8
0
100
AcDbLine
62
7
6
CONTINUOUS
10
137.6078376153
20
155.3399787723
11
137.3549783030
21
155.2548723994
0
LINE
5
2D4
100
AcDbEntity
8
0
100
AcDbLine
62
7
6
CONTINUOUS
10
127.7090408703
20
145.4423047198
11
127.1984026333
21
145.3577941867
0
LINE
5
2D5
100
AcDbEntity
8
0
100
AcDbLine
62
7
6
CONTINUOUS
10
124.7728708287
20
148.1466364602
11
124.1345726749
21
148.0621259271
0
LINE
5
2D6
100
AcDbEntity
8
0
100
AcDbLine
62
7
6
CONTINUOUS
10
127.1984026333
20
148.8227192744
11
127.8367004296
21
148.9072298075
0
LINE
5
2D7
100
AcDbEntity
8
0
100
AcDbLine
62
7
6
CONTINUOUS
10
127.1984026333
20
149.3297819895
11
125.2835090657
21
149.3297819895
0
LINE
5
2D8
100
AcDbEntity
8
0
100
AcDbLine
62
7
6
CONTINUOUS
10
125.9218068620
20
150.8509686842
11
126.6877642175
21
150.8509686842
0
LINE
5
2D9
100
AcDbEntity
8
0
100
AcDbLine
62
7
6
CONTINUOUS
10
126.6877642175
20
151.6115620315
11
127.7090408703
21
151.6115620315
0
LINE
5
2DA
100
AcDbEntity
8
0
100
AcDbLine
62
7
6
CONTINUOUS
10
132.2588066143
20
151.7442341028
11
145.8257939124
21
151.7442341028
0
LINE
5
2DB
100
AcDbEntity
8
0
100
AcDbLine
62
7
6
CONTINUOUS
10
157.2561176079
20
151.7442341028
11
170.8231049060
21
151.7442341028
0
LINE
5
2DC
100
AcDbEntity
8
0
100
AcDbLine
62
7
6
CONTINUOUS
10
127.8367004296
20
152.1186242630
11
125.9218068620
21
152.1186242630
0
LINE
5
2DD
100
AcDbEntity
8
0
100
AcDbLine
62
7
6
CONTINUOUS
10
170.8231049060
20
152.2442341028
11
157.2561176079
21
152.2442341028
0
LINE
5
2DE
100
AcDbEntity
8
0
100
AcDbLine
62
7
6
CONTINUOUS
10
145.8257939124
20
152.2442341028
11
132.2588066143
21
152.2442341028
0
LINE
5
2DF
100
AcDbEntity
8
0
100
AcDbLine
62
7
6
CONTINUOUS
10
133.5620904279
20
154.8293404831
11
133.8781643873
21
154.7442341028
0
LINE
5
2E0
100
AcDbEntity
8
0
100
AcDbLine
62
7
6
CONTINUOUS
10
136.5331858095
20
154.8293404831
11
136.8492600402
21
154.7442341028
0
LINE
5
2E1
100
AcDbEntity
8
0
100
AcDbLine
62
7
6
CONTINUOUS
10
134.6999567904
20
156.9570000349
11
134.3838828309
21
157.0421064077
0
LINE
5
2E2
100
AcDbEntity
8
0
100
AcDbLine
62
7
6
CONTINUOUS
10
124.1345726749
20
158.8794543393
11
124.6452109119
21
158.7104323060
0
LINE
5
2E3
100
AcDbEntity
8
0
100
AcDbLine
62
7
6
CONTINUOUS
10
133.8781643873
20
155.2548723994
11
133.6253052107
21
155.3399787723
0
LINE
5
2E4
100
AcDbEntity
8
0
100
AcDbLine
62
7
6
CONTINUOUS
10
136.8492600402
20
155.2548723994
11
136.5964007280
21
155.3399787723
0
LINE
5
2E5
100
AcDbEntity
8
0
100
AcDbLine
62
7
6
CONTINUOUS
10
133.7517348216
20
156.6165745436
11
134.0045940434
21
156.5314681707
0
LINE
5
2E6
100
AcDbEntity
8
0
100
AcDbLine
62
7
6
CONTINUOUS
10
134.3838828309
20
156.5314681707
11
134.6367420528
21
156.4463617979
0
LINE
5
2E7
100
AcDbEntity
8
0
100
AcDbLine
62
7
6
CONTINUOUS
10
127.4537217518
20
161.0767233646
11
128.2196791967
21
160.7386812321
0
LINE
5
2E8
100
AcDbEntity
8
0
100
AcDbLine
62
7
6
CONTINUOUS
10
134.0045940434
20
157.0421064077
11
133.8149496497
21
157.1272127806
0
LINE
5
2E9
100
AcDbEntity
8
0
100
AcDbLine
62
7
6
CONTINUOUS
10
134.3838828309
20
158.2335958658
11
134.5735271343
21
158.1484894930
0
LINE
5
2EA
100
AcDbEntity
8
0
100
AcDbLine
62
7
6
CONTINUOUS
10
143.2588066143
20
153.7262849104
11
145.8257939124
21
152.2442341028
0
LINE
5
2EB
100
AcDbEntity
8
0
100
AcDbLine
62
7
6
CONTINUOUS
10
147.2588066143
20
151.9942341028
11
143.5088066143
21
154.1592976123
0
LINE
5
2EC
100
AcDbEntity
8
0
100
AcDbLine
62
7
6
CONTINUOUS
10
137.9239114843
20
158.4889149843
11
137.6710521720
21
158.6591277300
0
LINE
5
2ED
100
AcDbEntity
8
0
100
AcDbLine
62
7
6
CONTINUOUS
10
126.4324450990
20
171.8095412437
11
126.0494664212
21
172.1475814419
0
LINE
5
2EE
100
AcDbEntity
8
DEFAULT_1
100
AcDbLine
62
2
6
CENTER
10
151.5409557601
20
110.7942341028
11
151.5409557601
21
200.7942341028
0
LINE
5
2EF
100
AcDbEntity
8
0
100
AcDbLine
62
7
6
CONTINUOUS
10
128.0920195481
20
145.6113253025
11
127.7090408703
21
145.4423047198
0
LINE
5
2F0
100
AcDbEntity
8
0
100
AcDbLine
62
7
6
CONTINUOUS
10
175.2452110907
20
166.5381727510
11
174.7345727643
21
166.3570636747
0
LINE
5
2F1
100
AcDbEntity
8
0
100
AcDbLine
62
7
6
CONTINUOUS
10
127.8367004296
20
148.9072298075
11
128.3473387560
21
149.0762508738
0
LINE
5
2F2
100
AcDbEntity
8
0
100
AcDbLine
62
7
6
CONTINUOUS
10
124.3898917934
20
147.5550636956
11
124.7728708287
21
147.6395742287
0
LINE
5
2F3
100
AcDbEntity
8
0
100
AcDbLine
62
7
6
CONTINUOUS
10
178.3090406915
20
159.6560312167
11
177.7984024545
21
159.5654770671
0
LINE
5
2F4
100
AcDbEntity
8
0
100
AcDbLine
62
7
6
CONTINUOUS
10
127.7090408703
20
149.4142920391
11
127.1984026333
21
149.3297819895
0
LINE
5
2F5
100
AcDbEntity
8
0
100
AcDbLine
62
7
6
CONTINUOUS
10
177.7984024545
20
159.0221500970
11
178.4367006084
21
159.1127042466
0
LINE
5
2F6
100
AcDbEntity
8
0
100
AcDbLine
62
7
6
CONTINUOUS
10
124.7728708287
20
152.1186242630
11
124.1345726749
21
152.0341132463
0
LINE
5
2F7
100
AcDbEntity
8
0
100
AcDbLine
62
7
6
CONTINUOUS
10
133.8781643873
20
154.7442341028
11
134.3838828309
21
154.7442341028
0
LINE
5
2F8
100
AcDbEntity
8
0
100
AcDbLine
62
7
6
CONTINUOUS
10
136.8492600402
20
154.7442341028
11
137.3549783030
21
154.7442341028
0
LINE
5
2F9
100
AcDbEntity
8
0
100
AcDbLine
62
7
6
CONTINUOUS
10
138.8721334531
20
154.7442341028
11
141.1478661781
21
154.7442341028
0
LINE
5
2FA
100
AcDbEntity
8
0
100
AcDbLine
62
7
6
CONTINUOUS
10
141.6535848026
20
154.7442341028
11
143.9293175277
21
154.7442341028
0
LINE
5
2FB
100
AcDbEntity
8
0
100
AcDbLine
62
7
6
CONTINUOUS
10
159.1661813699
20
154.7442341028
11
159.6016632168
21
154.7442341028
0
LINE
5
2FC
100
AcDbEntity
8
0
100
AcDbLine
62
7
6
CONTINUOUS
10
161.6339116280
20
154.7442341028
11
161.9968131930
21
154.7442341028
0
LINE
5
2FD
100
AcDbEntity
8
0
100
AcDbLine
62
7
6
CONTINUOUS
10
162.7951963454
20
154.7442341028
11
163.1580977027
21
154.7442341028
0
LINE
5
2FE
100
AcDbEntity
8
0
100
AcDbLine
62
7
6
CONTINUOUS
10
163.9564812704
20
154.7442341028
11
164.3193826278
21
154.7442341028
0
LINE
5
2FF
100
AcDbEntity
8
0
100
AcDbLine
62
7
6
CONTINUOUS
10
164.9000248827
20
154.7442341028
11
165.2629266553
21
154.7442341028
0
LINE
5
300
100
AcDbEntity
8
0
100
AcDbLine
62
7
6
CONTINUOUS
10
166.0613098077
20
154.7442341028
11
166.4242115804
21
154.7442341028
0
LINE
5
301
100
AcDbEntity
8
0
100
AcDbLine
62
7
6
CONTINUOUS
10
167.2225943174
20
154.7442341028
11
167.5854960901
21
154.7442341028
0
LINE
5
302
100
AcDbEntity
8
0
100
AcDbLine
62
7
6
CONTINUOUS
10
143.9293175277
20
155.2548723994
11
142.0328735902
21
155.2548723994
0
LINE
5
303
100
AcDbEntity
8
0
100
AcDbLine
62
7
6
CONTINUOUS
10
141.1478661781
20
155.2548723994
11
139.2514222406
21
155.2548723994
0
LINE
5
304
100
AcDbEntity
8
0
100
AcDbLine
62
7
6
CONTINUOUS
10
137.3549783030
20
155.2548723994
11
136.8492600402
21
155.2548723994
0
LINE
5
305
100
AcDbEntity
8
0
100
AcDbLine
62
7
6
CONTINUOUS
10
134.3838828309
20
155.2548723994
11
133.8781643873
21
155.2548723994
0
LINE
5
306
100
AcDbEntity
8
0
100
AcDbLine
62
7
6
CONTINUOUS
10
133.3724460341
20
155.8506170689
11
132.9931572466
21
155.8506170689
0
LINE
5
307
100
AcDbEntity
8
0
100
AcDbLine
62
7
6
CONTINUOUS
10
125.7941473027
20
158.9639634217
11
125.0281899472
21
159.0484744384
0
LINE
5
308
100
AcDbEntity
8
0
100
AcDbLine
62
7
6
CONTINUOUS
10
125.0281899472
20
158.6259232236
11
125.6664877435
21
158.5414122069
0
LINE
5
309
100
AcDbEntity
8
0
100
AcDbLine
62
7
6
CONTINUOUS
10
124.6452109119
20
158.7104323060
11
125.0281899472
21
158.6259232236
0
LINE
5
30A
100
AcDbEntity
8
0
100
AcDbLine
62
7
6
CONTINUOUS
10
127.8367004296
20
161.4147654970
11
127.4537217518
21
161.4992745794
0
LINE
5
30B
100
AcDbEntity
8
0
100
AcDbLine
62
7
6
CONTINUOUS
10
134.6367420528
20
158.6591277300
11
134.3206680029
21
158.7442341028
0
LINE
5
30C
100
AcDbEntity
8
0
100
AcDbLine
62
7
6
CONTINUOUS
10
137.6710521720
20
158.6591277300
11
137.3549783030
21
158.7442341028
0
LINE
5
30D
100
AcDbEntity
8
0
100
AcDbLine
62
7
6
CONTINUOUS
10
128.3473387560
20
161.2457434637
11
127.8367004296
21
161.4147654970
0
LINE
5
30E
100
AcDbEntity
8
0
100
AcDbLine
62
7
6
CONTINUOUS
10
137.3549783030
20
158.2335958658
11
137.6078376153
21
158.1484894930
0
LINE
5
30F
100
AcDbEntity
8
0
100
AcDbLine
62
7
6
CONTINUOUS
10
155.8231049060
20
151.9942341028
11
159.5731049060
21
149.8291705934
0
LINE
5
310
100
AcDbEntity
8
0
100
AcDbLine
62
7
6
CONTINUOUS
10
159.8231049060
20
150.2621832953
11
157.2561176079
21
151.7442341028
0
LINE
5
311
100
AcDbEntity
8
0
100
AcDbLine
62
7
6
CONTINUOUS
10
125.4111686250
20
171.8940503261
11
125.6664877435
21
171.7250302270
0
LINE
5
312
100
AcDbEntity
8
0
100
AcDbLine
62
7
6
CONTINUOUS
10
155.2909557601
20
147.8264620026
11
155.2909557601
21
163.7620062031
0
LINE
5
313
100
AcDbEntity
8
0
100
AcDbLine
62
7
6
CONTINUOUS
10
145.8257939124
20
151.7442341028
11
143.2588066143
21
150.2621832953
0
LINE
5
314
100
AcDbEntity
8
0
100
AcDbLine
62
7
6
CONTINUOUS
10
143.5088066143
20
149.8291705934
11
147.2588066143
21
151.9942341028
0
LINE
5
315
100
AcDbEntity
8
0
100
AcDbLine
62
7
6
CONTINUOUS
10
178.8196792861
20
167.5342722825
11
179.3303175231
21
167.8059357675
0
LINE
5
316
100
AcDbEntity
8
0
100
AcDbLine
62
7
6
CONTINUOUS
10
174.9898919722
20
165.8137367046
11
175.3728706499
21
165.9948460401
0
LINE
5
317
100
AcDbEntity
8
0
100
AcDbLine
62
7
6
CONTINUOUS
10
162.3597145504
20
157.4676382719
11
162.1419736529
21
157.3825318991
0
LINE
5
318
100
AcDbEntity
8
0
100
AcDbLine
62
7
6
CONTINUOUS
10
162.1419736529
20
157.0421064077
11
162.3597145504
21
157.1272127806
0
LINE
5
319
100
AcDbEntity
8
0
100
AcDbLine
62
7
6
CONTINUOUS
10
163.5209994754
20
157.4676382719
11
163.3032585779
21
157.3825318991
0
LINE
5
31A
100
AcDbEntity
8
0
100
AcDbLine
62
7
6
CONTINUOUS
10
165.6258280127
20
157.4676382719
11
165.4080871152
21
157.3825318991
0
LINE
5
31B
100
AcDbEntity
8
0
100
AcDbLine
62
7
6
CONTINUOUS
10
165.4080871152
20
157.0421064077
11
165.6258280127
21
157.1272127806
0
LINE
5
31C
100
AcDbEntity
8
0
100
AcDbLine
62
7
6
CONTINUOUS
10
127.8367004296
20
144.9352424883
11
128.3473387560
21
145.1042630710
0
LINE
5
31D
100
AcDbEntity
8
0
100
AcDbLine
62
7
6
CONTINUOUS
10
137.3549783030
20
154.7442341028
11
137.6710521720
21
154.8293404831
0
LINE
5
31E
100
AcDbEntity
8
0
100
AcDbLine
62
7
6
CONTINUOUS
10
134.3838828309
20
154.7442341028
11
134.6999567904
21
154.8293404831
0
LINE
5
31F
100
AcDbEntity
8
0
100
AcDbLine
62
7
6
CONTINUOUS
10
124.3898917934
20
151.5270510148
11
124.7728708287
21
151.6115620315
0
LINE
5
320
100
AcDbEntity
8
0
100
AcDbLine
62
7
6
CONTINUOUS
10
134.0045940434
20
156.5314681707
11
134.3838828309
21
156.5314681707
0
LINE
5
321
100
AcDbEntity
8
0
100
AcDbLine
62
7
6
CONTINUOUS
10
124.1345726749
20
156.8512044460
11
125.1558495065
21
156.8512044460
0
LINE
5
322
100
AcDbEntity
8
0
100
AcDbLine
62
7
6
CONTINUOUS
10
134.3838828309
20
157.0421064077
11
134.0045940434
21
157.0421064077
0
LINE
5
323
100
AcDbEntity
8
0
100
AcDbLine
62
7
6
CONTINUOUS
10
162.3597145504
20
157.1272127806
11
162.5048750103
21
157.1272127806
0
LINE
5
324
100
AcDbEntity
8
0
100
AcDbLine
62
7
6
CONTINUOUS
10
163.4484190378
20
157.1272127806
11
163.6661599353
21
157.1272127806
0
LINE
5
325
100
AcDbEntity
8
0
100
AcDbLine
62
7
6
CONTINUOUS
10
165.6258280127
20
157.1272127806
11
165.7709888879
21
157.1272127806
0
LINE
5
326
100
AcDbEntity
8
0
100
AcDbLine
62
7
6
CONTINUOUS
10
166.7145325002
20
157.1272127806
11
166.9322733977
21
157.1272127806
0
LINE
5
327
100
AcDbEntity
8
0
100
AcDbLine
62
7
6
CONTINUOUS
10
124.2622322341
20
157.3582676447
11
129.2409557601
21
157.3582676447
0
LINE
5
328
100
AcDbEntity
8
0
100
AcDbLine
62
7
6
CONTINUOUS
10
167.0774342729
20
157.4676382719
11
166.7871125225
21
157.4676382719
0
LINE
5
329
100
AcDbEntity
8
0
100
AcDbLine
62
7
6
CONTINUOUS
10
165.9161489325
20
157.4676382719
11
165.6258280127
21
157.4676382719
0
LINE
5
32A
100
AcDbEntity
8
0
100
AcDbLine
62
7
6
CONTINUOUS
10
165.2629266553
20
157.4676382719
11
164.9000248827
21
157.4676382719
0
LINE
5
32B
100
AcDbEntity
8
0
100
AcDbLine
62
7
6
CONTINUOUS
10
163.8113203952
20
157.4676382719
11
163.5209994754
21
157.4676382719
0
LINE
5
32C
100
AcDbEntity
8
0
100
AcDbLine
62
7
6
CONTINUOUS
10
162.6500358855
20
157.4676382719
11
162.3597145504
21
157.4676382719
0
LINE
5
32D
100
AcDbEntity
8
0
100
AcDbLine
62
7
6
CONTINUOUS
10
161.9968131930
20
157.4676382719
11
161.6339116280
21
157.4676382719
0
LINE
5
32E
100
AcDbEntity
8
0
100
AcDbLine
62
7
6
CONTINUOUS
10
134.7631715280
20
157.8080640017
11
135.1424603155
21
157.8080640017
0
LINE
5
32F
100
AcDbEntity
8
0
100
AcDbLine
62
7
6
CONTINUOUS
10
129.2409557601
20
157.8653298762
11
123.2409557601
21
157.8653298762
0
LINE
5
330
100
AcDbEntity
8
0
100
AcDbLine
62
7
6
CONTINUOUS
10
134.0045940434
20
158.2335958658
11
134.3838828309
21
158.2335958658
0
LINE
5
331
100
AcDbEntity
8
0
100
AcDbLine
62
7
6
CONTINUOUS
10
136.8492600402
20
158.2335958658
11
137.3549783030
21
158.2335958658
0
LINE
5
332
100
AcDbEntity
8
0
100
AcDbLine
62
7
6
CONTINUOUS
10
158.4403783956
20
158.3187022387
11
160.6177873705
21
158.3187022387
0
LINE
5
333
100
AcDbEntity
8
0
100
AcDbLine
62
7
6
CONTINUOUS
10
125.6664877435
20
158.5414122069
11
126.8154237767
21
158.5414122069
0
LINE
5
334
100
AcDbEntity
8
0
100
AcDbLine
62
7
6
CONTINUOUS
10
161.0532691654
20
158.7442341028
11
158.4403783956
21
158.7442341028
0
LINE
5
335
100
AcDbEntity
8
0
100
AcDbLine
62
7
6
CONTINUOUS
10
142.0328735902
20
158.7442341028
11
141.6535848026
21
158.7442341028
0
LINE
5
336
100
AcDbEntity
8
0
100
AcDbLine
62
7
6
CONTINUOUS
10
139.2514222406
20
158.7442341028
11
138.8721334531
21
158.7442341028
0
LINE
5
337
100
AcDbEntity
8
0
100
AcDbLine
62
7
6
CONTINUOUS
10
137.3549783030
20
158.7442341028
11
136.8492600402
21
158.7442341028
0
LINE
5
338
100
AcDbEntity
8
0
100
AcDbLine
62
7
6
CONTINUOUS
10
134.3206680029
20
158.7442341028
11
134.0045940434
21
158.7442341028
0
LINE
5
339
100
AcDbEntity
8
0
100
AcDbLine
62
7
6
CONTINUOUS
10
126.6877642175
20
158.9639634217
11
125.7941473027
21
158.9639634217
0
LINE
5
33A
100
AcDbEntity
8
0
100
AcDbLine
62
7
6
CONTINUOUS
10
175.8835088869
20
159.0221500970
11
177.7984024545
21
159.0221500970
0
LINE
5
33B
100
AcDbEntity
8
0
100
AcDbLine
62
7
6
CONTINUOUS
10
177.7984024545
20
159.5654770671
11
175.8835088869
21
159.5654770671
0
LINE
5
33C
100
AcDbEntity
8
0
100
AcDbLine
62
7
6
CONTINUOUS
10
126.6877642175
20
161.1612343813
11
127.4537217518
21
161.0767233646
0
LINE
5
33D
100
AcDbEntity
8
0
100
AcDbLine
62
7
6
CONTINUOUS
10
127.4537217518
20
161.4992745794
11
126.8154237767
21
161.5837855961
0
LINE
5
33E
100
AcDbEntity
8
0
100
AcDbLine
62
7
6
CONTINUOUS
10
126.0494664212
20
172.1475814419
11
125.5388281842
21
172.4011125576
0
LINE
5
33F
100
AcDbEntity
8
0
100
AcDbLine
62
7
6
CONTINUOUS
10
158.4403783956
20
158.7442341028
11
158.4403783956
21
158.3187022387
0
LINE
5
340
100
AcDbEntity
8
0
100
AcDbLine
62
7
6
CONTINUOUS
10
160.6177873705
20
158.3187022387
11
159.1661813699
21
154.7442341028
0
LINE
5
341
100
AcDbEntity
8
0
100
AcDbLine
62
7
6
CONTINUOUS
10
162.1419736529
20
157.3825318991
11
161.9968131930
21
157.2123191534
0
LINE
5
342
100
AcDbEntity
8
0
100
AcDbLine
62
7
6
CONTINUOUS
10
161.9968131930
20
156.8718936621
11
162.1419736529
21
157.0421064077
0
LINE
5
343
100
AcDbEntity
8
0
100
AcDbLine
62
7
6
CONTINUOUS
10
174.7345727643
20
166.3570636747
11
174.2239344826
21
165.9948460401
0
LINE
5
344
100
AcDbEntity
8
0
100
AcDbLine
62
7
6
CONTINUOUS
10
179.0749984046
20
168.2587083289
11
178.8196792861
21
168.0775992525
0
LINE
5
345
100
AcDbEntity
8
0
100
AcDbLine
62
7
6
CONTINUOUS
10
163.3032585779
20
157.0421064077
11
163.4484190378
21
157.1272127806
0
LINE
5
346
100
AcDbEntity
8
0
100
AcDbLine
62
7
6
CONTINUOUS
10
166.5693716250
20
157.0421064077
11
166.7145325002
21
157.1272127806
0
LINE
5
347
100
AcDbEntity
8
0
100
AcDbLine
62
7
6
CONTINUOUS
10
159.5731049060
20
154.1592976123
11
155.8231049060
21
151.9942341028
0
LINE
5
348
100
AcDbEntity
8
0
100
AcDbLine
62
7
6
CONTINUOUS
10
157.2561176079
20
152.2442341028
11
159.8231049060
21
153.7262849104
0
LINE
5
349
100
AcDbEntity
8
0
100
AcDbLine
62
7
6
CONTINUOUS
10
166.7871125225
20
157.4676382719
11
166.5693716250
21
157.3825318991
0
LINE
5
34A
100
AcDbEntity
8
0
100
AcDbLine
62
7
6
CONTINUOUS
10
178.4367006084
20
159.1127042466
11
178.9473388454
21
159.2938135821
0
LINE
5
34B
100
AcDbEntity
8
0
100
AcDbLine
62
7
6
CONTINUOUS
10
173.8409557601
20
167.3531632061
11
176.7771259805
21
168.1681536612
0
LINE
5
34C
100
AcDbEntity
8
0
100
AcDbLine
62
7
6
CONTINUOUS
10
176.5218068620
20
168.7114807608
11
173.8409557601
21
167.9870448439
0
LINE
5
34D
100
AcDbEntity
8
0
100
AcDbLine
62
7
6
CONTINUOUS
10
136.8492600402
20
158.7442341028
11
136.5331858095
21
158.6591277300
0
LINE
5
34E
100
AcDbEntity
8
0
100
AcDbLine
62
7
6
CONTINUOUS
10
178.4367006084
20
167.4437178738
11
178.8196792861
21
167.5342722825
0
LINE
5
34F
100
AcDbEntity
8
0
100
AcDbLine
62
7
6
CONTINUOUS
10
178.8196792861
20
168.0775992525
11
178.4367006084
21
167.9870448439
0
LINE
5
350
100
AcDbEntity
8
0
100
AcDbLine
62
7
6
CONTINUOUS
10
175.3728706499
20
165.9948460401
11
175.8835088869
21
166.0854001896
0
LINE
5
351
100
AcDbEntity
8
0
100
AcDbLine
62
7
6
CONTINUOUS
10
175.8835088869
20
166.6287274188
11
175.2452110907
21
166.5381727510
0
LINE
5
352
100
AcDbEntity
8
0
100
AcDbLine
62
7
6
CONTINUOUS
10
126.8154237767
20
158.5414122069
11
127.4537217518
21
158.6259232236
0
LINE
5
353
100
AcDbEntity
8
0
100
AcDbLine
62
7
6
CONTINUOUS
10
127.4537217518
20
159.0484744384
11
126.6877642175
21
158.9639634217
0
LINE
5
354
100
AcDbEntity
8
0
100
AcDbLine
62
7
6
CONTINUOUS
10
125.7941473027
20
161.1612343813
11
126.6877642175
21
161.1612343813
0
LINE
5
355
100
AcDbEntity
8
0
100
AcDbLine
62
7
6
CONTINUOUS
10
126.8154237767
20
161.5837855961
11
125.6664877435
21
161.5837855961
0
LINE
5
356
100
AcDbEntity
8
0
100
AcDbLine
62
7
6
CONTINUOUS
10
174.6069132050
20
162.1010025819
11
179.0749984046
21
162.1010025819
0
LINE
5
357
100
AcDbEntity
8
0
100
AcDbLine
62
7
6
CONTINUOUS
10
126.4324450990
20
162.2598679268
11
127.0707430741
21
162.2598679268
0
LINE
5
358
100
AcDbEntity
8
0
100
AcDbLine
62
7
6
CONTINUOUS
10
179.8409557601
20
162.6443295520
11
173.8409557601
21
162.6443295520
0
LINE
5
359
100
AcDbEntity
8
0
100
AcDbLine
62
7
6
CONTINUOUS
10
175.2452110907
20
159.1127042466
11
175.8835088869
21
159.0221500970
0
LINE
5
35A
100
AcDbEntity
8
0
100
AcDbLine
62
7
6
CONTINUOUS
10
129.2409557601
20
166.1473456800
11
123.2409557601
21
167.4995122756
0
LINE
5
35B
100
AcDbEntity
8
0
100
AcDbLine
62
7
6
CONTINUOUS
10
123.2409557601
20
166.9924500440
11
128.4749983152
21
165.8093035476
0
LINE
5
35C
100
AcDbEntity
8
0
100
AcDbLine
62
7
6
CONTINUOUS
10
162.8677767830
20
157.3825318991
11
162.6500358855
21
157.4676382719
0
LINE
5
35D
100
AcDbEntity
8
0
100
AcDbLine
62
7
6
CONTINUOUS
10
164.0290612927
20
157.3825318991
11
163.8113203952
21
157.4676382719
0
LINE
5
35E
100
AcDbEntity
8
0
100
AcDbLine
62
7
6
CONTINUOUS
10
166.1338898300
20
157.3825318991
11
165.9161489325
21
157.4676382719
0
LINE
5
35F
100
AcDbEntity
8
0
100
AcDbLine
62
7
6
CONTINUOUS
10
167.2951751703
20
157.3825318991
11
167.0774342729
21
157.4676382719
0
LINE
5
360
100
AcDbEntity
8
0
100
AcDbLine
62
7
6
CONTINUOUS
10
162.5048750103
20
157.1272127806
11
162.6500358855
21
157.0421064077
0
LINE
5
361
100
AcDbEntity
8
0
100
AcDbLine
62
7
6
CONTINUOUS
10
163.6661599353
20
157.1272127806
11
163.8113203952
21
157.0421064077
0
LINE
5
362
100
AcDbEntity
8
0
100
AcDbLine
62
7
6
CONTINUOUS
10
159.8231049060
20
153.7262849104
11
159.5731049060
21
154.1592976123
0
LINE
5
363
100
AcDbEntity
8
0
100
AcDbLine
62
7
6
CONTINUOUS
10
161.0532691654
20
158.3187022387
11
161.0532691654
21
158.7442341028
0
LINE
5
364
100
AcDbEntity
8
0
100
AcDbLine
62
7
6
CONTINUOUS
10
161.6339116280
20
157.4676382719
11
161.6339116280
21
154.7442341028
0
LINE
5
365
100
AcDbEntity
8
0
100
AcDbLine
62
7
6
CONTINUOUS
10
161.9968131930
20
154.7442341028
11
161.9968131930
21
156.8718936621
0
LINE
5
366
100
AcDbEntity
8
0
100
AcDbLine
62
7
6
CONTINUOUS
10
161.9968131930
20
157.2123191534
11
161.9968131930
21
157.4676382719
0
LINE
5
367
100
AcDbEntity
8
0
100
AcDbLine
62
7
6
CONTINUOUS
10
159.6016632168
20
154.7442341028
11
161.0532691654
21
158.3187022387
0
LINE
5
368
100
AcDbEntity
8
0
100
AcDbLine
62
7
6
CONTINUOUS
10
163.1580977027
20
156.7867872892
11
163.2306781403
21
156.9570000349
0
LINE
5
369
100
AcDbEntity
8
0
100
AcDbLine
62
7
6
CONTINUOUS
10
159.5731049060
20
149.8291705934
11
159.8231049060
21
150.2621832953
0
LINE
5
36A
100
AcDbEntity
8
0
100
AcDbLine
62
7
6
CONTINUOUS
10
163.3032585779
20
157.3825318991
11
163.0855176804
21
157.1272127806
0
LINE
5
36B
100
AcDbEntity
8
0
100
AcDbLine
62
7
6
CONTINUOUS
10
163.2306781403
20
156.9570000349
11
163.3032585779
21
157.0421064077
0
LINE
5
36C
100
AcDbEntity
8
0
100
AcDbLine
62
7
6
CONTINUOUS
10
165.4080871152
20
157.3825318991
11
165.2629266553
21
157.2123191534
0
LINE
5
36D
100
AcDbEntity
8
0
100
AcDbLine
62
7
6
CONTINUOUS
10
165.2629266553
20
156.8718936621
11
165.4080871152
21
157.0421064077
0
LINE
5
36E
100
AcDbEntity
8
0
100
AcDbLine
62
7
6
CONTINUOUS
10
166.5693716250
20
157.3825318991
11
166.3516307275
21
157.1272127806
0
LINE
5
36F
100
AcDbEntity
8
0
100
AcDbLine
62
7
6
CONTINUOUS
10
166.4967916027
20
156.9570000349
11
166.5693716250
21
157.0421064077
0
LINE
5
370
100
AcDbEntity
8
0
100
AcDbLine
62
7
6
CONTINUOUS
10
174.7345727643
20
165.5420732196
11
174.9898919722
21
165.8137367046
0
LINE
5
371
100
AcDbEntity
8
0
100
AcDbLine
62
7
6
CONTINUOUS
10
179.3303175231
20
167.8059357675
11
179.7132962009
21
168.1681536612
0
LINE
5
372
100
AcDbEntity
8
0
100
AcDbLine
62
7
6
CONTINUOUS
10
178.6920197269
20
159.8371405521
11
178.3090406915
21
159.6560312167
0
LINE
5
373
100
AcDbEntity
8
0
100
AcDbLine
62
7
6
CONTINUOUS
10
127.4537217518
20
158.6259232236
11
127.8367004296
21
158.7104323060
0
LINE
5
374
100
AcDbEntity
8
0
100
AcDbLine
62
7
6
CONTINUOUS
10
125.6664877435
20
161.5837855961
11
125.0281899472
21
161.4992745794
0
LINE
5
375
100
AcDbEntity
8
0
100
AcDbLine
62
7
6
CONTINUOUS
10
125.0281899472
20
161.0767233646
11
125.7941473027
21
161.1612343813
0
LINE
5
376
100
AcDbEntity
8
0
100
AcDbLine
62
7
6
CONTINUOUS
10
175.8835088869
20
163.3687653393
11
179.8409557601
21
163.3687653393
0
LINE
5
377
100
AcDbEntity
8
0
100
AcDbLine
62
7
6
CONTINUOUS
10
127.0707430741
20
163.4430144232
11
126.4324450990
21
163.4430144232
0
LINE
5
378
100
AcDbEntity
8
0
100
AcDbLine
62
7
6
CONTINUOUS
10
167.5096751828
20
163.7942341028
11
155.5433976582
21
163.7942341028
0
LINE
5
379
100
AcDbEntity
8
0
100
AcDbLine
62
7
6
CONTINUOUS
10
147.5385138620
20
163.7942341028
11
135.5722363374
21
163.7942341028
0
LINE
5
37A
100
AcDbEntity
8
0
100
AcDbLine
62
7
6
CONTINUOUS
10
179.8409557601
20
163.9120923094
11
175.8835088869
21
163.9120923094
0
LINE
5
37B
100
AcDbEntity
8
0
100
AcDbLine
62
7
6
CONTINUOUS
10
175.8835088869
20
166.0854001896
11
179.8409557601
21
166.0854001896
0
LINE
5
37C
100
AcDbEntity
8
0
100
AcDbLine
62
7
6
CONTINUOUS
10
179.8409557601
20
166.6287274188
11
175.8835088869
21
166.6287274188
0
LINE
5
37D
100
AcDbEntity
8
0
100
AcDbLine
62
7
6
CONTINUOUS
10
175.2452110907
20
163.4593200071
11
175.8835088869
21
163.3687653393
0
LINE
5
37E
100
AcDbEntity
8
0
100
AcDbLine
62
7
6
CONTINUOUS
10
175.8835088869
20
159.5654770671
11
175.3728706499
21
159.6560312167
0
LINE
5
37F
100
AcDbEntity
8
0
100
AcDbLine
62
7
6
CONTINUOUS
10
125.0281899472
20
171.9785613428
11
125.4111686250
21
171.8940503261
0
LINE
5
380
100
AcDbEntity
8
0
100
AcDbLine
62
7
6
CONTINUOUS
10
125.5388281842
20
172.4011125576
11
125.1558495065
21
172.4856235743
0
LINE
5
381
100
AcDbEntity
8
0
100
AcDbLine
62
7
6
CONTINUOUS
10
166.9322733977
20
157.1272127806
11
167.0774342729
21
157.0421064077
0
LINE
5
382
100
AcDbEntity
8
0
100
AcDbLine
62
7
6
CONTINUOUS
10
165.7709888879
20
157.1272127806
11
165.9161489325
21
157.0421064077
0
LINE
5
383
100
AcDbEntity
8
0
100
AcDbLine
62
7
6
CONTINUOUS
10
162.6500358855
20
157.0421064077
11
162.7226159078
21
156.9570000349
0
LINE
5
384
100
AcDbEntity
8
0
100
AcDbLine
62
7
6
CONTINUOUS
10
163.0855176804
20
157.1272127806
11
162.8677767830
21
157.3825318991
0
LINE
5
385
100
AcDbEntity
8
0
100
AcDbLine
62
7
6
CONTINUOUS
10
163.8113203952
20
157.0421064077
11
163.8839008328
21
156.9570000349
0
LINE
5
386
100
AcDbEntity
8
0
100
AcDbLine
62
7
6
CONTINUOUS
10
164.1742221679
20
157.2123191534
11
164.0290612927
21
157.3825318991
0
LINE
5
387
100
AcDbEntity
8
0
100
AcDbLine
62
7
6
CONTINUOUS
10
162.7226159078
20
156.9570000349
11
162.7951963454
21
156.7867872892
0
LINE
5
388
100
AcDbEntity
8
0
100
AcDbLine
62
7
6
CONTINUOUS
10
162.7951963454
20
156.7867872892
11
162.7951963454
21
154.7442341028
0
LINE
5
389
100
AcDbEntity
8
0
100
AcDbLine
62
7
6
CONTINUOUS
10
163.1580977027
20
154.7442341028
11
163.1580977027
21
156.7867872892
0
LINE
5
38A
100
AcDbEntity
8
0
100
AcDbLine
62
7
6
CONTINUOUS
10
163.9564812704
20
156.7867872892
11
163.9564812704
21
154.7442341028
0
LINE
5
38B
100
AcDbEntity
8
0
100
AcDbLine
62
7
6
CONTINUOUS
10
164.3193826278
20
154.7442341028
11
164.3193826278
21
156.7867872892
0
LINE
5
38C
100
AcDbEntity
8
0
100
AcDbLine
62
7
6
CONTINUOUS
10
164.9000248827
20
157.4676382719
11
164.9000248827
21
154.7442341028
0
LINE
5
38D
100
AcDbEntity
8
0
100
AcDbLine
62
7
6
CONTINUOUS
10
165.2629266553
20
154.7442341028
11
165.2629266553
21
156.8718936621
0
LINE
5
38E
100
AcDbEntity
8
0
100
AcDbLine
62
7
6
CONTINUOUS
10
165.2629266553
20
157.2123191534
11
165.2629266553
21
157.4676382719
0
LINE
5
38F
100
AcDbEntity
8
0
100
AcDbLine
62
7
6
CONTINUOUS
10
166.0613098077
20
156.7867872892
11
166.0613098077
21
154.7442341028
0
LINE
5
390
100
AcDbEntity
8
0
100
AcDbLine
62
7
6
CONTINUOUS
10
166.4242115804
20
156.7867872892
11
166.4967916027
21
156.9570000349
0
LINE
5
391
100
AcDbEntity
8
0
100
AcDbLine
62
7
6
CONTINUOUS
10
174.2239344826
20
165.9948460401
11
173.9686153305
21
165.6326278873
0
LINE
5
392
100
AcDbEntity
8
0
100
AcDbLine
62
7
6
CONTINUOUS
10
178.9473388454
20
159.2938135821
11
179.4579770824
21
159.6560312167
0
LINE
5
393
100
AcDbEntity
8
0
100
AcDbLine
62
7
6
CONTINUOUS
10
123.2409557601
20
164.1190967539
11
129.2409557601
21
165.4712633494
0
LINE
5
394
100
AcDbEntity
8
0
100
AcDbLine
62
7
6
CONTINUOUS
10
125.0281899472
20
161.4992745794
11
124.6452109119
21
161.4147654970
0
LINE
5
395
100
AcDbEntity
8
0
100
AcDbLine
62
7
6
CONTINUOUS
10
177.9260620137
20
167.4437178738
11
178.4367006084
21
167.4437178738
0
LINE
5
396
100
AcDbEntity
8
0
100
AcDbLine
62
7
6
CONTINUOUS
10
178.4367006084
20
167.9870448439
11
178.0537215730
21
167.9870448439
0
LINE
5
397
100
AcDbEntity
8
0
100
AcDbLine
62
7
6
CONTINUOUS
10
123.2409557601
20
168.1755946062
11
129.2409557601
21
168.1755946062
0
LINE
5
398
100
AcDbEntity
8
0
100
AcDbLine
62
7
6
CONTINUOUS
10
129.2409557601
20
168.6826568377
11
123.2409557601
21
168.6826568377
0
LINE
5
399
100
AcDbEntity
8
0
100
AcDbLine
62
7
6
CONTINUOUS
10
123.2409557601
20
169.3587391684
11
129.2409557601
21
169.3587391684
0
LINE
5
39A
100
AcDbEntity
8
0
100
AcDbLine
62
7
6
CONTINUOUS
10
129.2409557601
20
169.8658013999
11
126.5601046582
21
169.8658013999
0
LINE
5
39B
100
AcDbEntity
8
0
100
AcDbLine
62
7
6
CONTINUOUS
10
125.7941473027
20
169.8658013999
11
123.8792535564
21
169.8658013999
0
LINE
5
39C
100
AcDbEntity
8
0
100
AcDbLine
62
7
6
CONTINUOUS
10
173.8409557601
20
170.2509071328
11
176.5218068620
21
170.2509071328
0
LINE
5
39D
100
AcDbEntity
8
0
100
AcDbLine
62
7
6
CONTINUOUS
10
177.2877642175
20
170.2509071328
11
179.2026579639
21
170.2509071328
0
LINE
5
39E
100
AcDbEntity
8
0
100
AcDbLine
62
7
6
CONTINUOUS
10
175.8835088869
20
163.9120923094
11
175.3728706499
21
164.0026469771
0
LINE
5
39F
100
AcDbEntity
8
0
100
AcDbLine
62
7
6
CONTINUOUS
10
174.7345727643
20
159.2938135821
11
175.2452110907
21
159.1127042466
0
LINE
5
3A0
100
AcDbEntity
8
0
100
AcDbLine
62
7
6
CONTINUOUS
10
175.3728706499
20
159.6560312167
11
174.9898919722
21
159.8371405521
0
LINE
5
3A1
100
AcDbEntity
8
0
100
AcDbLine
62
7
6
CONTINUOUS
10
165.9161489325
20
157.0421064077
11
165.9887297854
21
156.9570000349
0
LINE
5
3A2
100
AcDbEntity
8
0
100
AcDbLine
62
7
6
CONTINUOUS
10
166.3516307275
20
157.1272127806
11
166.1338898300
21
157.3825318991
0
LINE
5
3A3
100
AcDbEntity
8
0
100
AcDbLine
62
7
6
CONTINUOUS
10
167.0774342729
20
157.0421064077
11
167.1500142951
21
156.9570000349
0
LINE
5
3A4
100
AcDbEntity
8
0
100
AcDbLine
62
7
6
CONTINUOUS
10
167.4403352149
20
157.2123191534
11
167.2951751703
21
157.3825318991
0
LINE
5
3A5
100
AcDbEntity
8
0
100
AcDbLine
62
7
6
CONTINUOUS
10
163.8839008328
20
156.9570000349
11
163.9564812704
21
156.7867872892
0
LINE
5
3A6
100
AcDbEntity
8
0
100
AcDbLine
62
7
6
CONTINUOUS
10
165.9887297854
20
156.9570000349
11
166.0613098077
21
156.7867872892
0
LINE
5
3A7
100
AcDbEntity
8
0
100
AcDbLine
62
7
6
CONTINUOUS
10
164.3193826278
20
156.7867872892
11
164.1742221679
21
157.2123191534
0
LINE
5
3A8
100
AcDbEntity
8
0
100
AcDbLine
62
7
6
CONTINUOUS
10
166.4242115804
20
154.7442341028
11
166.4242115804
21
156.7867872892
0
LINE
5
3A9
100
AcDbEntity
8
0
100
AcDbLine
62
7
6
CONTINUOUS
10
167.2225943174
20
156.7867872892
11
167.2225943174
21
154.7442341028
0
LINE
5
3AA
100
AcDbEntity
8
0
100
AcDbLine
62
7
6
CONTINUOUS
10
167.5854960901
20
154.7442341028
11
167.5854960901
21
156.7867872892
0
LINE
5
3AB
100
AcDbEntity
8
0
100
AcDbLine
62
7
6
CONTINUOUS
10
178.9473388454
20
160.1088040372
11
178.6920197269
21
159.8371405521
0
LINE
5
3AC
100
AcDbEntity
8
0
100
AcDbLine
62
7
6
CONTINUOUS
10
128.4749983152
20
165.8093035476
11
123.2409557601
21
164.6261589854
0
LINE
5
3AD
100
AcDbEntity
8
0
100
AcDbLine
62
7
6
CONTINUOUS
10
179.8409557601
20
170.7942341028
11
173.8409557601
21
170.7942341028
0
LINE
5
3AE
100
AcDbEntity
8
0
100
AcDbLine
62
7
6
CONTINUOUS
10
124.6452109119
20
171.9785613428
11
125.0281899472
21
171.9785613428
0
LINE
5
3AF
100
AcDbEntity
8
0
100
AcDbLine
62
7
6
CONTINUOUS
10
125.1558495065
20
172.4856235743
11
124.6452109119
21
172.4856235743
0
LINE
5
3B0
100
AcDbEntity
8
0
100
AcDbLine
62
7
6
CONTINUOUS
10
177.5430833360
20
167.5342722825
11
177.9260620137
21
167.4437178738
0
LINE
5
3B1
100
AcDbEntity
8
0
100
AcDbLine
62
7
6
CONTINUOUS
10
178.0537215730
20
167.9870448439
11
177.6707428952
21
168.0775992525
0
LINE
5
3B2
100
AcDbEntity
8
0
100
AcDbLine
62
7
6
CONTINUOUS
10
174.7345727643
20
163.6404288244
11
175.2452110907
21
163.4593200071
0
LINE
5
3B3
100
AcDbEntity
8
0
100
AcDbLine
62
7
6
CONTINUOUS
10
175.3728706499
20
164.0026469771
11
174.9898919722
21
164.1837557944
0
LINE
5
3B4
100
AcDbEntity
8
0
100
AcDbLine
62
7
6
CONTINUOUS
10
174.2239344826
20
159.6560312167
11
174.7345727643
21
159.2938135821
0
LINE
5
3B5
100
AcDbEntity
8
0
100
AcDbLine
62
7
6
CONTINUOUS
10
167.1500142951
20
156.9570000349
11
167.2225943174
21
156.7867872892
0
LINE
5
3B6
100
AcDbEntity
8
0
100
AcDbLine
62
7
6
CONTINUOUS
10
167.5854960901
20
156.7867872892
11
167.4403352149
21
157.2123191534
0
LINE
5
3B7
100
AcDbEntity
8
0
100
AcDbLine
62
7
6
CONTINUOUS
10
170.8231049060
20
151.7442341028
11
170.8231049060
21
152.2442341028
0
LINE
5
3B8
100
AcDbEntity
8
0
100
AcDbLine
62
7
6
CONTINUOUS
10
173.9686153305
20
165.6326278873
11
173.8409557601
21
165.1798555850
0
LINE
5
3B9
100
AcDbEntity
8
0
100
AcDbLine
62
7
6
CONTINUOUS
10
174.6069132050
20
165.1798555850
11
174.7345727643
21
165.5420732196
0
LINE
5
3BA
100
AcDbEntity
8
0
100
AcDbLine
62
7
6
CONTINUOUS
10
179.2026579639
20
168.5303718140
11
179.0749984046
21
168.2587083289
0
LINE
5
3BB
100
AcDbEntity
8
0
100
AcDbLine
62
7
6
CONTINUOUS
10
179.4579770824
20
159.6560312167
11
179.7132962009
21
160.0182488513
0
LINE
5
3BC
100
AcDbEntity
8
0
100
AcDbLine
62
7
6
CONTINUOUS
10
174.2239344826
20
164.0026469771
11
174.7345727643
21
163.6404288244
0
LINE
5
3BD
100
AcDbEntity
8
0
100
AcDbLine
62
7
6
CONTINUOUS
10
174.9898919722
20
159.8371405521
11
174.7345727643
21
160.1088040372
0
LINE
5
3BE
100
AcDbEntity
8
0
100
AcDbLine
62
7
6
CONTINUOUS
10
173.9686153305
20
160.0182488513
11
174.2239344826
21
159.6560312167
0
LINE
5
3BF
100
AcDbEntity
8
0
100
AcDbLine
62
7
6
CONTINUOUS
10
173.8409557601
20
170.7942341028
11
173.8409557601
21
170.2509071328
0
LINE
5
3C0
100
AcDbEntity
8
0
100
AcDbLine
62
7
6
CONTINUOUS
10
173.8409557601
20
167.9870448439
11
173.8409557601
21
167.3531632061
0
LINE
5
3C1
100
AcDbEntity
8
0
100
AcDbLine
62
7
6
CONTINUOUS
10
173.8409557601
20
165.1798555850
11
173.8409557601
21
164.8176374322
0
LINE
5
3C2
100
AcDbEntity
8
0
100
AcDbLine
62
7
6
CONTINUOUS
10
173.8409557601
20
162.6443295520
11
173.8409557601
21
160.4710216718
0
LINE
5
3C3
100
AcDbEntity
8
0
100
AcDbLine
62
7
6
CONTINUOUS
10
174.6069132050
20
160.4710216718
11
174.6069132050
21
162.1010025819
0
LINE
5
3C4
100
AcDbEntity
8
0
100
AcDbLine
62
7
6
CONTINUOUS
10
174.6069132050
20
164.8176374322
11
174.6069132050
21
165.1798555850
0
LINE
5
3C5
100
AcDbEntity
8
0
100
AcDbLine
62
7
6
CONTINUOUS
10
176.5218068620
20
170.2509071328
11
176.5218068620
21
168.7114807608
0
LINE
5
3C6
100
AcDbEntity
8
0
100
AcDbLine
62
7
6
CONTINUOUS
10
179.7132962009
20
168.1681536612
11
179.8409557601
21
168.6209262226
0
LINE
5
3C7
100
AcDbEntity
8
0
100
AcDbLine
62
7
6
CONTINUOUS
10
179.0749984046
20
160.4710216718
11
178.9473388454
21
160.1088040372
0
LINE
5
3C8
100
AcDbEntity
8
0
100
AcDbLine
62
7
6
CONTINUOUS
10
124.2622322341
20
171.8940503261
11
124.6452109119
21
171.9785613428
0
LINE
5
3C9
100
AcDbEntity
8
0
100
AcDbLine
62
7
6
CONTINUOUS
10
124.6452109119
20
172.4856235743
11
124.2622322341
21
172.4011125576
0
LINE
5
3CA
100
AcDbEntity
8
0
100
AcDbLine
62
7
6
CONTINUOUS
10
177.0324450990
20
167.8059357675
11
177.5430833360
21
167.5342722825
0
LINE
5
3CB
100
AcDbEntity
8
0
100
AcDbLine
62
7
6
CONTINUOUS
10
174.9898919722
20
164.1837557944
11
174.7345727643
21
164.4554192795
0
LINE
5
3CC
100
AcDbEntity
8
0
100
AcDbLine
62
7
6
CONTINUOUS
10
173.9686153305
20
164.3648651299
11
174.2239344826
21
164.0026469771
0
LINE
5
3CD
100
AcDbEntity
8
0
100
AcDbLine
62
7
6
CONTINUOUS
10
174.7345727643
20
160.1088040372
11
174.6069132050
21
160.4710216718
0
LINE
5
3CE
100
AcDbEntity
8
0
100
AcDbLine
62
7
6
CONTINUOUS
10
174.7345727643
20
164.4554192795
11
174.6069132050
21
164.8176374322
0
LINE
5
3CF
100
AcDbEntity
8
0
100
AcDbLine
62
7
6
CONTINUOUS
10
173.8409557601
20
160.4710216718
11
173.9686153305
21
160.0182488513
0
LINE
5
3D0
100
AcDbEntity
8
0
100
AcDbLine
62
7
6
CONTINUOUS
10
173.8409557601
20
164.8176374322
11
173.9686153305
21
164.3648651299
0
LINE
5
3D1
100
AcDbEntity
8
0
100
AcDbLine
62
7
6
CONTINUOUS
10
177.2877642175
20
168.5303718140
11
177.2877642175
21
170.2509071328
0
LINE
5
3D2
100
AcDbEntity
8
0
100
AcDbLine
62
7
6
CONTINUOUS
10
179.0749984046
20
162.1010025819
11
179.0749984046
21
160.4710216718
0
LINE
5
3D3
100
AcDbEntity
8
0
100
AcDbLine
62
7
6
CONTINUOUS
10
179.2026579639
20
170.2509071328
11
179.2026579639
21
168.5303718140
0
LINE
5
3D4
100
AcDbEntity
8
0
100
AcDbLine
62
7
6
CONTINUOUS
10
179.8409557601
20
160.4710216718
11
179.8409557601
21
162.6443295520
0
LINE
5
3D5
100
AcDbEntity
8
0
100
AcDbLine
62
7
6
CONTINUOUS
10
179.8409557601
20
163.3687653393
11
179.8409557601
21
163.9120923094
0
LINE
5
3D6
100
AcDbEntity
8
0
100
AcDbLine
62
7
6
CONTINUOUS
10
179.8409557601
20
166.0854001896
11
179.8409557601
21
166.6287274188
0
LINE
5
3D7
100
AcDbEntity
8
0
100
AcDbLine
62
7
6
CONTINUOUS
10
179.8409557601
20
168.6209262226
11
179.8409557601
21
170.7942341028
0
LINE
5
3D8
100
AcDbEntity
8
0
100
AcDbLine
62
7
6
CONTINUOUS
10
179.7132962009
20
160.0182488513
11
179.8409557601
21
160.4710216718
0
LINE
5
3D9
100
AcDbEntity
8
0
100
AcDbLine
62
7
6
CONTINUOUS
10
177.6707428952
20
168.0775992525
11
177.4154237767
21
168.2587083289
0
LINE
5
3DA
100
AcDbEntity
8
0
100
AcDbLine
62
7
6
CONTINUOUS
10
176.7771259805
20
168.1681536612
11
177.0324450990
21
167.8059357675
0
LINE
5
3DB
100
AcDbEntity
8
0
100
AcDbLine
62
7
6
CONTINUOUS
10
181.1942676916
20
145.7942341028
11
181.1942676916
21
165.7942341028
0
LINE
5
3DC
100
AcDbEntity
8
0
100
AcDbLine
62
7
6
CONTINUOUS
10
183.5409557601
20
145.7942341028
11
183.5409557601
21
165.7942341028
0
LINE
5
3DD
100
AcDbEntity
8
0
100
AcDbLine
62
7
6
CONTINUOUS
10
177.4154237767
20
168.2587083289
11
177.2877642175
21
168.5303718140
0
LINE
5
3DE
100
AcDbEntity
8
DEFAULT_2
100
AcDbLine
62
8
6
HIDDEN
10
292.3771299929
20
126.7942341028
11
298.3771299929
21
126.7942341028
0
LINE
5
3DF
100
AcDbEntity
8
0
100
AcDbLine
62
7
6
CONTINUOUS
10
300.3771299929
20
140.7942341028
11
300.8771299929
21
140.7942341028
0
LINE
5
3E0
100
AcDbEntity
8
0
100
AcDbLine
62
7
6
CONTINUOUS
10
300.3771299929
20
141.3012963344
11
300.8771299929
21
141.3012963344
0
LINE
5
3E1
100
AcDbEntity
8
0
100
AcDbLine
62
7
6
CONTINUOUS
10
300.3771299929
20
142.4844415010
11
300.8771299929
21
142.4844415010
0
LINE
5
3E2
100
AcDbEntity
8
0
100
AcDbLine
62
7
6
CONTINUOUS
10
300.3771299929
20
143.6675866677
11
300.8771299929
21
143.6675866677
0
LINE
5
3E3
100
AcDbEntity
8
0
100
AcDbLine
62
7
6
CONTINUOUS
10
300.3771299929
20
144.1746488992
11
300.8771299929
21
144.1746488992
0
LINE
5
3E4
100
AcDbEntity
8
0
100
AcDbLine
62
7
6
CONTINUOUS
10
300.3771299929
20
144.8507319552
11
300.8771299929
21
144.8507319552
0
LINE
5
3E5
100
AcDbEntity
8
0
100
AcDbLine
62
7
6
CONTINUOUS
10
300.3771299929
20
144.9352424883
11
300.8771299929
21
144.9352424883
0
LINE
5
3E6
100
AcDbEntity
8
0
100
AcDbLine
62
7
6
CONTINUOUS
10
300.3771299929
20
145.1042630710
11
300.8771299929
21
145.1042630710
0
LINE
5
3E7
100
AcDbEntity
8
0
100
AcDbLine
62
7
6
CONTINUOUS
10
300.3771299929
20
145.4423047198
11
300.8771299929
21
145.4423047198
0
LINE
5
3E8
100
AcDbEntity
8
0
100
AcDbLine
62
7
6
CONTINUOUS
10
300.3771299929
20
145.7803458852
11
300.8771299929
21
145.7803458852
0
LINE
5
3E9
100
AcDbEntity
8
0
100
AcDbLine
62
7
6
CONTINUOUS
10
300.3771299929
20
146.2028980672
11
300.8771299929
21
146.2028980672
0
LINE
5
3EA
100
AcDbEntity
8
0
100
AcDbLine
62
7
6
CONTINUOUS
10
300.3771299929
20
146.9634914145
11
300.8771299929
21
146.9634914145
0
LINE
5
3EB
100
AcDbEntity
8
0
100
AcDbLine
62
7
6
CONTINUOUS
10
300.3771299929
20
147.3860431129
11
300.8771299929
21
147.3860431129
0
LINE
5
3EC
100
AcDbEntity
8
0
100
AcDbLine
62
7
6
CONTINUOUS
10
289.8771299929
20
153.9950091313
11
289.8771299929
21
149.5934590744
0
LINE
5
3ED
100
AcDbEntity
8
0
100
AcDbLine
62
7
6
CONTINUOUS
10
300.3771299929
20
147.7240847618
11
300.8771299929
21
147.7240847618
0
LINE
5
3EE
100
AcDbEntity
8
0
100
AcDbLine
62
7
6
CONTINUOUS
10
300.3771299929
20
148.0621259271
11
300.8771299929
21
148.0621259271
0
LINE
5
3EF
100
AcDbEntity
8
0
100
AcDbLine
62
7
6
CONTINUOUS
10
300.3771299929
20
148.1466364602
11
300.8771299929
21
148.1466364602
0
LINE
5
3F0
100
AcDbEntity
8
0
100
AcDbLine
62
7
6
CONTINUOUS
10
300.3771299929
20
148.8227192744
11
300.8771299929
21
148.8227192744
0
LINE
5
3F1
100
AcDbEntity
8
0
100
AcDbLine
62
7
6
CONTINUOUS
10
300.3771299929
20
148.9072298075
11
300.8771299929
21
148.9072298075
0
LINE
5
3F2
100
AcDbEntity
8
0
100
AcDbLine
62
7
6
CONTINUOUS
10
300.3771299929
20
149.0762508738
11
300.8771299929
21
149.0762508738
0
LINE
5
3F3
100
AcDbEntity
8
0
100
AcDbLine
62
7
6
CONTINUOUS
10
300.3771299929
20
149.4142920391
11
300.8771299929
21
149.4142920391
0
LINE
5
3F4
100
AcDbEntity
8
0
100
AcDbLine
62
7
6
CONTINUOUS
10
290.3771299929
20
149.5934590744
11
289.8771299929
21
149.5934590744
0
LINE
5
3F5
100
AcDbEntity
8
0
100
AcDbLine
62
7
6
CONTINUOUS
10
300.3771299929
20
149.7523332044
11
300.8771299929
21
149.7523332044
0
LINE
5
3F6
100
AcDbEntity
8
0
100
AcDbLine
62
7
6
CONTINUOUS
10
290.3771299929
20
150.0264717763
11
289.8771299929
21
150.0264717763
0
LINE
5
3F7
100
AcDbEntity
8
0
100
AcDbLine
62
7
6
CONTINUOUS
10
300.3771299929
20
150.1748853864
11
300.8771299929
21
150.1748853864
0
LINE
5
3F8
100
AcDbEntity
8
0
100
AcDbLine
62
7
6
CONTINUOUS
10
290.3771299929
20
195.4473044897
11
290.3771299929
21
116.1411637160
0
LINE
5
3F9
100
AcDbEntity
8
0
100
AcDbLine
62
7
6
CONTINUOUS
10
300.3771299929
20
150.9354787337
11
300.8771299929
21
150.9354787337
0
LINE
5
3FA
100
AcDbEntity
8
0
100
AcDbLine
62
7
6
CONTINUOUS
10
300.3771299929
20
151.3580309157
11
300.8771299929
21
151.3580309157
0
LINE
5
3FB
100
AcDbEntity
8
0
100
AcDbLine
62
7
6
CONTINUOUS
10
290.3771299929
20
151.5442341028
11
289.8771299929
21
151.5442341028
0
LINE
5
3FC
100
AcDbEntity
8
0
100
AcDbLine
62
7
6
CONTINUOUS
10
300.3771299929
20
151.6960720810
11
300.8771299929
21
151.6960720810
0
LINE
5
3FD
100
AcDbEntity
8
0
100
AcDbLine
62
7
6
CONTINUOUS
10
300.3771299929
20
152.0341132463
11
300.8771299929
21
152.0341132463
0
LINE
5
3FE
100
AcDbEntity
8
0
100
AcDbLine
62
7
6
CONTINUOUS
10
290.3771299929
20
152.0442341028
11
289.8771299929
21
152.0442341028
0
LINE
5
3FF
100
AcDbEntity
8
0
100
AcDbLine
62
7
6
CONTINUOUS
10
300.3771299929
20
152.1186242630
11
300.8771299929
21
152.1186242630
0
LINE
5
400
100
AcDbEntity
8
0
100
AcDbLine
62
7
6
CONTINUOUS
10
300.3771299929
20
152.2442341028
11
300.8771299929
21
152.2442341028
0
LINE
5
401
100
AcDbEntity
8
DEFAULT_1
100
AcDbLine
62
2
6
CENTER
10
295.3771299929
20
110.7942341028
11
295.3771299929
21
200.7942341028
0
LINE
5
402
100
AcDbEntity
8
0
100
AcDbLine
62
7
6
CONTINUOUS
10
290.3771299929
20
153.5619964294
11
289.8771299929
21
153.5619964294
0
LINE
5
403
100
AcDbEntity
8
0
100
AcDbLine
62
7
6
CONTINUOUS
10
300.3771299929
20
153.7262849104
11
300.8771299929
21
153.7262849104
0
LINE
5
404
100
AcDbEntity
8
0
100
AcDbLine
62
7
6
CONTINUOUS
10
290.3771299929
20
153.9950091313
11
289.8771299929
21
153.9950091313
0
LINE
5
405
100
AcDbEntity
8
0
100
AcDbLine
62
7
6
CONTINUOUS
10
300.3771299929
20
154.1592976123
11
300.8771299929
21
154.1592976123
0
LINE
5
406
100
AcDbEntity
8
0
100
AcDbLine
62
7
6
CONTINUOUS
10
300.3771299929
20
154.7442341028
11
300.8771299929
21
154.7442341028
0
LINE
5
407
100
AcDbEntity
8
0
100
AcDbLine
62
7
6
CONTINUOUS
10
300.3771299929
20
154.8293404831
11
300.8771299929
21
154.8293404831
0
LINE
5
408
100
AcDbEntity
8
0
100
AcDbLine
62
7
6
CONTINUOUS
10
300.3771299929
20
155.0846596240
11
300.8771299929
21
155.0846596240
0
LINE
5
409
100
AcDbEntity
8
0
100
AcDbLine
62
7
6
CONTINUOUS
10
300.3771299929
20
155.5101915775
11
300.8771299929
21
155.5101915775
0
LINE
5
40A
100
AcDbEntity
8
0
100
AcDbLine
62
7
6
CONTINUOUS
10
300.3771299929
20
155.8506170689
11
300.8771299929
21
155.8506170689
0
LINE
5
40B
100
AcDbEntity
8
0
100
AcDbLine
62
7
6
CONTINUOUS
10
300.3771299929
20
156.0208298145
11
300.8771299929
21
156.0208298145
0
LINE
5
40C
100
AcDbEntity
8
0
100
AcDbLine
62
7
6
CONTINUOUS
10
300.3771299929
20
156.2761490522
11
300.8771299929
21
156.2761490522
0
LINE
5
40D
100
AcDbEntity
8
0
100
AcDbLine
62
7
6
CONTINUOUS
10
300.3771299929
20
156.4463617979
11
300.8771299929
21
156.4463617979
0
LINE
5
40E
100
AcDbEntity
8
0
100
AcDbLine
62
7
6
CONTINUOUS
10
300.3771299929
20
156.5314681707
11
300.8771299929
21
156.5314681707
0
LINE
5
40F
100
AcDbEntity
8
0
100
AcDbLine
62
7
6
CONTINUOUS
10
300.3771299929
20
156.6165745436
11
300.8771299929
21
156.6165745436
0
LINE
5
410
100
AcDbEntity
8
0
100
AcDbLine
62
7
6
CONTINUOUS
10
300.3771299929
20
156.7867872892
11
300.8771299929
21
156.7867872892
0
LINE
5
411
100
AcDbEntity
8
0
100
AcDbLine
62
7
6
CONTINUOUS
10
300.3771299929
20
156.8512044460
11
300.8771299929
21
156.8512044460
0
LINE
5
412
100
AcDbEntity
8
0
100
AcDbLine
62
7
6
CONTINUOUS
10
300.3771299929
20
157.3582676447
11
300.8771299929
21
157.3582676447
0
LINE
5
413
100
AcDbEntity
8
0
100
AcDbLine
62
7
6
CONTINUOUS
10
300.3771299929
20
157.8653298762
11
300.8771299929
21
157.8653298762
0
LINE
5
414
100
AcDbEntity
8
0
100
AcDbLine
62
7
6
CONTINUOUS
10
300.3771299929
20
158.1484894930
11
300.8771299929
21
158.1484894930
0
LINE
5
415
100
AcDbEntity
8
0
100
AcDbLine
62
7
6
CONTINUOUS
10
300.3771299929
20
158.4889149843
11
300.8771299929
21
158.4889149843
0
LINE
5
416
100
AcDbEntity
8
0
100
AcDbLine
62
7
6
CONTINUOUS
10
300.3771299929
20
158.5414122069
11
300.8771299929
21
158.5414122069
0
LINE
5
417
100
AcDbEntity
8
0
100
AcDbLine
62
7
6
CONTINUOUS
10
300.3771299929
20
158.6259232236
11
300.8771299929
21
158.6259232236
0
LINE
5
418
100
AcDbEntity
8
0
100
AcDbLine
62
7
6
CONTINUOUS
10
300.3771299929
20
158.7104323060
11
300.8771299929
21
158.7104323060
0
LINE
5
419
100
AcDbEntity
8
0
100
AcDbLine
62
7
6
CONTINUOUS
10
300.3771299929
20
158.8794543393
11
300.8771299929
21
158.8794543393
0
LINE
5
41A
100
AcDbEntity
8
0
100
AcDbLine
62
7
6
CONTINUOUS
10
300.3771299929
20
195.4473044897
11
300.3771299929
21
116.1411637160
0
LINE
5
41B
100
AcDbEntity
8
0
100
AcDbLine
62
7
6
CONTINUOUS
10
300.8771299929
20
172.4856235743
11
300.8771299929
21
163.4593200071
0
LINE
5
41C
100
AcDbEntity
8
0
100
AcDbLine
62
7
6
CONTINUOUS
10
300.8771299929
20
163.4430144232
11
300.8771299929
21
154.7442341028
0
LINE
5
41D
100
AcDbEntity
8
0
100
AcDbLine
62
7
6
CONTINUOUS
10
300.8771299929
20
154.1592976123
11
300.8771299929
21
148.8227192744
0
LINE
5
41E
100
AcDbEntity
8
0
100
AcDbLine
62
7
6
CONTINUOUS
10
300.8771299929
20
148.1466364602
11
300.8771299929
21
144.8507319552
0
LINE
5
41F
100
AcDbEntity
8
0
100
AcDbLine
62
7
6
CONTINUOUS
10
300.8771299929
20
144.1746488992
11
300.8771299929
21
140.7942341028
0
LINE
5
420
100
AcDbEntity
8
0
100
AcDbLine
62
7
6
CONTINUOUS
10
300.3771299929
20
159.1329854551
11
300.8771299929
21
159.1329854551
0
LINE
5
421
100
AcDbEntity
8
0
100
AcDbLine
62
7
6
CONTINUOUS
10
300.3771299929
20
159.5555366700
11
300.8771299929
21
159.5555366700
0
LINE
5
422
100
AcDbEntity
8
0
100
AcDbLine
62
7
6
CONTINUOUS
10
300.3771299929
20
160.0625989015
11
300.8771299929
21
160.0625989015
0
LINE
5
423
100
AcDbEntity
8
0
100
AcDbLine
62
7
6
CONTINUOUS
10
300.3771299929
20
160.5696611330
11
300.8771299929
21
160.5696611330
0
LINE
5
424
100
AcDbEntity
8
0
100
AcDbLine
62
7
6
CONTINUOUS
10
300.3771299929
20
160.9922123479
11
300.8771299929
21
160.9922123479
0
LINE
5
425
100
AcDbEntity
8
0
100
AcDbLine
62
7
6
CONTINUOUS
10
300.3771299929
20
161.2457434637
11
300.8771299929
21
161.2457434637
0
LINE
5
426
100
AcDbEntity
8
0
100
AcDbLine
62
7
6
CONTINUOUS
10
300.3771299929
20
161.4147654970
11
300.8771299929
21
161.4147654970
0
LINE
5
427
100
AcDbEntity
8
0
100
AcDbLine
62
7
6
CONTINUOUS
10
300.3771299929
20
161.4992745794
11
300.8771299929
21
161.4992745794
0
LINE
5
428
100
AcDbEntity
8
0
100
AcDbLine
62
7
6
CONTINUOUS
10
300.3771299929
20
161.5837855961
11
300.8771299929
21
161.5837855961
0
LINE
5
429
100
AcDbEntity
8
0
100
AcDbLine
62
7
6
CONTINUOUS
10
300.3771299929
20
162.2598679268
11
300.8771299929
21
162.2598679268
0
LINE
5
42A
100
AcDbEntity
8
0
100
AcDbLine
62
7
6
CONTINUOUS
10
300.3771299929
20
163.4430144232
11
300.8771299929
21
163.4430144232
0
LINE
5
42B
100
AcDbEntity
8
0
100
AcDbLine
62
7
6
CONTINUOUS
10
300.3771299929
20
163.4593200071
11
300.8771299929
21
163.4593200071
0
LINE
5
42C
100
AcDbEntity
8
0
100
AcDbLine
62
7
6
CONTINUOUS
10
300.3771299929
20
163.6404288244
11
300.8771299929
21
163.6404288244
0
LINE
5
42D
100
AcDbEntity
8
0
100
AcDbLine
62
7
6
CONTINUOUS
10
300.3771299929
20
164.0026469771
11
300.8771299929
21
164.0026469771
0
LINE
5
42E
100
AcDbEntity
8
0
100
AcDbLine
62
7
6
CONTINUOUS
10
300.3771299929
20
164.1190967539
11
300.8771299929
21
164.1190967539
0
LINE
5
42F
100
AcDbEntity
8
0
100
AcDbLine
62
7
6
CONTINUOUS
10
300.3771299929
20
164.6261589854
11
300.8771299929
21
164.6261589854
0
LINE
5
430
100
AcDbEntity
8
0
100
AcDbLine
62
7
6
CONTINUOUS
10
300.3771299929
20
165.8093035476
11
300.8771299929
21
165.8093035476
0
LINE
5
431
100
AcDbEntity
8
0
100
AcDbLine
62
7
6
CONTINUOUS
10
300.3771299929
20
166.9924500440
11
300.8771299929
21
166.9924500440
0
LINE
5
432
100
AcDbEntity
8
0
100
AcDbLine
62
7
6
CONTINUOUS
10
300.3771299929
20
167.4995122756
11
300.8771299929
21
167.4995122756
0
LINE
5
433
100
AcDbEntity
8
0
100
AcDbLine
62
7
6
CONTINUOUS
10
300.3771299929
20
167.9870448439
11
300.8771299929
21
167.9870448439
0
LINE
5
434
100
AcDbEntity
8
0
100
AcDbLine
62
7
6
CONTINUOUS
10
300.3771299929
20
168.1755946062
11
300.8771299929
21
168.1755946062
0
LINE
5
435
100
AcDbEntity
8
0
100
AcDbLine
62
7
6
CONTINUOUS
10
300.3771299929
20
168.6826568377
11
300.8771299929
21
168.6826568377
0
LINE
5
436
100
AcDbEntity
8
0
100
AcDbLine
62
7
6
CONTINUOUS
10
300.3771299929
20
168.7114807608
11
300.8771299929
21
168.7114807608
0
LINE
5
437
100
AcDbEntity
8
0
100
AcDbLine
62
7
6
CONTINUOUS
10
300.3771299929
20
169.3587391684
11
300.8771299929
21
169.3587391684
0
LINE
5
438
100
AcDbEntity
8
0
100
AcDbLine
62
7
6
CONTINUOUS
10
300.3771299929
20
171.3869880946
11
300.8771299929
21
171.3869880946
0
LINE
5
439
100
AcDbEntity
8
0
100
AcDbLine
62
7
6
CONTINUOUS
10
300.3771299929
20
171.8095412437
11
300.8771299929
21
171.8095412437
0
LINE
5
43A
100
AcDbEntity
8
0
100
AcDbLine
62
7
6
CONTINUOUS
10
300.3771299929
20
172.1475814419
11
300.8771299929
21
172.1475814419
0
LINE
5
43B
100
AcDbEntity
8
0
100
AcDbLine
62
7
6
CONTINUOUS
10
300.3771299929
20
172.4011125576
11
300.8771299929
21
172.4011125576
0
LINE
5
43C
100
AcDbEntity
8
0
100
AcDbLine
62
7
6
CONTINUOUS
10
300.3771299929
20
172.4856235743
11
300.8771299929
21
172.4856235743
0
LINE
5
43D
100
AcDbEntity
8
DEFAULT_2
100
AcDbLine
62
8
6
HIDDEN
10
292.3771299929
20
184.7942341028
11
298.3771299929
21
184.7942341028
0
ARC
5
43E
100
AcDbEntity
8
0
100
AcDbCircle
62
7
6
CONTINUOUS
10
151.5409557601
20
145.7942341028
40
32.0000000000
100
AcDbArc
50
180.0000000000
51
360.0000000000
0
ARC
5
43F
100
AcDbEntity
8
0
100
AcDbCircle
62
7
6
CONTINUOUS
10
151.5409557601
20
165.7942341028
40
32.0000000000
100
AcDbArc
50
0.0000000000
51
180.0000000000
0
ARC
5
440
100
AcDbEntity
8
0
100
AcDbCircle
62
7
6
CONTINUOUS
10
167.5096751828
20
166.7942341028
40
3.0000000000
100
AcDbArc
50
270.0000000000
51
3.5833216985
0
ARC
5
441
100
AcDbEntity
8
0
100
AcDbCircle
62
7
6
CONTINUOUS
10
151.5409557601
20
165.7942341028
40
19.0000000000
100
AcDbArc
50
3.5833216985
51
176.4166783015
0
ARC
5
442
100
AcDbEntity
8
0
100
AcDbCircle
62
7
6
CONTINUOUS
10
135.5722363374
20
166.7942341028
40
3.0000000000
100
AcDbArc
50
176.4166783015
51
270.0000000000
0
ARC
5
443
100
AcDbEntity
8
0
100
AcDbCircle
62
7
6
CONTINUOUS
10
135.5722363374
20
144.7942341028
40
3.0000000000
100
AcDbArc
50
90.0000000000
51
183.5833216985
0
ARC
5
444
100
AcDbEntity
8
0
100
AcDbCircle
62
7
6
CONTINUOUS
10
151.5409557601
20
145.7942341028
40
19.0000000000
100
AcDbArc
50
183.5833216985
51
356.4166783015
0
ARC
5
445
100
AcDbEntity
8
0
100
AcDbCircle
62
7
6
CONTINUOUS
10
167.5096751828
20
144.7942341028
40
3.0000000000
100
AcDbArc
50
356.4166783015
51
90.0000000000
0
ARC
5
446
100
AcDbEntity
8
0
100
AcDbCircle
62
7
6
CONTINUOUS
10
151.5409557601
20
165.7942341028
40
29.6533119315
100
AcDbArc
50
0.0000000000
51
180.0000000000
0
ARC
5
447
100
AcDbEntity
8
0
100
AcDbCircle
62
7
6
CONTINUOUS
10
151.5409557601
20
145.7942341028
40
29.6533119315
100
AcDbArc
50
180.0000000000
51
360.0000000000
0
ARC
5
448
100
AcDbEntity
8
DEFAULT_2
100
AcDbCircle
62
8
6
HIDDEN
10
292.3771299929
20
124.7942341028
40
2.0000000000
100
AcDbArc
50
90.0000000000
51
179.9999982848
0
ARC
5
449
100
AcDbEntity
8
DEFAULT_2
100
AcDbCircle
62
8
6
HIDDEN
10
292.3771299929
20
186.7942341028
40
2.0000000000
100
AcDbArc
50
180.0000017152
51
270.0000000000
0
ARC
5
44A
100
AcDbEntity
8
DEFAULT_2
100
AcDbCircle
62
8
6
HIDDEN
10
298.3771299929
20
124.7942341028
40
2.0000000000
100
AcDbArc
50
0.0000017152
51
90.0000000000
0
ARC
5
44B
100
AcDbEntity
8
DEFAULT_2
100
AcDbCircle
62
8
6
HIDDEN
10
298.3771299929
20
186.7942341028
40
2.0000000000
100
AcDbArc
50
270.0000000000
51
359.9999982848
0
ARC
5
44C
100
AcDbEntity
8
0
100
AcDbCircle
62
7
6
CONTINUOUS
10
295.3771299929
20
120.2942341028
40
6.5000000000
100
AcDbArc
50
219.7151372318
51
320.2848627682
0
ARC
5
44D
100
AcDbEntity
8
0
100
AcDbCircle
62
7
6
CONTINUOUS
10
295.3771299929
20
191.2942341028
40
6.5000000000
100
AcDbArc
50
39.7151372318
51
140.2848627682
0
SPLINE
5
44E
100
AcDbEntity
8
0
100
AcDbSpline
62
7
6
CONTINUOUS
70
0
71
3
72
8
73
4
74
2
42
0.0000001000
43
0.0000001000
44
0.0000000001
40
0.0000000000
40
0.0000000000
40
0.0000000000
40
0.0000000000
40
1.0000000000
40
1.0000000000
40
1.0000000000
40
1.0000000000
10
147.7909558073
20
147.8264618372
30
0.0000000000
10
147.7703881500
20
147.8211222386
30
0.0000000000
10
147.7496402395
20
147.8164342001
30
0.0000000000
10
147.7287593519
20
147.8124076846
30
0.0000000000
11
147.7909558073
21
147.8264618372
31
0.0000000000
11
147.7287593519
21
147.8124076846
31
0.0000000000
0
SPLINE
5
44F
100
AcDbEntity
8
0
100
AcDbSpline
62
7
6
CONTINUOUS
70
0
71
3
72
9
73
5
74
3
42
0.0000001000
43
0.0000001000
44
0.0000000001
40
0.0000000000
40
0.0000000000
40
0.0000000000
40
0.0000000000
40
0.3332119517
40
1.0000000000
40
1.0000000000
40
1.0000000000
40
1.0000000000
10
147.7287593519
20
147.8124076846
30
0.0000000000
10
147.7078848498
20
147.8083824004
30
0.0000000000
10
147.6448396982
20
147.7982862268
30
0.0000000000
10
147.5810230144
20
147.7942341028
30
0.0000000000
10
147.5385138620
20
147.7942341028
30
0.0000000000
11
147.7287593519
21
147.8124076846
31
0.0000000000
11
147.6657843904
21
147.8023251411
31
0.0000000000
11
147.5385138620
21
147.7942341028
31
0.0000000000
0
SPLINE
5
450
100
AcDbEntity
8
0
100
AcDbSpline
62
7
6
CONTINUOUS
70
0
71
3
72
8
73
4
74
2
42
0.0000001000
43
0.0000001000
44
0.0000000001
40
0.0000000000
40
0.0000000000
40
0.0000000000
40
0.0000000000
40
1.0000000000
40
1.0000000000
40
1.0000000000
40
1.0000000000
10
147.7909558073
20
163.7620063684
30
0.0000000000
10
147.7703881500
20
163.7673459671
30
0.0000000000
10
147.7496402395
20
163.7720340056
30
0.0000000000
10
147.7287593519
20
163.7760605211
30
0.0000000000
11
147.7909558073
21
163.7620063684
31
0.0000000000
11
147.7287593519
21
163.7760605211
31
0.0000000000
0
SPLINE
5
451
100
AcDbEntity
8
0
100
AcDbSpline
62
7
6
CONTINUOUS
70
0
71
3
72
9
73
5
74
3
42
0.0000001000
43
0.0000001000
44
0.0000000001
40
0.0000000000
40
0.0000000000
40
0.0000000000
40
0.0000000000
40
0.3332119517
40
1.0000000000
40
1.0000000000
40
1.0000000000
40
1.0000000000
10
147.7287593519
20
163.7760605211
30
0.0000000000
10
147.7078848498
20
163.7800858052
30
0.0000000000
10
147.6448396982
20
163.7901819788
30
0.0000000000
10
147.5810230144
20
163.7942341028
30
0.0000000000
10
147.5385138620
20
163.7942341028
30
0.0000000000
11
147.7287593519
21
163.7760605211
31
0.0000000000
11
147.6657843904
21
163.7861430646
31
0.0000000000
11
147.5385138620
21
163.7942341028
31
0.0000000000
0
SPLINE
5
452
100
AcDbEntity
8
0
100
AcDbSpline
62
7
6
CONTINUOUS
70
0
71
3
72
8
73
4
74
2
42
0.0000001000
43
0.0000001000
44
0.0000000001
40
0.0000000000
40
0.0000000000
40
0.0000000000
40
0.0000000000
40
1.0000000000
40
1.0000000000
40
1.0000000000
40
1.0000000000
10
155.2909557129
20
163.7620063684
30
0.0000000000
10
155.3115233703
20
163.7673459671
30
0.0000000000
10
155.3322712807
20
163.7720340056
30
0.0000000000
10
155.3531521683
20
163.7760605211
30
0.0000000000
11
155.2909557129
21
163.7620063684
31
0.0000000000
11
155.3531521683
21
163.7760605211
31
0.0000000000
0
SPLINE
5
453
100
AcDbEntity
8
0
100
AcDbSpline
62
7
6
CONTINUOUS
70
0
71
3
72
9
73
5
74
3
42
0.0000001000
43
0.0000001000
44
0.0000000001
40
0.0000000000
40
0.0000000000
40
0.0000000000
40
0.0000000000
40
0.3332119517
40
1.0000000000
40
1.0000000000
40
1.0000000000
40
1.0000000000
10
155.3531521683
20
163.7760605211
30
0.0000000000
10
155.3740266704
20
163.7800858052
30
0.0000000000
10
155.4370718220
20
163.7901819788
30
0.0000000000
10
155.5008885059
20
163.7942341028
30
0.0000000000
10
155.5433976582
20
163.7942341028
30
0.0000000000
11
155.3531521683
21
163.7760605211
31
0.0000000000
11
155.4161271298
21
163.7861430646
31
0.0000000000
11
155.5433976582
21
163.7942341028
31
0.0000000000
0
SPLINE
5
454
100
AcDbEntity
8
0
100
AcDbSpline
62
7
6
CONTINUOUS
70
0
71
3
72
8
73
4
74
2
42
0.0000001000
43
0.0000001000
44
0.0000000001
40
0.0000000000
40
0.0000000000
40
0.0000000000
40
0.0000000000
40
1.0000000000
40
1.0000000000
40
1.0000000000
40
1.0000000000
10
155.2909557129
20
147.8264618372
30
0.0000000000
10
155.3115233703
20
147.8211222386
30
0.0000000000
10
155.3322712807
20
147.8164342001
30
0.0000000000
10
155.3531521683
20
147.8124076846
30
0.0000000000
11
155.2909557129
21
147.8264618372
31
0.0000000000
11
155.3531521683
21
147.8124076846
31
0.0000000000
0
SPLINE
5
455
100
AcDbEntity
8
0
100
AcDbSpline
62
7
6
CONTINUOUS
70
0
71
3
72
9
73
5
74
3
42
0.0000001000
43
0.0000001000
44
0.0000000001
40
0.0000000000
40
0.0000000000
40
0.0000000000
40
0.0000000000
40
0.3332119517
40
1.0000000000
40
1.0000000000
40
1.0000000000
40
1.0000000000
10
155.3531521683
20
147.8124076846
30
0.0000000000
10
155.3740266704
20
147.8083824004
30
0.0000000000
10
155.4370718220
20
147.7982862268
30
0.0000000000
10
155.5008885059
20
147.7942341028
30
0.0000000000
10
155.5433976582
20
147.7942341028
30
0.0000000000
11
155.3531521683
21
147.8124076846
31
0.0000000000
11
155.4161271298
21
147.8023251411
31
0.0000000000
11
155.5433976582
21
147.7942341028
31
0.0000000000
0
ENDSEC
0
SECTION
2
OBJECTS
0
DICTIONARY
5
456
100
AcDbDictionary
3
ACAD_GROUP
350
457
3
ACAD_MLINESTYLE
350
458
0
DICTIONARY
5
457
102
{ACAD_REACTORS
330
456
102
}
100
AcDbDictionary
0
DICTIONARY
5
458
102
{ACAD_REACTORS
330
456
102
}
100
AcDbDictionary
3
STANDARD
350
459
0
MLINESTYLE
5
459
102
{ACAD_REACTORS
330
458
102
}
100
AcDbMlineStyle
2
STANDARD
70
0
3

62
256
51
90.0
52
90.0
71
2
49
0.5
62
256
6
BYLAYER
49
-0.5
62
256
6
BYLAYER
0
ENDSEC
0
EOF
