999
DXF file: C:\Aktuell-Internet\CAD-Daten\2vcg8.dxf
999
Pro/ENGINEER 2001400 by Parametric Technology Corporation
0
SECTION
2
HEADER
9
$ACADVER
1
AC1014
9
$EXTMAX
10
420.0000000000
20
297.0000000000
9
$EXTMIN
10
0.0000000000
20
0.0000000000
9
$LIMMIN
10
0.0000000000
20
0.0000000000
9
$LIMMAX
10
420.0000000000
20
297.0000000000
9
$VIEWCTR
10
210.0000000000
20
148.5000000000
9
$VIEWSIZE
40
297.0000000000
9
$CLAYER
8
0
9
$LTSCALE
40
23.1000000000
9
$CELTYPE
6
BYLAYER
9
$DIMSCALE
40
1
9
$DIMASZ
40
3.5000000000
9
$DIMEXO
40
2.6250000000
9
$DIMDLI
40
15.9600000000
9
$DIMEXE
40
7.5600000000
9
$DIMCEN
40
3.7800000000
9
$DIMLFAC
40
1.0000000000
9
$DIMTXT
40
3.5000000000
9
$DIMTOL
70
1
9
$DIMTFAC
40
0.6000000000
9
$DIMTP
40
0.0050000000
9
$DIMTM
40
0.0050000000
9
$HANDSEED
5
48B
0
ENDSEC
0
SECTION
2
CLASSES
0
ENDSEC
0
SECTION
2
TABLES
0
TABLE
2
VPORT
5
8
100
AcDbSymbolTable
70
2
0
VPORT
5
1F4
100
AcDbSymbolTableRecord
100
AcDbViewportTableRecord
2
*ACTIVE
70
0
10
0.0
20
0.0
11
1.0
21
1.0
12
210.0000000000
22
148.5000000000
13
0.0
23
0.0
14
1.0
24
1.0
15
0.0
25
0.0
16
0.0
26
0.0
36
1.0
17
0.0
27
0.0
37
0.0
40
297.0000000000
41
1.4141414141
42
50.0
43
0.0
44
0.0
50
0.0
51
0.0
71
0
72
100
73
1
74
1
75
0
76
0
77
0
78
0
0
ENDTAB
0
TABLE
2
LTYPE
5
5
100
AcDbSymbolTable
70
6
0
LTYPE
5
14
100
AcDbSymbolTableRecord
100
AcDbLinetypeTableRecord
2
BYBLOCK
70
0
3

72
65
73
0
40
0.0
0
LTYPE
5
15
100
AcDbSymbolTableRecord
100
AcDbLinetypeTableRecord
2
BYLAYER
70
0
3

72
65
73
0
40
0.0
0
LTYPE
5
16
100
AcDbSymbolTableRecord
100
AcDbLinetypeTableRecord
2
CONTINUOUS
70
64
3
Solid line
72
65
73
0
40
0
0
LTYPE
5
1F5
100
AcDbSymbolTableRecord
100
AcDbLinetypeTableRecord
2
CENTER
70
64
3
____ _ ____ _ ____ _ ____ _ ____ _ ____ _ ____
72
65
73
4
40
0.6
49
0.375
74
0
49
-0.075
74
0
49
0.075
74
0
49
-0.075
74
0
0
LTYPE
5
1F6
100
AcDbSymbolTableRecord
100
AcDbLinetypeTableRecord
2
HIDDEN
70
64
3
- - - - - - - - - - - - - - - - - - - -
72
65
73
2
40
0.2
49
0.1
74
0
49
-0.1
74
0
0
LTYPE
5
1F7
100
AcDbSymbolTableRecord
100
AcDbLinetypeTableRecord
2
PHANTOM
70
64
3
_____ _ _ _____ _ _ _____ _ _ _____
72
65
73
6
40
0.8
49
0.45
74
0
49
-0.05
74
0
49
0.1
74
0
49
-0.05
74
0
49
0.1
74
0
49
-0.05
74
0
0
LTYPE
5
1F8
100
AcDbSymbolTableRecord
100
AcDbLinetypeTableRecord
2
DOT
70
64
3
. . . . . . . . . . . . . . . . . . . .
72
65
73
2
40
0.2
49
0.1
74
0
49
-0.1
74
0
0
LTYPE
5
1F9
100
AcDbSymbolTableRecord
100
AcDbLinetypeTableRecord
2
DASHED
70
64
3
- - - - - - - - - - - - - - - - - - - -
72
65
73
2
40
0.2
49
0.1
74
0
49
-0.1
74
0
0
ENDTAB
0
TABLE
2
LAYER
5
2
100
AcDbSymbolTable
70
36
0
LAYER
5
10
100
AcDbSymbolTableRecord
100
AcDbLayerTableRecord
2
0
70
0
62
7
6
CONTINUOUS
0
LAYER
5
1FA
100
AcDbSymbolTableRecord
100
AcDbLayerTableRecord
2
DEFAULT_1
70
0
62
7
6
CENTER
0
LAYER
5
1FB
100
AcDbSymbolTableRecord
100
AcDbLayerTableRecord
2
DEFAULT_2
70
0
62
8
6
HIDDEN
0
LAYER
5
1FC
100
AcDbSymbolTableRecord
100
AcDbLayerTableRecord
2
DEFAULT_3
70
0
62
7
6
PHANTOM
0
ENDTAB
0
TABLE
2
STYLE
5
3
100
AcDbSymbolTable
70
1
0
STYLE
5
11
100
AcDbSymbolTableRecord
100
AcDbTextStyleTableRecord
2
STANDARD
70
0
40
0.0
41
1.0
50
0.0
71
0
42
0.0
3
txt
4

0
ENDTAB
0
TABLE
2
VIEW
5
6
100
AcDbSymbolTable
70
0
0
ENDTAB
0
TABLE
2
UCS
5
7
100
AcDbSymbolTable
70
0
0
ENDTAB
0
TABLE
2
APPID
5
9
100
AcDbSymbolTable
70
1
0
APPID
5
1FD
100
AcDbSymbolTableRecord
100
AcDbRegAppTableRecord
2
ACAD
70
0
0
ENDTAB
0
TABLE
2
DIMSTYLE
5
A
100
AcDbSymbolTable
70
1
0
DIMSTYLE
105
1FE
100
AcDbSymbolTableRecord
100
AcDbDimStyleTableRecord
2
STANDARD
70
0
3

4

5

6

7

40
1.0
41
0.18
42
0.0625
43
0.38
44
0.18
45
0.0
46
0.0
47
0.0050000000
48
0.0050000000
140
3.5000000000
141
0.09
142
0.0
143
25.4
144
1.0000000000
145
0.0
146
0.6000000000
147
0.09
71
1
72
0
73
1
74
1
75
0
76
0
77
0
78
0
170
0
171
2
172
0
173
0
174
0
175
0
176
0
177
0
178
0
270
2
271
3
272
4
273
2
274
2
340
11
275
0
280
0
281
0
282
0
283
1
284
0
285
0
286
0
287
3
288
0
0
ENDTAB
0
TABLE
2
BLOCK_RECORD
5
1
100
AcDbSymbolTable
70
0
0
BLOCK_RECORD
5
1B
100
AcDbSymbolTableRecord
100
AcDbBlockTableRecord
2
*MODEL_SPACE
0
BLOCK_RECORD
5
1C
100
AcDbSymbolTableRecord
100
AcDbBlockTableRecord
2
*PAPER_SPACE
0
ENDTAB
0
ENDSEC
0
SECTION
2
BLOCKS
0
BLOCK
5
1E
100
AcDbEntity
8
0
100
AcDbBlockBegin
2
*MODEL_SPACE
70
0
10
0.0
20
0.0
30
0.0
3
*MODEL_SPACE
1

0
ENDBLK
5
1F
100
AcDbEntity
8
0
100
AcDbBlockEnd
0
BLOCK
5
20
100
AcDbEntity
8
0
100
AcDbBlockBegin
2
*PAPER_SPACE
70
0
10
0.0
20
0.0
30
0.0
3
*PAPER_SPACE
1

0
ENDBLK
5
21
100
AcDbEntity
8
0
100
AcDbBlockEnd
0
ENDSEC
0
SECTION
2
ENTITIES
0
LINE
5
1FF
100
AcDbEntity
8
0
100
AcDbLine
62
7
6
CONTINUOUS
10
0.0000000000
20
0.0000000000
11
0.0000000000
21
297.0000000000
0
LINE
5
200
100
AcDbEntity
8
0
100
AcDbLine
62
7
6
CONTINUOUS
10
0.0000000000
20
0.0000000000
11
420.0000000000
21
0.0000000000
0
LINE
5
201
100
AcDbEntity
8
0
100
AcDbLine
62
7
6
CONTINUOUS
10
0.0000000000
20
297.0000000000
11
420.0000000000
21
297.0000000000
0
LINE
5
202
100
AcDbEntity
8
0
100
AcDbLine
62
7
6
CONTINUOUS
10
420.0000000000
20
0.0000000000
11
420.0000000000
21
297.0000000000
0
LINE
5
203
100
AcDbEntity
8
0
100
AcDbLine
62
7
6
CONTINUOUS
10
127.5409557601
20
164.2942341028
11
127.5409557601
21
147.2942341028
0
LINE
5
204
100
AcDbEntity
8
0
100
AcDbLine
62
7
6
CONTINUOUS
10
129.5409557601
20
164.2942341028
11
129.5409557601
21
147.2942341028
0
LINE
5
205
100
AcDbEntity
8
0
100
AcDbLine
62
7
6
CONTINUOUS
10
130.6367004296
20
167.2880579125
11
130.5409557601
21
166.9711445013
0
LINE
5
206
100
AcDbEntity
8
0
100
AcDbLine
62
7
6
CONTINUOUS
10
131.0196791073
20
167.0345277639
11
131.1154237767
21
167.2246761007
0
LINE
5
207
100
AcDbEntity
8
0
100
AcDbLine
62
7
6
CONTINUOUS
10
130.9239344379
20
167.5415895118
11
130.6367004296
21
167.2880579125
0
LINE
5
208
100
AcDbEntity
8
0
100
AcDbLine
62
7
6
CONTINUOUS
10
131.2111684462
20
149.0972008394
11
131.1154237767
21
149.3507320761
0
LINE
5
209
100
AcDbEntity
8
0
100
AcDbLine
62
7
6
CONTINUOUS
10
130.5409557601
20
149.3507320761
11
130.6367004296
21
149.0338179396
0
LINE
5
20A
100
AcDbEntity
8
0
100
AcDbLine
62
7
6
CONTINUOUS
10
130.5409557601
20
166.9711445013
11
130.5409557601
21
165.4499578067
0
LINE
5
20B
100
AcDbEntity
8
0
100
AcDbLine
62
7
6
CONTINUOUS
10
130.5409557601
20
164.9428960587
11
130.5409557601
21
164.5625993851
0
LINE
5
20C
100
AcDbEntity
8
0
100
AcDbLine
62
7
6
CONTINUOUS
10
130.5409557601
20
164.0555361864
11
130.5409557601
21
163.6752395127
0
LINE
5
20D
100
AcDbEntity
8
0
100
AcDbLine
62
7
6
CONTINUOUS
10
130.5409557601
20
161.9005226695
11
130.5409557601
21
161.5202259958
0
LINE
5
20E
100
AcDbEntity
8
0
100
AcDbLine
62
7
6
CONTINUOUS
10
130.5409557601
20
158.6046176809
11
130.5409557601
21
158.3510860815
0
LINE
5
20F
100
AcDbEntity
8
0
100
AcDbLine
62
7
6
CONTINUOUS
10
130.5409557601
20
152.9001675760
11
130.5409557601
21
152.3297225655
0
LINE
5
210
100
AcDbEntity
8
0
100
AcDbLine
62
7
6
CONTINUOUS
10
130.5409557601
20
149.9211770866
11
130.5409557601
21
149.3507320761
0
LINE
5
211
100
AcDbEntity
8
0
100
AcDbLine
62
7
6
CONTINUOUS
10
130.5409557601
20
147.8295452001
11
130.5409557601
21
147.4492485264
0
LINE
5
212
100
AcDbEntity
8
0
100
AcDbLine
62
7
6
CONTINUOUS
10
130.5409557601
20
145.6745307765
11
130.5409557601
21
145.2942341028
0
LINE
5
213
100
AcDbEntity
8
0
100
AcDbLine
62
7
6
CONTINUOUS
10
131.0196791073
20
158.3510860815
11
131.0196791073
21
158.6046176809
0
LINE
5
214
100
AcDbEntity
8
0
100
AcDbLine
62
7
6
CONTINUOUS
10
131.0196791073
20
165.8302544804
11
131.0196791073
21
167.0345277639
0
LINE
5
215
100
AcDbEntity
8
0
100
AcDbLine
62
7
6
CONTINUOUS
10
131.1154237767
20
149.3507320761
11
131.1154237767
21
149.9211770866
0
LINE
5
216
100
AcDbEntity
8
0
100
AcDbLine
62
7
6
CONTINUOUS
10
131.1154237767
20
152.3297225655
11
131.1154237767
21
152.9001675760
0
LINE
5
217
100
AcDbEntity
8
0
100
AcDbLine
62
7
6
CONTINUOUS
10
131.6898920616
20
150.4282391972
11
131.6898920616
21
150.8085358709
0
LINE
5
218
100
AcDbEntity
8
0
100
AcDbLine
62
7
6
CONTINUOUS
10
131.6898920616
20
153.4072300493
11
131.6898920616
21
153.7875267230
0
LINE
5
219
100
AcDbEntity
8
0
100
AcDbLine
62
7
6
CONTINUOUS
10
132.4558494171
20
167.0345277639
11
132.4558494171
21
165.8302544804
0
LINE
5
21A
100
AcDbEntity
8
0
100
AcDbLine
62
7
6
CONTINUOUS
10
132.5515940865
20
158.6046176809
11
132.5515940865
21
158.3510860815
0
LINE
5
21B
100
AcDbEntity
8
0
100
AcDbLine
62
7
6
CONTINUOUS
10
132.5515940865
20
153.7875267230
11
132.5515940865
21
152.8367850388
0
LINE
5
21C
100
AcDbEntity
8
0
100
AcDbLine
62
7
6
CONTINUOUS
10
132.9345727643
20
161.0131627971
11
132.9345727643
21
160.1258043755
0
LINE
5
21D
100
AcDbEntity
8
0
100
AcDbLine
62
7
6
CONTINUOUS
10
132.9345727643
20
158.3510860815
11
132.9345727643
21
158.6046176809
0
LINE
5
21E
100
AcDbEntity
8
0
100
AcDbLine
62
7
6
CONTINUOUS
10
133.0303174337
20
165.8302544804
11
133.0303174337
21
166.9711445013
0
LINE
5
21F
100
AcDbEntity
8
0
100
AcDbLine
62
7
6
CONTINUOUS
10
130.6367004296
20
158.9215310920
11
130.5409557601
21
158.6046176809
0
LINE
5
220
100
AcDbEntity
8
0
100
AcDbLine
62
7
6
CONTINUOUS
10
130.6367004296
20
153.2170817125
11
130.5409557601
21
152.9001675760
0
LINE
5
221
100
AcDbEntity
8
0
100
AcDbLine
62
7
6
CONTINUOUS
10
131.0196791073
20
158.6046176809
11
131.1154237767
21
158.8581492802
0
LINE
5
222
100
AcDbEntity
8
0
100
AcDbLine
62
7
6
CONTINUOUS
10
132.5515940865
20
158.3510860815
11
132.4558494171
21
158.0975559329
0
LINE
5
223
100
AcDbEntity
8
0
100
AcDbLine
62
7
6
CONTINUOUS
10
131.1154237767
20
167.2246761007
11
131.3069131156
21
167.3514411750
0
LINE
5
224
100
AcDbEntity
8
0
100
AcDbLine
62
7
6
CONTINUOUS
10
131.3069131156
20
167.7317378487
11
130.9239344379
21
167.5415895118
0
LINE
5
225
100
AcDbEntity
8
0
100
AcDbLine
62
7
6
CONTINUOUS
10
131.4026577851
20
148.9070525026
11
131.2111684462
21
149.0972008394
0
LINE
5
226
100
AcDbEntity
8
0
100
AcDbLine
62
7
6
CONTINUOUS
10
130.6367004296
20
149.0338179396
11
130.8281897684
21
148.7802870656
0
LINE
5
227
100
AcDbEntity
8
0
100
AcDbLine
62
7
6
CONTINUOUS
10
130.6367004296
20
152.0128084290
11
130.8281897684
21
151.7592775550
0
LINE
5
228
100
AcDbEntity
8
0
100
AcDbLine
62
7
6
CONTINUOUS
10
131.2111684462
20
152.0761916915
11
131.1154237767
21
152.3297225655
0
LINE
5
229
100
AcDbEntity
8
0
100
AcDbLine
62
7
6
CONTINUOUS
10
130.5409557601
20
152.3297225655
11
130.6367004296
21
152.0128084290
0
LINE
5
22A
100
AcDbEntity
8
0
100
AcDbLine
62
7
6
CONTINUOUS
10
130.5409557601
20
158.3510860815
11
130.6367004296
21
158.0341726704
0
LINE
5
22B
100
AcDbEntity
8
0
100
AcDbLine
62
7
6
CONTINUOUS
10
133.1260621031
20
152.8367850388
11
133.1260621031
21
153.4072300493
0
LINE
5
22C
100
AcDbEntity
8
0
100
AcDbLine
62
7
6
CONTINUOUS
10
133.4132962456
20
160.1258043755
11
133.4132962456
21
161.0131627971
0
LINE
5
22D
100
AcDbEntity
8
0
100
AcDbLine
62
7
6
CONTINUOUS
10
133.8920195928
20
150.8085358709
11
133.8920195928
21
150.4282391972
0
LINE
5
22E
100
AcDbEntity
8
0
100
AcDbLine
62
7
6
CONTINUOUS
10
134.4664876764
20
152.9001675760
11
134.4664876764
21
152.3297225655
0
LINE
5
22F
100
AcDbEntity
8
0
100
AcDbLine
62
7
6
CONTINUOUS
10
134.4664876764
20
149.9211770866
11
134.4664876764
21
149.3507320761
0
LINE
5
230
100
AcDbEntity
8
0
100
AcDbLine
62
7
6
CONTINUOUS
10
134.5622323459
20
158.6046176809
11
134.5622323459
21
158.3510860815
0
LINE
5
231
100
AcDbEntity
8
0
100
AcDbLine
62
7
6
CONTINUOUS
10
135.0409557601
20
146.3083585961
11
135.0409557601
21
146.8154207975
0
LINE
5
232
100
AcDbEntity
8
0
100
AcDbLine
62
7
6
CONTINUOUS
10
135.0409557601
20
149.3507320761
11
135.0409557601
21
149.9211770866
0
LINE
5
233
100
AcDbEntity
8
0
100
AcDbLine
62
7
6
CONTINUOUS
10
135.0409557601
20
152.3297225655
11
135.0409557601
21
152.9001675760
0
LINE
5
234
100
AcDbEntity
8
0
100
AcDbLine
62
7
6
CONTINUOUS
10
135.0409557601
20
158.2877042697
11
135.0409557601
21
158.6680009434
0
LINE
5
235
100
AcDbEntity
8
0
100
AcDbLine
62
7
6
CONTINUOUS
10
135.0409557601
20
162.5343494918
11
135.0409557601
21
163.0414126904
0
LINE
5
236
100
AcDbEntity
8
0
100
AcDbLine
62
7
6
CONTINUOUS
10
135.0409557601
20
164.5625993851
11
135.0409557601
21
164.9428960587
0
LINE
5
237
100
AcDbEntity
8
0
100
AcDbLine
62
7
6
CONTINUOUS
10
135.0409557601
20
165.4499578067
11
135.0409557601
21
165.8302544804
0
LINE
5
238
100
AcDbEntity
8
0
100
AcDbLine
62
7
6
CONTINUOUS
10
130.6367004296
20
150.2380908604
11
130.5409557601
21
149.9211770866
0
LINE
5
239
100
AcDbEntity
8
0
100
AcDbLine
62
7
6
CONTINUOUS
10
134.9452110823
20
157.9707894079
11
135.0409557601
21
158.2877042697
0
LINE
5
23A
100
AcDbEntity
8
0
100
AcDbLine
62
7
6
CONTINUOUS
10
132.9345727643
20
158.6046176809
11
133.0303174337
21
158.8581492802
0
LINE
5
23B
100
AcDbEntity
8
0
100
AcDbLine
62
7
6
CONTINUOUS
10
131.1154237767
20
152.9001675760
11
131.2111684462
21
153.1536984500
0
LINE
5
23C
100
AcDbEntity
8
0
100
AcDbLine
62
7
6
CONTINUOUS
10
131.1154237767
20
149.9211770866
11
131.2111684462
21
150.1747079605
0
LINE
5
23D
100
AcDbEntity
8
0
100
AcDbLine
62
7
6
CONTINUOUS
10
134.5622323459
20
158.3510860815
11
134.4664876764
21
158.0975559329
0
LINE
5
23E
100
AcDbEntity
8
0
100
AcDbLine
62
7
6
CONTINUOUS
10
132.8388280948
20
159.2384459539
11
132.7430834254
21
159.1116794288
0
LINE
5
23F
100
AcDbEntity
8
0
100
AcDbLine
62
7
6
CONTINUOUS
10
133.0303174337
20
158.8581492802
11
133.2218067726
21
159.1116794288
0
LINE
5
240
100
AcDbEntity
8
0
100
AcDbLine
62
7
6
CONTINUOUS
10
132.6473387560
20
157.7172592592
11
132.7430834254
21
157.8440243335
0
LINE
5
241
100
AcDbEntity
8
0
100
AcDbLine
62
7
6
CONTINUOUS
10
130.9239344379
20
159.2384459539
11
130.6367004296
21
158.9215310920
0
LINE
5
242
100
AcDbEntity
8
0
100
AcDbLine
62
7
6
CONTINUOUS
10
131.1154237767
20
158.8581492802
11
131.4026577851
21
159.1116794288
0
LINE
5
243
100
AcDbEntity
8
0
100
AcDbLine
62
7
6
CONTINUOUS
10
130.8281897684
20
148.7802870656
11
131.2111684462
21
148.5267558289
0
LINE
5
244
100
AcDbEntity
8
0
100
AcDbLine
62
7
6
CONTINUOUS
10
131.4026577851
20
151.8860433547
11
131.2111684462
21
152.0761916915
0
LINE
5
245
100
AcDbEntity
8
0
100
AcDbLine
62
7
6
CONTINUOUS
10
134.1792536011
20
150.3648562974
11
134.3707430070
21
150.1747079605
0
LINE
5
246
100
AcDbEntity
8
0
100
AcDbLine
62
7
6
CONTINUOUS
10
134.9452110823
20
150.2380908604
11
134.7537217183
21
150.4916220970
0
LINE
5
247
100
AcDbEntity
8
0
100
AcDbLine
62
7
6
CONTINUOUS
10
131.1154237767
20
158.0975559329
11
131.0196791073
21
158.3510860815
0
LINE
5
248
100
AcDbEntity
8
0
100
AcDbLine
62
7
6
CONTINUOUS
10
134.3707430070
20
150.1747079605
11
134.4664876764
21
149.9211770866
0
LINE
5
249
100
AcDbEntity
8
0
100
AcDbLine
62
7
6
CONTINUOUS
10
134.3707430070
20
153.1536984500
11
134.4664876764
21
152.9001675760
0
LINE
5
24A
100
AcDbEntity
8
0
100
AcDbLine
62
7
6
CONTINUOUS
10
132.4558494171
20
158.8581492802
11
132.5515940865
21
158.6046176809
0
LINE
5
24B
100
AcDbEntity
8
0
100
AcDbLine
62
7
6
CONTINUOUS
10
133.0303174337
20
158.0975559329
11
132.9345727643
21
158.3510860815
0
LINE
5
24C
100
AcDbEntity
8
0
100
AcDbLine
62
7
6
CONTINUOUS
10
135.0409557601
20
149.9211770866
11
134.9452110823
21
150.2380908604
0
LINE
5
24D
100
AcDbEntity
8
0
100
AcDbLine
62
7
6
CONTINUOUS
10
135.0409557601
20
152.9001675760
11
134.9452110823
21
153.2170817125
0
LINE
5
24E
100
AcDbEntity
8
0
100
AcDbLine
62
7
6
CONTINUOUS
10
136.1152364434
20
153.7542341028
11
136.1152364434
21
153.3542341028
0
LINE
5
24F
100
AcDbEntity
8
0
100
AcDbLine
62
7
6
CONTINUOUS
10
136.8544324643
20
158.2052980219
11
136.8544324643
21
157.9329574381
0
LINE
5
250
100
AcDbEntity
8
0
100
AcDbLine
62
7
6
CONTINUOUS
10
137.1578634943
20
158.0010425364
11
137.1578634943
21
158.1372127329
0
LINE
5
251
100
AcDbEntity
8
0
100
AcDbLine
62
7
6
CONTINUOUS
10
138.2704438895
20
156.7755106722
11
138.2704438895
21
156.5712553774
0
LINE
5
252
100
AcDbEntity
8
0
100
AcDbLine
62
7
6
CONTINUOUS
10
136.9050043087
20
158.4776384150
11
136.8544324643
21
158.2052980219
0
LINE
5
253
100
AcDbEntity
8
0
100
AcDbLine
62
7
6
CONTINUOUS
10
137.1578634943
20
158.1372127329
11
137.2084353206
21
158.3414682184
0
LINE
5
254
100
AcDbEntity
8
0
100
AcDbLine
62
7
6
CONTINUOUS
10
134.9452110823
20
152.0128084290
11
135.0409557601
21
152.3297225655
0
LINE
5
255
100
AcDbEntity
8
0
100
AcDbLine
62
7
6
CONTINUOUS
10
134.9452110823
20
149.0338179396
11
135.0409557601
21
149.3507320761
0
LINE
5
256
100
AcDbEntity
8
0
100
AcDbLine
62
7
6
CONTINUOUS
10
134.4664876764
20
152.3297225655
11
134.3707430070
21
152.0761916915
0
LINE
5
257
100
AcDbEntity
8
0
100
AcDbLine
62
7
6
CONTINUOUS
10
134.4664876764
20
149.3507320761
11
134.3707430070
21
149.0972008394
0
LINE
5
258
100
AcDbEntity
8
0
100
AcDbLine
62
7
6
CONTINUOUS
10
137.1072916680
20
158.7499788080
11
136.9050043087
21
158.4776384150
0
LINE
5
259
100
AcDbEntity
8
0
100
AcDbLine
62
7
6
CONTINUOUS
10
130.8281897684
20
153.4706125865
11
130.6367004296
21
153.2170817125
0
LINE
5
25A
100
AcDbEntity
8
0
100
AcDbLine
62
7
6
CONTINUOUS
10
134.4664876764
20
158.0975559329
11
134.2749983376
21
157.8440243335
0
LINE
5
25B
100
AcDbEntity
8
0
100
AcDbLine
62
7
6
CONTINUOUS
10
130.8281897684
20
150.4916220970
11
130.6367004296
21
150.2380908604
0
LINE
5
25C
100
AcDbEntity
8
0
100
AcDbLine
62
7
6
CONTINUOUS
10
134.6579770488
20
157.6538759967
11
134.9452110823
21
157.9707894079
0
LINE
5
25D
100
AcDbEntity
8
0
100
AcDbLine
62
7
6
CONTINUOUS
10
133.1260621031
20
159.4919761025
11
132.8388280948
21
159.2384459539
0
LINE
5
25E
100
AcDbEntity
8
0
100
AcDbLine
62
7
6
CONTINUOUS
10
132.4558494171
20
158.0975559329
11
132.1686154088
21
157.8440243335
0
LINE
5
25F
100
AcDbEntity
8
0
100
AcDbLine
62
7
6
CONTINUOUS
10
131.2111684462
20
159.4285942907
11
130.9239344379
21
159.2384459539
0
LINE
5
260
100
AcDbEntity
8
0
100
AcDbLine
62
7
6
CONTINUOUS
10
131.2111684462
20
148.5267558289
11
131.5941471239
21
148.3999903919
0
LINE
5
261
100
AcDbEntity
8
0
100
AcDbLine
62
7
6
CONTINUOUS
10
131.6898920616
20
148.7802870656
11
131.4026577851
21
148.9070525026
0
LINE
5
262
100
AcDbEntity
8
0
100
AcDbLine
62
7
6
CONTINUOUS
10
130.8281897684
20
151.7592775550
11
131.2111684462
21
151.5057466810
0
LINE
5
263
100
AcDbEntity
8
0
100
AcDbLine
62
7
6
CONTINUOUS
10
134.7537217183
20
150.4916220970
11
134.3707430070
21
150.7451529710
0
LINE
5
264
100
AcDbEntity
8
0
100
AcDbLine
62
7
6
CONTINUOUS
10
134.1792536011
20
153.3438467868
11
134.3707430070
21
153.1536984500
0
LINE
5
265
100
AcDbEntity
8
0
100
AcDbLine
62
7
6
CONTINUOUS
10
130.6367004296
20
158.0341726704
11
130.9239344379
21
157.7172592592
0
LINE
5
266
100
AcDbEntity
8
0
100
AcDbLine
62
7
6
CONTINUOUS
10
134.9452110823
20
153.2170817125
11
134.7537217183
21
153.4706125865
0
LINE
5
267
100
AcDbEntity
8
0
100
AcDbLine
62
7
6
CONTINUOUS
10
132.7430834254
20
157.8440243335
11
132.8388280948
21
157.7172592592
0
LINE
5
268
100
AcDbEntity
8
0
100
AcDbLine
62
7
6
CONTINUOUS
10
133.2218067726
20
157.8440243335
11
133.0303174337
21
158.0975559329
0
LINE
5
269
100
AcDbEntity
8
0
100
AcDbLine
62
7
6
CONTINUOUS
10
136.7532887891
20
156.3670000826
11
136.9050043087
21
156.0265745197
0
LINE
5
26A
100
AcDbEntity
8
0
100
AcDbLine
62
7
6
CONTINUOUS
10
134.4664876764
20
158.8581492802
11
134.5622323459
21
158.6046176809
0
LINE
5
26B
100
AcDbEntity
8
0
100
AcDbLine
62
7
6
CONTINUOUS
10
135.0409557601
20
158.6680009434
11
134.9452110823
21
158.9849143545
0
LINE
5
26C
100
AcDbEntity
8
0
100
AcDbLine
62
7
6
CONTINUOUS
10
133.0303174337
20
166.9711445013
11
132.9345727643
21
167.2880579125
0
LINE
5
26D
100
AcDbEntity
8
0
100
AcDbLine
62
7
6
CONTINUOUS
10
137.0567198056
20
156.4350851809
11
137.0061479793
21
156.6393404757
0
LINE
5
26E
100
AcDbEntity
8
0
100
AcDbLine
62
7
6
CONTINUOUS
10
137.2084353206
20
157.7967872416
11
137.1578634943
21
158.0010425364
0
LINE
5
26F
100
AcDbEntity
8
0
100
AcDbLine
62
7
6
CONTINUOUS
10
136.7027169493
20
156.6393404757
11
136.7532887891
21
156.3670000826
0
LINE
5
270
100
AcDbEntity
8
0
100
AcDbLine
62
7
6
CONTINUOUS
10
136.8544324643
20
157.9329574381
11
136.9050043087
21
157.6606170450
0
LINE
5
271
100
AcDbEntity
8
0
100
AcDbLine
62
7
6
CONTINUOUS
10
138.5738749195
20
156.5031702791
11
138.5738749195
21
156.8435957705
0
LINE
5
272
100
AcDbEntity
8
0
100
AcDbLine
62
7
6
CONTINUOUS
10
138.9784496744
20
157.8648723398
11
138.9784496744
21
156.8435957705
0
LINE
5
273
100
AcDbEntity
8
0
100
AcDbLine
62
7
6
CONTINUOUS
10
139.2818807044
20
156.8435957705
11
139.2818807044
21
157.8648723398
0
LINE
5
274
100
AcDbEntity
8
0
100
AcDbLine
62
7
6
CONTINUOUS
10
140.6978922742
20
157.8648723398
11
140.6978922742
21
156.8435957705
0
LINE
5
275
100
AcDbEntity
8
0
100
AcDbLine
62
7
6
CONTINUOUS
10
141.0013233042
20
156.8435957705
11
141.0013233042
21
157.8648723398
0
LINE
5
276
100
AcDbEntity
8
0
100
AcDbLine
62
7
6
CONTINUOUS
10
139.0290214645
20
158.2052980219
11
138.9784496744
21
157.8648723398
0
LINE
5
277
100
AcDbEntity
8
0
100
AcDbLine
62
7
6
CONTINUOUS
10
140.9507513695
20
156.5031702791
11
141.0013233042
21
156.8435957705
0
LINE
5
278
100
AcDbEntity
8
0
100
AcDbLine
62
7
6
CONTINUOUS
10
139.2818807044
20
157.8648723398
11
139.3324526392
21
158.1372127329
0
LINE
5
279
100
AcDbEntity
8
0
100
AcDbLine
62
7
6
CONTINUOUS
10
140.6978922742
20
156.8435957705
11
140.6473203394
21
156.5712553774
0
LINE
5
27A
100
AcDbEntity
8
0
100
AcDbLine
62
7
6
CONTINUOUS
10
139.1301651894
20
158.4776384150
11
139.0290214645
21
158.2052980219
0
LINE
5
27B
100
AcDbEntity
8
0
100
AcDbLine
62
7
6
CONTINUOUS
10
138.4727313393
20
156.2308298384
11
138.5738749195
21
156.5031702791
0
LINE
5
27C
100
AcDbEntity
8
0
100
AcDbLine
62
7
6
CONTINUOUS
10
138.2704438895
20
156.5712553774
11
138.1693003092
21
156.3670000826
0
LINE
5
27D
100
AcDbEntity
8
0
100
AcDbLine
62
7
6
CONTINUOUS
10
139.3324526392
20
158.1372127329
11
139.4335962194
21
158.3414682184
0
LINE
5
27E
100
AcDbEntity
8
0
100
AcDbLine
62
7
6
CONTINUOUS
10
139.3324526392
20
158.7499788080
11
139.1301651894
21
158.4776384150
0
LINE
5
27F
100
AcDbEntity
8
0
100
AcDbLine
62
7
6
CONTINUOUS
10
138.2704438895
20
155.9584894215
11
138.4727313393
21
156.2308298384
0
LINE
5
280
100
AcDbEntity
8
0
100
AcDbLine
62
7
6
CONTINUOUS
10
134.7537217183
20
151.7592775550
11
134.9452110823
21
152.0128084290
0
LINE
5
281
100
AcDbEntity
8
0
100
AcDbLine
62
7
6
CONTINUOUS
10
131.2111684462
20
153.1536984500
11
131.4026577851
21
153.3438467868
0
LINE
5
282
100
AcDbEntity
8
0
100
AcDbLine
62
7
6
CONTINUOUS
10
137.2084353206
20
158.3414682184
11
137.3601508718
21
158.4776384150
0
LINE
5
283
100
AcDbEntity
8
0
100
AcDbLine
62
7
6
CONTINUOUS
10
137.3095790093
20
158.8861490046
11
137.1072916680
21
158.7499788080
0
LINE
5
284
100
AcDbEntity
8
0
100
AcDbLine
62
7
6
CONTINUOUS
10
132.3601047476
20
157.5271109224
11
132.6473387560
21
157.7172592592
0
LINE
5
285
100
AcDbEntity
8
0
100
AcDbLine
62
7
6
CONTINUOUS
10
134.3707430070
20
157.4637276599
11
134.6579770488
21
157.6538759967
0
LINE
5
286
100
AcDbEntity
8
0
100
AcDbLine
62
7
6
CONTINUOUS
10
133.2218067726
20
159.1116794288
11
133.6047855844
21
159.3018277657
0
LINE
5
287
100
AcDbEntity
8
0
100
AcDbLine
62
7
6
CONTINUOUS
10
131.4026577851
20
159.1116794288
11
131.6898920616
21
159.2384459539
0
LINE
5
288
100
AcDbEntity
8
0
100
AcDbLine
62
7
6
CONTINUOUS
10
135.0409557601
20
146.8154207975
11
130.5409557601
21
147.8295452001
0
LINE
5
289
100
AcDbEntity
8
0
100
AcDbLine
62
7
6
CONTINUOUS
10
130.5409557601
20
147.4492485264
11
134.4664876764
21
146.5618896515
0
LINE
5
28A
100
AcDbEntity
8
0
100
AcDbLine
62
7
6
CONTINUOUS
10
131.2111684462
20
151.5057466810
11
131.5941471239
21
151.3789808814
0
LINE
5
28B
100
AcDbEntity
8
0
100
AcDbLine
62
7
6
CONTINUOUS
10
131.6898920616
20
151.7592775550
11
131.4026577851
21
151.8860433547
0
LINE
5
28C
100
AcDbEntity
8
0
100
AcDbLine
62
7
6
CONTINUOUS
10
134.7537217183
20
153.4706125865
11
134.3707430070
21
153.7241434605
0
LINE
5
28D
100
AcDbEntity
8
0
100
AcDbLine
62
7
6
CONTINUOUS
10
131.4026577851
20
157.8440243335
11
131.1154237767
21
158.0975559329
0
LINE
5
28E
100
AcDbEntity
8
0
100
AcDbLine
62
7
6
CONTINUOUS
10
132.8388280948
20
157.7172592592
11
133.1260621031
21
157.4637276599
0
LINE
5
28F
100
AcDbEntity
8
0
100
AcDbLine
62
7
6
CONTINUOUS
10
132.7430834254
20
159.1116794288
11
132.6473387560
21
159.2384459539
0
LINE
5
290
100
AcDbEntity
8
0
100
AcDbLine
62
7
6
CONTINUOUS
10
134.2749983376
20
159.1116794288
11
134.4664876764
21
158.8581492802
0
LINE
5
291
100
AcDbEntity
8
0
100
AcDbLine
62
7
6
CONTINUOUS
10
137.2084353206
20
156.2308298384
11
137.0567198056
21
156.4350851809
0
LINE
5
292
100
AcDbEntity
8
0
100
AcDbLine
62
7
6
CONTINUOUS
10
136.9050043087
20
157.6606170450
11
137.1072916680
21
157.3882766520
0
LINE
5
293
100
AcDbEntity
8
0
100
AcDbLine
62
7
6
CONTINUOUS
10
132.3601047476
20
167.2246761007
11
132.4558494171
21
167.0345277639
0
LINE
5
294
100
AcDbEntity
8
0
100
AcDbLine
62
7
6
CONTINUOUS
10
138.1693003092
20
156.9797660624
11
138.2704438895
21
156.7755106722
0
LINE
5
295
100
AcDbEntity
8
0
100
AcDbLine
62
7
6
CONTINUOUS
10
139.4335962194
20
156.3670000826
11
139.3324526392
21
156.5712553774
0
LINE
5
296
100
AcDbEntity
8
0
100
AcDbLine
62
7
6
CONTINUOUS
10
138.5738749195
20
156.8435957705
11
138.4727313393
21
157.1159362589
0
LINE
5
297
100
AcDbEntity
8
0
100
AcDbLine
62
7
6
CONTINUOUS
10
138.0681565843
20
158.3414682184
11
138.1187283744
21
158.2052980219
0
LINE
5
298
100
AcDbEntity
8
0
100
AcDbLine
62
7
6
CONTINUOUS
10
139.0290214645
20
156.5031702791
11
139.1301651894
21
156.2308298384
0
LINE
5
299
100
AcDbEntity
8
0
100
AcDbLine
62
7
6
CONTINUOUS
10
138.4221594045
20
158.2052980219
11
138.3715876144
21
158.4095533167
0
LINE
5
29A
100
AcDbEntity
8
0
100
AcDbLine
62
7
6
CONTINUOUS
10
139.3324526392
20
156.5712553774
11
139.2818807044
21
156.8435957705
0
LINE
5
29B
100
AcDbEntity
8
0
100
AcDbLine
62
7
6
CONTINUOUS
10
138.9784496744
20
156.8435957705
11
139.0290214645
21
156.5031702791
0
LINE
5
29C
100
AcDbEntity
8
0
100
AcDbLine
62
7
6
CONTINUOUS
10
141.4058979145
20
158.9542341028
11
141.4058979145
21
155.7542341028
0
LINE
5
29D
100
AcDbEntity
8
0
100
AcDbLine
62
7
6
CONTINUOUS
10
141.7093289445
20
156.1627447401
11
141.7093289445
21
158.9542341028
0
LINE
5
29E
100
AcDbEntity
8
0
100
AcDbLine
62
7
6
CONTINUOUS
10
143.2264840945
20
155.7542341028
11
143.2264840945
21
156.1627447401
0
LINE
5
29F
100
AcDbEntity
8
0
100
AcDbLine
62
7
6
CONTINUOUS
10
143.6310589941
20
158.9542341028
11
143.6310589941
21
155.7542341028
0
LINE
5
2A0
100
AcDbEntity
8
0
100
AcDbLine
62
7
6
CONTINUOUS
10
140.8496077892
20
156.2308298384
11
140.9507513695
21
156.5031702791
0
LINE
5
2A1
100
AcDbEntity
8
0
100
AcDbLine
62
7
6
CONTINUOUS
10
140.6473203394
20
156.5712553774
11
140.5461767592
21
156.3670000826
0
LINE
5
2A2
100
AcDbEntity
8
0
100
AcDbLine
62
7
6
CONTINUOUS
10
140.6473203394
20
155.9584894215
11
140.8496077892
21
156.2308298384
0
LINE
5
2A3
100
AcDbEntity
8
0
100
AcDbLine
62
7
6
CONTINUOUS
10
134.7537217183
20
148.7802870656
11
134.9452110823
21
149.0338179396
0
LINE
5
2A4
100
AcDbEntity
8
0
100
AcDbLine
62
7
6
CONTINUOUS
10
131.2111684462
20
150.1747079605
11
131.4026577851
21
150.3648562974
0
LINE
5
2A5
100
AcDbEntity
8
0
100
AcDbLine
62
7
6
CONTINUOUS
10
134.3707430070
20
152.0761916915
11
134.1792536011
21
151.8860433547
0
LINE
5
2A6
100
AcDbEntity
8
0
100
AcDbLine
62
7
6
CONTINUOUS
10
139.4335962194
20
158.3414682184
11
139.5853117344
21
158.4776384150
0
LINE
5
2A7
100
AcDbEntity
8
0
100
AcDbLine
62
7
6
CONTINUOUS
10
138.1693003092
20
156.3670000826
11
138.0175847942
21
156.2308298384
0
LINE
5
2A8
100
AcDbEntity
8
0
100
AcDbLine
62
7
6
CONTINUOUS
10
140.5461767592
20
156.3670000826
11
140.3944612442
21
156.2308298384
0
LINE
5
2A9
100
AcDbEntity
8
0
100
AcDbLine
62
7
6
CONTINUOUS
10
139.5347397996
20
158.8861490046
11
139.3324526392
21
158.7499788080
0
LINE
5
2AA
100
AcDbEntity
8
0
100
AcDbLine
62
7
6
CONTINUOUS
10
131.2111684462
20
153.7241434605
11
130.8281897684
21
153.4706125865
0
LINE
5
2AB
100
AcDbEntity
8
0
100
AcDbLine
62
7
6
CONTINUOUS
10
134.2749983376
20
157.8440243335
11
133.8920195928
21
157.6538759967
0
LINE
5
2AC
100
AcDbEntity
8
0
100
AcDbLine
62
7
6
CONTINUOUS
10
137.3601508718
20
158.4776384150
11
137.5118663868
21
158.5457235132
0
LINE
5
2AD
100
AcDbEntity
8
0
100
AcDbLine
62
7
6
CONTINUOUS
10
132.1686154088
20
157.8440243335
11
131.8813814005
21
157.7172592592
0
LINE
5
2AE
100
AcDbEntity
8
0
100
AcDbLine
62
7
6
CONTINUOUS
10
131.5941471239
20
148.3999903919
11
132.0728707393
21
148.3366074921
0
LINE
5
2AF
100
AcDbEntity
8
0
100
AcDbLine
62
7
6
CONTINUOUS
10
132.0728707393
20
148.7169041658
11
131.6898920616
21
148.7802870656
0
LINE
5
2B0
100
AcDbEntity
8
0
100
AcDbLine
62
7
6
CONTINUOUS
10
133.8920195928
20
150.4282391972
11
134.1792536011
21
150.3648562974
0
LINE
5
2B1
100
AcDbEntity
8
0
100
AcDbLine
62
7
6
CONTINUOUS
10
130.9239344379
20
157.7172592592
11
131.2111684462
21
157.5271109224
0
LINE
5
2B2
100
AcDbEntity
8
0
100
AcDbLine
62
7
6
CONTINUOUS
10
136.9050043087
20
156.0265745197
11
137.1578634943
21
155.8223192071
0
LINE
5
2B3
100
AcDbEntity
8
0
100
AcDbLine
62
7
6
CONTINUOUS
10
132.1686154088
20
159.1116794288
11
132.4558494171
21
158.8581492802
0
LINE
5
2B4
100
AcDbEntity
8
0
100
AcDbLine
62
7
6
CONTINUOUS
10
137.3601508718
20
157.6606170450
11
137.2084353206
21
157.7967872416
0
LINE
5
2B5
100
AcDbEntity
8
0
100
AcDbLine
62
7
6
CONTINUOUS
10
138.0175847942
20
157.1159362589
11
138.1693003092
21
156.9797660624
0
LINE
5
2B6
100
AcDbEntity
8
0
100
AcDbLine
62
7
6
CONTINUOUS
10
134.9452110823
20
158.9849143545
11
134.6579770488
21
159.3018277657
0
LINE
5
2B7
100
AcDbEntity
8
0
100
AcDbLine
62
7
6
CONTINUOUS
10
139.1301651894
20
156.2308298384
11
139.3324526392
21
155.9584894215
0
LINE
5
2B8
100
AcDbEntity
8
0
100
AcDbLine
62
7
6
CONTINUOUS
10
138.4727313393
20
157.1159362589
11
138.2704438895
21
157.3882766520
0
LINE
5
2B9
100
AcDbEntity
8
0
100
AcDbLine
62
7
6
CONTINUOUS
10
137.9670128594
20
158.4776384150
11
138.0681565843
21
158.3414682184
0
LINE
5
2BA
100
AcDbEntity
8
0
100
AcDbLine
62
7
6
CONTINUOUS
10
138.3715876144
20
158.4095533167
11
138.2198720993
21
158.6818937098
0
LINE
5
2BB
100
AcDbEntity
8
0
100
AcDbLine
62
7
6
CONTINUOUS
10
140.5461767592
20
158.3414682184
11
140.6473203394
21
158.1372127329
0
LINE
5
2BC
100
AcDbEntity
8
0
100
AcDbLine
62
7
6
CONTINUOUS
10
140.9507513695
20
158.2052980219
11
140.8496077892
21
158.4776384150
0
LINE
5
2BD
100
AcDbEntity
8
0
100
AcDbLine
62
7
6
CONTINUOUS
10
140.6473203394
20
158.1372127329
11
140.6978922742
21
157.8648723398
0
LINE
5
2BE
100
AcDbEntity
8
0
100
AcDbLine
62
7
6
CONTINUOUS
10
141.0013233042
20
157.8648723398
11
140.9507513695
21
158.2052980219
0
LINE
5
2BF
100
AcDbEntity
8
0
100
AcDbLine
62
7
6
CONTINUOUS
10
143.9344900242
20
156.1627447401
11
143.9344900242
21
158.9542341028
0
LINE
5
2C0
100
AcDbEntity
8
0
100
AcDbLine
62
7
6
CONTINUOUS
10
145.4516451742
20
155.7542341028
11
145.4516451742
21
156.1627447401
0
LINE
5
2C1
100
AcDbEntity
8
0
100
AcDbLine
62
7
6
CONTINUOUS
10
145.1152364434
20
155.2862849104
11
144.9152364434
21
154.9398747489
0
LINE
5
2C2
100
AcDbEntity
8
0
100
AcDbLine
62
7
6
CONTINUOUS
10
134.3707430070
20
149.0972008394
11
134.1792536011
21
148.9070525026
0
LINE
5
2C3
100
AcDbEntity
8
0
100
AcDbLine
62
7
6
CONTINUOUS
10
138.0681565843
20
155.8223192071
11
138.2704438895
21
155.9584894215
0
LINE
5
2C4
100
AcDbEntity
8
0
100
AcDbLine
62
7
6
CONTINUOUS
10
140.4450328896
20
155.8223192071
11
140.6473203394
21
155.9584894215
0
LINE
5
2C5
100
AcDbEntity
8
0
100
AcDbLine
62
7
6
CONTINUOUS
10
131.2111684462
20
150.7451529710
11
130.8281897684
21
150.4916220970
0
LINE
5
2C6
100
AcDbEntity
8
0
100
AcDbLine
62
7
6
CONTINUOUS
10
134.3707430070
20
151.5057466810
11
134.7537217183
21
151.7592775550
0
LINE
5
2C7
100
AcDbEntity
8
0
100
AcDbLine
62
7
6
CONTINUOUS
10
137.5118663868
20
158.9542341028
11
137.3095790093
21
158.8861490046
0
LINE
5
2C8
100
AcDbEntity
8
0
100
AcDbLine
62
7
6
CONTINUOUS
10
139.5853117344
20
158.4776384150
11
139.7875991842
21
158.5457235132
0
LINE
5
2C9
100
AcDbEntity
8
0
100
AcDbLine
62
7
6
CONTINUOUS
10
131.9771260699
20
157.4003451227
11
132.3601047476
21
157.5271109224
0
LINE
5
2CA
100
AcDbEntity
8
0
100
AcDbLine
62
7
6
CONTINUOUS
10
134.4664876764
20
146.5618896515
11
130.5409557601
21
145.6745307765
0
LINE
5
2CB
100
AcDbEntity
8
0
100
AcDbLine
62
7
6
CONTINUOUS
10
130.5409557601
20
145.2942341028
11
135.0409557601
21
146.3083585961
0
LINE
5
2CC
100
AcDbEntity
8
0
100
AcDbLine
62
7
6
CONTINUOUS
10
133.5090409150
20
148.3366074921
11
133.9877642622
21
148.3999903919
0
LINE
5
2CD
100
AcDbEntity
8
0
100
AcDbLine
62
7
6
CONTINUOUS
10
132.0728707393
20
148.3366074921
11
133.5090409150
21
148.3366074921
0
LINE
5
2CE
100
AcDbEntity
8
0
100
AcDbLine
62
7
6
CONTINUOUS
10
133.5090409150
20
148.7169041658
11
132.0728707393
21
148.7169041658
0
LINE
5
2CF
100
AcDbEntity
8
0
100
AcDbLine
62
7
6
CONTINUOUS
10
139.5513769518
20
149.7942341028
11
148.2909557601
21
149.7942341028
0
LINE
5
2D0
100
AcDbEntity
8
0
100
AcDbLine
62
7
6
CONTINUOUS
10
154.7909557601
20
149.7942341028
11
163.5305345684
21
149.7942341028
0
LINE
5
2D1
100
AcDbEntity
8
0
100
AcDbLine
62
7
6
CONTINUOUS
10
134.3707430070
20
150.7451529710
11
133.8920195928
21
150.8085358709
0
LINE
5
2D2
100
AcDbEntity
8
0
100
AcDbLine
62
7
6
CONTINUOUS
10
131.5941471239
20
151.3789808814
11
132.0728707393
21
151.3155979815
0
LINE
5
2D3
100
AcDbEntity
8
0
100
AcDbLine
62
7
6
CONTINUOUS
10
132.0728707393
20
151.6958950179
11
131.6898920616
21
151.7592775550
0
LINE
5
2D4
100
AcDbEntity
8
0
100
AcDbLine
62
7
6
CONTINUOUS
10
133.8920195928
20
153.4072300493
11
134.1792536011
21
153.3438467868
0
LINE
5
2D5
100
AcDbEntity
8
0
100
AcDbLine
62
7
6
CONTINUOUS
10
131.6898920616
20
157.7172592592
11
131.4026577851
21
157.8440243335
0
LINE
5
2D6
100
AcDbEntity
8
0
100
AcDbLine
62
7
6
CONTINUOUS
10
133.6047855844
20
157.6538759967
11
133.2218067726
21
157.8440243335
0
LINE
5
2D7
100
AcDbEntity
8
0
100
AcDbLine
62
7
6
CONTINUOUS
10
132.6473387560
20
159.2384459539
11
132.3601047476
21
159.4285942907
0
LINE
5
2D8
100
AcDbEntity
8
0
100
AcDbLine
62
7
6
CONTINUOUS
10
134.6579770488
20
159.3018277657
11
134.3707430070
21
159.4919761025
0
LINE
5
2D9
100
AcDbEntity
8
0
100
AcDbLine
62
7
6
CONTINUOUS
10
137.1072916680
20
157.3882766520
11
137.3095790093
21
157.2521064554
0
LINE
5
2DA
100
AcDbEntity
8
0
100
AcDbLine
62
7
6
CONTINUOUS
10
139.3324526392
20
155.9584894215
11
139.5347397996
21
155.8223192071
0
LINE
5
2DB
100
AcDbEntity
8
0
100
AcDbLine
62
7
6
CONTINUOUS
10
138.2704438895
20
157.3882766520
11
138.0681565843
21
157.5244468485
0
LINE
5
2DC
100
AcDbEntity
8
0
100
AcDbLine
62
7
6
CONTINUOUS
10
139.5853117344
20
156.2308298384
11
139.4335962194
21
156.3670000826
0
LINE
5
2DD
100
AcDbEntity
8
0
100
AcDbLine
62
7
6
CONTINUOUS
10
140.3944612442
20
158.4776384150
11
140.5461767592
21
158.3414682184
0
LINE
5
2DE
100
AcDbEntity
8
0
100
AcDbLine
62
7
6
CONTINUOUS
10
138.2198720993
20
158.6818937098
11
138.0175847942
21
158.8861490046
0
LINE
5
2DF
100
AcDbEntity
8
0
100
AcDbLine
62
7
6
CONTINUOUS
10
140.8496077892
20
158.4776384150
11
140.6473203394
21
158.7499788080
0
LINE
5
2E0
100
AcDbEntity
8
0
100
AcDbLine
62
7
6
CONTINUOUS
10
144.9152364434
20
152.1685934568
11
145.1152364434
21
151.8221832953
0
LINE
5
2E1
100
AcDbEntity
8
0
100
AcDbLine
62
7
6
CONTINUOUS
10
148.2909557601
20
149.7942341028
11
148.2909557601
21
161.7942341028
0
LINE
5
2E2
100
AcDbEntity
8
0
100
AcDbLine
62
7
6
CONTINUOUS
10
134.3707430070
20
148.5267558289
11
134.7537217183
21
148.7802870656
0
LINE
5
2E3
100
AcDbEntity
8
0
100
AcDbLine
62
7
6
CONTINUOUS
10
134.1792536011
20
151.8860433547
11
133.8920195928
21
151.7592775550
0
LINE
5
2E4
100
AcDbEntity
8
0
100
AcDbLine
62
7
6
CONTINUOUS
10
138.0175847942
20
156.2308298384
11
137.8152974168
21
156.1627447401
0
LINE
5
2E5
100
AcDbEntity
8
0
100
AcDbLine
62
7
6
CONTINUOUS
10
140.3944612442
20
156.2308298384
11
140.1921737944
21
156.1627447401
0
LINE
5
2E6
100
AcDbEntity
8
0
100
AcDbLine
62
7
6
CONTINUOUS
10
133.8920195928
20
148.7802870656
11
133.5090409150
21
148.7169041658
0
LINE
5
2E7
100
AcDbEntity
8
0
100
AcDbLine
62
7
6
CONTINUOUS
10
131.6898920616
20
150.8085358709
11
131.2111684462
21
150.7451529710
0
LINE
5
2E8
100
AcDbEntity
8
0
100
AcDbLine
62
7
6
CONTINUOUS
10
132.0728707393
20
151.3155979815
11
133.5090409150
21
151.3155979815
0
LINE
5
2E9
100
AcDbEntity
8
0
100
AcDbLine
62
7
6
CONTINUOUS
10
133.5090409150
20
151.6958950179
11
132.0728707393
21
151.6958950179
0
LINE
5
2EA
100
AcDbEntity
8
0
100
AcDbLine
62
7
6
CONTINUOUS
10
132.5515940865
20
152.8367850388
11
133.1260621031
21
152.8367850388
0
LINE
5
2EB
100
AcDbEntity
8
0
100
AcDbLine
62
7
6
CONTINUOUS
10
136.1152364434
20
153.3542341028
11
146.9688262819
21
153.3542341028
0
LINE
5
2EC
100
AcDbEntity
8
0
100
AcDbLine
62
7
6
CONTINUOUS
10
156.1130852383
20
153.3542341028
11
166.9666750768
21
153.3542341028
0
LINE
5
2ED
100
AcDbEntity
8
0
100
AcDbLine
62
7
6
CONTINUOUS
10
133.1260621031
20
153.4072300493
11
133.8920195928
21
153.4072300493
0
LINE
5
2EE
100
AcDbEntity
8
0
100
AcDbLine
62
7
6
CONTINUOUS
10
134.3707430070
20
153.7241434605
11
133.9877642622
21
153.7875267230
0
LINE
5
2EF
100
AcDbEntity
8
0
100
AcDbLine
62
7
6
CONTINUOUS
10
131.2111684462
20
157.5271109224
11
131.6898920616
21
157.4003451227
0
LINE
5
2F0
100
AcDbEntity
8
0
100
AcDbLine
62
7
6
CONTINUOUS
10
133.1260621031
20
157.4637276599
11
133.6047855844
21
157.3369618602
0
LINE
5
2F1
100
AcDbEntity
8
0
100
AcDbLine
62
7
6
CONTINUOUS
10
137.1578634943
20
155.8223192071
11
137.4107226619
21
155.7542341028
0
LINE
5
2F2
100
AcDbEntity
8
0
100
AcDbLine
62
7
6
CONTINUOUS
10
139.5347397996
20
155.8223192071
11
139.7875991842
21
155.7542341028
0
LINE
5
2F3
100
AcDbEntity
8
0
100
AcDbLine
62
7
6
CONTINUOUS
10
132.3601047476
20
159.4285942907
11
131.9771260699
21
159.5553593650
0
LINE
5
2F4
100
AcDbEntity
8
0
100
AcDbLine
62
7
6
CONTINUOUS
10
137.4107226619
20
156.1627447401
11
137.2084353206
21
156.2308298384
0
LINE
5
2F5
100
AcDbEntity
8
0
100
AcDbLine
62
7
6
CONTINUOUS
10
139.7875991842
20
156.1627447401
11
139.5853117344
21
156.2308298384
0
LINE
5
2F6
100
AcDbEntity
8
0
100
AcDbLine
62
7
6
CONTINUOUS
10
137.3095790093
20
157.2521064554
11
137.5118663868
21
157.1840213572
0
LINE
5
2F7
100
AcDbEntity
8
0
100
AcDbLine
62
7
6
CONTINUOUS
10
137.8152974168
20
157.1840213572
11
138.0175847942
21
157.1159362589
0
LINE
5
2F8
100
AcDbEntity
8
0
100
AcDbLine
62
7
6
CONTINUOUS
10
131.8813814005
20
159.2384459539
11
132.1686154088
21
159.1116794288
0
LINE
5
2F9
100
AcDbEntity
8
0
100
AcDbLine
62
7
6
CONTINUOUS
10
137.5118663868
20
157.5925319468
11
137.3601508718
21
157.6606170450
0
LINE
5
2FA
100
AcDbEntity
8
0
100
AcDbLine
62
7
6
CONTINUOUS
10
137.8152974168
20
158.5457235132
11
137.9670128594
21
158.4776384150
0
LINE
5
2FB
100
AcDbEntity
8
0
100
AcDbLine
62
7
6
CONTINUOUS
10
133.8920195928
20
159.3018277657
11
134.2749983376
21
159.1116794288
0
LINE
5
2FC
100
AcDbEntity
8
0
100
AcDbLine
62
7
6
CONTINUOUS
10
144.9152364434
20
154.9398747489
11
146.9688262819
21
153.7542341028
0
LINE
5
2FD
100
AcDbEntity
8
0
100
AcDbLine
62
7
6
CONTINUOUS
10
148.1152364434
20
153.5542341028
11
145.1152364434
21
155.2862849104
0
LINE
5
2FE
100
AcDbEntity
8
0
100
AcDbLine
62
7
6
CONTINUOUS
10
140.6473203394
20
158.7499788080
11
140.4450328896
21
158.8861490046
0
LINE
5
2FF
100
AcDbEntity
8
0
100
AcDbLine
62
7
6
CONTINUOUS
10
132.9345727643
20
167.2880579125
11
132.6473387560
21
167.5415895118
0
LINE
5
300
100
AcDbEntity
8
DEFAULT_1
100
AcDbLine
62
2
6
CENTER
10
151.5409557601
20
120.2942341028
11
151.5409557601
21
191.2942341028
0
LINE
5
301
100
AcDbEntity
8
0
100
AcDbLine
62
7
6
CONTINUOUS
10
146.9688262819
20
153.3542341028
11
144.9152364434
21
152.1685934568
0
LINE
5
302
100
AcDbEntity
8
0
100
AcDbLine
62
7
6
CONTINUOUS
10
145.1152364434
20
151.8221832953
11
148.1152364434
21
153.5542341028
0
LINE
5
303
100
AcDbEntity
8
0
100
AcDbLine
62
7
6
CONTINUOUS
10
134.1792536011
20
148.9070525026
11
133.8920195928
21
148.7802870656
0
LINE
5
304
100
AcDbEntity
8
0
100
AcDbLine
62
7
6
CONTINUOUS
10
157.7572647405
20
158.5457235132
11
157.9314574584
21
158.6138086115
0
LINE
5
305
100
AcDbEntity
8
0
100
AcDbLine
62
7
6
CONTINUOUS
10
169.0941472580
20
163.1021880890
11
168.7111685132
21
162.9663562817
0
LINE
5
306
100
AcDbEntity
8
0
100
AcDbLine
62
7
6
CONTINUOUS
10
133.9877642622
20
151.3789808814
11
134.3707430070
21
151.5057466810
0
LINE
5
307
100
AcDbEntity
8
0
100
AcDbLine
62
7
6
CONTINUOUS
10
158.2798428944
20
155.7542341028
11
158.5701641465
21
155.8223192071
0
LINE
5
308
100
AcDbEntity
8
0
100
AcDbLine
62
7
6
CONTINUOUS
10
131.4026577851
20
150.3648562974
11
131.6898920616
21
150.4282391972
0
LINE
5
309
100
AcDbEntity
8
0
100
AcDbLine
62
7
6
CONTINUOUS
10
171.3920194586
20
157.9405819382
11
171.0090407809
21
157.8726663260
0
LINE
5
30A
100
AcDbEntity
8
0
100
AcDbLine
62
7
6
CONTINUOUS
10
133.8920195928
20
151.7592775550
11
133.5090409150
21
151.6958950179
0
LINE
5
30B
100
AcDbEntity
8
0
100
AcDbLine
62
7
6
CONTINUOUS
10
171.0090407809
20
157.4651710985
11
171.4877643963
21
157.5330867107
0
LINE
5
30C
100
AcDbEntity
8
0
100
AcDbLine
62
7
6
CONTINUOUS
10
133.5090409150
20
151.3155979815
11
133.9877642622
21
151.3789808814
0
LINE
5
30D
100
AcDbEntity
8
0
100
AcDbLine
62
7
6
CONTINUOUS
10
166.9666750768
20
153.7542341028
11
156.1130852383
21
153.7542341028
0
LINE
5
30E
100
AcDbEntity
8
0
100
AcDbLine
62
7
6
CONTINUOUS
10
146.9688262819
20
153.7542341028
11
136.1152364434
21
153.7542341028
0
LINE
5
30F
100
AcDbEntity
8
0
100
AcDbLine
62
7
6
CONTINUOUS
10
133.9877642622
20
153.7875267230
11
132.5515940865
21
153.7875267230
0
LINE
5
310
100
AcDbEntity
8
0
100
AcDbLine
62
7
6
CONTINUOUS
10
137.4107226619
20
155.7542341028
11
137.8152974168
21
155.7542341028
0
LINE
5
311
100
AcDbEntity
8
0
100
AcDbLine
62
7
6
CONTINUOUS
10
139.7875991842
20
155.7542341028
11
140.1921737944
21
155.7542341028
0
LINE
5
312
100
AcDbEntity
8
0
100
AcDbLine
62
7
6
CONTINUOUS
10
141.4058979145
20
155.7542341028
11
143.2264840945
21
155.7542341028
0
LINE
5
313
100
AcDbEntity
8
0
100
AcDbLine
62
7
6
CONTINUOUS
10
143.6310589941
20
155.7542341028
11
145.4516451742
21
155.7542341028
0
LINE
5
314
100
AcDbEntity
8
0
100
AcDbLine
62
7
6
CONTINUOUS
10
157.9895217255
20
155.7542341028
11
158.2798428944
21
155.7542341028
0
LINE
5
315
100
AcDbEntity
8
0
100
AcDbLine
62
7
6
CONTINUOUS
10
159.6153204544
20
155.7542341028
11
159.9056417064
21
155.7542341028
0
LINE
5
316
100
AcDbEntity
8
0
100
AcDbLine
62
7
6
CONTINUOUS
10
160.5443482283
20
155.7542341028
11
160.8346693142
21
155.7542341028
0
LINE
5
317
100
AcDbEntity
8
0
100
AcDbLine
62
7
6
CONTINUOUS
10
161.4733761683
20
155.7542341028
11
161.7636972543
21
155.7542341028
0
LINE
5
318
100
AcDbEntity
8
0
100
AcDbLine
62
7
6
CONTINUOUS
10
162.2282110581
20
155.7542341028
11
162.5185324763
21
155.7542341028
0
LINE
5
319
100
AcDbEntity
8
0
100
AcDbLine
62
7
6
CONTINUOUS
10
163.1572389982
20
155.7542341028
11
163.4475604163
21
155.7542341028
0
LINE
5
31A
100
AcDbEntity
8
0
100
AcDbLine
62
7
6
CONTINUOUS
10
164.0862666060
20
155.7542341028
11
164.3765880241
21
155.7542341028
0
LINE
5
31B
100
AcDbEntity
8
0
100
AcDbLine
62
7
6
CONTINUOUS
10
158.3379071614
20
156.0946596418
11
157.9314574584
21
156.0946596418
0
LINE
5
31C
100
AcDbEntity
8
0
100
AcDbLine
62
7
6
CONTINUOUS
10
134.3707430070
20
159.4919761025
11
133.8920195928
21
159.6187426275
0
LINE
5
31D
100
AcDbEntity
8
0
100
AcDbLine
62
7
6
CONTINUOUS
10
138.0681565843
20
157.5244468485
11
137.8152974168
21
157.5925319468
0
LINE
5
31E
100
AcDbEntity
8
0
100
AcDbLine
62
7
6
CONTINUOUS
10
138.0175847942
20
158.8861490046
11
137.7647255543
21
158.9542341028
0
LINE
5
31F
100
AcDbEntity
8
0
100
AcDbLine
62
7
6
CONTINUOUS
10
140.4450328896
20
158.8861490046
11
140.1921737944
21
158.9542341028
0
LINE
5
320
100
AcDbEntity
8
0
100
AcDbLine
62
7
6
CONTINUOUS
10
140.1921737944
20
158.5457235132
11
140.3944612442
21
158.4776384150
0
LINE
5
321
100
AcDbEntity
8
0
100
AcDbLine
62
7
6
CONTINUOUS
10
154.9666750768
20
153.5542341028
11
157.9666750768
21
151.8221832953
0
LINE
5
322
100
AcDbEntity
8
0
100
AcDbLine
62
7
6
CONTINUOUS
10
158.1666750768
20
152.1685934568
11
156.1130852383
21
153.3542341028
0
LINE
5
323
100
AcDbEntity
8
0
100
AcDbLine
62
7
6
CONTINUOUS
10
132.1686154088
20
167.3514411750
11
132.3601047476
21
167.2246761007
0
LINE
5
324
100
AcDbEntity
8
0
100
AcDbLine
62
7
6
CONTINUOUS
10
157.5830720225
20
158.4095533167
11
157.7572647405
21
158.5457235132
0
LINE
5
325
100
AcDbEntity
8
0
100
AcDbLine
62
7
6
CONTINUOUS
10
157.6992005150
20
157.7287021433
11
157.3508150582
21
157.4563617502
0
LINE
5
326
100
AcDbEntity
8
0
100
AcDbLine
62
7
6
CONTINUOUS
10
157.5830720225
20
157.2521064554
11
157.7572647405
21
157.3882766520
0
LINE
5
327
100
AcDbEntity
8
0
100
AcDbLine
62
7
6
CONTINUOUS
10
157.6992005150
20
158.8861490046
11
157.4088793045
21
158.6818937098
0
LINE
5
328
100
AcDbEntity
8
0
100
AcDbLine
62
7
6
CONTINUOUS
10
171.7749984046
20
163.8492627376
11
172.1579770824
21
164.0530103513
0
LINE
5
329
100
AcDbEntity
8
0
100
AcDbLine
62
7
6
CONTINUOUS
10
168.9026579192
20
162.5588610542
11
169.1898919275
21
162.6946930557
0
LINE
5
32A
100
AcDbEntity
8
0
100
AcDbLine
62
7
6
CONTINUOUS
10
157.7572647405
20
157.3882766520
11
157.9314574584
21
157.4563617502
0
LINE
5
32B
100
AcDbEntity
8
0
100
AcDbLine
62
7
6
CONTINUOUS
10
160.1959627923
20
157.9329574381
11
160.0217700743
21
157.8648723398
0
LINE
5
32C
100
AcDbEntity
8
0
100
AcDbLine
62
7
6
CONTINUOUS
10
160.0217700743
20
157.5925319468
11
160.1959627923
21
157.6606170450
0
LINE
5
32D
100
AcDbEntity
8
0
100
AcDbLine
62
7
6
CONTINUOUS
10
161.1249907324
20
157.9329574381
11
160.9507980144
21
157.8648723398
0
LINE
5
32E
100
AcDbEntity
8
0
100
AcDbLine
62
7
6
CONTINUOUS
10
162.8088535622
20
157.9329574381
11
162.6346608442
21
157.8648723398
0
LINE
5
32F
100
AcDbEntity
8
0
100
AcDbLine
62
7
6
CONTINUOUS
10
158.5120997964
20
156.1627447401
11
158.3379071614
21
156.0946596418
0
LINE
5
330
100
AcDbEntity
8
0
100
AcDbLine
62
7
6
CONTINUOUS
10
162.6346608442
20
157.5925319468
11
162.8088535622
21
157.6606170450
0
LINE
5
331
100
AcDbEntity
8
0
100
AcDbLine
62
7
6
CONTINUOUS
10
163.7378811700
20
157.9329574381
11
163.5636884520
21
157.8648723398
0
LINE
5
332
100
AcDbEntity
8
0
100
AcDbLine
62
7
6
CONTINUOUS
10
133.9877642622
20
148.3999903919
11
134.3707430070
21
148.5267558289
0
LINE
5
333
100
AcDbEntity
8
0
100
AcDbLine
62
7
6
CONTINUOUS
10
140.1921737944
20
155.7542341028
11
140.4450328896
21
155.8223192071
0
LINE
5
334
100
AcDbEntity
8
0
100
AcDbLine
62
7
6
CONTINUOUS
10
157.9895217255
20
157.7967872416
11
157.6992005150
21
157.7287021433
0
LINE
5
335
100
AcDbEntity
8
0
100
AcDbLine
62
7
6
CONTINUOUS
10
157.9895217255
20
158.9542341028
11
157.6992005150
21
158.8861490046
0
LINE
5
336
100
AcDbEntity
8
0
100
AcDbLine
62
7
6
CONTINUOUS
10
131.4026577851
20
153.3438467868
11
131.6898920616
21
153.4072300493
0
LINE
5
337
100
AcDbEntity
8
0
100
AcDbLine
62
7
6
CONTINUOUS
10
131.6898920616
20
153.7875267230
11
131.2111684462
21
153.7241434605
0
LINE
5
338
100
AcDbEntity
8
0
100
AcDbLine
62
7
6
CONTINUOUS
10
145.4516451742
20
156.1627447401
11
143.9344900242
21
156.1627447401
0
LINE
5
339
100
AcDbEntity
8
0
100
AcDbLine
62
7
6
CONTINUOUS
10
143.2264840945
20
156.1627447401
11
141.7093289445
21
156.1627447401
0
LINE
5
33A
100
AcDbEntity
8
0
100
AcDbLine
62
7
6
CONTINUOUS
10
140.1921737944
20
156.1627447401
11
139.7875991842
21
156.1627447401
0
LINE
5
33B
100
AcDbEntity
8
0
100
AcDbLine
62
7
6
CONTINUOUS
10
137.8152974168
20
156.1627447401
11
137.4107226619
21
156.1627447401
0
LINE
5
33C
100
AcDbEntity
8
0
100
AcDbLine
62
7
6
CONTINUOUS
10
137.0061479793
20
156.6393404757
11
136.7027169493
21
156.6393404757
0
LINE
5
33D
100
AcDbEntity
8
0
100
AcDbLine
62
7
6
CONTINUOUS
10
137.5118663868
20
157.1840213572
11
137.8152974168
21
157.1840213572
0
LINE
5
33E
100
AcDbEntity
8
0
100
AcDbLine
62
7
6
CONTINUOUS
10
133.6047855844
20
157.3369618602
11
133.8920195928
21
157.3369618602
0
LINE
5
33F
100
AcDbEntity
8
0
100
AcDbLine
62
7
6
CONTINUOUS
10
131.6898920616
20
157.4003451227
11
131.9771260699
21
157.4003451227
0
LINE
5
340
100
AcDbEntity
8
0
100
AcDbLine
62
7
6
CONTINUOUS
10
157.9314574584
20
157.4563617502
11
158.3379071614
21
157.4563617502
0
LINE
5
341
100
AcDbEntity
8
0
100
AcDbLine
62
7
6
CONTINUOUS
10
169.5728706052
20
157.4651710985
11
171.0090407809
21
157.4651710985
0
LINE
5
342
100
AcDbEntity
8
0
100
AcDbLine
62
7
6
CONTINUOUS
10
137.8152974168
20
157.5925319468
11
137.5118663868
21
157.5925319468
0
LINE
5
343
100
AcDbEntity
8
0
100
AcDbLine
62
7
6
CONTINUOUS
10
133.8920195928
20
157.6538759967
11
133.6047855844
21
157.6538759967
0
LINE
5
344
100
AcDbEntity
8
0
100
AcDbLine
62
7
6
CONTINUOUS
10
160.1959627923
20
157.6606170450
11
160.3120911602
21
157.6606170450
0
LINE
5
345
100
AcDbEntity
8
0
100
AcDbLine
62
7
6
CONTINUOUS
10
161.0669263823
20
157.6606170450
11
161.2411191003
21
157.6606170450
0
LINE
5
346
100
AcDbEntity
8
0
100
AcDbLine
62
7
6
CONTINUOUS
10
162.8088535622
20
157.6606170450
11
162.9249822624
21
157.6606170450
0
LINE
5
347
100
AcDbEntity
8
0
100
AcDbLine
62
7
6
CONTINUOUS
10
163.6798171522
20
157.6606170450
11
163.8540098701
21
157.6606170450
0
LINE
5
348
100
AcDbEntity
8
0
100
AcDbLine
62
7
6
CONTINUOUS
10
131.8813814005
20
157.7172592592
11
131.6898920616
21
157.7172592592
0
LINE
5
349
100
AcDbEntity
8
0
100
AcDbLine
62
7
6
CONTINUOUS
10
158.2798428944
20
157.7967872416
11
157.9895217255
21
157.7967872416
0
LINE
5
34A
100
AcDbEntity
8
0
100
AcDbLine
62
7
6
CONTINUOUS
10
171.0090407809
20
157.8726663260
11
169.5728706052
21
157.8726663260
0
LINE
5
34B
100
AcDbEntity
8
0
100
AcDbLine
62
7
6
CONTINUOUS
10
163.9701385703
20
157.9329574381
11
163.7378811700
21
157.9329574381
0
LINE
5
34C
100
AcDbEntity
8
0
100
AcDbLine
62
7
6
CONTINUOUS
10
163.0411102980
20
157.9329574381
11
162.8088535622
21
157.9329574381
0
LINE
5
34D
100
AcDbEntity
8
0
100
AcDbLine
62
7
6
CONTINUOUS
10
162.5185324763
20
157.9329574381
11
162.2282110581
21
157.9329574381
0
LINE
5
34E
100
AcDbEntity
8
0
100
AcDbLine
62
7
6
CONTINUOUS
10
161.3572474682
20
157.9329574381
11
161.1249907324
21
157.9329574381
0
LINE
5
34F
100
AcDbEntity
8
0
100
AcDbLine
62
7
6
CONTINUOUS
10
160.4282198604
20
157.9329574381
11
160.1959627923
21
157.9329574381
0
LINE
5
350
100
AcDbEntity
8
0
100
AcDbLine
62
7
6
CONTINUOUS
10
159.9056417064
20
157.9329574381
11
159.6153204544
21
157.9329574381
0
LINE
5
351
100
AcDbEntity
8
0
100
AcDbLine
62
7
6
CONTINUOUS
10
138.1187283744
20
158.2052980219
11
138.4221594045
21
158.2052980219
0
LINE
5
352
100
AcDbEntity
8
0
100
AcDbLine
62
7
6
CONTINUOUS
10
158.7443568644
20
158.2052980219
11
159.0346779503
21
158.2052980219
0
LINE
5
353
100
AcDbEntity
8
0
100
AcDbLine
62
7
6
CONTINUOUS
10
137.5118663868
20
158.5457235132
11
137.8152974168
21
158.5457235132
0
LINE
5
354
100
AcDbEntity
8
0
100
AcDbLine
62
7
6
CONTINUOUS
10
139.7875991842
20
158.5457235132
11
140.1921737944
21
158.5457235132
0
LINE
5
355
100
AcDbEntity
8
0
100
AcDbLine
62
7
6
CONTINUOUS
10
157.9314574584
20
158.6138086115
11
158.2798428944
21
158.6138086115
0
LINE
5
356
100
AcDbEntity
8
0
100
AcDbLine
62
7
6
CONTINUOUS
10
157.6992005150
20
155.8223192071
11
157.9895217255
21
155.7542341028
0
LINE
5
357
100
AcDbEntity
8
0
100
AcDbLine
62
7
6
CONTINUOUS
10
157.9314574584
20
156.0946596418
11
157.7572647405
21
156.1627447401
0
LINE
5
358
100
AcDbEntity
8
0
100
AcDbLine
62
7
6
CONTINUOUS
10
132.6473387560
20
167.5415895118
11
132.2643600782
21
167.7317378487
0
LINE
5
359
100
AcDbEntity
8
0
100
AcDbLine
62
7
6
CONTINUOUS
10
154.7909557601
20
149.7942341028
11
154.7909557601
21
161.7942341028
0
LINE
5
35A
100
AcDbEntity
8
0
100
AcDbLine
62
7
6
CONTINUOUS
10
157.0604938685
20
157.5925319468
11
157.0604938685
21
157.1159362589
0
LINE
5
35B
100
AcDbEntity
8
0
100
AcDbLine
62
7
6
CONTINUOUS
10
157.1185581095
20
158.0691276346
11
157.0604938685
21
157.5925319468
0
LINE
5
35C
100
AcDbEntity
8
0
100
AcDbLine
62
7
6
CONTINUOUS
10
157.3508150582
20
157.5925319468
11
157.4088793045
21
158.0010425364
0
LINE
5
35D
100
AcDbEntity
8
0
100
AcDbLine
62
7
6
CONTINUOUS
10
157.4088793045
20
158.0010425364
11
157.4669435300
21
158.2052980219
0
LINE
5
35E
100
AcDbEntity
8
0
100
AcDbLine
62
7
6
CONTINUOUS
10
157.4088793045
20
156.9116808687
11
157.4669435300
21
157.1159362589
0
LINE
5
35F
100
AcDbEntity
8
0
100
AcDbLine
62
7
6
CONTINUOUS
10
157.2346865865
20
158.4095533167
11
157.1185581095
21
158.0691276346
0
LINE
5
360
100
AcDbEntity
8
0
100
AcDbLine
62
7
6
CONTINUOUS
10
157.4669435300
20
158.2052980219
11
157.5830720225
21
158.4095533167
0
LINE
5
361
100
AcDbEntity
8
0
100
AcDbLine
62
7
6
CONTINUOUS
10
157.4088793045
20
158.6818937098
11
157.2346865865
21
158.4095533167
0
LINE
5
362
100
AcDbEntity
8
0
100
AcDbLine
62
7
6
CONTINUOUS
10
157.4669435300
20
157.1159362589
11
157.5830720225
21
157.2521064554
0
LINE
5
363
100
AcDbEntity
8
0
100
AcDbLine
62
7
6
CONTINUOUS
10
160.0217700743
20
157.8648723398
11
159.9056417064
21
157.7287021433
0
LINE
5
364
100
AcDbEntity
8
0
100
AcDbLine
62
7
6
CONTINUOUS
10
159.9056417064
20
157.4563617502
11
160.0217700743
21
157.5925319468
0
LINE
5
365
100
AcDbEntity
8
0
100
AcDbLine
62
7
6
CONTINUOUS
10
158.6862925144
20
156.2989149366
11
158.5120997964
21
156.1627447401
0
LINE
5
366
100
AcDbEntity
8
0
100
AcDbLine
62
7
6
CONTINUOUS
10
168.7111685132
20
162.9663562817
11
168.3281898020
21
162.6946930557
0
LINE
5
367
100
AcDbEntity
8
0
100
AcDbLine
62
7
6
CONTINUOUS
10
171.9664877435
20
164.3925897724
11
171.7749984046
21
164.2567579651
0
LINE
5
368
100
AcDbEntity
8
0
100
AcDbLine
62
7
6
CONTINUOUS
10
158.5701641465
20
155.8223192071
11
158.8604852324
21
156.0265745197
0
LINE
5
369
100
AcDbEntity
8
0
100
AcDbLine
62
7
6
CONTINUOUS
10
160.9507980144
20
157.5925319468
11
161.0669263823
21
157.6606170450
0
LINE
5
36A
100
AcDbEntity
8
0
100
AcDbLine
62
7
6
CONTINUOUS
10
163.5636884520
20
157.5925319468
11
163.6798171522
21
157.6606170450
0
LINE
5
36B
100
AcDbEntity
8
0
100
AcDbLine
62
7
6
CONTINUOUS
10
157.9666750768
20
155.2862849104
11
154.9666750768
21
153.5542341028
0
LINE
5
36C
100
AcDbEntity
8
0
100
AcDbLine
62
7
6
CONTINUOUS
10
156.1130852383
20
153.7542341028
11
158.1666750768
21
154.9398747489
0
LINE
5
36D
100
AcDbEntity
8
0
100
AcDbLine
62
7
6
CONTINUOUS
10
171.4877643963
20
157.5330867107
11
171.8707430741
21
157.6689187123
0
LINE
5
36E
100
AcDbEntity
8
0
100
AcDbLine
62
7
6
CONTINUOUS
10
168.0409557601
20
163.7134309303
11
170.2430834254
21
164.3246737716
0
LINE
5
36F
100
AcDbEntity
8
0
100
AcDbLine
62
7
6
CONTINUOUS
10
170.0515940865
20
164.7321690963
11
168.0409557601
21
164.1888421586
0
LINE
5
370
100
AcDbEntity
8
0
100
AcDbLine
62
7
6
CONTINUOUS
10
137.8152974168
20
155.7542341028
11
138.0681565843
21
155.8223192071
0
LINE
5
371
100
AcDbEntity
8
0
100
AcDbLine
62
7
6
CONTINUOUS
10
171.4877643963
20
163.7813469311
11
171.7749984046
21
163.8492627376
0
LINE
5
372
100
AcDbEntity
8
0
100
AcDbLine
62
7
6
CONTINUOUS
10
171.7749984046
20
164.2567579651
11
171.4877643963
21
164.1888421586
0
LINE
5
373
100
AcDbEntity
8
0
100
AcDbLine
62
7
6
CONTINUOUS
10
169.1898919275
20
162.6946930557
11
169.5728706052
21
162.7626086679
0
LINE
5
374
100
AcDbEntity
8
0
100
AcDbLine
62
7
6
CONTINUOUS
10
169.5728706052
20
163.1701040898
11
169.0941472580
21
163.1021880890
0
LINE
5
375
100
AcDbEntity
8
0
100
AcDbLine
62
7
6
CONTINUOUS
10
158.2217786274
20
158.9542341028
11
157.9895217255
21
158.9542341028
0
LINE
5
376
100
AcDbEntity
8
0
100
AcDbLine
62
7
6
CONTINUOUS
10
143.9344900242
20
158.9542341028
11
143.6310589941
21
158.9542341028
0
LINE
5
377
100
AcDbEntity
8
0
100
AcDbLine
62
7
6
CONTINUOUS
10
141.7093289445
20
158.9542341028
11
141.4058979145
21
158.9542341028
0
LINE
5
378
100
AcDbEntity
8
0
100
AcDbLine
62
7
6
CONTINUOUS
10
140.1921737944
20
158.9542341028
11
139.7875991842
21
158.9542341028
0
LINE
5
379
100
AcDbEntity
8
0
100
AcDbLine
62
7
6
CONTINUOUS
10
137.7647255543
20
158.9542341028
11
137.5118663868
21
158.9542341028
0
LINE
5
37A
100
AcDbEntity
8
0
100
AcDbLine
62
7
6
CONTINUOUS
10
131.6898920616
20
159.2384459539
11
131.8813814005
21
159.2384459539
0
LINE
5
37B
100
AcDbEntity
8
0
100
AcDbLine
62
7
6
CONTINUOUS
10
133.6047855844
20
159.3018277657
11
133.8920195928
21
159.3018277657
0
LINE
5
37C
100
AcDbEntity
8
0
100
AcDbLine
62
7
6
CONTINUOUS
10
131.9771260699
20
159.5553593650
11
131.6898920616
21
159.5553593650
0
LINE
5
37D
100
AcDbEntity
8
0
100
AcDbLine
62
7
6
CONTINUOUS
10
133.8920195928
20
159.6187426275
11
133.6047855844
21
159.6187426275
0
LINE
5
37E
100
AcDbEntity
8
0
100
AcDbLine
62
7
6
CONTINUOUS
10
168.6154238438
20
159.7743104622
11
171.9664877435
21
159.7743104622
0
LINE
5
37F
100
AcDbEntity
8
0
100
AcDbLine
62
7
6
CONTINUOUS
10
132.9345727643
20
160.1258043755
11
133.4132962456
21
160.1258043755
0
LINE
5
380
100
AcDbEntity
8
0
100
AcDbLine
62
7
6
CONTINUOUS
10
172.5409557601
20
160.1818056897
11
168.0409557601
21
160.1818056897
0
LINE
5
381
100
AcDbEntity
8
0
100
AcDbLine
62
7
6
CONTINUOUS
10
169.5728706052
20
160.7251325302
11
172.5409557601
21
160.7251325302
0
LINE
5
382
100
AcDbEntity
8
0
100
AcDbLine
62
7
6
CONTINUOUS
10
133.4132962456
20
161.0131627971
11
132.9345727643
21
161.0131627971
0
LINE
5
383
100
AcDbEntity
8
0
100
AcDbLine
62
7
6
CONTINUOUS
10
172.5409557601
20
161.1326277578
11
169.5728706052
21
161.1326277578
0
LINE
5
384
100
AcDbEntity
8
0
100
AcDbLine
62
7
6
CONTINUOUS
10
169.0941472580
20
157.5330867107
11
169.5728706052
21
157.4651710985
0
LINE
5
385
100
AcDbEntity
8
0
100
AcDbLine
62
7
6
CONTINUOUS
10
169.5728706052
20
157.8726663260
11
169.1898919275
21
157.9405819382
0
LINE
5
386
100
AcDbEntity
8
0
100
AcDbLine
62
7
6
CONTINUOUS
10
135.0409557601
20
163.0414126904
11
130.5409557601
21
164.0555361864
0
LINE
5
387
100
AcDbEntity
8
0
100
AcDbLine
62
7
6
CONTINUOUS
10
130.5409557601
20
163.6752395127
11
134.4664876764
21
162.7878810911
0
LINE
5
388
100
AcDbEntity
8
0
100
AcDbLine
62
7
6
CONTINUOUS
10
158.5701641465
20
157.7287021433
11
158.2798428944
21
157.7967872416
0
LINE
5
389
100
AcDbEntity
8
0
100
AcDbLine
62
7
6
CONTINUOUS
10
158.5120997964
20
158.8861490046
11
158.2217786274
21
158.9542341028
0
LINE
5
38A
100
AcDbEntity
8
0
100
AcDbLine
62
7
6
CONTINUOUS
10
158.3379071614
20
157.4563617502
11
158.5120997964
21
157.3882766520
0
LINE
5
38B
100
AcDbEntity
8
0
100
AcDbLine
62
7
6
CONTINUOUS
10
158.2798428944
20
158.6138086115
11
158.4540356124
21
158.5457235132
0
LINE
5
38C
100
AcDbEntity
8
0
100
AcDbLine
62
7
6
CONTINUOUS
10
160.6024125784
20
157.8648723398
11
160.4282198604
21
157.9329574381
0
LINE
5
38D
100
AcDbEntity
8
0
100
AcDbLine
62
7
6
CONTINUOUS
10
161.5314401862
20
157.8648723398
11
161.3572474682
21
157.9329574381
0
LINE
5
38E
100
AcDbEntity
8
0
100
AcDbLine
62
7
6
CONTINUOUS
10
157.4088793045
20
156.0265745197
11
157.6992005150
21
155.8223192071
0
LINE
5
38F
100
AcDbEntity
8
0
100
AcDbLine
62
7
6
CONTINUOUS
10
158.8604852324
20
157.5244468485
11
158.5701641465
21
157.7287021433
0
LINE
5
390
100
AcDbEntity
8
0
100
AcDbLine
62
7
6
CONTINUOUS
10
157.7572647405
20
156.1627447401
11
157.5830720225
21
156.2989149366
0
LINE
5
391
100
AcDbEntity
8
0
100
AcDbLine
62
7
6
CONTINUOUS
10
158.5120997964
20
157.3882766520
11
158.6862925144
21
157.2521064554
0
LINE
5
392
100
AcDbEntity
8
0
100
AcDbLine
62
7
6
CONTINUOUS
10
157.2346865865
20
156.2989149366
11
157.4088793045
21
156.0265745197
0
LINE
5
393
100
AcDbEntity
8
0
100
AcDbLine
62
7
6
CONTINUOUS
10
158.1666750768
20
154.9398747489
11
157.9666750768
21
155.2862849104
0
LINE
5
394
100
AcDbEntity
8
0
100
AcDbLine
62
7
6
CONTINUOUS
10
157.5830720225
20
156.2989149366
11
157.4669435300
21
156.5031702791
0
LINE
5
395
100
AcDbEntity
8
0
100
AcDbLine
62
7
6
CONTINUOUS
10
157.1185581095
20
156.6393404757
11
157.2346865865
21
156.2989149366
0
LINE
5
396
100
AcDbEntity
8
0
100
AcDbLine
62
7
6
CONTINUOUS
10
157.0604938685
20
157.1159362589
11
157.1185581095
21
156.6393404757
0
LINE
5
397
100
AcDbEntity
8
0
100
AcDbLine
62
7
6
CONTINUOUS
10
157.3508150582
20
157.4563617502
11
157.3508150582
21
157.5925319468
0
LINE
5
398
100
AcDbEntity
8
0
100
AcDbLine
62
7
6
CONTINUOUS
10
157.4088793045
20
156.7074255739
11
157.4088793045
21
156.9116808687
0
LINE
5
399
100
AcDbEntity
8
0
100
AcDbLine
62
7
6
CONTINUOUS
10
158.8604852324
20
156.9116808687
11
158.8604852324
21
156.7074255739
0
LINE
5
39A
100
AcDbEntity
8
0
100
AcDbLine
62
7
6
CONTINUOUS
10
159.1508064844
20
156.6393404757
11
159.1508064844
21
156.9797660624
0
LINE
5
39B
100
AcDbEntity
8
0
100
AcDbLine
62
7
6
CONTINUOUS
10
159.6153204544
20
157.9329574381
11
159.6153204544
21
155.7542341028
0
LINE
5
39C
100
AcDbEntity
8
0
100
AcDbLine
62
7
6
CONTINUOUS
10
159.9056417064
20
155.7542341028
11
159.9056417064
21
157.4563617502
0
LINE
5
39D
100
AcDbEntity
8
0
100
AcDbLine
62
7
6
CONTINUOUS
10
159.9056417064
20
157.7287021433
11
159.9056417064
21
157.9329574381
0
LINE
5
39E
100
AcDbEntity
8
0
100
AcDbLine
62
7
6
CONTINUOUS
10
158.8604852324
20
156.7074255739
11
158.8024210484
21
156.5031702791
0
LINE
5
39F
100
AcDbEntity
8
0
100
AcDbLine
62
7
6
CONTINUOUS
10
159.0346779503
20
156.2989149366
11
159.1508064844
21
156.6393404757
0
LINE
5
3A0
100
AcDbEntity
8
0
100
AcDbLine
62
7
6
CONTINUOUS
10
160.8346693142
20
157.3882766520
11
160.8927336643
21
157.5244468485
0
LINE
5
3A1
100
AcDbEntity
8
0
100
AcDbLine
62
7
6
CONTINUOUS
10
158.8024210484
20
156.5031702791
11
158.6862925144
21
156.2989149366
0
LINE
5
3A2
100
AcDbEntity
8
0
100
AcDbLine
62
7
6
CONTINUOUS
10
157.9666750768
20
151.8221832953
11
158.1666750768
21
152.1685934568
0
LINE
5
3A3
100
AcDbEntity
8
0
100
AcDbLine
62
7
6
CONTINUOUS
10
158.8604852324
20
156.0265745197
11
159.0346779503
21
156.2989149366
0
LINE
5
3A4
100
AcDbEntity
8
0
100
AcDbLine
62
7
6
CONTINUOUS
10
160.9507980144
20
157.8648723398
11
160.7766052964
21
157.6606170450
0
LINE
5
3A5
100
AcDbEntity
8
0
100
AcDbLine
62
7
6
CONTINUOUS
10
160.8927336643
20
157.5244468485
11
160.9507980144
21
157.5925319468
0
LINE
5
3A6
100
AcDbEntity
8
0
100
AcDbLine
62
7
6
CONTINUOUS
10
162.6346608442
20
157.8648723398
11
162.5185324763
21
157.7287021433
0
LINE
5
3A7
100
AcDbEntity
8
0
100
AcDbLine
62
7
6
CONTINUOUS
10
162.5185324763
20
157.4563617502
11
162.6346608442
21
157.5925319468
0
LINE
5
3A8
100
AcDbEntity
8
0
100
AcDbLine
62
7
6
CONTINUOUS
10
163.5636884520
20
157.8648723398
11
163.3894957340
21
157.6606170450
0
LINE
5
3A9
100
AcDbEntity
8
0
100
AcDbLine
62
7
6
CONTINUOUS
10
163.5056244342
20
157.5244468485
11
163.5636884520
21
157.5925319468
0
LINE
5
3AA
100
AcDbEntity
8
0
100
AcDbLine
62
7
6
CONTINUOUS
10
168.7111685132
20
162.3551134404
11
168.9026579192
21
162.5588610542
0
LINE
5
3AB
100
AcDbEntity
8
0
100
AcDbLine
62
7
6
CONTINUOUS
10
172.1579770824
20
164.0530103513
11
172.4452110907
21
164.3246737716
0
LINE
5
3AC
100
AcDbEntity
8
0
100
AcDbLine
62
7
6
CONTINUOUS
10
171.6792537352
20
158.0764139398
11
171.3920194586
21
157.9405819382
0
LINE
5
3AD
100
AcDbEntity
8
0
100
AcDbLine
62
7
6
CONTINUOUS
10
139.7875991842
20
158.9542341028
11
139.5347397996
21
158.8861490046
0
LINE
5
3AE
100
AcDbEntity
8
0
100
AcDbLine
62
7
6
CONTINUOUS
10
133.8920195928
20
157.3369618602
11
134.3707430070
21
157.4637276599
0
LINE
5
3AF
100
AcDbEntity
8
0
100
AcDbLine
62
7
6
CONTINUOUS
10
133.6047855844
20
159.6187426275
11
133.1260621031
21
159.4919761025
0
LINE
5
3B0
100
AcDbEntity
8
0
100
AcDbLine
62
7
6
CONTINUOUS
10
163.5305345684
20
161.7942341028
11
154.7909557601
21
161.7942341028
0
LINE
5
3B1
100
AcDbEntity
8
0
100
AcDbLine
62
7
6
CONTINUOUS
10
148.2909557601
20
161.7942341028
11
139.5513769518
21
161.7942341028
0
LINE
5
3B2
100
AcDbEntity
8
0
100
AcDbLine
62
7
6
CONTINUOUS
10
169.5728706052
20
162.7626086679
11
172.5409557601
21
162.7626086679
0
LINE
5
3B3
100
AcDbEntity
8
0
100
AcDbLine
62
7
6
CONTINUOUS
10
172.5409557601
20
163.1701040898
11
169.5728706052
21
163.1701040898
0
LINE
5
3B4
100
AcDbEntity
8
0
100
AcDbLine
62
7
6
CONTINUOUS
10
171.1047854503
20
163.7813469311
11
171.4877643963
21
163.7813469311
0
LINE
5
3B5
100
AcDbEntity
8
0
100
AcDbLine
62
7
6
CONTINUOUS
10
171.4877643963
20
164.1888421586
11
171.2005301198
21
164.1888421586
0
LINE
5
3B6
100
AcDbEntity
8
0
100
AcDbLine
62
7
6
CONTINUOUS
10
169.0941472580
20
160.7930485310
11
169.5728706052
21
160.7251325302
0
LINE
5
3B7
100
AcDbEntity
8
0
100
AcDbLine
62
7
6
CONTINUOUS
10
169.5728706052
20
161.1326277578
11
169.1898919275
21
161.2005437586
0
LINE
5
3B8
100
AcDbEntity
8
0
100
AcDbLine
62
7
6
CONTINUOUS
10
131.8813814005
20
167.4148244375
11
132.1686154088
21
167.3514411750
0
LINE
5
3B9
100
AcDbEntity
8
0
100
AcDbLine
62
7
6
CONTINUOUS
10
132.2643600782
20
167.7317378487
11
131.9771260699
21
167.7951211112
0
LINE
5
3BA
100
AcDbEntity
8
0
100
AcDbLine
62
7
6
CONTINUOUS
10
168.7111685132
20
157.6689187123
11
169.0941472580
21
157.5330867107
0
LINE
5
3BB
100
AcDbEntity
8
0
100
AcDbLine
62
7
6
CONTINUOUS
10
163.2153030160
20
157.8648723398
11
163.0411102980
21
157.9329574381
0
LINE
5
3BC
100
AcDbEntity
8
0
100
AcDbLine
62
7
6
CONTINUOUS
10
164.1443312883
20
157.8648723398
11
163.9701385703
21
157.9329574381
0
LINE
5
3BD
100
AcDbEntity
8
0
100
AcDbLine
62
7
6
CONTINUOUS
10
160.3120911602
20
157.6606170450
11
160.4282198604
21
157.5925319468
0
LINE
5
3BE
100
AcDbEntity
8
0
100
AcDbLine
62
7
6
CONTINUOUS
10
163.8540098701
20
157.6606170450
11
163.9701385703
21
157.5925319468
0
LINE
5
3BF
100
AcDbEntity
8
0
100
AcDbLine
62
7
6
CONTINUOUS
10
161.2411191003
20
157.6606170450
11
161.3572474682
21
157.5925319468
0
LINE
5
3C0
100
AcDbEntity
8
0
100
AcDbLine
62
7
6
CONTINUOUS
10
162.9249822624
20
157.6606170450
11
163.0411102980
21
157.5925319468
0
LINE
5
3C1
100
AcDbEntity
8
0
100
AcDbLine
62
7
6
CONTINUOUS
10
158.8024210484
20
158.6818937098
11
158.5120997964
21
158.8861490046
0
LINE
5
3C2
100
AcDbEntity
8
0
100
AcDbLine
62
7
6
CONTINUOUS
10
158.4540356124
20
158.5457235132
11
158.6282283304
21
158.4095533167
0
LINE
5
3C3
100
AcDbEntity
8
0
100
AcDbLine
62
7
6
CONTINUOUS
10
158.6862925144
20
157.2521064554
11
158.8024210484
21
157.1159362589
0
LINE
5
3C4
100
AcDbEntity
8
0
100
AcDbLine
62
7
6
CONTINUOUS
10
159.0346779503
20
157.3201915537
11
158.8604852324
21
157.5244468485
0
LINE
5
3C5
100
AcDbEntity
8
0
100
AcDbLine
62
7
6
CONTINUOUS
10
160.4282198604
20
157.5925319468
11
160.4862838782
21
157.5244468485
0
LINE
5
3C6
100
AcDbEntity
8
0
100
AcDbLine
62
7
6
CONTINUOUS
10
160.7766052964
20
157.6606170450
11
160.6024125784
21
157.8648723398
0
LINE
5
3C7
100
AcDbEntity
8
0
100
AcDbLine
62
7
6
CONTINUOUS
10
158.9766137664
20
158.4095533167
11
158.8024210484
21
158.6818937098
0
LINE
5
3C8
100
AcDbEntity
8
0
100
AcDbLine
62
7
6
CONTINUOUS
10
158.6282283304
20
158.4095533167
11
158.7443568644
21
158.2052980219
0
LINE
5
3C9
100
AcDbEntity
8
0
100
AcDbLine
62
7
6
CONTINUOUS
10
159.1508064844
20
156.9797660624
11
159.0346779503
21
157.3201915537
0
LINE
5
3CA
100
AcDbEntity
8
0
100
AcDbLine
62
7
6
CONTINUOUS
10
157.4669435300
20
156.5031702791
11
157.4088793045
21
156.7074255739
0
LINE
5
3CB
100
AcDbEntity
8
0
100
AcDbLine
62
7
6
CONTINUOUS
10
158.8024210484
20
157.1159362589
11
158.8604852324
21
156.9116808687
0
LINE
5
3CC
100
AcDbEntity
8
0
100
AcDbLine
62
7
6
CONTINUOUS
10
159.0346779503
20
158.2052980219
11
158.9766137664
21
158.4095533167
0
LINE
5
3CD
100
AcDbEntity
8
0
100
AcDbLine
62
7
6
CONTINUOUS
10
160.5443482283
20
157.3882766520
11
160.5443482283
21
155.7542341028
0
LINE
5
3CE
100
AcDbEntity
8
0
100
AcDbLine
62
7
6
CONTINUOUS
10
160.8346693142
20
155.7542341028
11
160.8346693142
21
157.3882766520
0
LINE
5
3CF
100
AcDbEntity
8
0
100
AcDbLine
62
7
6
CONTINUOUS
10
161.4733761683
20
157.3882766520
11
161.4733761683
21
155.7542341028
0
LINE
5
3D0
100
AcDbEntity
8
0
100
AcDbLine
62
7
6
CONTINUOUS
10
161.7636972543
20
155.7542341028
11
161.7636972543
21
157.3882766520
0
LINE
5
3D1
100
AcDbEntity
8
0
100
AcDbLine
62
7
6
CONTINUOUS
10
162.2282110581
20
157.9329574381
11
162.2282110581
21
155.7542341028
0
LINE
5
3D2
100
AcDbEntity
8
0
100
AcDbLine
62
7
6
CONTINUOUS
10
162.5185324763
20
155.7542341028
11
162.5185324763
21
157.4563617502
0
LINE
5
3D3
100
AcDbEntity
8
0
100
AcDbLine
62
7
6
CONTINUOUS
10
162.5185324763
20
157.7287021433
11
162.5185324763
21
157.9329574381
0
LINE
5
3D4
100
AcDbEntity
8
0
100
AcDbLine
62
7
6
CONTINUOUS
10
163.4475604163
20
157.3882766520
11
163.5056244342
21
157.5244468485
0
LINE
5
3D5
100
AcDbEntity
8
0
100
AcDbLine
62
7
6
CONTINUOUS
10
168.3281898020
20
162.6946930557
11
168.1367004379
21
162.4230294412
0
LINE
5
3D6
100
AcDbEntity
8
0
100
AcDbLine
62
7
6
CONTINUOUS
10
171.8707430741
20
157.6689187123
11
172.2537217518
21
157.9405819382
0
LINE
5
3D7
100
AcDbEntity
8
0
100
AcDbLine
62
7
6
CONTINUOUS
10
131.6898920616
20
159.5553593650
11
131.2111684462
21
159.4285942907
0
LINE
5
3D8
100
AcDbEntity
8
0
100
AcDbLine
62
7
6
CONTINUOUS
10
134.4664876764
20
162.7878810911
11
130.5409557601
21
161.9005226695
0
LINE
5
3D9
100
AcDbEntity
8
0
100
AcDbLine
62
7
6
CONTINUOUS
10
130.5409557601
20
161.5202259958
11
135.0409557601
21
162.5343494918
0
LINE
5
3DA
100
AcDbEntity
8
0
100
AcDbLine
62
7
6
CONTINUOUS
10
130.5409557601
20
164.5625993851
11
135.0409557601
21
164.5625993851
0
LINE
5
3DB
100
AcDbEntity
8
0
100
AcDbLine
62
7
6
CONTINUOUS
10
135.0409557601
20
164.9428960587
11
130.5409557601
21
164.9428960587
0
LINE
5
3DC
100
AcDbEntity
8
0
100
AcDbLine
62
7
6
CONTINUOUS
10
130.5409557601
20
165.4499578067
11
135.0409557601
21
165.4499578067
0
LINE
5
3DD
100
AcDbEntity
8
0
100
AcDbLine
62
7
6
CONTINUOUS
10
135.0409557601
20
165.8302544804
11
133.0303174337
21
165.8302544804
0
LINE
5
3DE
100
AcDbEntity
8
0
100
AcDbLine
62
7
6
CONTINUOUS
10
132.4558494171
20
165.8302544804
11
131.0196791073
21
165.8302544804
0
LINE
5
3DF
100
AcDbEntity
8
0
100
AcDbLine
62
7
6
CONTINUOUS
10
168.0409557601
20
165.8867388753
11
170.0515940865
21
165.8867388753
0
LINE
5
3E0
100
AcDbEntity
8
0
100
AcDbLine
62
7
6
CONTINUOUS
10
170.6260621031
20
165.8867388753
11
172.0622324129
21
165.8867388753
0
LINE
5
3E1
100
AcDbEntity
8
0
100
AcDbLine
62
7
6
CONTINUOUS
10
172.5409557601
20
166.2942341028
11
168.0409557601
21
166.2942341028
0
LINE
5
3E2
100
AcDbEntity
8
0
100
AcDbLine
62
7
6
CONTINUOUS
10
168.7111685132
20
160.9288801440
11
169.0941472580
21
160.7930485310
0
LINE
5
3E3
100
AcDbEntity
8
0
100
AcDbLine
62
7
6
CONTINUOUS
10
169.1898919275
20
157.9405819382
11
168.9026579192
21
158.0764139398
0
LINE
5
3E4
100
AcDbEntity
8
0
100
AcDbLine
62
7
6
CONTINUOUS
10
161.3572474682
20
157.5925319468
11
161.4153118183
21
157.5244468485
0
LINE
5
3E5
100
AcDbEntity
8
0
100
AcDbLine
62
7
6
CONTINUOUS
10
161.6475688863
20
157.7287021433
11
161.5314401862
21
157.8648723398
0
LINE
5
3E6
100
AcDbEntity
8
0
100
AcDbLine
62
7
6
CONTINUOUS
10
163.0411102980
20
157.5925319468
11
163.0991749803
21
157.5244468485
0
LINE
5
3E7
100
AcDbEntity
8
0
100
AcDbLine
62
7
6
CONTINUOUS
10
163.3894957340
20
157.6606170450
11
163.2153030160
21
157.8648723398
0
LINE
5
3E8
100
AcDbEntity
8
0
100
AcDbLine
62
7
6
CONTINUOUS
10
163.9701385703
20
157.5925319468
11
164.0282025881
21
157.5244468485
0
LINE
5
3E9
100
AcDbEntity
8
0
100
AcDbLine
62
7
6
CONTINUOUS
10
164.2604593240
20
157.7287021433
11
164.1443312883
21
157.8648723398
0
LINE
5
3EA
100
AcDbEntity
8
0
100
AcDbLine
62
7
6
CONTINUOUS
10
160.4862838782
20
157.5244468485
11
160.5443482283
21
157.3882766520
0
LINE
5
3EB
100
AcDbEntity
8
0
100
AcDbLine
62
7
6
CONTINUOUS
10
161.4153118183
20
157.5244468485
11
161.4733761683
21
157.3882766520
0
LINE
5
3EC
100
AcDbEntity
8
0
100
AcDbLine
62
7
6
CONTINUOUS
10
161.7636972543
20
157.3882766520
11
161.6475688863
21
157.7287021433
0
LINE
5
3ED
100
AcDbEntity
8
0
100
AcDbLine
62
7
6
CONTINUOUS
10
163.1572389982
20
157.3882766520
11
163.1572389982
21
155.7542341028
0
LINE
5
3EE
100
AcDbEntity
8
0
100
AcDbLine
62
7
6
CONTINUOUS
10
163.4475604163
20
155.7542341028
11
163.4475604163
21
157.3882766520
0
LINE
5
3EF
100
AcDbEntity
8
0
100
AcDbLine
62
7
6
CONTINUOUS
10
164.0862666060
20
157.3882766520
11
164.0862666060
21
155.7542341028
0
LINE
5
3F0
100
AcDbEntity
8
0
100
AcDbLine
62
7
6
CONTINUOUS
10
164.3765880241
20
155.7542341028
11
164.3765880241
21
157.3882766520
0
LINE
5
3F1
100
AcDbEntity
8
0
100
AcDbLine
62
7
6
CONTINUOUS
10
171.8707430741
20
158.2801615536
11
171.6792537352
21
158.0764139398
0
LINE
5
3F2
100
AcDbEntity
8
0
100
AcDbLine
62
7
6
CONTINUOUS
10
131.5941471239
20
167.4148244375
11
131.8813814005
21
167.4148244375
0
LINE
5
3F3
100
AcDbEntity
8
0
100
AcDbLine
62
7
6
CONTINUOUS
10
131.9771260699
20
167.7951211112
11
131.5941471239
21
167.7951211112
0
LINE
5
3F4
100
AcDbEntity
8
0
100
AcDbLine
62
7
6
CONTINUOUS
10
170.8175514420
20
163.8492627376
11
171.1047854503
21
163.7813469311
0
LINE
5
3F5
100
AcDbEntity
8
0
100
AcDbLine
62
7
6
CONTINUOUS
10
171.2005301198
20
164.1888421586
11
170.9132961115
21
164.2567579651
0
LINE
5
3F6
100
AcDbEntity
8
0
100
AcDbLine
62
7
6
CONTINUOUS
10
169.1898919275
20
161.2005437586
11
168.9026579192
21
161.3363753715
0
LINE
5
3F7
100
AcDbEntity
8
0
100
AcDbLine
62
7
6
CONTINUOUS
10
168.3281898020
20
157.9405819382
11
168.7111685132
21
157.6689187123
0
LINE
5
3F8
100
AcDbEntity
8
0
100
AcDbLine
62
7
6
CONTINUOUS
10
163.0991749803
20
157.5244468485
11
163.1572389982
21
157.3882766520
0
LINE
5
3F9
100
AcDbEntity
8
0
100
AcDbLine
62
7
6
CONTINUOUS
10
164.0282025881
20
157.5244468485
11
164.0862666060
21
157.3882766520
0
LINE
5
3FA
100
AcDbEntity
8
0
100
AcDbLine
62
7
6
CONTINUOUS
10
164.3765880241
20
157.3882766520
11
164.2604593240
21
157.7287021433
0
LINE
5
3FB
100
AcDbEntity
8
0
100
AcDbLine
62
7
6
CONTINUOUS
10
166.9666750768
20
153.3542341028
11
166.9666750768
21
153.7542341028
0
LINE
5
3FC
100
AcDbEntity
8
0
100
AcDbLine
62
7
6
CONTINUOUS
10
168.0409557601
20
166.2942341028
11
168.0409557601
21
165.8867388753
0
LINE
5
3FD
100
AcDbEntity
8
0
100
AcDbLine
62
7
6
CONTINUOUS
10
168.0409557601
20
164.1888421586
11
168.0409557601
21
163.7134309303
0
LINE
5
3FE
100
AcDbEntity
8
0
100
AcDbLine
62
7
6
CONTINUOUS
10
168.0409557601
20
162.0834502144
11
168.0409557601
21
161.8117865999
0
LINE
5
3FF
100
AcDbEntity
8
0
100
AcDbLine
62
7
6
CONTINUOUS
10
168.0409557601
20
160.1818056897
11
168.0409557601
21
158.5518247795
0
LINE
5
400
100
AcDbEntity
8
0
100
AcDbLine
62
7
6
CONTINUOUS
10
168.1367004379
20
162.4230294412
11
168.0409557601
21
162.0834502144
0
LINE
5
401
100
AcDbEntity
8
0
100
AcDbLine
62
7
6
CONTINUOUS
10
168.6154238438
20
162.0834502144
11
168.7111685132
21
162.3551134404
0
LINE
5
402
100
AcDbEntity
8
0
100
AcDbLine
62
7
6
CONTINUOUS
10
172.0622324129
20
164.5963373862
11
171.9664877435
21
164.3925897724
0
LINE
5
403
100
AcDbEntity
8
0
100
AcDbLine
62
7
6
CONTINUOUS
10
172.2537217518
20
157.9405819382
11
172.4452110907
21
158.2122451642
0
LINE
5
404
100
AcDbEntity
8
0
100
AcDbLine
62
7
6
CONTINUOUS
10
131.3069131156
20
167.3514411750
11
131.5941471239
21
167.4148244375
0
LINE
5
405
100
AcDbEntity
8
0
100
AcDbLine
62
7
6
CONTINUOUS
10
131.5941471239
20
167.7951211112
11
131.3069131156
21
167.7317378487
0
LINE
5
406
100
AcDbEntity
8
0
100
AcDbLine
62
7
6
CONTINUOUS
10
170.4345727643
20
164.0530103513
11
170.8175514420
21
163.8492627376
0
LINE
5
407
100
AcDbEntity
8
0
100
AcDbLine
62
7
6
CONTINUOUS
10
168.3281898020
20
161.2005437586
11
168.7111685132
21
160.9288801440
0
LINE
5
408
100
AcDbEntity
8
0
100
AcDbLine
62
7
6
CONTINUOUS
10
168.9026579192
20
158.0764139398
11
168.7111685132
21
158.2801615536
0
LINE
5
409
100
AcDbEntity
8
0
100
AcDbLine
62
7
6
CONTINUOUS
10
168.9026579192
20
161.3363753715
11
168.7111685132
21
161.5401229853
0
LINE
5
40A
100
AcDbEntity
8
0
100
AcDbLine
62
7
6
CONTINUOUS
10
168.1367004379
20
158.2122451642
11
168.3281898020
21
157.9405819382
0
LINE
5
40B
100
AcDbEntity
8
0
100
AcDbLine
62
7
6
CONTINUOUS
10
168.6154238438
20
158.5518247795
11
168.6154238438
21
159.7743104622
0
LINE
5
40C
100
AcDbEntity
8
0
100
AcDbLine
62
7
6
CONTINUOUS
10
168.6154238438
20
161.8117865999
11
168.6154238438
21
162.0834502144
0
LINE
5
40D
100
AcDbEntity
8
0
100
AcDbLine
62
7
6
CONTINUOUS
10
170.0515940865
20
165.8867388753
11
170.0515940865
21
164.7321690963
0
LINE
5
40E
100
AcDbEntity
8
0
100
AcDbLine
62
7
6
CONTINUOUS
10
170.6260621031
20
164.5963373862
11
170.6260621031
21
165.8867388753
0
LINE
5
40F
100
AcDbEntity
8
0
100
AcDbLine
62
7
6
CONTINUOUS
10
172.4452110907
20
164.3246737716
11
172.5409557601
21
164.6642531927
0
LINE
5
410
100
AcDbEntity
8
0
100
AcDbLine
62
7
6
CONTINUOUS
10
171.9664877435
20
158.5518247795
11
171.8707430741
21
158.2801615536
0
LINE
5
411
100
AcDbEntity
8
0
100
AcDbLine
62
7
6
CONTINUOUS
10
170.9132961115
20
164.2567579651
11
170.7218067726
21
164.3925897724
0
LINE
5
412
100
AcDbEntity
8
0
100
AcDbLine
62
7
6
CONTINUOUS
10
168.1367004379
20
161.4722073731
11
168.3281898020
21
161.2005437586
0
LINE
5
413
100
AcDbEntity
8
0
100
AcDbLine
62
7
6
CONTINUOUS
10
168.7111685132
20
158.2801615536
11
168.6154238438
21
158.5518247795
0
LINE
5
414
100
AcDbEntity
8
0
100
AcDbLine
62
7
6
CONTINUOUS
10
168.7111685132
20
161.5401229853
11
168.6154238438
21
161.8117865999
0
LINE
5
415
100
AcDbEntity
8
0
100
AcDbLine
62
7
6
CONTINUOUS
10
168.0409557601
20
158.5518247795
11
168.1367004379
21
158.2122451642
0
LINE
5
416
100
AcDbEntity
8
0
100
AcDbLine
62
7
6
CONTINUOUS
10
168.0409557601
20
161.8117865999
11
168.1367004379
21
161.4722073731
0
LINE
5
417
100
AcDbEntity
8
0
100
AcDbLine
62
7
6
CONTINUOUS
10
171.9664877435
20
159.7743104622
11
171.9664877435
21
158.5518247795
0
LINE
5
418
100
AcDbEntity
8
0
100
AcDbLine
62
7
6
CONTINUOUS
10
172.0622324129
20
165.8867388753
11
172.0622324129
21
164.5963373862
0
LINE
5
419
100
AcDbEntity
8
0
100
AcDbLine
62
7
6
CONTINUOUS
10
172.5409557601
20
158.5518247795
11
172.5409557601
21
160.1818056897
0
LINE
5
41A
100
AcDbEntity
8
0
100
AcDbLine
62
7
6
CONTINUOUS
10
172.5409557601
20
160.7251325302
11
172.5409557601
21
161.1326277578
0
LINE
5
41B
100
AcDbEntity
8
0
100
AcDbLine
62
7
6
CONTINUOUS
10
172.5409557601
20
162.7626086679
11
172.5409557601
21
163.1701040898
0
LINE
5
41C
100
AcDbEntity
8
0
100
AcDbLine
62
7
6
CONTINUOUS
10
172.5409557601
20
164.6642531927
11
172.5409557601
21
166.2942341028
0
LINE
5
41D
100
AcDbEntity
8
0
100
AcDbLine
62
7
6
CONTINUOUS
10
172.4452110907
20
158.2122451642
11
172.5409557601
21
158.5518247795
0
LINE
5
41E
100
AcDbEntity
8
0
100
AcDbLine
62
7
6
CONTINUOUS
10
170.2430834254
20
164.3246737716
11
170.4345727643
21
164.0530103513
0
LINE
5
41F
100
AcDbEntity
8
0
100
AcDbLine
62
7
6
CONTINUOUS
10
170.7218067726
20
164.3925897724
11
170.6260621031
21
164.5963373862
0
LINE
5
420
100
AcDbEntity
8
0
100
AcDbLine
62
7
6
CONTINUOUS
10
173.5409557601
20
147.2942341028
11
173.5409557601
21
164.2942341028
0
LINE
5
421
100
AcDbEntity
8
0
100
AcDbLine
62
7
6
CONTINUOUS
10
175.5409557601
20
147.2942341028
11
175.5409557601
21
164.2942341028
0
LINE
5
422
100
AcDbEntity
8
DEFAULT_2
100
AcDbLine
62
8
6
HIDDEN
10
293.3771299929
20
133.2942341028
11
297.3771299929
21
133.2942341028
0
LINE
5
423
100
AcDbEntity
8
0
100
AcDbLine
62
7
6
CONTINUOUS
10
299.3771299929
20
145.2942341028
11
299.7771299929
21
145.2942341028
0
LINE
5
424
100
AcDbEntity
8
0
100
AcDbLine
62
7
6
CONTINUOUS
10
299.3771299929
20
145.6745307765
11
299.7771299929
21
145.6745307765
0
LINE
5
425
100
AcDbEntity
8
0
100
AcDbLine
62
7
6
CONTINUOUS
10
299.3771299929
20
146.5618896515
11
299.7771299929
21
146.5618896515
0
LINE
5
426
100
AcDbEntity
8
0
100
AcDbLine
62
7
6
CONTINUOUS
10
299.3771299929
20
147.4492485264
11
299.7771299929
21
147.4492485264
0
LINE
5
427
100
AcDbEntity
8
0
100
AcDbLine
62
7
6
CONTINUOUS
10
299.3771299929
20
147.8295452001
11
299.7771299929
21
147.8295452001
0
LINE
5
428
100
AcDbEntity
8
0
100
AcDbLine
62
7
6
CONTINUOUS
10
299.3771299929
20
148.3366074921
11
299.7771299929
21
148.3366074921
0
LINE
5
429
100
AcDbEntity
8
0
100
AcDbLine
62
7
6
CONTINUOUS
10
299.3771299929
20
148.3999903919
11
299.7771299929
21
148.3999903919
0
LINE
5
42A
100
AcDbEntity
8
0
100
AcDbLine
62
7
6
CONTINUOUS
10
299.3771299929
20
148.5267558289
11
299.7771299929
21
148.5267558289
0
LINE
5
42B
100
AcDbEntity
8
0
100
AcDbLine
62
7
6
CONTINUOUS
10
299.3771299929
20
148.7802870656
11
299.7771299929
21
148.7802870656
0
LINE
5
42C
100
AcDbEntity
8
0
100
AcDbLine
62
7
6
CONTINUOUS
10
299.3771299929
20
149.0338179396
11
299.7771299929
21
149.0338179396
0
LINE
5
42D
100
AcDbEntity
8
0
100
AcDbLine
62
7
6
CONTINUOUS
10
299.3771299929
20
149.3507320761
11
299.7771299929
21
149.3507320761
0
LINE
5
42E
100
AcDbEntity
8
0
100
AcDbLine
62
7
6
CONTINUOUS
10
290.9771299929
20
155.1548541256
11
290.9771299929
21
151.6336140801
0
LINE
5
42F
100
AcDbEntity
8
0
100
AcDbLine
62
7
6
CONTINUOUS
10
299.3771299929
20
149.9211770866
11
299.7771299929
21
149.9211770866
0
LINE
5
430
100
AcDbEntity
8
0
100
AcDbLine
62
7
6
CONTINUOUS
10
299.3771299929
20
150.2380908604
11
299.7771299929
21
150.2380908604
0
LINE
5
431
100
AcDbEntity
8
0
100
AcDbLine
62
7
6
CONTINUOUS
10
299.3771299929
20
150.4916220970
11
299.7771299929
21
150.4916220970
0
LINE
5
432
100
AcDbEntity
8
0
100
AcDbLine
62
7
6
CONTINUOUS
10
299.3771299929
20
150.7451529710
11
299.7771299929
21
150.7451529710
0
LINE
5
433
100
AcDbEntity
8
0
100
AcDbLine
62
7
6
CONTINUOUS
10
299.3771299929
20
150.8085358709
11
299.7771299929
21
150.8085358709
0
LINE
5
434
100
AcDbEntity
8
0
100
AcDbLine
62
7
6
CONTINUOUS
10
299.3771299929
20
151.3155979815
11
299.7771299929
21
151.3155979815
0
LINE
5
435
100
AcDbEntity
8
0
100
AcDbLine
62
7
6
CONTINUOUS
10
299.3771299929
20
151.3789808814
11
299.7771299929
21
151.3789808814
0
LINE
5
436
100
AcDbEntity
8
0
100
AcDbLine
62
7
6
CONTINUOUS
10
299.3771299929
20
151.5057466810
11
299.7771299929
21
151.5057466810
0
LINE
5
437
100
AcDbEntity
8
0
100
AcDbLine
62
7
6
CONTINUOUS
10
291.3771299929
20
151.6336140801
11
290.9771299929
21
151.6336140801
0
LINE
5
438
100
AcDbEntity
8
0
100
AcDbLine
62
7
6
CONTINUOUS
10
291.3771299929
20
186.2942341028
11
291.3771299929
21
125.2942341028
0
LINE
5
439
100
AcDbEntity
8
0
100
AcDbLine
62
7
6
CONTINUOUS
10
299.3771299929
20
151.7592775550
11
299.7771299929
21
151.7592775550
0
LINE
5
43A
100
AcDbEntity
8
0
100
AcDbLine
62
7
6
CONTINUOUS
10
291.3771299929
20
151.9800242416
11
290.9771299929
21
151.9800242416
0
LINE
5
43B
100
AcDbEntity
8
0
100
AcDbLine
62
7
6
CONTINUOUS
10
299.3771299929
20
152.0128084290
11
299.7771299929
21
152.0128084290
0
LINE
5
43C
100
AcDbEntity
8
0
100
AcDbLine
62
7
6
CONTINUOUS
10
299.3771299929
20
152.3297225655
11
299.7771299929
21
152.3297225655
0
LINE
5
43D
100
AcDbEntity
8
0
100
AcDbLine
62
7
6
CONTINUOUS
10
299.3771299929
20
152.9001675760
11
299.7771299929
21
152.9001675760
0
LINE
5
43E
100
AcDbEntity
8
0
100
AcDbLine
62
7
6
CONTINUOUS
10
291.3771299929
20
153.1942341028
11
290.9771299929
21
153.1942341028
0
LINE
5
43F
100
AcDbEntity
8
0
100
AcDbLine
62
7
6
CONTINUOUS
10
299.3771299929
20
153.2170817125
11
299.7771299929
21
153.2170817125
0
LINE
5
440
100
AcDbEntity
8
0
100
AcDbLine
62
7
6
CONTINUOUS
10
299.3771299929
20
153.4706125865
11
299.7771299929
21
153.4706125865
0
LINE
5
441
100
AcDbEntity
8
0
100
AcDbLine
62
7
6
CONTINUOUS
10
291.3771299929
20
153.5942341028
11
290.9771299929
21
153.5942341028
0
LINE
5
442
100
AcDbEntity
8
0
100
AcDbLine
62
7
6
CONTINUOUS
10
299.3771299929
20
153.7241434605
11
299.7771299929
21
153.7241434605
0
LINE
5
443
100
AcDbEntity
8
0
100
AcDbLine
62
7
6
CONTINUOUS
10
299.3771299929
20
153.7875267230
11
299.7771299929
21
153.7875267230
0
LINE
5
444
100
AcDbEntity
8
DEFAULT_1
100
AcDbLine
62
2
6
CENTER
10
295.3771299929
20
120.2942341028
11
295.3771299929
21
191.2942341028
0
LINE
5
445
100
AcDbEntity
8
0
100
AcDbLine
62
7
6
CONTINUOUS
10
291.3771299929
20
154.8084439641
11
290.9771299929
21
154.8084439641
0
LINE
5
446
100
AcDbEntity
8
0
100
AcDbLine
62
7
6
CONTINUOUS
10
299.3771299929
20
154.9398747489
11
299.7771299929
21
154.9398747489
0
LINE
5
447
100
AcDbEntity
8
0
100
AcDbLine
62
7
6
CONTINUOUS
10
291.3771299929
20
155.1548541256
11
290.9771299929
21
155.1548541256
0
LINE
5
448
100
AcDbEntity
8
0
100
AcDbLine
62
7
6
CONTINUOUS
10
299.3771299929
20
155.2862849104
11
299.7771299929
21
155.2862849104
0
LINE
5
449
100
AcDbEntity
8
0
100
AcDbLine
62
7
6
CONTINUOUS
10
299.3771299929
20
155.7542341028
11
299.7771299929
21
155.7542341028
0
LINE
5
44A
100
AcDbEntity
8
0
100
AcDbLine
62
7
6
CONTINUOUS
10
299.3771299929
20
155.8223192071
11
299.7771299929
21
155.8223192071
0
LINE
5
44B
100
AcDbEntity
8
0
100
AcDbLine
62
7
6
CONTINUOUS
10
299.3771299929
20
156.0265745197
11
299.7771299929
21
156.0265745197
0
LINE
5
44C
100
AcDbEntity
8
0
100
AcDbLine
62
7
6
CONTINUOUS
10
299.3771299929
20
156.3670000826
11
299.7771299929
21
156.3670000826
0
LINE
5
44D
100
AcDbEntity
8
0
100
AcDbLine
62
7
6
CONTINUOUS
10
299.3771299929
20
156.6393404757
11
299.7771299929
21
156.6393404757
0
LINE
5
44E
100
AcDbEntity
8
0
100
AcDbLine
62
7
6
CONTINUOUS
10
299.3771299929
20
156.7755106722
11
299.7771299929
21
156.7755106722
0
LINE
5
44F
100
AcDbEntity
8
0
100
AcDbLine
62
7
6
CONTINUOUS
10
299.3771299929
20
156.9797660624
11
299.7771299929
21
156.9797660624
0
LINE
5
450
100
AcDbEntity
8
0
100
AcDbLine
62
7
6
CONTINUOUS
10
299.3771299929
20
157.1159362589
11
299.7771299929
21
157.1159362589
0
LINE
5
451
100
AcDbEntity
8
0
100
AcDbLine
62
7
6
CONTINUOUS
10
299.3771299929
20
157.1840213572
11
299.7771299929
21
157.1840213572
0
LINE
5
452
100
AcDbEntity
8
0
100
AcDbLine
62
7
6
CONTINUOUS
10
299.3771299929
20
157.2521064554
11
299.7771299929
21
157.2521064554
0
LINE
5
453
100
AcDbEntity
8
0
100
AcDbLine
62
7
6
CONTINUOUS
10
299.3771299929
20
157.3369618602
11
299.7771299929
21
157.3369618602
0
LINE
5
454
100
AcDbEntity
8
0
100
AcDbLine
62
7
6
CONTINUOUS
10
299.3771299929
20
157.4003451227
11
299.7771299929
21
157.4003451227
0
LINE
5
455
100
AcDbEntity
8
0
100
AcDbLine
62
7
6
CONTINUOUS
10
299.3771299929
20
157.5271109224
11
299.7771299929
21
157.5271109224
0
LINE
5
456
100
AcDbEntity
8
0
100
AcDbLine
62
7
6
CONTINUOUS
10
299.3771299929
20
157.7172592592
11
299.7771299929
21
157.7172592592
0
LINE
5
457
100
AcDbEntity
8
0
100
AcDbLine
62
7
6
CONTINUOUS
10
299.3771299929
20
158.0341726704
11
299.7771299929
21
158.0341726704
0
LINE
5
458
100
AcDbEntity
8
0
100
AcDbLine
62
7
6
CONTINUOUS
10
299.3771299929
20
186.2942341028
11
299.3771299929
21
125.2942341028
0
LINE
5
459
100
AcDbEntity
8
0
100
AcDbLine
62
7
6
CONTINUOUS
10
299.7771299929
20
167.7951211112
11
299.7771299929
21
155.7542341028
0
LINE
5
45A
100
AcDbEntity
8
0
100
AcDbLine
62
7
6
CONTINUOUS
10
299.7771299929
20
155.2862849104
11
299.7771299929
21
151.3155979815
0
LINE
5
45B
100
AcDbEntity
8
0
100
AcDbLine
62
7
6
CONTINUOUS
10
299.7771299929
20
150.8085358709
11
299.7771299929
21
148.3366074921
0
LINE
5
45C
100
AcDbEntity
8
0
100
AcDbLine
62
7
6
CONTINUOUS
10
299.7771299929
20
147.8295452001
11
299.7771299929
21
145.2942341028
0
LINE
5
45D
100
AcDbEntity
8
0
100
AcDbLine
62
7
6
CONTINUOUS
10
299.3771299929
20
158.3510860815
11
299.7771299929
21
158.3510860815
0
LINE
5
45E
100
AcDbEntity
8
0
100
AcDbLine
62
7
6
CONTINUOUS
10
299.3771299929
20
158.6046176809
11
299.7771299929
21
158.6046176809
0
LINE
5
45F
100
AcDbEntity
8
0
100
AcDbLine
62
7
6
CONTINUOUS
10
299.3771299929
20
158.9215310920
11
299.7771299929
21
158.9215310920
0
LINE
5
460
100
AcDbEntity
8
0
100
AcDbLine
62
7
6
CONTINUOUS
10
299.3771299929
20
159.2384459539
11
299.7771299929
21
159.2384459539
0
LINE
5
461
100
AcDbEntity
8
0
100
AcDbLine
62
7
6
CONTINUOUS
10
299.3771299929
20
159.4285942907
11
299.7771299929
21
159.4285942907
0
LINE
5
462
100
AcDbEntity
8
0
100
AcDbLine
62
7
6
CONTINUOUS
10
299.3771299929
20
159.5553593650
11
299.7771299929
21
159.5553593650
0
LINE
5
463
100
AcDbEntity
8
0
100
AcDbLine
62
7
6
CONTINUOUS
10
299.3771299929
20
159.6187426275
11
299.7771299929
21
159.6187426275
0
LINE
5
464
100
AcDbEntity
8
0
100
AcDbLine
62
7
6
CONTINUOUS
10
299.3771299929
20
160.1258043755
11
299.7771299929
21
160.1258043755
0
LINE
5
465
100
AcDbEntity
8
0
100
AcDbLine
62
7
6
CONTINUOUS
10
299.3771299929
20
161.0131627971
11
299.7771299929
21
161.0131627971
0
LINE
5
466
100
AcDbEntity
8
0
100
AcDbLine
62
7
6
CONTINUOUS
10
299.3771299929
20
161.2005437586
11
299.7771299929
21
161.2005437586
0
LINE
5
467
100
AcDbEntity
8
0
100
AcDbLine
62
7
6
CONTINUOUS
10
299.3771299929
20
161.4722073731
11
299.7771299929
21
161.4722073731
0
LINE
5
468
100
AcDbEntity
8
0
100
AcDbLine
62
7
6
CONTINUOUS
10
299.3771299929
20
161.5202259958
11
299.7771299929
21
161.5202259958
0
LINE
5
469
100
AcDbEntity
8
0
100
AcDbLine
62
7
6
CONTINUOUS
10
299.3771299929
20
161.9005226695
11
299.7771299929
21
161.9005226695
0
LINE
5
46A
100
AcDbEntity
8
0
100
AcDbLine
62
7
6
CONTINUOUS
10
299.3771299929
20
162.7878810911
11
299.7771299929
21
162.7878810911
0
LINE
5
46B
100
AcDbEntity
8
0
100
AcDbLine
62
7
6
CONTINUOUS
10
299.3771299929
20
163.6752395127
11
299.7771299929
21
163.6752395127
0
LINE
5
46C
100
AcDbEntity
8
0
100
AcDbLine
62
7
6
CONTINUOUS
10
299.3771299929
20
164.0555361864
11
299.7771299929
21
164.0555361864
0
LINE
5
46D
100
AcDbEntity
8
0
100
AcDbLine
62
7
6
CONTINUOUS
10
299.3771299929
20
164.1888421586
11
299.7771299929
21
164.1888421586
0
LINE
5
46E
100
AcDbEntity
8
0
100
AcDbLine
62
7
6
CONTINUOUS
10
299.3771299929
20
164.5625993851
11
299.7771299929
21
164.5625993851
0
LINE
5
46F
100
AcDbEntity
8
0
100
AcDbLine
62
7
6
CONTINUOUS
10
299.3771299929
20
164.9428960587
11
299.7771299929
21
164.9428960587
0
LINE
5
470
100
AcDbEntity
8
0
100
AcDbLine
62
7
6
CONTINUOUS
10
299.3771299929
20
165.4499578067
11
299.7771299929
21
165.4499578067
0
LINE
5
471
100
AcDbEntity
8
0
100
AcDbLine
62
7
6
CONTINUOUS
10
299.3771299929
20
166.9711445013
11
299.7771299929
21
166.9711445013
0
LINE
5
472
100
AcDbEntity
8
0
100
AcDbLine
62
7
6
CONTINUOUS
10
299.3771299929
20
167.2880579125
11
299.7771299929
21
167.2880579125
0
LINE
5
473
100
AcDbEntity
8
0
100
AcDbLine
62
7
6
CONTINUOUS
10
299.3771299929
20
167.5415895118
11
299.7771299929
21
167.5415895118
0
LINE
5
474
100
AcDbEntity
8
0
100
AcDbLine
62
7
6
CONTINUOUS
10
299.3771299929
20
167.7317378487
11
299.7771299929
21
167.7317378487
0
LINE
5
475
100
AcDbEntity
8
0
100
AcDbLine
62
7
6
CONTINUOUS
10
299.3771299929
20
167.7951211112
11
299.7771299929
21
167.7951211112
0
LINE
5
476
100
AcDbEntity
8
DEFAULT_2
100
AcDbLine
62
8
6
HIDDEN
10
293.3771299929
20
178.2942341028
11
297.3771299929
21
178.2942341028
0
ARC
5
477
100
AcDbEntity
8
0
100
AcDbCircle
62
7
6
CONTINUOUS
10
151.5409557601
20
147.2942341028
40
24.0000000000
100
AcDbArc
50
180.0000000000
51
360.0000000000
0
ARC
5
478
100
AcDbEntity
8
0
100
AcDbCircle
62
7
6
CONTINUOUS
10
151.5409557601
20
164.2942341028
40
24.0000000000
100
AcDbArc
50
0.0000000000
51
180.0000000000
0
ARC
5
479
100
AcDbEntity
8
0
100
AcDbCircle
62
7
6
CONTINUOUS
10
163.5305345684
20
163.7942341028
40
2.0000000000
100
AcDbArc
50
270.0000000000
51
357.6119845367
0
ARC
5
47A
100
AcDbEntity
8
0
100
AcDbCircle
62
7
6
CONTINUOUS
10
151.5409557601
20
164.2942341028
40
14.0000000000
100
AcDbArc
50
357.6119845367
51
182.3880154633
0
ARC
5
47B
100
AcDbEntity
8
0
100
AcDbCircle
62
7
6
CONTINUOUS
10
139.5513769518
20
163.7942341028
40
2.0000000000
100
AcDbArc
50
182.3880154633
51
270.0000000000
0
ARC
5
47C
100
AcDbEntity
8
0
100
AcDbCircle
62
7
6
CONTINUOUS
10
139.5513769518
20
147.7942341028
40
2.0000000000
100
AcDbArc
50
90.0000000000
51
177.6119845367
0
ARC
5
47D
100
AcDbEntity
8
0
100
AcDbCircle
62
7
6
CONTINUOUS
10
151.5409557601
20
147.2942341028
40
14.0000000000
100
AcDbArc
50
177.6119845367
51
2.3880154633
0
ARC
5
47E
100
AcDbEntity
8
0
100
AcDbCircle
62
7
6
CONTINUOUS
10
163.5305345684
20
147.7942341028
40
2.0000000000
100
AcDbArc
50
2.3880154633
51
90.0000000000
0
ARC
5
47F
100
AcDbEntity
8
0
100
AcDbCircle
62
7
6
CONTINUOUS
10
151.5409557601
20
164.2942341028
40
22.0000000000
100
AcDbArc
50
0.0000000000
51
180.0000000000
0
ARC
5
480
100
AcDbEntity
8
0
100
AcDbCircle
62
7
6
CONTINUOUS
10
151.5409557601
20
147.2942341028
40
22.0000000000
100
AcDbArc
50
180.0000000000
51
360.0000000000
0
ARC
5
481
100
AcDbEntity
8
DEFAULT_2
100
AcDbCircle
62
8
6
HIDDEN
10
293.3771299929
20
131.2942341028
40
2.0000000000
100
AcDbArc
50
90.0000000000
51
179.9999982832
0
ARC
5
482
100
AcDbEntity
8
DEFAULT_2
100
AcDbCircle
62
8
6
HIDDEN
10
293.3771299929
20
180.2942341028
40
2.0000000000
100
AcDbArc
50
180.0000017168
51
270.0000000000
0
ARC
5
483
100
AcDbEntity
8
DEFAULT_2
100
AcDbCircle
62
8
6
HIDDEN
10
297.3771299929
20
131.2942341028
40
2.0000000000
100
AcDbArc
50
0.0000017168
51
90.0000000000
0
ARC
5
484
100
AcDbEntity
8
DEFAULT_2
100
AcDbCircle
62
8
6
HIDDEN
10
297.3771299929
20
180.2942341028
40
2.0000000000
100
AcDbArc
50
270.0000000000
51
359.9999982832
0
ARC
5
485
100
AcDbEntity
8
0
100
AcDbCircle
62
7
6
CONTINUOUS
10
295.3771299929
20
128.2942341028
40
5.0000000000
100
AcDbArc
50
216.8698976458
51
323.1301023542
0
ARC
5
486
100
AcDbEntity
8
0
100
AcDbCircle
62
7
6
CONTINUOUS
10
295.3771299929
20
183.2942341028
40
5.0000000000
100
AcDbArc
50
36.8698976458
51
143.1301023542
0
ENDSEC
0
SECTION
2
OBJECTS
0
DICTIONARY
5
487
100
AcDbDictionary
3
ACAD_GROUP
350
488
3
ACAD_MLINESTYLE
350
489
0
DICTIONARY
5
488
102
{ACAD_REACTORS
330
487
102
}
100
AcDbDictionary
0
DICTIONARY
5
489
102
{ACAD_REACTORS
330
487
102
}
100
AcDbDictionary
3
STANDARD
350
48A
0
MLINESTYLE
5
48A
102
{ACAD_REACTORS
330
489
102
}
100
AcDbMlineStyle
2
STANDARD
70
0
3

62
256
51
90.0
52
90.0
71
2
49
0.5
62
256
6
BYLAYER
49
-0.5
62
256
6
BYLAYER
0
ENDSEC
0
EOF
