999
DXF file: C:\Aktuell-Internet\CAD-Daten\2vcg6.dxf
999
Pro/ENGINEER 2001400 by Parametric Technology Corporation
0
SECTION
2
HEADER
9
$ACADVER
1
AC1014
9
$EXTMAX
10
420.0000000000
20
297.0000000000
9
$EXTMIN
10
0.0000000000
20
0.0000000000
9
$LIMMIN
10
0.0000000000
20
0.0000000000
9
$LIMMAX
10
420.0000000000
20
297.0000000000
9
$VIEWCTR
10
210.0000000000
20
148.5000000000
9
$VIEWSIZE
40
297.0000000000
9
$CLAYER
8
0
9
$LTSCALE
40
23.1000000000
9
$CELTYPE
6
BYLAYER
9
$DIMSCALE
40
1
9
$DIMASZ
40
3.5000000000
9
$DIMEXO
40
2.6250000000
9
$DIMDLI
40
15.9600000000
9
$DIMEXE
40
7.5600000000
9
$DIMCEN
40
3.7800000000
9
$DIMLFAC
40
1.0000000000
9
$DIMTXT
40
3.5000000000
9
$DIMTOL
70
1
9
$DIMTFAC
40
0.6000000000
9
$DIMTP
40
0.0050000000
9
$DIMTM
40
0.0050000000
9
$HANDSEED
5
468
0
ENDSEC
0
SECTION
2
CLASSES
0
ENDSEC
0
SECTION
2
TABLES
0
TABLE
2
VPORT
5
8
100
AcDbSymbolTable
70
2
0
VPORT
5
1F4
100
AcDbSymbolTableRecord
100
AcDbViewportTableRecord
2
*ACTIVE
70
0
10
0.0
20
0.0
11
1.0
21
1.0
12
210.0000000000
22
148.5000000000
13
0.0
23
0.0
14
1.0
24
1.0
15
0.0
25
0.0
16
0.0
26
0.0
36
1.0
17
0.0
27
0.0
37
0.0
40
297.0000000000
41
1.4141414141
42
50.0
43
0.0
44
0.0
50
0.0
51
0.0
71
0
72
100
73
1
74
1
75
0
76
0
77
0
78
0
0
ENDTAB
0
TABLE
2
LTYPE
5
5
100
AcDbSymbolTable
70
6
0
LTYPE
5
14
100
AcDbSymbolTableRecord
100
AcDbLinetypeTableRecord
2
BYBLOCK
70
0
3

72
65
73
0
40
0.0
0
LTYPE
5
15
100
AcDbSymbolTableRecord
100
AcDbLinetypeTableRecord
2
BYLAYER
70
0
3

72
65
73
0
40
0.0
0
LTYPE
5
16
100
AcDbSymbolTableRecord
100
AcDbLinetypeTableRecord
2
CONTINUOUS
70
64
3
Solid line
72
65
73
0
40
0
0
LTYPE
5
1F5
100
AcDbSymbolTableRecord
100
AcDbLinetypeTableRecord
2
CENTER
70
64
3
____ _ ____ _ ____ _ ____ _ ____ _ ____ _ ____
72
65
73
4
40
0.6
49
0.375
74
0
49
-0.075
74
0
49
0.075
74
0
49
-0.075
74
0
0
LTYPE
5
1F6
100
AcDbSymbolTableRecord
100
AcDbLinetypeTableRecord
2
HIDDEN
70
64
3
- - - - - - - - - - - - - - - - - - - -
72
65
73
2
40
0.2
49
0.1
74
0
49
-0.1
74
0
0
LTYPE
5
1F7
100
AcDbSymbolTableRecord
100
AcDbLinetypeTableRecord
2
PHANTOM
70
64
3
_____ _ _ _____ _ _ _____ _ _ _____
72
65
73
6
40
0.8
49
0.45
74
0
49
-0.05
74
0
49
0.1
74
0
49
-0.05
74
0
49
0.1
74
0
49
-0.05
74
0
0
LTYPE
5
1F8
100
AcDbSymbolTableRecord
100
AcDbLinetypeTableRecord
2
DOT
70
64
3
. . . . . . . . . . . . . . . . . . . .
72
65
73
2
40
0.2
49
0.1
74
0
49
-0.1
74
0
0
LTYPE
5
1F9
100
AcDbSymbolTableRecord
100
AcDbLinetypeTableRecord
2
DASHED
70
64
3
- - - - - - - - - - - - - - - - - - - -
72
65
73
2
40
0.2
49
0.1
74
0
49
-0.1
74
0
0
ENDTAB
0
TABLE
2
LAYER
5
2
100
AcDbSymbolTable
70
36
0
LAYER
5
10
100
AcDbSymbolTableRecord
100
AcDbLayerTableRecord
2
0
70
0
62
7
6
CONTINUOUS
0
LAYER
5
1FA
100
AcDbSymbolTableRecord
100
AcDbLayerTableRecord
2
DEFAULT_1
70
0
62
7
6
CENTER
0
LAYER
5
1FB
100
AcDbSymbolTableRecord
100
AcDbLayerTableRecord
2
DEFAULT_2
70
0
62
8
6
HIDDEN
0
LAYER
5
1FC
100
AcDbSymbolTableRecord
100
AcDbLayerTableRecord
2
DEFAULT_3
70
0
62
7
6
PHANTOM
0
ENDTAB
0
TABLE
2
STYLE
5
3
100
AcDbSymbolTable
70
1
0
STYLE
5
11
100
AcDbSymbolTableRecord
100
AcDbTextStyleTableRecord
2
STANDARD
70
0
40
0.0
41
1.0
50
0.0
71
0
42
0.0
3
txt
4

0
ENDTAB
0
TABLE
2
VIEW
5
6
100
AcDbSymbolTable
70
0
0
ENDTAB
0
TABLE
2
UCS
5
7
100
AcDbSymbolTable
70
0
0
ENDTAB
0
TABLE
2
APPID
5
9
100
AcDbSymbolTable
70
1
0
APPID
5
1FD
100
AcDbSymbolTableRecord
100
AcDbRegAppTableRecord
2
ACAD
70
0
0
ENDTAB
0
TABLE
2
DIMSTYLE
5
A
100
AcDbSymbolTable
70
1
0
DIMSTYLE
105
1FE
100
AcDbSymbolTableRecord
100
AcDbDimStyleTableRecord
2
STANDARD
70
0
3

4

5

6

7

40
1.0
41
0.18
42
0.0625
43
0.38
44
0.18
45
0.0
46
0.0
47
0.0050000000
48
0.0050000000
140
3.5000000000
141
0.09
142
0.0
143
25.4
144
1.0000000000
145
0.0
146
0.6000000000
147
0.09
71
1
72
0
73
1
74
1
75
0
76
0
77
0
78
0
170
0
171
2
172
0
173
0
174
0
175
0
176
0
177
0
178
0
270
2
271
3
272
4
273
2
274
2
340
11
275
0
280
0
281
0
282
0
283
1
284
0
285
0
286
0
287
3
288
0
0
ENDTAB
0
TABLE
2
BLOCK_RECORD
5
1
100
AcDbSymbolTable
70
0
0
BLOCK_RECORD
5
1B
100
AcDbSymbolTableRecord
100
AcDbBlockTableRecord
2
*MODEL_SPACE
0
BLOCK_RECORD
5
1C
100
AcDbSymbolTableRecord
100
AcDbBlockTableRecord
2
*PAPER_SPACE
0
ENDTAB
0
ENDSEC
0
SECTION
2
BLOCKS
0
BLOCK
5
1E
100
AcDbEntity
8
0
100
AcDbBlockBegin
2
*MODEL_SPACE
70
0
10
0.0
20
0.0
30
0.0
3
*MODEL_SPACE
1

0
ENDBLK
5
1F
100
AcDbEntity
8
0
100
AcDbBlockEnd
0
BLOCK
5
20
100
AcDbEntity
8
0
100
AcDbBlockBegin
2
*PAPER_SPACE
70
0
10
0.0
20
0.0
30
0.0
3
*PAPER_SPACE
1

0
ENDBLK
5
21
100
AcDbEntity
8
0
100
AcDbBlockEnd
0
ENDSEC
0
SECTION
2
ENTITIES
0
LINE
5
1FF
100
AcDbEntity
8
0
100
AcDbLine
62
7
6
CONTINUOUS
10
0.0000000000
20
0.0000000000
11
0.0000000000
21
297.0000000000
0
LINE
5
200
100
AcDbEntity
8
0
100
AcDbLine
62
7
6
CONTINUOUS
10
0.0000000000
20
0.0000000000
11
420.0000000000
21
0.0000000000
0
LINE
5
201
100
AcDbEntity
8
0
100
AcDbLine
62
7
6
CONTINUOUS
10
0.0000000000
20
297.0000000000
11
420.0000000000
21
297.0000000000
0
LINE
5
202
100
AcDbEntity
8
0
100
AcDbLine
62
7
6
CONTINUOUS
10
420.0000000000
20
0.0000000000
11
420.0000000000
21
297.0000000000
0
LINE
5
203
100
AcDbEntity
8
0
100
AcDbLine
62
7
6
CONTINUOUS
10
132.0409557601
20
161.7942341028
11
132.0409557601
21
149.7942341028
0
LINE
5
204
100
AcDbEntity
8
0
100
AcDbLine
62
7
6
CONTINUOUS
10
134.6375514957
20
165.8892931505
11
134.5609557601
21
165.6357624216
0
LINE
5
205
100
AcDbEntity
8
0
100
AcDbLine
62
7
6
CONTINUOUS
10
134.9439344379
20
165.6864690316
11
135.0205301734
21
165.8385877011
0
LINE
5
206
100
AcDbEntity
8
0
100
AcDbLine
62
7
6
CONTINUOUS
10
133.4489686012
20
161.7942341028
11
133.4489686012
21
149.7942341028
0
LINE
5
207
100
AcDbEntity
8
0
100
AcDbLine
62
7
6
CONTINUOUS
10
134.5609557601
20
165.6357624216
11
134.5609557601
21
164.4188130659
0
LINE
5
208
100
AcDbEntity
8
0
100
AcDbLine
62
7
6
CONTINUOUS
10
134.5609557601
20
164.0131636676
11
134.5609557601
21
163.7089263286
0
LINE
5
209
100
AcDbEntity
8
0
100
AcDbLine
62
7
6
CONTINUOUS
10
134.5609557601
20
163.3032757697
11
134.5609557601
21
162.9990384307
0
LINE
5
20A
100
AcDbEntity
8
0
100
AcDbLine
62
7
6
CONTINUOUS
10
134.5609557601
20
161.5792649561
11
134.5609557601
21
161.2750276172
0
LINE
5
20B
100
AcDbEntity
8
0
100
AcDbLine
62
7
6
CONTINUOUS
10
134.5609557601
20
158.9425409653
11
134.5609557601
21
158.7397156858
0
LINE
5
20C
100
AcDbEntity
8
0
100
AcDbLine
62
7
6
CONTINUOUS
10
134.5609557601
20
154.3789808814
11
134.5609557601
21
153.9226248730
0
LINE
5
20D
100
AcDbEntity
8
0
100
AcDbLine
62
7
6
CONTINUOUS
10
134.5609557601
20
151.9957884898
11
134.5609557601
21
151.5394324814
0
LINE
5
20E
100
AcDbEntity
8
0
100
AcDbLine
62
7
6
CONTINUOUS
10
134.5609557601
20
150.3224829806
11
134.5609557601
21
150.0182456417
0
LINE
5
20F
100
AcDbEntity
8
0
100
AcDbLine
62
7
6
CONTINUOUS
10
134.5609557601
20
148.5984714418
11
134.5609557601
21
148.2942341028
0
LINE
5
210
100
AcDbEntity
8
0
100
AcDbLine
62
7
6
CONTINUOUS
10
134.6375514957
20
159.1960716942
11
134.5609557601
21
158.9425409653
0
LINE
5
211
100
AcDbEntity
8
0
100
AcDbLine
62
7
6
CONTINUOUS
10
134.8673387023
20
166.0921184300
11
134.6375514957
21
165.8892931505
0
LINE
5
212
100
AcDbEntity
8
0
100
AcDbLine
62
7
6
CONTINUOUS
10
135.0205301734
20
165.8385877011
11
135.1737216445
21
165.9399997606
0
LINE
5
213
100
AcDbEntity
8
0
100
AcDbLine
62
7
6
CONTINUOUS
10
135.0971259090
20
151.3366074921
11
135.0205301734
21
151.5394324814
0
LINE
5
214
100
AcDbEntity
8
0
100
AcDbLine
62
7
6
CONTINUOUS
10
134.5609557601
20
151.5394324814
11
134.6375514957
21
151.2859011722
0
LINE
5
215
100
AcDbEntity
8
0
100
AcDbLine
62
7
6
CONTINUOUS
10
134.9439344379
20
158.6890102363
11
134.9439344379
21
158.9932475753
0
LINE
5
216
100
AcDbEntity
8
0
100
AcDbLine
62
7
6
CONTINUOUS
10
134.9439344379
20
164.7230504049
11
134.9439344379
21
165.6864690316
0
LINE
5
217
100
AcDbEntity
8
0
100
AcDbLine
62
7
6
CONTINUOUS
10
135.0205301734
20
151.5394324814
11
135.0205301734
21
151.9957884898
0
LINE
5
218
100
AcDbEntity
8
0
100
AcDbLine
62
7
6
CONTINUOUS
10
135.0205301734
20
153.9226248730
11
135.0205301734
21
154.3789808814
0
LINE
5
219
100
AcDbEntity
8
0
100
AcDbLine
62
7
6
CONTINUOUS
10
135.4035088512
20
159.3988969736
11
135.4035088512
21
159.6524277026
0
LINE
5
21A
100
AcDbEntity
8
0
100
AcDbLine
62
7
6
CONTINUOUS
10
135.4801048013
20
152.4014381783
11
135.4801048013
21
152.7056755173
0
LINE
5
21B
100
AcDbEntity
8
0
100
AcDbLine
62
7
6
CONTINUOUS
10
135.4801048013
20
154.7846308600
11
135.4801048013
21
155.0888681989
0
LINE
5
21C
100
AcDbEntity
8
0
100
AcDbLine
62
7
6
CONTINUOUS
10
135.8630834790
20
158.9932475753
11
135.8630834790
21
158.7397156858
0
LINE
5
21D
100
AcDbEntity
8
0
100
AcDbLine
62
7
6
CONTINUOUS
10
136.0928706857
20
165.6864690316
11
136.0928706857
21
164.7230504049
0
LINE
5
21E
100
AcDbEntity
8
0
100
AcDbLine
62
7
6
CONTINUOUS
10
136.1694664212
20
155.0888681989
11
136.1694664212
21
154.3282748516
0
LINE
5
21F
100
AcDbEntity
8
0
100
AcDbLine
62
7
6
CONTINUOUS
10
136.2460621568
20
158.6890102363
11
136.2460621568
21
159.0439530247
0
LINE
5
220
100
AcDbEntity
8
0
100
AcDbLine
62
7
6
CONTINUOUS
10
136.4758493634
20
160.8693770583
11
136.4758493634
21
160.1594903210
0
LINE
5
221
100
AcDbEntity
8
0
100
AcDbLine
62
7
6
CONTINUOUS
10
136.5524450990
20
164.7230504049
11
136.5524450990
21
165.6357624216
0
LINE
5
222
100
AcDbEntity
8
0
100
AcDbLine
62
7
6
CONTINUOUS
10
136.6290408345
20
154.3282748516
11
136.6290408345
21
154.7846308600
0
LINE
5
223
100
AcDbEntity
8
0
100
AcDbLine
62
7
6
CONTINUOUS
10
135.9396792146
20
159.2467783042
11
135.8630834790
21
158.9932475753
0
LINE
5
224
100
AcDbEntity
8
0
100
AcDbLine
62
7
6
CONTINUOUS
10
134.6375514957
20
154.6325121906
11
134.5609557601
21
154.3789808814
0
LINE
5
225
100
AcDbEntity
8
0
100
AcDbLine
62
7
6
CONTINUOUS
10
134.6375514957
20
152.2493195089
11
134.5609557601
21
151.9957884898
0
LINE
5
226
100
AcDbEntity
8
0
100
AcDbLine
62
7
6
CONTINUOUS
10
135.0205301734
20
154.3789808814
11
135.0971259090
21
154.5818055805
0
LINE
5
227
100
AcDbEntity
8
0
100
AcDbLine
62
7
6
CONTINUOUS
10
134.9439344379
20
158.9932475753
11
135.0205301734
21
159.1453662447
0
LINE
5
228
100
AcDbEntity
8
0
100
AcDbLine
62
7
6
CONTINUOUS
10
136.2460621568
20
159.0439530247
11
136.3226578923
21
159.1960716942
0
LINE
5
229
100
AcDbEntity
8
0
100
AcDbLine
62
7
6
CONTINUOUS
10
134.8673387023
20
159.4496035837
11
134.6375514957
21
159.1960716942
0
LINE
5
22A
100
AcDbEntity
8
0
100
AcDbLine
62
7
6
CONTINUOUS
10
135.1737216445
20
166.2442370995
11
134.8673387023
21
166.0921184300
0
LINE
5
22B
100
AcDbEntity
8
0
100
AcDbLine
62
7
6
CONTINUOUS
10
135.2503173801
20
151.1844888226
11
135.0971259090
21
151.3366074921
0
LINE
5
22C
100
AcDbEntity
8
0
100
AcDbLine
62
7
6
CONTINUOUS
10
134.6375514957
20
151.2859011722
11
134.7907429668
21
151.0830764730
0
LINE
5
22D
100
AcDbEntity
8
0
100
AcDbLine
62
7
6
CONTINUOUS
10
134.6375514957
20
153.6690935638
11
134.7907429668
21
153.4662688646
0
LINE
5
22E
100
AcDbEntity
8
0
100
AcDbLine
62
7
6
CONTINUOUS
10
135.0971259090
20
153.7198001738
11
135.0205301734
21
153.9226248730
0
LINE
5
22F
100
AcDbEntity
8
0
100
AcDbLine
62
7
6
CONTINUOUS
10
134.5609557601
20
153.9226248730
11
134.6375514957
21
153.6690935638
0
LINE
5
230
100
AcDbEntity
8
0
100
AcDbLine
62
7
6
CONTINUOUS
10
134.5609557601
20
158.7397156858
11
134.6375514957
21
158.4861849569
0
LINE
5
231
100
AcDbEntity
8
0
100
AcDbLine
62
7
6
CONTINUOUS
10
136.8588281485
20
160.1594903210
11
136.8588281485
21
160.8693770583
0
LINE
5
232
100
AcDbEntity
8
0
100
AcDbLine
62
7
6
CONTINUOUS
10
137.2418068262
20
152.7056755173
11
137.2418068262
21
152.4014381783
0
LINE
5
233
100
AcDbEntity
8
0
100
AcDbLine
62
7
6
CONTINUOUS
10
137.7013812932
20
154.3789808814
11
137.7013812932
21
153.9226248730
0
LINE
5
234
100
AcDbEntity
8
0
100
AcDbLine
62
7
6
CONTINUOUS
10
137.7013812932
20
151.9957884898
11
137.7013812932
21
151.5394324814
0
LINE
5
235
100
AcDbEntity
8
0
100
AcDbLine
62
7
6
CONTINUOUS
10
137.7779770287
20
159.0439530247
11
137.7779770287
21
158.6890102363
0
LINE
5
236
100
AcDbEntity
8
0
100
AcDbLine
62
7
6
CONTINUOUS
10
138.1609557601
20
149.1055336975
11
138.1609557601
21
149.5111834585
0
LINE
5
237
100
AcDbEntity
8
0
100
AcDbLine
62
7
6
CONTINUOUS
10
138.1609557601
20
151.5394324814
11
138.1609557601
21
151.9957884898
0
LINE
5
238
100
AcDbEntity
8
0
100
AcDbLine
62
7
6
CONTINUOUS
10
138.1609557601
20
153.9226248730
11
138.1609557601
21
154.3789808814
0
LINE
5
239
100
AcDbEntity
8
0
100
AcDbLine
62
7
6
CONTINUOUS
10
138.1609557601
20
158.7397156858
11
138.1609557601
21
158.9932475753
0
LINE
5
23A
100
AcDbEntity
8
0
100
AcDbLine
62
7
6
CONTINUOUS
10
138.1609557601
20
162.0863264140
11
138.1609557601
21
162.4919769729
0
LINE
5
23B
100
AcDbEntity
8
0
100
AcDbLine
62
7
6
CONTINUOUS
10
138.1609557601
20
163.7089263286
11
138.1609557601
21
164.0131636676
0
LINE
5
23C
100
AcDbEntity
8
0
100
AcDbLine
62
7
6
CONTINUOUS
10
138.1609557601
20
164.4188130659
11
138.1609557601
21
164.7230504049
0
LINE
5
23D
100
AcDbEntity
8
0
100
AcDbLine
62
7
6
CONTINUOUS
10
138.0843600179
20
158.4861849569
11
138.1609557601
21
158.7397156858
0
LINE
5
23E
100
AcDbEntity
8
0
100
AcDbLine
62
7
6
CONTINUOUS
10
135.0205301734
20
151.9957884898
11
135.0971259090
21
152.1986131890
0
LINE
5
23F
100
AcDbEntity
8
0
100
AcDbLine
62
7
6
CONTINUOUS
10
137.7779770287
20
158.6890102363
11
137.7013812932
21
158.5368915669
0
LINE
5
240
100
AcDbEntity
8
0
100
AcDbLine
62
7
6
CONTINUOUS
10
134.7907429668
20
154.8353368897
11
134.6375514957
21
154.6325121906
0
LINE
5
241
100
AcDbEntity
8
0
100
AcDbLine
62
7
6
CONTINUOUS
10
136.1694664212
20
159.5003090331
11
135.9396792146
21
159.2467783042
0
LINE
5
242
100
AcDbEntity
8
0
100
AcDbLine
62
7
6
CONTINUOUS
10
135.0205301734
20
159.1453662447
11
135.1737216445
21
159.2974849142
0
LINE
5
243
100
AcDbEntity
8
0
100
AcDbLine
62
7
6
CONTINUOUS
10
136.3226578923
20
159.1960716942
11
136.4758493634
21
159.3481903636
0
LINE
5
244
100
AcDbEntity
8
0
100
AcDbLine
62
7
6
CONTINUOUS
10
134.7907429668
20
151.0830764730
11
135.0971259090
21
150.8802514837
0
LINE
5
245
100
AcDbEntity
8
0
100
AcDbLine
62
7
6
CONTINUOUS
10
135.2503173801
20
153.5676815043
11
135.0971259090
21
153.7198001738
0
LINE
5
246
100
AcDbEntity
8
0
100
AcDbLine
62
7
6
CONTINUOUS
10
138.0843600179
20
152.2493195089
11
137.9311685266
21
152.4521444982
0
LINE
5
247
100
AcDbEntity
8
0
100
AcDbLine
62
7
6
CONTINUOUS
10
135.0205301734
20
158.5368915669
11
134.9439344379
21
158.6890102363
0
LINE
5
248
100
AcDbEntity
8
0
100
AcDbLine
62
7
6
CONTINUOUS
10
137.6247855576
20
152.1986131890
11
137.7013812932
21
151.9957884898
0
LINE
5
249
100
AcDbEntity
8
0
100
AcDbLine
62
7
6
CONTINUOUS
10
137.6247855576
20
154.5818055805
11
137.7013812932
21
154.3789808814
0
LINE
5
24A
100
AcDbEntity
8
0
100
AcDbLine
62
7
6
CONTINUOUS
10
135.8630834790
20
158.7397156858
11
135.9396792146
21
158.4861849569
0
LINE
5
24B
100
AcDbEntity
8
0
100
AcDbLine
62
7
6
CONTINUOUS
10
138.1609557601
20
151.9957884898
11
138.0843600179
21
152.2493195089
0
LINE
5
24C
100
AcDbEntity
8
0
100
AcDbLine
62
7
6
CONTINUOUS
10
138.1609557601
20
154.3789808814
11
138.0843600179
21
154.6325121906
0
LINE
5
24D
100
AcDbEntity
8
0
100
AcDbLine
62
7
6
CONTINUOUS
10
139.9716662726
20
153.6642341028
11
139.9716662726
21
153.3642341028
0
LINE
5
24E
100
AcDbEntity
8
0
100
AcDbLine
62
7
6
CONTINUOUS
10
140.5260632883
20
157.0025320421
11
140.5260632883
21
156.7982766043
0
LINE
5
24F
100
AcDbEntity
8
0
100
AcDbLine
62
7
6
CONTINUOUS
10
140.7536365608
20
156.8493404280
11
140.7536365608
21
156.9514680754
0
LINE
5
250
100
AcDbEntity
8
0
100
AcDbLine
62
7
6
CONTINUOUS
10
140.5639921715
20
157.2067873369
11
140.5260632883
21
157.0025320421
0
LINE
5
251
100
AcDbEntity
8
0
100
AcDbLine
62
7
6
CONTINUOUS
10
140.7536365608
20
156.9514680754
11
140.7915654305
21
157.1046596895
0
LINE
5
252
100
AcDbEntity
8
0
100
AcDbLine
62
7
6
CONTINUOUS
10
138.0843600179
20
153.6690935638
11
138.1609557601
21
153.9226248730
0
LINE
5
253
100
AcDbEntity
8
0
100
AcDbLine
62
7
6
CONTINUOUS
10
138.0843600179
20
151.2859011722
11
138.1609557601
21
151.5394324814
0
LINE
5
254
100
AcDbEntity
8
0
100
AcDbLine
62
7
6
CONTINUOUS
10
137.7013812932
20
153.9226248730
11
137.6247855576
21
153.7198001738
0
LINE
5
255
100
AcDbEntity
8
0
100
AcDbLine
62
7
6
CONTINUOUS
10
137.7013812932
20
151.5394324814
11
137.6247855576
21
151.3366074921
0
LINE
5
256
100
AcDbEntity
8
0
100
AcDbLine
62
7
6
CONTINUOUS
10
134.7907429668
20
152.4521444982
11
134.6375514957
21
152.2493195089
0
LINE
5
257
100
AcDbEntity
8
0
100
AcDbLine
62
7
6
CONTINUOUS
10
137.8545727911
20
158.2326542279
11
138.0843600179
21
158.4861849569
0
LINE
5
258
100
AcDbEntity
8
0
100
AcDbLine
62
7
6
CONTINUOUS
10
137.7013812932
20
158.5368915669
11
137.5481898221
21
158.3847728974
0
LINE
5
259
100
AcDbEntity
8
0
100
AcDbLine
62
7
6
CONTINUOUS
10
135.0971259090
20
154.5818055805
11
135.2503173801
21
154.7339242500
0
LINE
5
25A
100
AcDbEntity
8
0
100
AcDbLine
62
7
6
CONTINUOUS
10
136.3992536279
20
159.6524277026
11
136.1694664212
21
159.5003090331
0
LINE
5
25B
100
AcDbEntity
8
0
100
AcDbLine
62
7
6
CONTINUOUS
10
136.4758493634
20
159.3481903636
11
136.6290408345
21
159.4496035837
0
LINE
5
25C
100
AcDbEntity
8
0
100
AcDbLine
62
7
6
CONTINUOUS
10
135.1737216445
20
159.6017222531
11
134.8673387023
21
159.4496035837
0
LINE
5
25D
100
AcDbEntity
8
0
100
AcDbLine
62
7
6
CONTINUOUS
10
135.4801048013
20
151.0830764730
11
135.2503173801
21
151.1844888226
0
LINE
5
25E
100
AcDbEntity
8
0
100
AcDbLine
62
7
6
CONTINUOUS
10
134.7907429668
20
153.4662688646
11
135.0971259090
21
153.2634441654
0
LINE
5
25F
100
AcDbEntity
8
0
100
AcDbLine
62
7
6
CONTINUOUS
10
137.4715940329
20
152.3507318585
11
137.6247855576
21
152.1986131890
0
LINE
5
260
100
AcDbEntity
8
0
100
AcDbLine
62
7
6
CONTINUOUS
10
137.4715940329
20
154.7339242500
11
137.6247855576
21
154.5818055805
0
LINE
5
261
100
AcDbEntity
8
0
100
AcDbLine
62
7
6
CONTINUOUS
10
134.6375514957
20
158.4861849569
11
134.8673387023
21
158.2326542279
0
LINE
5
262
100
AcDbEntity
8
0
100
AcDbLine
62
7
6
CONTINUOUS
10
138.0843600179
20
154.6325121906
11
137.9311685266
21
154.8353368897
0
LINE
5
263
100
AcDbEntity
8
0
100
AcDbLine
62
7
6
CONTINUOUS
10
136.3226578923
20
158.5368915669
11
136.2460621568
21
158.6890102363
0
LINE
5
264
100
AcDbEntity
8
0
100
AcDbLine
62
7
6
CONTINUOUS
10
137.7013812932
20
159.1960716942
11
137.7779770287
21
159.0439530247
0
LINE
5
265
100
AcDbEntity
8
0
100
AcDbLine
62
7
6
CONTINUOUS
10
138.1609557601
20
158.9932475753
11
138.0843600179
21
159.2467783042
0
LINE
5
266
100
AcDbEntity
8
0
100
AcDbLine
62
7
6
CONTINUOUS
10
136.5524450990
20
165.6357624216
11
136.4758493634
21
165.8892931505
0
LINE
5
267
100
AcDbEntity
8
0
100
AcDbLine
62
7
6
CONTINUOUS
10
140.6777787942
20
155.6748724114
11
140.6398499245
21
155.8280638825
0
LINE
5
268
100
AcDbEntity
8
0
100
AcDbLine
62
7
6
CONTINUOUS
10
140.4122766520
20
155.8280638825
11
140.4502055319
21
155.6238085877
0
LINE
5
269
100
AcDbEntity
8
0
100
AcDbLine
62
7
6
CONTINUOUS
10
140.5260632883
20
156.7982766043
11
140.5639921715
21
156.5940213095
0
LINE
5
26A
100
AcDbEntity
8
0
100
AcDbLine
62
7
6
CONTINUOUS
10
141.5880718571
20
155.9301915299
11
141.5880718571
21
155.7770000588
0
LINE
5
26B
100
AcDbEntity
8
0
100
AcDbLine
62
7
6
CONTINUOUS
10
141.8156451296
20
155.7259362351
11
141.8156451296
21
155.9812553536
0
LINE
5
26C
100
AcDbEntity
8
0
100
AcDbLine
62
7
6
CONTINUOUS
10
142.1190761958
20
156.7472127806
11
142.1190761958
21
155.9812553536
0
LINE
5
26D
100
AcDbEntity
8
0
100
AcDbLine
62
7
6
CONTINUOUS
10
142.3466494683
20
155.9812553536
11
142.3466494683
21
156.7472127806
0
LINE
5
26E
100
AcDbEntity
8
0
100
AcDbLine
62
7
6
CONTINUOUS
10
142.1570050384
20
157.0025320421
11
142.1190761958
21
156.7472127806
0
LINE
5
26F
100
AcDbEntity
8
0
100
AcDbLine
62
7
6
CONTINUOUS
10
142.3466494683
20
156.7472127806
11
142.3845784194
21
156.9514680754
0
LINE
5
270
100
AcDbEntity
8
0
100
AcDbLine
62
7
6
CONTINUOUS
10
142.2328628321
20
157.2067873369
11
142.1570050384
21
157.0025320421
0
LINE
5
271
100
AcDbEntity
8
0
100
AcDbLine
62
7
6
CONTINUOUS
10
141.7397874445
20
155.5216809045
11
141.8156451296
21
155.7259362351
0
LINE
5
272
100
AcDbEntity
8
0
100
AcDbLine
62
7
6
CONTINUOUS
10
141.5880718571
20
155.7770000588
11
141.5122141720
21
155.6238085877
0
LINE
5
273
100
AcDbEntity
8
0
100
AcDbLine
62
7
6
CONTINUOUS
10
142.3845784194
20
156.9514680754
11
142.4604361046
21
157.1046596895
0
LINE
5
274
100
AcDbEntity
8
0
100
AcDbLine
62
7
6
CONTINUOUS
10
140.7157076911
20
157.4110426317
11
140.5639921715
21
157.2067873369
0
LINE
5
275
100
AcDbEntity
8
0
100
AcDbLine
62
7
6
CONTINUOUS
10
142.3845784194
20
157.4110426317
11
142.2328628321
21
157.2067873369
0
LINE
5
276
100
AcDbEntity
8
0
100
AcDbLine
62
7
6
CONTINUOUS
10
137.9311685266
20
153.4662688646
11
138.0843600179
21
153.6690935638
0
LINE
5
277
100
AcDbEntity
8
0
100
AcDbLine
62
7
6
CONTINUOUS
10
135.0971259090
20
152.1986131890
11
135.2503173801
21
152.3507318585
0
LINE
5
278
100
AcDbEntity
8
0
100
AcDbLine
62
7
6
CONTINUOUS
10
137.6247855576
20
153.7198001738
11
137.4715940329
21
153.5676815043
0
LINE
5
279
100
AcDbEntity
8
0
100
AcDbLine
62
7
6
CONTINUOUS
10
135.0971259090
20
155.0381615889
11
134.7907429668
21
154.8353368897
0
LINE
5
27A
100
AcDbEntity
8
0
100
AcDbLine
62
7
6
CONTINUOUS
10
137.5481898221
20
158.0805355585
11
137.8545727911
21
158.2326542279
0
LINE
5
27B
100
AcDbEntity
8
0
100
AcDbLine
62
7
6
CONTINUOUS
10
135.1737216445
20
159.2974849142
11
135.4035088512
21
159.3988969736
0
LINE
5
27C
100
AcDbEntity
8
0
100
AcDbLine
62
7
6
CONTINUOUS
10
138.1609557601
20
149.5111834585
11
134.5609557601
21
150.3224829806
0
LINE
5
27D
100
AcDbEntity
8
0
100
AcDbLine
62
7
6
CONTINUOUS
10
134.5609557601
20
150.0182456417
11
137.7013812932
21
149.3083585417
0
LINE
5
27E
100
AcDbEntity
8
0
100
AcDbLine
62
7
6
CONTINUOUS
10
135.0971259090
20
150.8802514837
11
135.4035088512
21
150.7788391341
0
LINE
5
27F
100
AcDbEntity
8
0
100
AcDbLine
62
7
6
CONTINUOUS
10
135.4801048013
20
153.4662688646
11
135.2503173801
21
153.5676815043
0
LINE
5
280
100
AcDbEntity
8
0
100
AcDbLine
62
7
6
CONTINUOUS
10
137.9311685266
20
152.4521444982
11
137.6247855576
21
152.6549691974
0
LINE
5
281
100
AcDbEntity
8
0
100
AcDbLine
62
7
6
CONTINUOUS
10
137.9311685266
20
154.8353368897
11
137.6247855576
21
155.0381615889
0
LINE
5
282
100
AcDbEntity
8
0
100
AcDbLine
62
7
6
CONTINUOUS
10
135.1737216445
20
158.3847728974
11
135.0205301734
21
158.5368915669
0
LINE
5
283
100
AcDbEntity
8
0
100
AcDbLine
62
7
6
CONTINUOUS
10
135.9396792146
20
158.4861849569
11
136.2460621568
21
158.1819476179
0
LINE
5
284
100
AcDbEntity
8
0
100
AcDbLine
62
7
6
CONTINUOUS
10
136.4758493634
20
158.3847728974
11
136.3226578923
21
158.5368915669
0
LINE
5
285
100
AcDbEntity
8
0
100
AcDbLine
62
7
6
CONTINUOUS
10
140.7915654305
20
155.5216809045
11
140.6777787942
21
155.6748724114
0
LINE
5
286
100
AcDbEntity
8
0
100
AcDbLine
62
7
6
CONTINUOUS
10
140.5639921715
20
156.5940213095
11
140.7157076911
21
156.3897660147
0
LINE
5
287
100
AcDbEntity
8
0
100
AcDbLine
62
7
6
CONTINUOUS
10
136.0162749501
20
165.8385877011
11
136.0928706857
21
165.6864690316
0
LINE
5
288
100
AcDbEntity
8
0
100
AcDbLine
62
7
6
CONTINUOUS
10
141.5122141720
20
156.0833830725
11
141.5880718571
21
155.9301915299
0
LINE
5
289
100
AcDbEntity
8
0
100
AcDbLine
62
7
6
CONTINUOUS
10
140.4502055319
20
155.6238085877
11
140.5639921715
21
155.3684894155
0
LINE
5
28A
100
AcDbEntity
8
0
100
AcDbLine
62
7
6
CONTINUOUS
10
141.8156451296
20
155.9812553536
11
141.7397874445
21
156.1855107199
0
LINE
5
28B
100
AcDbEntity
8
0
100
AcDbLine
62
7
6
CONTINUOUS
10
141.4363563783
20
157.1046596895
11
141.4742852209
21
157.0025320421
0
LINE
5
28C
100
AcDbEntity
8
0
100
AcDbLine
62
7
6
CONTINUOUS
10
142.1570050384
20
155.7259362351
11
142.2328628321
21
155.5216809045
0
LINE
5
28D
100
AcDbEntity
8
0
100
AcDbLine
62
7
6
CONTINUOUS
10
140.7915654305
20
156.6961489569
11
140.7536365608
21
156.8493404280
0
LINE
5
28E
100
AcDbEntity
8
0
100
AcDbLine
62
7
6
CONTINUOUS
10
141.7018584934
20
157.0025320421
11
141.6639296508
21
157.1557235132
0
LINE
5
28F
100
AcDbEntity
8
0
100
AcDbLine
62
7
6
CONTINUOUS
10
142.3845784194
20
155.7770000588
11
142.3466494683
21
155.9812553536
0
LINE
5
290
100
AcDbEntity
8
0
100
AcDbLine
62
7
6
CONTINUOUS
10
142.1190761958
20
155.9812553536
11
142.1570050384
21
155.7259362351
0
LINE
5
291
100
AcDbEntity
8
0
100
AcDbLine
62
7
6
CONTINUOUS
10
143.4086581457
20
156.7472127806
11
143.4086581457
21
155.9812553536
0
LINE
5
292
100
AcDbEntity
8
0
100
AcDbLine
62
7
6
CONTINUOUS
10
143.6362314182
20
155.9812553536
11
143.6362314182
21
156.7472127806
0
LINE
5
293
100
AcDbEntity
8
0
100
AcDbLine
62
7
6
CONTINUOUS
10
143.9396623759
20
157.5642341028
11
143.9396623759
21
155.1642341028
0
LINE
5
294
100
AcDbEntity
8
0
100
AcDbLine
62
7
6
CONTINUOUS
10
144.1672356484
20
155.4706170808
11
144.1672356484
21
157.5642341028
0
LINE
5
295
100
AcDbEntity
8
0
100
AcDbLine
62
7
6
CONTINUOUS
10
145.3051020109
20
155.1642341028
11
145.3051020109
21
155.4706170808
0
LINE
5
296
100
AcDbEntity
8
0
100
AcDbLine
62
7
6
CONTINUOUS
10
143.5983024671
20
155.7259362351
11
143.6362314182
21
155.9812553536
0
LINE
5
297
100
AcDbEntity
8
0
100
AcDbLine
62
7
6
CONTINUOUS
10
143.4086581457
20
155.9812553536
11
143.3707291946
21
155.7770000588
0
LINE
5
298
100
AcDbEntity
8
0
100
AcDbLine
62
7
6
CONTINUOUS
10
143.5224447820
20
155.5216809045
11
143.5983024671
21
155.7259362351
0
LINE
5
299
100
AcDbEntity
8
0
100
AcDbLine
62
7
6
CONTINUOUS
10
143.3707291946
20
155.7770000588
11
143.2948715095
21
155.6238085877
0
LINE
5
29A
100
AcDbEntity
8
0
100
AcDbLine
62
7
6
CONTINUOUS
10
141.5880718571
20
155.3174255918
11
141.7397874445
21
155.5216809045
0
LINE
5
29B
100
AcDbEntity
8
0
100
AcDbLine
62
7
6
CONTINUOUS
10
143.3707291946
20
155.3174255918
11
143.5224447820
21
155.5216809045
0
LINE
5
29C
100
AcDbEntity
8
0
100
AcDbLine
62
7
6
CONTINUOUS
10
137.9311685266
20
151.0830764730
11
138.0843600179
21
151.2859011722
0
LINE
5
29D
100
AcDbEntity
8
0
100
AcDbLine
62
7
6
CONTINUOUS
10
137.6247855576
20
151.3366074921
11
137.4715940329
21
151.1844888226
0
LINE
5
29E
100
AcDbEntity
8
0
100
AcDbLine
62
7
6
CONTINUOUS
10
140.7915654305
20
157.1046596895
11
140.9053520939
21
157.2067873369
0
LINE
5
29F
100
AcDbEntity
8
0
100
AcDbLine
62
7
6
CONTINUOUS
10
142.4604361046
20
157.1046596895
11
142.5742227408
21
157.2067873369
0
LINE
5
2A0
100
AcDbEntity
8
0
100
AcDbLine
62
7
6
CONTINUOUS
10
141.5122141720
20
155.6238085877
11
141.3984275357
21
155.5216809045
0
LINE
5
2A1
100
AcDbEntity
8
0
100
AcDbLine
62
7
6
CONTINUOUS
10
140.8674231970
20
157.5131702791
11
140.7157076911
21
157.4110426317
0
LINE
5
2A2
100
AcDbEntity
8
0
100
AcDbLine
62
7
6
CONTINUOUS
10
142.5362937897
20
157.5131702791
11
142.3845784194
21
157.4110426317
0
LINE
5
2A3
100
AcDbEntity
8
0
100
AcDbLine
62
7
6
CONTINUOUS
10
135.0971259090
20
152.6549691974
11
134.7907429668
21
152.4521444982
0
LINE
5
2A4
100
AcDbEntity
8
0
100
AcDbLine
62
7
6
CONTINUOUS
10
137.5481898221
20
158.3847728974
11
137.3184025618
21
158.2833596774
0
LINE
5
2A5
100
AcDbEntity
8
0
100
AcDbLine
62
7
6
CONTINUOUS
10
135.4035088512
20
150.7788391341
11
135.7864877435
21
150.7281328142
0
LINE
5
2A6
100
AcDbEntity
8
0
100
AcDbLine
62
7
6
CONTINUOUS
10
135.7864877435
20
151.0323701532
11
135.4801048013
21
151.0830764730
0
LINE
5
2A7
100
AcDbEntity
8
0
100
AcDbLine
62
7
6
CONTINUOUS
10
137.2418068262
20
152.4014381783
11
137.4715940329
21
152.3507318585
0
LINE
5
2A8
100
AcDbEntity
8
0
100
AcDbLine
62
7
6
CONTINUOUS
10
135.0971259090
20
153.2634441654
11
135.4035088512
21
153.1620315257
0
LINE
5
2A9
100
AcDbEntity
8
0
100
AcDbLine
62
7
6
CONTINUOUS
10
136.6290408345
20
158.2833596774
11
136.4758493634
21
158.3847728974
0
LINE
5
2AA
100
AcDbEntity
8
0
100
AcDbLine
62
7
6
CONTINUOUS
10
140.5639921715
20
155.3684894155
11
140.7536365608
21
155.2152979310
0
LINE
5
2AB
100
AcDbEntity
8
0
100
AcDbLine
62
7
6
CONTINUOUS
10
140.9053520939
20
156.5940213095
11
140.7915654305
21
156.6961489569
0
LINE
5
2AC
100
AcDbEntity
8
0
100
AcDbLine
62
7
6
CONTINUOUS
10
141.3984275357
20
156.1855107199
11
141.5122141720
21
156.0833830725
0
LINE
5
2AD
100
AcDbEntity
8
0
100
AcDbLine
62
7
6
CONTINUOUS
10
142.5742227408
20
155.5216809045
11
142.4604361046
21
155.6238085877
0
LINE
5
2AE
100
AcDbEntity
8
0
100
AcDbLine
62
7
6
CONTINUOUS
10
137.5481898221
20
159.3481903636
11
137.7013812932
21
159.1960716942
0
LINE
5
2AF
100
AcDbEntity
8
0
100
AcDbLine
62
7
6
CONTINUOUS
10
138.0843600179
20
159.2467783042
11
137.8545727911
21
159.5003090331
0
LINE
5
2B0
100
AcDbEntity
8
0
100
AcDbLine
62
7
6
CONTINUOUS
10
142.2328628321
20
155.5216809045
11
142.3845784194
21
155.3174255918
0
LINE
5
2B1
100
AcDbEntity
8
0
100
AcDbLine
62
7
6
CONTINUOUS
10
141.7397874445
20
156.1855107199
11
141.5880718571
21
156.3897660147
0
LINE
5
2B2
100
AcDbEntity
8
0
100
AcDbLine
62
7
6
CONTINUOUS
10
141.3604985846
20
157.2067873369
11
141.4363563783
21
157.1046596895
0
LINE
5
2B3
100
AcDbEntity
8
0
100
AcDbLine
62
7
6
CONTINUOUS
10
141.6639296508
20
157.1557235132
11
141.5501430145
21
157.3599788080
0
LINE
5
2B4
100
AcDbEntity
8
0
100
AcDbLine
62
7
6
CONTINUOUS
10
142.4604361046
20
155.6238085877
11
142.3845784194
21
155.7770000588
0
LINE
5
2B5
100
AcDbEntity
8
0
100
AcDbLine
62
7
6
CONTINUOUS
10
143.2948715095
20
157.1046596895
11
143.3707291946
21
156.9514680754
0
LINE
5
2B6
100
AcDbEntity
8
0
100
AcDbLine
62
7
6
CONTINUOUS
10
143.5983024671
20
157.0025320421
11
143.5224447820
21
157.2067873369
0
LINE
5
2B7
100
AcDbEntity
8
0
100
AcDbLine
62
7
6
CONTINUOUS
10
143.3707291946
20
156.9514680754
11
143.4086581457
21
156.7472127806
0
LINE
5
2B8
100
AcDbEntity
8
0
100
AcDbLine
62
7
6
CONTINUOUS
10
143.6362314182
20
156.7472127806
11
143.5983024671
21
157.0025320421
0
LINE
5
2B9
100
AcDbEntity
8
0
100
AcDbLine
62
7
6
CONTINUOUS
10
145.6085331856
20
157.5642341028
11
145.6085331856
21
155.1642341028
0
LINE
5
2BA
100
AcDbEntity
8
0
100
AcDbLine
62
7
6
CONTINUOUS
10
145.8361064581
20
155.4706170808
11
145.8361064581
21
157.5642341028
0
LINE
5
2BB
100
AcDbEntity
8
0
100
AcDbLine
62
7
6
CONTINUOUS
10
146.9739728207
20
155.1642341028
11
146.9739728207
21
155.4706170808
0
LINE
5
2BC
100
AcDbEntity
8
0
100
AcDbLine
62
7
6
CONTINUOUS
10
143.2948715095
20
155.6238085877
11
143.1810848732
21
155.5216809045
0
LINE
5
2BD
100
AcDbEntity
8
0
100
AcDbLine
62
7
6
CONTINUOUS
10
141.4363563783
20
155.2152979310
11
141.5880718571
21
155.3174255918
0
LINE
5
2BE
100
AcDbEntity
8
0
100
AcDbLine
62
7
6
CONTINUOUS
10
143.2190136073
20
155.2152979310
11
143.3707291946
21
155.3174255918
0
LINE
5
2BF
100
AcDbEntity
8
0
100
AcDbLine
62
7
6
CONTINUOUS
10
137.6247855576
20
153.2634441654
11
137.9311685266
21
153.4662688646
0
LINE
5
2C0
100
AcDbEntity
8
0
100
AcDbLine
62
7
6
CONTINUOUS
10
140.9053520939
20
157.2067873369
11
141.0191387301
21
157.2578511606
0
LINE
5
2C1
100
AcDbEntity
8
0
100
AcDbLine
62
7
6
CONTINUOUS
10
141.0191387301
20
157.5642341028
11
140.8674231970
21
157.5131702791
0
LINE
5
2C2
100
AcDbEntity
8
0
100
AcDbLine
62
7
6
CONTINUOUS
10
142.5742227408
20
157.2067873369
11
142.7259383282
21
157.2578511606
0
LINE
5
2C3
100
AcDbEntity
8
0
100
AcDbLine
62
7
6
CONTINUOUS
10
135.7864877435
20
150.7281328142
11
136.9354238840
21
150.7281328142
0
LINE
5
2C4
100
AcDbEntity
8
0
100
AcDbLine
62
7
6
CONTINUOUS
10
141.5454567731
20
150.9942341028
11
149.1394906213
21
150.9942341028
0
LINE
5
2C5
100
AcDbEntity
8
0
100
AcDbLine
62
7
6
CONTINUOUS
10
153.9424208990
20
150.9942341028
11
161.5364547472
21
150.9942341028
0
LINE
5
2C6
100
AcDbEntity
8
0
100
AcDbLine
62
7
6
CONTINUOUS
10
136.9354238840
20
151.0323701532
11
135.7864877435
21
151.0323701532
0
LINE
5
2C7
100
AcDbEntity
8
0
100
AcDbLine
62
7
6
CONTINUOUS
10
137.6247855576
20
152.6549691974
11
137.2418068262
21
152.7056755173
0
LINE
5
2C8
100
AcDbEntity
8
0
100
AcDbLine
62
7
6
CONTINUOUS
10
135.4035088512
20
153.1620315257
11
135.7864877435
21
153.1113252058
0
LINE
5
2C9
100
AcDbEntity
8
0
100
AcDbLine
62
7
6
CONTINUOUS
10
135.7864877435
20
153.4155628349
11
135.4801048013
21
153.4662688646
0
LINE
5
2CA
100
AcDbEntity
8
0
100
AcDbLine
62
7
6
CONTINUOUS
10
137.2418068262
20
154.7846308600
11
137.4715940329
21
154.7339242500
0
LINE
5
2CB
100
AcDbEntity
8
0
100
AcDbLine
62
7
6
CONTINUOUS
10
135.4035088512
20
158.2833596774
11
135.1737216445
21
158.3847728974
0
LINE
5
2CC
100
AcDbEntity
8
0
100
AcDbLine
62
7
6
CONTINUOUS
10
134.8673387023
20
158.2326542279
11
135.1737216445
21
158.0805355585
0
LINE
5
2CD
100
AcDbEntity
8
0
100
AcDbLine
62
7
6
CONTINUOUS
10
140.7157076911
20
156.3897660147
11
140.8674231970
21
156.2876383673
0
LINE
5
2CE
100
AcDbEntity
8
0
100
AcDbLine
62
7
6
CONTINUOUS
10
142.3845784194
20
155.3174255918
11
142.5362937897
21
155.2152979310
0
LINE
5
2CF
100
AcDbEntity
8
0
100
AcDbLine
62
7
6
CONTINUOUS
10
141.5880718571
20
156.3897660147
11
141.4363563783
21
156.4918936621
0
LINE
5
2D0
100
AcDbEntity
8
0
100
AcDbLine
62
7
6
CONTINUOUS
10
143.1810848732
20
157.2067873369
11
143.2948715095
21
157.1046596895
0
LINE
5
2D1
100
AcDbEntity
8
0
100
AcDbLine
62
7
6
CONTINUOUS
10
141.5501430145
20
157.3599788080
11
141.3984275357
21
157.5131702791
0
LINE
5
2D2
100
AcDbEntity
8
0
100
AcDbLine
62
7
6
CONTINUOUS
10
143.5224447820
20
157.2067873369
11
143.3707291946
21
157.4110426317
0
LINE
5
2D3
100
AcDbEntity
8
0
100
AcDbLine
62
7
6
CONTINUOUS
10
146.5716662726
20
152.4750036183
11
146.7216662726
21
152.2151959972
0
LINE
5
2D4
100
AcDbEntity
8
0
100
AcDbLine
62
7
6
CONTINUOUS
10
149.2909557601
20
151.0135708427
11
149.2909557601
21
160.5748973630
0
LINE
5
2D5
100
AcDbEntity
8
0
100
AcDbLine
62
7
6
CONTINUOUS
10
146.7216662726
20
154.8132722085
11
146.5716662726
21
154.5534645874
0
LINE
5
2D6
100
AcDbEntity
8
0
100
AcDbLine
62
7
6
CONTINUOUS
10
137.6247855576
20
150.8802514837
11
137.9311685266
21
151.0830764730
0
LINE
5
2D7
100
AcDbEntity
8
0
100
AcDbLine
62
7
6
CONTINUOUS
10
137.4715940329
20
153.5676815043
11
137.2418068262
21
153.4662688646
0
LINE
5
2D8
100
AcDbEntity
8
0
100
AcDbLine
62
7
6
CONTINUOUS
10
141.3984275357
20
155.5216809045
11
141.2467120026
21
155.4706170808
0
LINE
5
2D9
100
AcDbEntity
8
0
100
AcDbLine
62
7
6
CONTINUOUS
10
143.1810848732
20
155.5216809045
11
143.0293692858
21
155.4706170808
0
LINE
5
2DA
100
AcDbEntity
8
0
100
AcDbLine
62
7
6
CONTINUOUS
10
137.3184025618
20
153.1620315257
11
137.6247855576
21
153.2634441654
0
LINE
5
2DB
100
AcDbEntity
8
0
100
AcDbLine
62
7
6
CONTINUOUS
10
137.7013812932
20
149.3083585417
11
134.5609557601
21
148.5984714418
0
LINE
5
2DC
100
AcDbEntity
8
0
100
AcDbLine
62
7
6
CONTINUOUS
10
134.5609557601
20
148.2942341028
11
138.1609557601
21
149.1055336975
0
LINE
5
2DD
100
AcDbEntity
8
0
100
AcDbLine
62
7
6
CONTINUOUS
10
137.2418068262
20
151.0830764730
11
136.9354238840
21
151.0323701532
0
LINE
5
2DE
100
AcDbEntity
8
0
100
AcDbLine
62
7
6
CONTINUOUS
10
136.9354238840
20
150.7281328142
11
137.3184025618
21
150.7788391341
0
LINE
5
2DF
100
AcDbEntity
8
0
100
AcDbLine
62
7
6
CONTINUOUS
10
135.7864877435
20
153.1113252058
11
136.9354238840
21
153.1113252058
0
LINE
5
2E0
100
AcDbEntity
8
0
100
AcDbLine
62
7
6
CONTINUOUS
10
139.9716662726
20
153.3642341028
11
148.1118586515
21
153.3642341028
0
LINE
5
2E1
100
AcDbEntity
8
0
100
AcDbLine
62
7
6
CONTINUOUS
10
154.9700528688
20
153.3642341028
11
163.1102452476
21
153.3642341028
0
LINE
5
2E2
100
AcDbEntity
8
0
100
AcDbLine
62
7
6
CONTINUOUS
10
136.9354238840
20
153.4155628349
11
135.7864877435
21
153.4155628349
0
LINE
5
2E3
100
AcDbEntity
8
0
100
AcDbLine
62
7
6
CONTINUOUS
10
163.1102452476
20
153.6642341028
11
154.9700528688
21
153.6642341028
0
LINE
5
2E4
100
AcDbEntity
8
0
100
AcDbLine
62
7
6
CONTINUOUS
10
148.1118586515
20
153.6642341028
11
139.9716662726
21
153.6642341028
0
LINE
5
2E5
100
AcDbEntity
8
0
100
AcDbLine
62
7
6
CONTINUOUS
10
137.6247855576
20
155.0381615889
11
137.3184025618
21
155.0888681989
0
LINE
5
2E6
100
AcDbEntity
8
0
100
AcDbLine
62
7
6
CONTINUOUS
10
135.1737216445
20
158.0805355585
11
135.5567005368
21
157.9791229187
0
LINE
5
2E7
100
AcDbEntity
8
0
100
AcDbLine
62
7
6
CONTINUOUS
10
140.7536365608
20
155.2152979310
11
140.9432809364
21
155.1642341028
0
LINE
5
2E8
100
AcDbEntity
8
0
100
AcDbLine
62
7
6
CONTINUOUS
10
142.5362937897
20
155.2152979310
11
142.7259383282
21
155.1642341028
0
LINE
5
2E9
100
AcDbEntity
8
0
100
AcDbLine
62
7
6
CONTINUOUS
10
141.4363563783
20
156.4918936621
11
141.2467120026
21
156.5429574858
0
LINE
5
2EA
100
AcDbEntity
8
0
100
AcDbLine
62
7
6
CONTINUOUS
10
140.9432809364
20
155.4706170808
11
140.7915654305
21
155.5216809045
0
LINE
5
2EB
100
AcDbEntity
8
0
100
AcDbLine
62
7
6
CONTINUOUS
10
142.7259383282
20
155.4706170808
11
142.5742227408
21
155.5216809045
0
LINE
5
2EC
100
AcDbEntity
8
0
100
AcDbLine
62
7
6
CONTINUOUS
10
140.8674231970
20
156.2876383673
11
141.0191387301
21
156.2365745436
0
LINE
5
2ED
100
AcDbEntity
8
0
100
AcDbLine
62
7
6
CONTINUOUS
10
141.2467120026
20
156.2365745436
11
141.3984275357
21
156.1855107199
0
LINE
5
2EE
100
AcDbEntity
8
0
100
AcDbLine
62
7
6
CONTINUOUS
10
137.3184025618
20
159.4496035837
11
137.5481898221
21
159.3481903636
0
LINE
5
2EF
100
AcDbEntity
8
0
100
AcDbLine
62
7
6
CONTINUOUS
10
141.0191387301
20
156.5429574858
11
140.9053520939
21
156.5940213095
0
LINE
5
2F0
100
AcDbEntity
8
0
100
AcDbLine
62
7
6
CONTINUOUS
10
141.2467120026
20
157.2578511606
11
141.3604985846
21
157.2067873369
0
LINE
5
2F1
100
AcDbEntity
8
0
100
AcDbLine
62
7
6
CONTINUOUS
10
137.8545727911
20
159.5003090331
11
137.5481898221
21
159.6524277026
0
LINE
5
2F2
100
AcDbEntity
8
0
100
AcDbLine
62
7
6
CONTINUOUS
10
146.5716662726
20
154.5534645874
11
148.1118586515
21
153.6642341028
0
LINE
5
2F3
100
AcDbEntity
8
0
100
AcDbLine
62
7
6
CONTINUOUS
10
148.9716662726
20
153.5142341028
11
146.7216662726
21
154.8132722085
0
LINE
5
2F4
100
AcDbEntity
8
0
100
AcDbLine
62
7
6
CONTINUOUS
10
143.3707291946
20
157.4110426317
11
143.2190136073
21
157.5131702791
0
LINE
5
2F5
100
AcDbEntity
8
0
100
AcDbLine
62
7
6
CONTINUOUS
10
136.4758493634
20
165.8892931505
11
136.2460621568
21
166.0921184300
0
LINE
5
2F6
100
AcDbEntity
8
DEFAULT_1
100
AcDbLine
62
2
6
CENTER
10
151.5409557601
20
127.2942341028
11
151.5409557601
21
184.2942341028
0
LINE
5
2F7
100
AcDbEntity
8
0
100
AcDbLine
62
7
6
CONTINUOUS
10
137.4715940329
20
151.1844888226
11
137.2418068262
21
151.0830764730
0
LINE
5
2F8
100
AcDbEntity
8
0
100
AcDbLine
62
7
6
CONTINUOUS
10
165.7635089585
20
162.3405972917
11
165.4571259626
21
162.2319318459
0
LINE
5
2F9
100
AcDbEntity
8
0
100
AcDbLine
62
7
6
CONTINUOUS
10
135.2503173801
20
152.3507318585
11
135.4801048013
21
152.4014381783
0
LINE
5
2FA
100
AcDbEntity
8
0
100
AcDbLine
62
7
6
CONTINUOUS
10
167.6018067189
20
158.2113123711
11
167.2954237767
21
158.1569798814
0
LINE
5
2FB
100
AcDbEntity
8
0
100
AcDbLine
62
7
6
CONTINUOUS
10
137.2418068262
20
153.4662688646
11
136.9354238840
21
153.4155628349
0
LINE
5
2FC
100
AcDbEntity
8
0
100
AcDbLine
62
7
6
CONTINUOUS
10
167.2954237767
20
157.8309836994
11
167.6784026691
21
157.8853161891
0
LINE
5
2FD
100
AcDbEntity
8
0
100
AcDbLine
62
7
6
CONTINUOUS
10
135.4801048013
20
152.7056755173
11
135.0971259090
21
152.6549691974
0
LINE
5
2FE
100
AcDbEntity
8
0
100
AcDbLine
62
7
6
CONTINUOUS
10
136.9354238840
20
153.1113252058
11
137.3184025618
21
153.1620315257
0
LINE
5
2FF
100
AcDbEntity
8
0
100
AcDbLine
62
7
6
CONTINUOUS
10
136.1694664212
20
154.3282748516
11
136.6290408345
21
154.3282748516
0
LINE
5
300
100
AcDbEntity
8
0
100
AcDbLine
62
7
6
CONTINUOUS
10
136.6290408345
20
154.7846308600
11
137.2418068262
21
154.7846308600
0
LINE
5
301
100
AcDbEntity
8
0
100
AcDbLine
62
7
6
CONTINUOUS
10
137.3184025618
20
155.0888681989
11
136.1694664212
21
155.0888681989
0
LINE
5
302
100
AcDbEntity
8
0
100
AcDbLine
62
7
6
CONTINUOUS
10
140.9432809364
20
155.1642341028
11
141.2467120026
21
155.1642341028
0
LINE
5
303
100
AcDbEntity
8
0
100
AcDbLine
62
7
6
CONTINUOUS
10
142.7259383282
20
155.1642341028
11
143.0293692858
21
155.1642341028
0
LINE
5
304
100
AcDbEntity
8
0
100
AcDbLine
62
7
6
CONTINUOUS
10
143.9396623759
20
155.1642341028
11
145.3051020109
21
155.1642341028
0
LINE
5
305
100
AcDbEntity
8
0
100
AcDbLine
62
7
6
CONTINUOUS
10
145.6085331856
20
155.1642341028
11
146.9739728207
21
155.1642341028
0
LINE
5
306
100
AcDbEntity
8
0
100
AcDbLine
62
7
6
CONTINUOUS
10
156.7257656493
20
155.1642341028
11
156.9870547263
21
155.1642341028
0
LINE
5
307
100
AcDbEntity
8
0
100
AcDbLine
62
7
6
CONTINUOUS
10
157.7709219573
20
155.1642341028
11
157.9886627717
21
155.1642341028
0
LINE
5
308
100
AcDbEntity
8
0
100
AcDbLine
62
7
6
CONTINUOUS
10
158.4676929123
20
155.1642341028
11
158.6854337267
21
155.1642341028
0
LINE
5
309
100
AcDbEntity
8
0
100
AcDbLine
62
7
6
CONTINUOUS
10
159.1644636182
20
155.1642341028
11
159.3822046818
21
155.1642341028
0
LINE
5
30A
100
AcDbEntity
8
0
100
AcDbLine
62
7
6
CONTINUOUS
10
159.7305900347
20
155.1642341028
11
159.9483310983
21
155.1642341028
0
LINE
5
30B
100
AcDbEntity
8
0
100
AcDbLine
62
7
6
CONTINUOUS
10
160.4273607405
20
155.1642341028
11
160.6451018041
21
155.1642341028
0
LINE
5
30C
100
AcDbEntity
8
0
100
AcDbLine
62
7
6
CONTINUOUS
10
161.1241319447
20
155.1642341028
11
161.3418725100
21
155.1642341028
0
LINE
5
30D
100
AcDbEntity
8
0
100
AcDbLine
62
7
6
CONTINUOUS
10
146.9739728207
20
155.4706170808
11
145.8361064581
21
155.4706170808
0
LINE
5
30E
100
AcDbEntity
8
0
100
AcDbLine
62
7
6
CONTINUOUS
10
145.3051020109
20
155.4706170808
11
144.1672356484
21
155.4706170808
0
LINE
5
30F
100
AcDbEntity
8
0
100
AcDbLine
62
7
6
CONTINUOUS
10
143.0293692858
20
155.4706170808
11
142.7259383282
21
155.4706170808
0
LINE
5
310
100
AcDbEntity
8
0
100
AcDbLine
62
7
6
CONTINUOUS
10
141.2467120026
20
155.4706170808
11
140.9432809364
21
155.4706170808
0
LINE
5
311
100
AcDbEntity
8
0
100
AcDbLine
62
7
6
CONTINUOUS
10
140.6398499245
20
155.8280638825
11
140.4122766520
21
155.8280638825
0
LINE
5
312
100
AcDbEntity
8
0
100
AcDbLine
62
7
6
CONTINUOUS
10
155.6806093414
20
155.8791277062
11
156.7257656493
21
155.8791277062
0
LINE
5
313
100
AcDbEntity
8
0
100
AcDbLine
62
7
6
CONTINUOUS
10
156.9870547263
20
155.8791277062
11
157.4225364798
21
155.8791277062
0
LINE
5
314
100
AcDbEntity
8
0
100
AcDbLine
62
7
6
CONTINUOUS
10
135.6332962724
20
158.2326542279
11
135.4035088512
21
158.2833596774
0
LINE
5
315
100
AcDbEntity
8
0
100
AcDbLine
62
7
6
CONTINUOUS
10
136.8588281485
20
158.2326542279
11
136.6290408345
21
158.2833596774
0
LINE
5
316
100
AcDbEntity
8
0
100
AcDbLine
62
7
6
CONTINUOUS
10
137.5481898221
20
159.6524277026
11
137.1652110907
21
159.7538409226
0
LINE
5
317
100
AcDbEntity
8
0
100
AcDbLine
62
7
6
CONTINUOUS
10
141.3984275357
20
157.5131702791
11
141.2087831058
21
157.5642341028
0
LINE
5
318
100
AcDbEntity
8
0
100
AcDbLine
62
7
6
CONTINUOUS
10
143.2190136073
20
157.5131702791
11
143.0293692858
21
157.5642341028
0
LINE
5
319
100
AcDbEntity
8
0
100
AcDbLine
62
7
6
CONTINUOUS
10
143.0293692858
20
157.2578511606
11
143.1810848732
21
157.2067873369
0
LINE
5
31A
100
AcDbEntity
8
0
100
AcDbLine
62
7
6
CONTINUOUS
10
154.1102452476
20
153.5142341028
11
156.3602452476
21
152.2151959972
0
LINE
5
31B
100
AcDbEntity
8
0
100
AcDbLine
62
7
6
CONTINUOUS
10
156.5102452476
20
152.4750036183
11
154.9700528688
21
153.3642341028
0
LINE
5
31C
100
AcDbEntity
8
0
100
AcDbLine
62
7
6
CONTINUOUS
10
135.8630834790
20
165.9399997606
11
136.0162749501
21
165.8385877011
0
LINE
5
31D
100
AcDbEntity
8
0
100
AcDbLine
62
7
6
CONTINUOUS
10
153.7909557601
20
151.0135708427
11
153.7909557601
21
160.5748973630
0
LINE
5
31E
100
AcDbEntity
8
0
100
AcDbLine
62
7
6
CONTINUOUS
10
148.1118586515
20
153.3642341028
11
146.5716662726
21
152.4750036183
0
LINE
5
31F
100
AcDbEntity
8
0
100
AcDbLine
62
7
6
CONTINUOUS
10
146.7216662726
20
152.2151959972
11
148.9716662726
21
153.5142341028
0
LINE
5
320
100
AcDbEntity
8
0
100
AcDbLine
62
7
6
CONTINUOUS
10
167.9081898757
20
162.9382570106
11
168.2145728179
21
163.1012551016
0
LINE
5
321
100
AcDbEntity
8
0
100
AcDbLine
62
7
6
CONTINUOUS
10
165.6103174874
20
161.9059356639
11
165.8401046940
21
162.0146012652
0
LINE
5
322
100
AcDbEntity
8
0
100
AcDbLine
62
7
6
CONTINUOUS
10
158.2064038353
20
156.7982766043
11
158.0757592968
21
156.7472127806
0
LINE
5
323
100
AcDbEntity
8
0
100
AcDbLine
62
7
6
CONTINUOUS
10
158.0757592968
20
156.5429574858
11
158.2064038353
21
156.5940213095
0
LINE
5
324
100
AcDbEntity
8
0
100
AcDbLine
62
7
6
CONTINUOUS
10
158.9031745412
20
156.7982766043
11
158.7725300027
21
156.7472127806
0
LINE
5
325
100
AcDbEntity
8
0
100
AcDbLine
62
7
6
CONTINUOUS
10
160.1660716635
20
156.7982766043
11
160.0354271251
21
156.7472127806
0
LINE
5
326
100
AcDbEntity
8
0
100
AcDbLine
62
7
6
CONTINUOUS
10
160.0354271251
20
156.5429574858
11
160.1660716635
21
156.5940213095
0
LINE
5
327
100
AcDbEntity
8
0
100
AcDbLine
62
7
6
CONTINUOUS
10
137.3184025618
20
150.7788391341
11
137.6247855576
21
150.8802514837
0
LINE
5
328
100
AcDbEntity
8
0
100
AcDbLine
62
7
6
CONTINUOUS
10
143.0293692858
20
155.1642341028
11
143.2190136073
21
155.2152979310
0
LINE
5
329
100
AcDbEntity
8
0
100
AcDbLine
62
7
6
CONTINUOUS
10
141.2467120026
20
155.1642341028
11
141.4363563783
21
155.2152979310
0
LINE
5
32A
100
AcDbEntity
8
0
100
AcDbLine
62
7
6
CONTINUOUS
10
135.4801048013
20
155.0888681989
11
135.0971259090
21
155.0381615889
0
LINE
5
32B
100
AcDbEntity
8
0
100
AcDbLine
62
7
6
CONTINUOUS
10
157.4225364798
20
156.1855107199
11
156.9870547263
21
156.1855107199
0
LINE
5
32C
100
AcDbEntity
8
0
100
AcDbLine
62
7
6
CONTINUOUS
10
156.7257656493
20
156.1855107199
11
155.9854465875
21
156.1855107199
0
LINE
5
32D
100
AcDbEntity
8
0
100
AcDbLine
62
7
6
CONTINUOUS
10
141.0191387301
20
156.2365745436
11
141.2467120026
21
156.2365745436
0
LINE
5
32E
100
AcDbEntity
8
0
100
AcDbLine
62
7
6
CONTINUOUS
10
141.2467120026
20
156.5429574858
11
141.0191387301
21
156.5429574858
0
LINE
5
32F
100
AcDbEntity
8
0
100
AcDbLine
62
7
6
CONTINUOUS
10
158.2064038353
20
156.5940213095
11
158.2935001113
21
156.5940213095
0
LINE
5
330
100
AcDbEntity
8
0
100
AcDbLine
62
7
6
CONTINUOUS
10
158.8596265278
20
156.5940213095
11
158.9902710663
21
156.5940213095
0
LINE
5
331
100
AcDbEntity
8
0
100
AcDbLine
62
7
6
CONTINUOUS
10
160.1660716635
20
156.5940213095
11
160.2531681887
21
156.5940213095
0
LINE
5
332
100
AcDbEntity
8
0
100
AcDbLine
62
7
6
CONTINUOUS
10
160.8192943560
20
156.5940213095
11
160.9499388945
21
156.5940213095
0
LINE
5
333
100
AcDbEntity
8
0
100
AcDbLine
62
7
6
CONTINUOUS
10
161.0370354196
20
156.7982766043
11
160.8628428678
21
156.7982766043
0
LINE
5
334
100
AcDbEntity
8
0
100
AcDbLine
62
7
6
CONTINUOUS
10
160.3402647138
20
156.7982766043
11
160.1660716635
21
156.7982766043
0
LINE
5
335
100
AcDbEntity
8
0
100
AcDbLine
62
7
6
CONTINUOUS
10
159.9483310983
20
156.7982766043
11
159.7305900347
21
156.7982766043
0
LINE
5
336
100
AcDbEntity
8
0
100
AcDbLine
62
7
6
CONTINUOUS
10
159.0773673422
20
156.7982766043
11
158.9031745412
21
156.7982766043
0
LINE
5
337
100
AcDbEntity
8
0
100
AcDbLine
62
7
6
CONTINUOUS
10
158.3805963872
20
156.7982766043
11
158.2064038353
21
156.7982766043
0
LINE
5
338
100
AcDbEntity
8
0
100
AcDbLine
62
7
6
CONTINUOUS
10
157.9886627717
20
156.7982766043
11
157.7709219573
21
156.7982766043
0
LINE
5
339
100
AcDbEntity
8
0
100
AcDbLine
62
7
6
CONTINUOUS
10
141.4742852209
20
157.0025320421
11
141.7018584934
21
157.0025320421
0
LINE
5
33A
100
AcDbEntity
8
0
100
AcDbLine
62
7
6
CONTINUOUS
10
141.0191387301
20
157.2578511606
11
141.2467120026
21
157.2578511606
0
LINE
5
33B
100
AcDbEntity
8
0
100
AcDbLine
62
7
6
CONTINUOUS
10
142.7259383282
20
157.2578511606
11
143.0293692858
21
157.2578511606
0
LINE
5
33C
100
AcDbEntity
8
0
100
AcDbLine
62
7
6
CONTINUOUS
10
156.9870547263
20
157.5642341028
11
156.7257656493
21
157.5642341028
0
LINE
5
33D
100
AcDbEntity
8
0
100
AcDbLine
62
7
6
CONTINUOUS
10
145.8361064581
20
157.5642341028
11
145.6085331856
21
157.5642341028
0
LINE
5
33E
100
AcDbEntity
8
0
100
AcDbLine
62
7
6
CONTINUOUS
10
144.1672356484
20
157.5642341028
11
143.9396623759
21
157.5642341028
0
LINE
5
33F
100
AcDbEntity
8
0
100
AcDbLine
62
7
6
CONTINUOUS
10
143.0293692858
20
157.5642341028
11
142.7259383282
21
157.5642341028
0
LINE
5
340
100
AcDbEntity
8
0
100
AcDbLine
62
7
6
CONTINUOUS
10
141.2087831058
20
157.5642341028
11
141.0191387301
21
157.5642341028
0
LINE
5
341
100
AcDbEntity
8
0
100
AcDbLine
62
7
6
CONTINUOUS
10
166.1464876362
20
157.8309836994
11
167.2954237767
21
157.8309836994
0
LINE
5
342
100
AcDbEntity
8
0
100
AcDbLine
62
7
6
CONTINUOUS
10
136.0928706857
20
157.9284163087
11
136.6290408345
21
157.9284163087
0
LINE
5
343
100
AcDbEntity
8
0
100
AcDbLine
62
7
6
CONTINUOUS
10
167.2954237767
20
158.1569798814
11
166.1464876362
21
158.1569798814
0
LINE
5
344
100
AcDbEntity
8
0
100
AcDbLine
62
7
6
CONTINUOUS
10
136.2460621568
20
158.1819476179
11
136.0928706857
21
158.1819476179
0
LINE
5
345
100
AcDbEntity
8
0
100
AcDbLine
62
7
6
CONTINUOUS
10
135.5567005368
20
157.9791229187
11
136.0928706857
21
157.9284163087
0
LINE
5
346
100
AcDbEntity
8
0
100
AcDbLine
62
7
6
CONTINUOUS
10
136.0928706857
20
158.1819476179
11
135.6332962724
21
158.2326542279
0
LINE
5
347
100
AcDbEntity
8
0
100
AcDbLine
62
7
6
CONTINUOUS
10
137.0886153551
20
159.5003090331
11
137.3184025618
21
159.4496035837
0
LINE
5
348
100
AcDbEntity
8
0
100
AcDbLine
62
7
6
CONTINUOUS
10
136.2460621568
20
166.0921184300
11
135.9396792146
21
166.2442370995
0
LINE
5
349
100
AcDbEntity
8
0
100
AcDbLine
62
7
6
CONTINUOUS
10
155.6806093414
20
156.1855107199
11
155.6806093414
21
155.8791277062
0
LINE
5
34A
100
AcDbEntity
8
0
100
AcDbLine
62
7
6
CONTINUOUS
10
156.7257656493
20
157.5642341028
11
155.6806093414
21
156.1855107199
0
LINE
5
34B
100
AcDbEntity
8
0
100
AcDbLine
62
7
6
CONTINUOUS
10
155.9854465875
20
156.1855107199
11
156.7257656493
21
157.1557235132
0
LINE
5
34C
100
AcDbEntity
8
0
100
AcDbLine
62
7
6
CONTINUOUS
10
158.0757592968
20
156.7472127806
11
157.9886627717
21
156.6450851332
0
LINE
5
34D
100
AcDbEntity
8
0
100
AcDbLine
62
7
6
CONTINUOUS
10
157.9886627717
20
156.4408298384
11
158.0757592968
21
156.5429574858
0
LINE
5
34E
100
AcDbEntity
8
0
100
AcDbLine
62
7
6
CONTINUOUS
10
165.4571259626
20
162.2319318459
11
165.1507429936
21
162.0146012652
0
LINE
5
34F
100
AcDbEntity
8
0
100
AcDbLine
62
7
6
CONTINUOUS
10
168.0613813468
20
163.3729186385
11
167.9081898757
21
163.2642531927
0
LINE
5
350
100
AcDbEntity
8
0
100
AcDbLine
62
7
6
CONTINUOUS
10
158.7725300027
20
156.5429574858
11
158.8596265278
21
156.5940213095
0
LINE
5
351
100
AcDbEntity
8
0
100
AcDbLine
62
7
6
CONTINUOUS
10
160.7321983293
20
156.5429574858
11
160.8192943560
21
156.5940213095
0
LINE
5
352
100
AcDbEntity
8
0
100
AcDbLine
62
7
6
CONTINUOUS
10
156.3602452476
20
154.8132722085
11
154.1102452476
21
153.5142341028
0
LINE
5
353
100
AcDbEntity
8
0
100
AcDbLine
62
7
6
CONTINUOUS
10
154.9700528688
20
153.6642341028
11
156.5102452476
21
154.5534645874
0
LINE
5
354
100
AcDbEntity
8
0
100
AcDbLine
62
7
6
CONTINUOUS
10
160.8628428678
20
156.7982766043
11
160.7321983293
21
156.7472127806
0
LINE
5
355
100
AcDbEntity
8
0
100
AcDbLine
62
7
6
CONTINUOUS
10
167.6784026691
20
157.8853161891
11
167.9847856113
21
157.9939817904
0
LINE
5
356
100
AcDbEntity
8
0
100
AcDbLine
62
7
6
CONTINUOUS
10
164.9209557601
20
162.8295915648
11
166.6826578923
21
163.3185858379
0
LINE
5
357
100
AcDbEntity
8
0
100
AcDbLine
62
7
6
CONTINUOUS
10
166.5294664212
20
163.6445820976
11
164.9209557601
21
163.2099205475
0
LINE
5
358
100
AcDbEntity
8
0
100
AcDbLine
62
7
6
CONTINUOUS
10
142.7259383282
20
157.5642341028
11
142.5362937897
21
157.5131702791
0
LINE
5
359
100
AcDbEntity
8
0
100
AcDbLine
62
7
6
CONTINUOUS
10
167.6784026691
20
162.8839243654
11
167.9081898757
21
162.9382570106
0
LINE
5
35A
100
AcDbEntity
8
0
100
AcDbLine
62
7
6
CONTINUOUS
10
167.9081898757
20
163.2642531927
11
167.6784026691
21
163.2099205475
0
LINE
5
35B
100
AcDbEntity
8
0
100
AcDbLine
62
7
6
CONTINUOUS
10
135.2503173801
20
154.7339242500
11
135.4801048013
21
154.7846308600
0
LINE
5
35C
100
AcDbEntity
8
0
100
AcDbLine
62
7
6
CONTINUOUS
10
165.8401046940
20
162.0146012652
11
166.1464876362
21
162.0689337549
0
LINE
5
35D
100
AcDbEntity
8
0
100
AcDbLine
62
7
6
CONTINUOUS
10
166.1464876362
20
162.3949300924
11
165.7635089585
21
162.3405972917
0
LINE
5
35E
100
AcDbEntity
8
0
100
AcDbLine
62
7
6
CONTINUOUS
10
136.6290408345
20
157.9284163087
11
137.1652110907
21
157.9791229187
0
LINE
5
35F
100
AcDbEntity
8
0
100
AcDbLine
62
7
6
CONTINUOUS
10
137.0886153551
20
158.2326542279
11
136.8588281485
21
158.2326542279
0
LINE
5
360
100
AcDbEntity
8
0
100
AcDbLine
62
7
6
CONTINUOUS
10
136.8588281485
20
159.5003090331
11
137.0886153551
21
159.5003090331
0
LINE
5
361
100
AcDbEntity
8
0
100
AcDbLine
62
7
6
CONTINUOUS
10
165.3805302271
20
159.6782951903
11
168.0613813468
21
159.6782951903
0
LINE
5
362
100
AcDbEntity
8
0
100
AcDbLine
62
7
6
CONTINUOUS
10
137.1652110907
20
159.7538409226
11
136.7822323056
21
159.7538409226
0
LINE
5
363
100
AcDbEntity
8
0
100
AcDbLine
62
7
6
CONTINUOUS
10
168.5209557601
20
160.0042913723
11
164.9209557601
21
160.0042913723
0
LINE
5
364
100
AcDbEntity
8
0
100
AcDbLine
62
7
6
CONTINUOUS
10
136.4758493634
20
160.1594903210
11
136.8588281485
21
160.1594903210
0
LINE
5
365
100
AcDbEntity
8
0
100
AcDbLine
62
7
6
CONTINUOUS
10
165.7635089585
20
157.8853161891
11
166.1464876362
21
157.8309836994
0
LINE
5
366
100
AcDbEntity
8
0
100
AcDbLine
62
7
6
CONTINUOUS
10
138.1609557601
20
162.4919769729
11
134.5609557601
21
163.3032757697
0
LINE
5
367
100
AcDbEntity
8
0
100
AcDbLine
62
7
6
CONTINUOUS
10
134.5609557601
20
162.9990384307
11
137.7013812932
21
162.2891516934
0
LINE
5
368
100
AcDbEntity
8
0
100
AcDbLine
62
7
6
CONTINUOUS
10
158.5112409257
20
156.7472127806
11
158.3805963872
21
156.7982766043
0
LINE
5
369
100
AcDbEntity
8
0
100
AcDbLine
62
7
6
CONTINUOUS
10
159.2080118807
20
156.7472127806
11
159.0773673422
21
156.7982766043
0
LINE
5
36A
100
AcDbEntity
8
0
100
AcDbLine
62
7
6
CONTINUOUS
10
160.4709092523
20
156.7472127806
11
160.3402647138
21
156.7982766043
0
LINE
5
36B
100
AcDbEntity
8
0
100
AcDbLine
62
7
6
CONTINUOUS
10
161.1676799581
20
156.7472127806
11
161.0370354196
21
156.7982766043
0
LINE
5
36C
100
AcDbEntity
8
0
100
AcDbLine
62
7
6
CONTINUOUS
10
158.2935001113
20
156.5940213095
11
158.3805963872
21
156.5429574858
0
LINE
5
36D
100
AcDbEntity
8
0
100
AcDbLine
62
7
6
CONTINUOUS
10
158.9902710663
20
156.5940213095
11
159.0773673422
21
156.5429574858
0
LINE
5
36E
100
AcDbEntity
8
0
100
AcDbLine
62
7
6
CONTINUOUS
10
156.5102452476
20
154.5534645874
11
156.3602452476
21
154.8132722085
0
LINE
5
36F
100
AcDbEntity
8
0
100
AcDbLine
62
7
6
CONTINUOUS
10
156.7257656493
20
157.1557235132
11
156.7257656493
21
156.1855107199
0
LINE
5
370
100
AcDbEntity
8
0
100
AcDbLine
62
7
6
CONTINUOUS
10
156.7257656493
20
155.8791277062
11
156.7257656493
21
155.1642341028
0
LINE
5
371
100
AcDbEntity
8
0
100
AcDbLine
62
7
6
CONTINUOUS
10
156.9870547263
20
155.1642341028
11
156.9870547263
21
155.8791277062
0
LINE
5
372
100
AcDbEntity
8
0
100
AcDbLine
62
7
6
CONTINUOUS
10
156.9870547263
20
156.1855107199
11
156.9870547263
21
157.5642341028
0
LINE
5
373
100
AcDbEntity
8
0
100
AcDbLine
62
7
6
CONTINUOUS
10
157.4225364798
20
155.8791277062
11
157.4225364798
21
156.1855107199
0
LINE
5
374
100
AcDbEntity
8
0
100
AcDbLine
62
7
6
CONTINUOUS
10
157.7709219573
20
156.7982766043
11
157.7709219573
21
155.1642341028
0
LINE
5
375
100
AcDbEntity
8
0
100
AcDbLine
62
7
6
CONTINUOUS
10
157.9886627717
20
155.1642341028
11
157.9886627717
21
156.4408298384
0
LINE
5
376
100
AcDbEntity
8
0
100
AcDbLine
62
7
6
CONTINUOUS
10
157.9886627717
20
156.6450851332
11
157.9886627717
21
156.7982766043
0
LINE
5
377
100
AcDbEntity
8
0
100
AcDbLine
62
7
6
CONTINUOUS
10
158.6854337267
20
156.3897660147
11
158.7289819893
21
156.4918936621
0
LINE
5
378
100
AcDbEntity
8
0
100
AcDbLine
62
7
6
CONTINUOUS
10
156.3602452476
20
152.2151959972
11
156.5102452476
21
152.4750036183
0
LINE
5
379
100
AcDbEntity
8
0
100
AcDbLine
62
7
6
CONTINUOUS
10
158.7725300027
20
156.7472127806
11
158.6418854642
21
156.5940213095
0
LINE
5
37A
100
AcDbEntity
8
0
100
AcDbLine
62
7
6
CONTINUOUS
10
158.7289819893
20
156.4918936621
11
158.7725300027
21
156.5429574858
0
LINE
5
37B
100
AcDbEntity
8
0
100
AcDbLine
62
7
6
CONTINUOUS
10
160.0354271251
20
156.7472127806
11
159.9483310983
21
156.6450851332
0
LINE
5
37C
100
AcDbEntity
8
0
100
AcDbLine
62
7
6
CONTINUOUS
10
159.9483310983
20
156.4408298384
11
160.0354271251
21
156.5429574858
0
LINE
5
37D
100
AcDbEntity
8
0
100
AcDbLine
62
7
6
CONTINUOUS
10
160.7321983293
20
156.7472127806
11
160.6015537908
21
156.5940213095
0
LINE
5
37E
100
AcDbEntity
8
0
100
AcDbLine
62
7
6
CONTINUOUS
10
160.6886498175
20
156.4918936621
11
160.7321983293
21
156.5429574858
0
LINE
5
37F
100
AcDbEntity
8
0
100
AcDbLine
62
7
6
CONTINUOUS
10
165.4571259626
20
161.7429375729
11
165.6103174874
21
161.9059356639
0
LINE
5
380
100
AcDbEntity
8
0
100
AcDbLine
62
7
6
CONTINUOUS
10
168.2145728179
20
163.1012551016
11
168.4443600246
21
163.3185858379
0
LINE
5
381
100
AcDbEntity
8
0
100
AcDbLine
62
7
6
CONTINUOUS
10
167.8315941402
20
158.3199779724
11
167.6018067189
21
158.2113123711
0
LINE
5
382
100
AcDbEntity
8
0
100
AcDbLine
62
7
6
CONTINUOUS
10
137.1652110907
20
157.9791229187
11
137.5481898221
21
158.0805355585
0
LINE
5
383
100
AcDbEntity
8
0
100
AcDbLine
62
7
6
CONTINUOUS
10
137.3184025618
20
158.2833596774
11
137.0886153551
21
158.2326542279
0
LINE
5
384
100
AcDbEntity
8
0
100
AcDbLine
62
7
6
CONTINUOUS
10
166.1464876362
20
160.4389528447
11
168.5209557601
21
160.4389528447
0
LINE
5
385
100
AcDbEntity
8
0
100
AcDbLine
62
7
6
CONTINUOUS
10
161.5364547472
20
160.5942341028
11
153.9424208990
21
160.5942341028
0
LINE
5
386
100
AcDbEntity
8
0
100
AcDbLine
62
7
6
CONTINUOUS
10
149.1394906213
20
160.5942341028
11
141.5454567731
21
160.5942341028
0
LINE
5
387
100
AcDbEntity
8
0
100
AcDbLine
62
7
6
CONTINUOUS
10
168.5209557601
20
160.7649490268
11
166.1464876362
21
160.7649490268
0
LINE
5
388
100
AcDbEntity
8
0
100
AcDbLine
62
7
6
CONTINUOUS
10
136.8588281485
20
160.8693770583
11
136.4758493634
21
160.8693770583
0
LINE
5
389
100
AcDbEntity
8
0
100
AcDbLine
62
7
6
CONTINUOUS
10
166.1464876362
20
162.0689337549
11
168.5209557601
21
162.0689337549
0
LINE
5
38A
100
AcDbEntity
8
0
100
AcDbLine
62
7
6
CONTINUOUS
10
168.5209557601
20
162.3949300924
11
166.1464876362
21
162.3949300924
0
LINE
5
38B
100
AcDbEntity
8
0
100
AcDbLine
62
7
6
CONTINUOUS
10
165.7635089585
20
160.4932856454
11
166.1464876362
21
160.4389528447
0
LINE
5
38C
100
AcDbEntity
8
0
100
AcDbLine
62
7
6
CONTINUOUS
10
166.1464876362
20
158.1569798814
11
165.8401046940
21
158.2113123711
0
LINE
5
38D
100
AcDbEntity
8
0
100
AcDbLine
62
7
6
CONTINUOUS
10
135.6332962724
20
165.9907063706
11
135.8630834790
21
165.9399997606
0
LINE
5
38E
100
AcDbEntity
8
0
100
AcDbLine
62
7
6
CONTINUOUS
10
160.2531681887
20
156.5940213095
11
160.3402647138
21
156.5429574858
0
LINE
5
38F
100
AcDbEntity
8
0
100
AcDbLine
62
7
6
CONTINUOUS
10
160.9499388945
20
156.5940213095
11
161.0370354196
21
156.5429574858
0
LINE
5
390
100
AcDbEntity
8
0
100
AcDbLine
62
7
6
CONTINUOUS
10
158.3805963872
20
156.5429574858
11
158.4241446498
21
156.4918936621
0
LINE
5
391
100
AcDbEntity
8
0
100
AcDbLine
62
7
6
CONTINUOUS
10
158.6418854642
20
156.5940213095
11
158.5112409257
21
156.7472127806
0
LINE
5
392
100
AcDbEntity
8
0
100
AcDbLine
62
7
6
CONTINUOUS
10
159.0773673422
20
156.5429574858
11
159.1209156048
21
156.4918936621
0
LINE
5
393
100
AcDbEntity
8
0
100
AcDbLine
62
7
6
CONTINUOUS
10
159.2951081567
20
156.6450851332
11
159.2080118807
21
156.7472127806
0
LINE
5
394
100
AcDbEntity
8
0
100
AcDbLine
62
7
6
CONTINUOUS
10
158.4241446498
20
156.4918936621
11
158.4676929123
21
156.3897660147
0
LINE
5
395
100
AcDbEntity
8
0
100
AcDbLine
62
7
6
CONTINUOUS
10
158.4676929123
20
156.3897660147
11
158.4676929123
21
155.1642341028
0
LINE
5
396
100
AcDbEntity
8
0
100
AcDbLine
62
7
6
CONTINUOUS
10
158.6854337267
20
155.1642341028
11
158.6854337267
21
156.3897660147
0
LINE
5
397
100
AcDbEntity
8
0
100
AcDbLine
62
7
6
CONTINUOUS
10
159.1644636182
20
156.3897660147
11
159.1644636182
21
155.1642341028
0
LINE
5
398
100
AcDbEntity
8
0
100
AcDbLine
62
7
6
CONTINUOUS
10
159.3822046818
20
155.1642341028
11
159.3822046818
21
156.3897660147
0
LINE
5
399
100
AcDbEntity
8
0
100
AcDbLine
62
7
6
CONTINUOUS
10
159.7305900347
20
156.7982766043
11
159.7305900347
21
155.1642341028
0
LINE
5
39A
100
AcDbEntity
8
0
100
AcDbLine
62
7
6
CONTINUOUS
10
159.9483310983
20
155.1642341028
11
159.9483310983
21
156.4408298384
0
LINE
5
39B
100
AcDbEntity
8
0
100
AcDbLine
62
7
6
CONTINUOUS
10
159.9483310983
20
156.6450851332
11
159.9483310983
21
156.7982766043
0
LINE
5
39C
100
AcDbEntity
8
0
100
AcDbLine
62
7
6
CONTINUOUS
10
160.6451018041
20
156.3897660147
11
160.6886498175
21
156.4918936621
0
LINE
5
39D
100
AcDbEntity
8
0
100
AcDbLine
62
7
6
CONTINUOUS
10
165.1507429936
20
162.0146012652
11
164.9975515024
21
161.7972703735
0
LINE
5
39E
100
AcDbEntity
8
0
100
AcDbLine
62
7
6
CONTINUOUS
10
167.9847856113
20
157.9939817904
11
168.2911685535
21
158.2113123711
0
LINE
5
39F
100
AcDbEntity
8
0
100
AcDbLine
62
7
6
CONTINUOUS
10
136.7822323056
20
159.7538409226
11
136.3992536279
21
159.6524277026
0
LINE
5
3A0
100
AcDbEntity
8
0
100
AcDbLine
62
7
6
CONTINUOUS
10
136.6290408345
20
159.4496035837
11
136.8588281485
21
159.5003090331
0
LINE
5
3A1
100
AcDbEntity
8
0
100
AcDbLine
62
7
6
CONTINUOUS
10
135.4035088512
20
159.6524277026
11
135.1737216445
21
159.6017222531
0
LINE
5
3A2
100
AcDbEntity
8
0
100
AcDbLine
62
7
6
CONTINUOUS
10
167.3720195123
20
162.8839243654
11
167.6784026691
21
162.8839243654
0
LINE
5
3A3
100
AcDbEntity
8
0
100
AcDbLine
62
7
6
CONTINUOUS
10
167.6784026691
20
163.2099205475
11
167.4486152478
21
163.2099205475
0
LINE
5
3A4
100
AcDbEntity
8
0
100
AcDbLine
62
7
6
CONTINUOUS
10
134.5609557601
20
163.7089263286
11
138.1609557601
21
163.7089263286
0
LINE
5
3A5
100
AcDbEntity
8
0
100
AcDbLine
62
7
6
CONTINUOUS
10
138.1609557601
20
164.0131636676
11
134.5609557601
21
164.0131636676
0
LINE
5
3A6
100
AcDbEntity
8
0
100
AcDbLine
62
7
6
CONTINUOUS
10
134.5609557601
20
164.4188130659
11
138.1609557601
21
164.4188130659
0
LINE
5
3A7
100
AcDbEntity
8
0
100
AcDbLine
62
7
6
CONTINUOUS
10
164.9209557601
20
164.5682379208
11
166.5294664212
21
164.5682379208
0
LINE
5
3A8
100
AcDbEntity
8
0
100
AcDbLine
62
7
6
CONTINUOUS
10
166.9890408345
20
164.5682379208
11
168.1379770824
21
164.5682379208
0
LINE
5
3A9
100
AcDbEntity
8
0
100
AcDbLine
62
7
6
CONTINUOUS
10
166.1464876362
20
160.7649490268
11
165.8401046940
21
160.8192818274
0
LINE
5
3AA
100
AcDbEntity
8
0
100
AcDbLine
62
7
6
CONTINUOUS
10
135.9396792146
20
166.2442370995
11
135.7098920079
21
166.2949437095
0
LINE
5
3AB
100
AcDbEntity
8
0
100
AcDbLine
62
7
6
CONTINUOUS
10
165.4571259626
20
157.9939817904
11
165.7635089585
21
157.8853161891
0
LINE
5
3AC
100
AcDbEntity
8
0
100
AcDbLine
62
7
6
CONTINUOUS
10
165.8401046940
20
158.2113123711
11
165.6103174874
21
158.3199779724
0
LINE
5
3AD
100
AcDbEntity
8
0
100
AcDbLine
62
7
6
CONTINUOUS
10
160.3402647138
20
156.5429574858
11
160.3838127272
21
156.4918936621
0
LINE
5
3AE
100
AcDbEntity
8
0
100
AcDbLine
62
7
6
CONTINUOUS
10
160.6015537908
20
156.5940213095
11
160.4709092523
21
156.7472127806
0
LINE
5
3AF
100
AcDbEntity
8
0
100
AcDbLine
62
7
6
CONTINUOUS
10
161.0370354196
20
156.5429574858
11
161.0805834330
21
156.4918936621
0
LINE
5
3B0
100
AcDbEntity
8
0
100
AcDbLine
62
7
6
CONTINUOUS
10
161.2547764832
20
156.6450851332
11
161.1676799581
21
156.7472127806
0
LINE
5
3B1
100
AcDbEntity
8
0
100
AcDbLine
62
7
6
CONTINUOUS
10
159.1209156048
20
156.4918936621
11
159.1644636182
21
156.3897660147
0
LINE
5
3B2
100
AcDbEntity
8
0
100
AcDbLine
62
7
6
CONTINUOUS
10
160.3838127272
20
156.4918936621
11
160.4273607405
21
156.3897660147
0
LINE
5
3B3
100
AcDbEntity
8
0
100
AcDbLine
62
7
6
CONTINUOUS
10
159.3822046818
20
156.3897660147
11
159.2951081567
21
156.6450851332
0
LINE
5
3B4
100
AcDbEntity
8
0
100
AcDbLine
62
7
6
CONTINUOUS
10
160.4273607405
20
156.3897660147
11
160.4273607405
21
155.1642341028
0
LINE
5
3B5
100
AcDbEntity
8
0
100
AcDbLine
62
7
6
CONTINUOUS
10
160.6451018041
20
155.1642341028
11
160.6451018041
21
156.3897660147
0
LINE
5
3B6
100
AcDbEntity
8
0
100
AcDbLine
62
7
6
CONTINUOUS
10
161.1241319447
20
156.3897660147
11
161.1241319447
21
155.1642341028
0
LINE
5
3B7
100
AcDbEntity
8
0
100
AcDbLine
62
7
6
CONTINUOUS
10
161.3418725100
20
155.1642341028
11
161.3418725100
21
156.3897660147
0
LINE
5
3B8
100
AcDbEntity
8
0
100
AcDbLine
62
7
6
CONTINUOUS
10
167.9847856113
20
158.4829760634
11
167.8315941402
21
158.3199779724
0
LINE
5
3B9
100
AcDbEntity
8
0
100
AcDbLine
62
7
6
CONTINUOUS
10
137.7013812932
20
162.2891516934
11
134.5609557601
21
161.5792649561
0
LINE
5
3BA
100
AcDbEntity
8
0
100
AcDbLine
62
7
6
CONTINUOUS
10
134.5609557601
20
161.2750276172
11
138.1609557601
21
162.0863264140
0
LINE
5
3BB
100
AcDbEntity
8
0
100
AcDbLine
62
7
6
CONTINUOUS
10
138.1609557601
20
164.7230504049
11
136.5524450990
21
164.7230504049
0
LINE
5
3BC
100
AcDbEntity
8
0
100
AcDbLine
62
7
6
CONTINUOUS
10
136.0928706857
20
164.7230504049
11
134.9439344379
21
164.7230504049
0
LINE
5
3BD
100
AcDbEntity
8
0
100
AcDbLine
62
7
6
CONTINUOUS
10
168.5209557601
20
164.8942341028
11
164.9209557601
21
164.8942341028
0
LINE
5
3BE
100
AcDbEntity
8
0
100
AcDbLine
62
7
6
CONTINUOUS
10
135.4035088512
20
165.9907063706
11
135.6332962724
21
165.9907063706
0
LINE
5
3BF
100
AcDbEntity
8
0
100
AcDbLine
62
7
6
CONTINUOUS
10
135.7098920079
20
166.2949437095
11
135.4035088512
21
166.2949437095
0
LINE
5
3C0
100
AcDbEntity
8
0
100
AcDbLine
62
7
6
CONTINUOUS
10
167.1422323056
20
162.9382570106
11
167.3720195123
21
162.8839243654
0
LINE
5
3C1
100
AcDbEntity
8
0
100
AcDbLine
62
7
6
CONTINUOUS
10
167.4486152478
20
163.2099205475
11
167.2188280412
21
163.2642531927
0
LINE
5
3C2
100
AcDbEntity
8
0
100
AcDbLine
62
7
6
CONTINUOUS
10
165.4571259626
20
160.6019509358
11
165.7635089585
21
160.4932856454
0
LINE
5
3C3
100
AcDbEntity
8
0
100
AcDbLine
62
7
6
CONTINUOUS
10
165.8401046940
20
160.8192818274
11
165.6103174874
21
160.9279471178
0
LINE
5
3C4
100
AcDbEntity
8
0
100
AcDbLine
62
7
6
CONTINUOUS
10
165.1507429936
20
158.2113123711
11
165.4571259626
21
157.9939817904
0
LINE
5
3C5
100
AcDbEntity
8
0
100
AcDbLine
62
7
6
CONTINUOUS
10
161.0805834330
20
156.4918936621
11
161.1241319447
21
156.3897660147
0
LINE
5
3C6
100
AcDbEntity
8
0
100
AcDbLine
62
7
6
CONTINUOUS
10
161.3418725100
20
156.3897660147
11
161.2547764832
21
156.6450851332
0
LINE
5
3C7
100
AcDbEntity
8
0
100
AcDbLine
62
7
6
CONTINUOUS
10
163.1102452476
20
153.3642341028
11
163.1102452476
21
153.6642341028
0
LINE
5
3C8
100
AcDbEntity
8
0
100
AcDbLine
62
7
6
CONTINUOUS
10
164.9975515024
20
161.7972703735
11
164.9209557601
21
161.5256069921
0
LINE
5
3C9
100
AcDbEntity
8
0
100
AcDbLine
62
7
6
CONTINUOUS
10
165.3805302271
20
161.5256069921
11
165.4571259626
21
161.7429375729
0
LINE
5
3CA
100
AcDbEntity
8
0
100
AcDbLine
62
7
6
CONTINUOUS
10
168.1379770824
20
163.5359167295
11
168.0613813468
21
163.3729186385
0
LINE
5
3CB
100
AcDbEntity
8
0
100
AcDbLine
62
7
6
CONTINUOUS
10
168.2911685535
20
158.2113123711
11
168.4443600246
21
158.4286429519
0
LINE
5
3CC
100
AcDbEntity
8
0
100
AcDbLine
62
7
6
CONTINUOUS
10
165.1507429936
20
160.8192818274
11
165.4571259626
21
160.6019509358
0
LINE
5
3CD
100
AcDbEntity
8
0
100
AcDbLine
62
7
6
CONTINUOUS
10
165.6103174874
20
158.3199779724
11
165.4571259626
21
158.4829760634
0
LINE
5
3CE
100
AcDbEntity
8
0
100
AcDbLine
62
7
6
CONTINUOUS
10
164.9975515024
20
158.4286429519
11
165.1507429936
21
158.2113123711
0
LINE
5
3CF
100
AcDbEntity
8
0
100
AcDbLine
62
7
6
CONTINUOUS
10
164.9209557601
20
164.8942341028
11
164.9209557601
21
164.5682379208
0
LINE
5
3D0
100
AcDbEntity
8
0
100
AcDbLine
62
7
6
CONTINUOUS
10
164.9209557601
20
163.2099205475
11
164.9209557601
21
162.8295915648
0
LINE
5
3D1
100
AcDbEntity
8
0
100
AcDbLine
62
7
6
CONTINUOUS
10
164.9209557601
20
161.5256069921
11
164.9209557601
21
161.3082761005
0
LINE
5
3D2
100
AcDbEntity
8
0
100
AcDbLine
62
7
6
CONTINUOUS
10
164.9209557601
20
160.0042913723
11
164.9209557601
21
158.7003066442
0
LINE
5
3D3
100
AcDbEntity
8
0
100
AcDbLine
62
7
6
CONTINUOUS
10
165.3805302271
20
158.7003066442
11
165.3805302271
21
159.6782951903
0
LINE
5
3D4
100
AcDbEntity
8
0
100
AcDbLine
62
7
6
CONTINUOUS
10
165.3805302271
20
161.3082761005
11
165.3805302271
21
161.5256069921
0
LINE
5
3D5
100
AcDbEntity
8
0
100
AcDbLine
62
7
6
CONTINUOUS
10
166.5294664212
20
164.5682379208
11
166.5294664212
21
163.6445820976
0
LINE
5
3D6
100
AcDbEntity
8
0
100
AcDbLine
62
7
6
CONTINUOUS
10
168.4443600246
20
163.3185858379
11
168.5209557601
21
163.5902493747
0
LINE
5
3D7
100
AcDbEntity
8
0
100
AcDbLine
62
7
6
CONTINUOUS
10
168.0613813468
20
158.7003066442
11
167.9847856113
21
158.4829760634
0
LINE
5
3D8
100
AcDbEntity
8
0
100
AcDbLine
62
7
6
CONTINUOUS
10
135.1737216445
20
165.9399997606
11
135.4035088512
21
165.9907063706
0
LINE
5
3D9
100
AcDbEntity
8
0
100
AcDbLine
62
7
6
CONTINUOUS
10
135.4035088512
20
166.2949437095
11
135.1737216445
21
166.2442370995
0
LINE
5
3DA
100
AcDbEntity
8
0
100
AcDbLine
62
7
6
CONTINUOUS
10
166.8358493634
20
163.1012551016
11
167.1422323056
21
162.9382570106
0
LINE
5
3DB
100
AcDbEntity
8
0
100
AcDbLine
62
7
6
CONTINUOUS
10
167.2188280412
20
163.2642531927
11
167.0656365701
21
163.3729186385
0
LINE
5
3DC
100
AcDbEntity
8
0
100
AcDbLine
62
7
6
CONTINUOUS
10
165.6103174874
20
160.9279471178
11
165.4571259626
21
161.0909452088
0
LINE
5
3DD
100
AcDbEntity
8
0
100
AcDbLine
62
7
6
CONTINUOUS
10
164.9975515024
20
161.0366127191
11
165.1507429936
21
160.8192818274
0
LINE
5
3DE
100
AcDbEntity
8
0
100
AcDbLine
62
7
6
CONTINUOUS
10
165.4571259626
20
158.4829760634
11
165.3805302271
21
158.7003066442
0
LINE
5
3DF
100
AcDbEntity
8
0
100
AcDbLine
62
7
6
CONTINUOUS
10
165.4571259626
20
161.0909452088
11
165.3805302271
21
161.3082761005
0
LINE
5
3E0
100
AcDbEntity
8
0
100
AcDbLine
62
7
6
CONTINUOUS
10
164.9209557601
20
158.7003066442
11
164.9975515024
21
158.4286429519
0
LINE
5
3E1
100
AcDbEntity
8
0
100
AcDbLine
62
7
6
CONTINUOUS
10
164.9209557601
20
161.3082761005
11
164.9975515024
21
161.0366127191
0
LINE
5
3E2
100
AcDbEntity
8
0
100
AcDbLine
62
7
6
CONTINUOUS
10
166.9890408345
20
163.5359167295
11
166.9890408345
21
164.5682379208
0
LINE
5
3E3
100
AcDbEntity
8
0
100
AcDbLine
62
7
6
CONTINUOUS
10
168.0613813468
20
159.6782951903
11
168.0613813468
21
158.7003066442
0
LINE
5
3E4
100
AcDbEntity
8
0
100
AcDbLine
62
7
6
CONTINUOUS
10
168.1379770824
20
164.5682379208
11
168.1379770824
21
163.5359167295
0
LINE
5
3E5
100
AcDbEntity
8
0
100
AcDbLine
62
7
6
CONTINUOUS
10
168.5209557601
20
158.7003066442
11
168.5209557601
21
160.0042913723
0
LINE
5
3E6
100
AcDbEntity
8
0
100
AcDbLine
62
7
6
CONTINUOUS
10
168.5209557601
20
160.4389528447
11
168.5209557601
21
160.7649490268
0
LINE
5
3E7
100
AcDbEntity
8
0
100
AcDbLine
62
7
6
CONTINUOUS
10
168.5209557601
20
162.0689337549
11
168.5209557601
21
162.3949300924
0
LINE
5
3E8
100
AcDbEntity
8
0
100
AcDbLine
62
7
6
CONTINUOUS
10
168.5209557601
20
163.5902493747
11
168.5209557601
21
164.8942341028
0
LINE
5
3E9
100
AcDbEntity
8
0
100
AcDbLine
62
7
6
CONTINUOUS
10
168.4443600246
20
158.4286429519
11
168.5209557601
21
158.7003066442
0
LINE
5
3EA
100
AcDbEntity
8
0
100
AcDbLine
62
7
6
CONTINUOUS
10
166.6826578923
20
163.3185858379
11
166.8358493634
21
163.1012551016
0
LINE
5
3EB
100
AcDbEntity
8
0
100
AcDbLine
62
7
6
CONTINUOUS
10
167.0656365701
20
163.3729186385
11
166.9890408345
21
163.5359167295
0
LINE
5
3EC
100
AcDbEntity
8
0
100
AcDbLine
62
7
6
CONTINUOUS
10
169.6329429190
20
149.7942341028
11
169.6329429190
21
161.7942341028
0
LINE
5
3ED
100
AcDbEntity
8
0
100
AcDbLine
62
7
6
CONTINUOUS
10
171.0409557601
20
149.7942341028
11
171.0409557601
21
161.7942341028
0
LINE
5
3EE
100
AcDbEntity
8
DEFAULT_2
100
AcDbLine
62
8
6
HIDDEN
10
293.5771299929
20
138.2942341028
11
297.1771299929
21
138.2942341028
0
LINE
5
3EF
100
AcDbEntity
8
0
100
AcDbLine
62
7
6
CONTINUOUS
10
298.3771299929
20
148.2942341028
11
298.6771299929
21
148.2942341028
0
LINE
5
3F0
100
AcDbEntity
8
0
100
AcDbLine
62
7
6
CONTINUOUS
10
298.3771299929
20
148.5984714418
11
298.6771299929
21
148.5984714418
0
LINE
5
3F1
100
AcDbEntity
8
0
100
AcDbLine
62
7
6
CONTINUOUS
10
298.3771299929
20
149.3083585417
11
298.6771299929
21
149.3083585417
0
LINE
5
3F2
100
AcDbEntity
8
0
100
AcDbLine
62
7
6
CONTINUOUS
10
298.3771299929
20
150.0182456417
11
298.6771299929
21
150.0182456417
0
LINE
5
3F3
100
AcDbEntity
8
0
100
AcDbLine
62
7
6
CONTINUOUS
10
298.3771299929
20
150.3224829806
11
298.6771299929
21
150.3224829806
0
LINE
5
3F4
100
AcDbEntity
8
0
100
AcDbLine
62
7
6
CONTINUOUS
10
298.3771299929
20
150.7281328142
11
298.6771299929
21
150.7281328142
0
LINE
5
3F5
100
AcDbEntity
8
0
100
AcDbLine
62
7
6
CONTINUOUS
10
298.3771299929
20
150.7788391341
11
298.6771299929
21
150.7788391341
0
LINE
5
3F6
100
AcDbEntity
8
0
100
AcDbLine
62
7
6
CONTINUOUS
10
298.3771299929
20
150.8802514837
11
298.6771299929
21
150.8802514837
0
LINE
5
3F7
100
AcDbEntity
8
0
100
AcDbLine
62
7
6
CONTINUOUS
10
292.0771299929
20
154.7146991199
11
292.0771299929
21
152.0737690858
0
LINE
5
3F8
100
AcDbEntity
8
0
100
AcDbLine
62
7
6
CONTINUOUS
10
298.3771299929
20
151.0830764730
11
298.6771299929
21
151.0830764730
0
LINE
5
3F9
100
AcDbEntity
8
0
100
AcDbLine
62
7
6
CONTINUOUS
10
298.3771299929
20
151.2859011722
11
298.6771299929
21
151.2859011722
0
LINE
5
3FA
100
AcDbEntity
8
0
100
AcDbLine
62
7
6
CONTINUOUS
10
298.3771299929
20
151.5394324814
11
298.6771299929
21
151.5394324814
0
LINE
5
3FB
100
AcDbEntity
8
0
100
AcDbLine
62
7
6
CONTINUOUS
10
298.3771299929
20
151.9957884898
11
298.6771299929
21
151.9957884898
0
LINE
5
3FC
100
AcDbEntity
8
0
100
AcDbLine
62
7
6
CONTINUOUS
10
292.3771299929
20
152.0737690858
11
292.0771299929
21
152.0737690858
0
LINE
5
3FD
100
AcDbEntity
8
0
100
AcDbLine
62
7
6
CONTINUOUS
10
298.3771299929
20
152.2493195089
11
298.6771299929
21
152.2493195089
0
LINE
5
3FE
100
AcDbEntity
8
0
100
AcDbLine
62
7
6
CONTINUOUS
10
292.3771299929
20
152.3335767069
11
292.0771299929
21
152.3335767069
0
LINE
5
3FF
100
AcDbEntity
8
0
100
AcDbLine
62
7
6
CONTINUOUS
10
298.3771299929
20
152.4521444982
11
298.6771299929
21
152.4521444982
0
LINE
5
400
100
AcDbEntity
8
0
100
AcDbLine
62
7
6
CONTINUOUS
10
292.3771299929
20
179.8860738912
11
292.3771299929
21
131.7023943144
0
LINE
5
401
100
AcDbEntity
8
0
100
AcDbLine
62
7
6
CONTINUOUS
10
298.3771299929
20
152.6549691974
11
298.6771299929
21
152.6549691974
0
LINE
5
402
100
AcDbEntity
8
0
100
AcDbLine
62
7
6
CONTINUOUS
10
298.3771299929
20
152.7056755173
11
298.6771299929
21
152.7056755173
0
LINE
5
403
100
AcDbEntity
8
0
100
AcDbLine
62
7
6
CONTINUOUS
10
298.3771299929
20
153.1113252058
11
298.6771299929
21
153.1113252058
0
LINE
5
404
100
AcDbEntity
8
0
100
AcDbLine
62
7
6
CONTINUOUS
10
298.3771299929
20
153.1620315257
11
298.6771299929
21
153.1620315257
0
LINE
5
405
100
AcDbEntity
8
0
100
AcDbLine
62
7
6
CONTINUOUS
10
292.3771299929
20
153.2442341028
11
292.0771299929
21
153.2442341028
0
LINE
5
406
100
AcDbEntity
8
0
100
AcDbLine
62
7
6
CONTINUOUS
10
298.3771299929
20
153.2634441654
11
298.6771299929
21
153.2634441654
0
LINE
5
407
100
AcDbEntity
8
0
100
AcDbLine
62
7
6
CONTINUOUS
10
298.3771299929
20
153.4662688646
11
298.6771299929
21
153.4662688646
0
LINE
5
408
100
AcDbEntity
8
0
100
AcDbLine
62
7
6
CONTINUOUS
10
292.3771299929
20
153.5442341028
11
292.0771299929
21
153.5442341028
0
LINE
5
409
100
AcDbEntity
8
0
100
AcDbLine
62
7
6
CONTINUOUS
10
298.3771299929
20
153.6690935638
11
298.6771299929
21
153.6690935638
0
LINE
5
40A
100
AcDbEntity
8
0
100
AcDbLine
62
7
6
CONTINUOUS
10
298.3771299929
20
153.9226248730
11
298.6771299929
21
153.9226248730
0
LINE
5
40B
100
AcDbEntity
8
DEFAULT_1
100
AcDbLine
62
2
6
CENTER
10
295.3771299929
20
127.2942341028
11
295.3771299929
21
184.2942341028
0
LINE
5
40C
100
AcDbEntity
8
0
100
AcDbLine
62
7
6
CONTINUOUS
10
298.3771299929
20
154.3789808814
11
298.6771299929
21
154.3789808814
0
LINE
5
40D
100
AcDbEntity
8
0
100
AcDbLine
62
7
6
CONTINUOUS
10
292.3771299929
20
154.4548914988
11
292.0771299929
21
154.4548914988
0
LINE
5
40E
100
AcDbEntity
8
0
100
AcDbLine
62
7
6
CONTINUOUS
10
298.3771299929
20
154.6325121906
11
298.6771299929
21
154.6325121906
0
LINE
5
40F
100
AcDbEntity
8
0
100
AcDbLine
62
7
6
CONTINUOUS
10
292.3771299929
20
154.7146991199
11
292.0771299929
21
154.7146991199
0
LINE
5
410
100
AcDbEntity
8
0
100
AcDbLine
62
7
6
CONTINUOUS
10
298.3771299929
20
154.8353368897
11
298.6771299929
21
154.8353368897
0
LINE
5
411
100
AcDbEntity
8
0
100
AcDbLine
62
7
6
CONTINUOUS
10
298.3771299929
20
155.0381615889
11
298.6771299929
21
155.0381615889
0
LINE
5
412
100
AcDbEntity
8
0
100
AcDbLine
62
7
6
CONTINUOUS
10
298.3771299929
20
155.0888681989
11
298.6771299929
21
155.0888681989
0
LINE
5
413
100
AcDbEntity
8
0
100
AcDbLine
62
7
6
CONTINUOUS
10
298.3771299929
20
155.1642341028
11
298.6771299929
21
155.1642341028
0
LINE
5
414
100
AcDbEntity
8
0
100
AcDbLine
62
7
6
CONTINUOUS
10
298.3771299929
20
155.2152979310
11
298.6771299929
21
155.2152979310
0
LINE
5
415
100
AcDbEntity
8
0
100
AcDbLine
62
7
6
CONTINUOUS
10
298.3771299929
20
155.3684894155
11
298.6771299929
21
155.3684894155
0
LINE
5
416
100
AcDbEntity
8
0
100
AcDbLine
62
7
6
CONTINUOUS
10
298.3771299929
20
155.6238085877
11
298.6771299929
21
155.6238085877
0
LINE
5
417
100
AcDbEntity
8
0
100
AcDbLine
62
7
6
CONTINUOUS
10
298.3771299929
20
155.8280638825
11
298.6771299929
21
155.8280638825
0
LINE
5
418
100
AcDbEntity
8
0
100
AcDbLine
62
7
6
CONTINUOUS
10
298.3771299929
20
155.9301915299
11
298.6771299929
21
155.9301915299
0
LINE
5
419
100
AcDbEntity
8
0
100
AcDbLine
62
7
6
CONTINUOUS
10
298.3771299929
20
156.0833830725
11
298.6771299929
21
156.0833830725
0
LINE
5
41A
100
AcDbEntity
8
0
100
AcDbLine
62
7
6
CONTINUOUS
10
298.3771299929
20
156.1855107199
11
298.6771299929
21
156.1855107199
0
LINE
5
41B
100
AcDbEntity
8
0
100
AcDbLine
62
7
6
CONTINUOUS
10
298.3771299929
20
156.2365745436
11
298.6771299929
21
156.2365745436
0
LINE
5
41C
100
AcDbEntity
8
0
100
AcDbLine
62
7
6
CONTINUOUS
10
298.3771299929
20
156.2876383673
11
298.6771299929
21
156.2876383673
0
LINE
5
41D
100
AcDbEntity
8
0
100
AcDbLine
62
7
6
CONTINUOUS
10
298.3771299929
20
156.3897660147
11
298.6771299929
21
156.3897660147
0
LINE
5
41E
100
AcDbEntity
8
0
100
AcDbLine
62
7
6
CONTINUOUS
10
298.3771299929
20
156.5940213095
11
298.6771299929
21
156.5940213095
0
LINE
5
41F
100
AcDbEntity
8
0
100
AcDbLine
62
7
6
CONTINUOUS
10
298.3771299929
20
156.7982766043
11
298.6771299929
21
156.7982766043
0
LINE
5
420
100
AcDbEntity
8
0
100
AcDbLine
62
7
6
CONTINUOUS
10
298.3771299929
20
157.0025320421
11
298.6771299929
21
157.0025320421
0
LINE
5
421
100
AcDbEntity
8
0
100
AcDbLine
62
7
6
CONTINUOUS
10
298.3771299929
20
157.2067873369
11
298.6771299929
21
157.2067873369
0
LINE
5
422
100
AcDbEntity
8
0
100
AcDbLine
62
7
6
CONTINUOUS
10
298.3771299929
20
157.4110426317
11
298.6771299929
21
157.4110426317
0
LINE
5
423
100
AcDbEntity
8
0
100
AcDbLine
62
7
6
CONTINUOUS
10
298.3771299929
20
157.5131702791
11
298.6771299929
21
157.5131702791
0
LINE
5
424
100
AcDbEntity
8
0
100
AcDbLine
62
7
6
CONTINUOUS
10
298.3771299929
20
157.5642341028
11
298.6771299929
21
157.5642341028
0
LINE
5
425
100
AcDbEntity
8
0
100
AcDbLine
62
7
6
CONTINUOUS
10
298.3771299929
20
179.8860738912
11
298.3771299929
21
131.7023943144
0
LINE
5
426
100
AcDbEntity
8
0
100
AcDbLine
62
7
6
CONTINUOUS
10
298.6771299929
20
166.2949437095
11
298.6771299929
21
160.1594903210
0
LINE
5
427
100
AcDbEntity
8
0
100
AcDbLine
62
7
6
CONTINUOUS
10
298.6771299929
20
160.0042913723
11
298.6771299929
21
157.8309836994
0
LINE
5
428
100
AcDbEntity
8
0
100
AcDbLine
62
7
6
CONTINUOUS
10
298.6771299929
20
157.5642341028
11
298.6771299929
21
155.1642341028
0
LINE
5
429
100
AcDbEntity
8
0
100
AcDbLine
62
7
6
CONTINUOUS
10
298.6771299929
20
155.0888681989
11
298.6771299929
21
150.7281328142
0
LINE
5
42A
100
AcDbEntity
8
0
100
AcDbLine
62
7
6
CONTINUOUS
10
298.6771299929
20
150.3224829806
11
298.6771299929
21
148.2942341028
0
LINE
5
42B
100
AcDbEntity
8
0
100
AcDbLine
62
7
6
CONTINUOUS
10
298.3771299929
20
157.8309836994
11
298.6771299929
21
157.8309836994
0
LINE
5
42C
100
AcDbEntity
8
0
100
AcDbLine
62
7
6
CONTINUOUS
10
298.3771299929
20
157.8853161891
11
298.6771299929
21
157.8853161891
0
LINE
5
42D
100
AcDbEntity
8
0
100
AcDbLine
62
7
6
CONTINUOUS
10
298.3771299929
20
157.9284163087
11
298.6771299929
21
157.9284163087
0
LINE
5
42E
100
AcDbEntity
8
0
100
AcDbLine
62
7
6
CONTINUOUS
10
298.3771299929
20
157.9791229187
11
298.6771299929
21
157.9791229187
0
LINE
5
42F
100
AcDbEntity
8
0
100
AcDbLine
62
7
6
CONTINUOUS
10
298.3771299929
20
158.0805355585
11
298.6771299929
21
158.0805355585
0
LINE
5
430
100
AcDbEntity
8
0
100
AcDbLine
62
7
6
CONTINUOUS
10
298.3771299929
20
158.2326542279
11
298.6771299929
21
158.2326542279
0
LINE
5
431
100
AcDbEntity
8
0
100
AcDbLine
62
7
6
CONTINUOUS
10
298.3771299929
20
158.4861849569
11
298.6771299929
21
158.4861849569
0
LINE
5
432
100
AcDbEntity
8
0
100
AcDbLine
62
7
6
CONTINUOUS
10
298.3771299929
20
158.7397156858
11
298.6771299929
21
158.7397156858
0
LINE
5
433
100
AcDbEntity
8
0
100
AcDbLine
62
7
6
CONTINUOUS
10
298.3771299929
20
158.9425409653
11
298.6771299929
21
158.9425409653
0
LINE
5
434
100
AcDbEntity
8
0
100
AcDbLine
62
7
6
CONTINUOUS
10
298.3771299929
20
159.1960716942
11
298.6771299929
21
159.1960716942
0
LINE
5
435
100
AcDbEntity
8
0
100
AcDbLine
62
7
6
CONTINUOUS
10
298.3771299929
20
159.4496035837
11
298.6771299929
21
159.4496035837
0
LINE
5
436
100
AcDbEntity
8
0
100
AcDbLine
62
7
6
CONTINUOUS
10
298.3771299929
20
159.6017222531
11
298.6771299929
21
159.6017222531
0
LINE
5
437
100
AcDbEntity
8
0
100
AcDbLine
62
7
6
CONTINUOUS
10
298.3771299929
20
159.6524277026
11
298.6771299929
21
159.6524277026
0
LINE
5
438
100
AcDbEntity
8
0
100
AcDbLine
62
7
6
CONTINUOUS
10
298.3771299929
20
159.7538409226
11
298.6771299929
21
159.7538409226
0
LINE
5
439
100
AcDbEntity
8
0
100
AcDbLine
62
7
6
CONTINUOUS
10
298.3771299929
20
160.0042913723
11
298.6771299929
21
160.0042913723
0
LINE
5
43A
100
AcDbEntity
8
0
100
AcDbLine
62
7
6
CONTINUOUS
10
298.3771299929
20
160.1594903210
11
298.6771299929
21
160.1594903210
0
LINE
5
43B
100
AcDbEntity
8
0
100
AcDbLine
62
7
6
CONTINUOUS
10
298.3771299929
20
160.8693770583
11
298.6771299929
21
160.8693770583
0
LINE
5
43C
100
AcDbEntity
8
0
100
AcDbLine
62
7
6
CONTINUOUS
10
298.3771299929
20
161.0366127191
11
298.6771299929
21
161.0366127191
0
LINE
5
43D
100
AcDbEntity
8
0
100
AcDbLine
62
7
6
CONTINUOUS
10
298.3771299929
20
161.2750276172
11
298.6771299929
21
161.2750276172
0
LINE
5
43E
100
AcDbEntity
8
0
100
AcDbLine
62
7
6
CONTINUOUS
10
298.3771299929
20
161.5792649561
11
298.6771299929
21
161.5792649561
0
LINE
5
43F
100
AcDbEntity
8
0
100
AcDbLine
62
7
6
CONTINUOUS
10
298.3771299929
20
162.2891516934
11
298.6771299929
21
162.2891516934
0
LINE
5
440
100
AcDbEntity
8
0
100
AcDbLine
62
7
6
CONTINUOUS
10
298.3771299929
20
162.9990384307
11
298.6771299929
21
162.9990384307
0
LINE
5
441
100
AcDbEntity
8
0
100
AcDbLine
62
7
6
CONTINUOUS
10
298.3771299929
20
163.3032757697
11
298.6771299929
21
163.3032757697
0
LINE
5
442
100
AcDbEntity
8
0
100
AcDbLine
62
7
6
CONTINUOUS
10
298.3771299929
20
163.6445820976
11
298.6771299929
21
163.6445820976
0
LINE
5
443
100
AcDbEntity
8
0
100
AcDbLine
62
7
6
CONTINUOUS
10
298.3771299929
20
163.7089263286
11
298.6771299929
21
163.7089263286
0
LINE
5
444
100
AcDbEntity
8
0
100
AcDbLine
62
7
6
CONTINUOUS
10
298.3771299929
20
164.0131636676
11
298.6771299929
21
164.0131636676
0
LINE
5
445
100
AcDbEntity
8
0
100
AcDbLine
62
7
6
CONTINUOUS
10
298.3771299929
20
164.4188130659
11
298.6771299929
21
164.4188130659
0
LINE
5
446
100
AcDbEntity
8
0
100
AcDbLine
62
7
6
CONTINUOUS
10
298.3771299929
20
165.6357624216
11
298.6771299929
21
165.6357624216
0
LINE
5
447
100
AcDbEntity
8
0
100
AcDbLine
62
7
6
CONTINUOUS
10
298.3771299929
20
165.8892931505
11
298.6771299929
21
165.8892931505
0
LINE
5
448
100
AcDbEntity
8
0
100
AcDbLine
62
7
6
CONTINUOUS
10
298.3771299929
20
166.0921184300
11
298.6771299929
21
166.0921184300
0
LINE
5
449
100
AcDbEntity
8
0
100
AcDbLine
62
7
6
CONTINUOUS
10
298.3771299929
20
166.2442370995
11
298.6771299929
21
166.2442370995
0
LINE
5
44A
100
AcDbEntity
8
0
100
AcDbLine
62
7
6
CONTINUOUS
10
298.3771299929
20
166.2949437095
11
298.6771299929
21
166.2949437095
0
LINE
5
44B
100
AcDbEntity
8
DEFAULT_2
100
AcDbLine
62
8
6
HIDDEN
10
293.5771299929
20
173.2942341028
11
297.1771299929
21
173.2942341028
0
ARC
5
44C
100
AcDbEntity
8
0
100
AcDbCircle
62
7
6
CONTINUOUS
10
151.5409557601
20
149.7942341028
40
19.5000000000
100
AcDbArc
50
180.0000000000
51
360.0000000000
0
ARC
5
44D
100
AcDbEntity
8
0
100
AcDbCircle
62
7
6
CONTINUOUS
10
151.5409557601
20
161.7942341028
40
19.5000000000
100
AcDbArc
50
0.0000000000
51
180.0000000000
0
ARC
5
44E
100
AcDbEntity
8
0
100
AcDbCircle
62
7
6
CONTINUOUS
10
161.5364547472
20
162.0942341028
40
1.5000000000
100
AcDbArc
50
270.0000000000
51
1.7191313209
0
ARC
5
44F
100
AcDbEntity
8
0
100
AcDbCircle
62
7
6
CONTINUOUS
10
151.5409557601
20
161.7942341028
40
11.5000000000
100
AcDbArc
50
1.7191313209
51
178.2808686791
0
ARC
5
450
100
AcDbEntity
8
0
100
AcDbCircle
62
7
6
CONTINUOUS
10
141.5454567731
20
162.0942341028
40
1.5000000000
100
AcDbArc
50
178.2808686791
51
270.0000000000
0
ARC
5
451
100
AcDbEntity
8
0
100
AcDbCircle
62
7
6
CONTINUOUS
10
141.5454567731
20
149.4942341028
40
1.5000000000
100
AcDbArc
50
90.0000000000
51
181.7191313209
0
ARC
5
452
100
AcDbEntity
8
0
100
AcDbCircle
62
7
6
CONTINUOUS
10
151.5409557601
20
149.7942341028
40
11.5000000000
100
AcDbArc
50
181.7191313209
51
358.2808686791
0
ARC
5
453
100
AcDbEntity
8
0
100
AcDbCircle
62
7
6
CONTINUOUS
10
161.5364547472
20
149.4942341028
40
1.5000000000
100
AcDbArc
50
358.2808686791
51
90.0000000000
0
ARC
5
454
100
AcDbEntity
8
0
100
AcDbCircle
62
7
6
CONTINUOUS
10
151.5409557601
20
161.7942341028
40
18.0919871589
100
AcDbArc
50
0.0000000000
51
180.0000000000
0
ARC
5
455
100
AcDbEntity
8
0
100
AcDbCircle
62
7
6
CONTINUOUS
10
151.5409557601
20
149.7942341028
40
18.0919871589
100
AcDbArc
50
180.0000000000
51
360.0000000000
0
ARC
5
456
100
AcDbEntity
8
DEFAULT_2
100
AcDbCircle
62
8
6
HIDDEN
10
293.5771299929
20
137.0942341028
40
1.2000000000
100
AcDbArc
50
90.0000000000
51
179.9999982768
0
ARC
5
457
100
AcDbEntity
8
DEFAULT_2
100
AcDbCircle
62
8
6
HIDDEN
10
293.5771299929
20
174.4942341028
40
1.2000000000
100
AcDbArc
50
180.0000017232
51
270.0000000000
0
ARC
5
458
100
AcDbEntity
8
DEFAULT_2
100
AcDbCircle
62
8
6
HIDDEN
10
297.1771299929
20
137.0942341028
40
1.2000000000
100
AcDbArc
50
0.0000017232
51
90.0000000000
0
ARC
5
459
100
AcDbEntity
8
DEFAULT_2
100
AcDbCircle
62
8
6
HIDDEN
10
297.1771299929
20
174.4942341028
40
1.2000000000
100
AcDbArc
50
270.0000000000
51
359.9999982768
0
ARC
5
45A
100
AcDbEntity
8
0
100
AcDbCircle
62
7
6
CONTINUOUS
10
295.3771299929
20
134.1942341028
40
3.9000000000
100
AcDbArc
50
219.7151372318
51
320.2848627682
0
ARC
5
45B
100
AcDbEntity
8
0
100
AcDbCircle
62
7
6
CONTINUOUS
10
295.3771299929
20
177.3942341028
40
3.9000000000
100
AcDbArc
50
39.7151372318
51
140.2848627682
0
SPLINE
5
45C
100
AcDbEntity
8
0
100
AcDbSpline
62
7
6
CONTINUOUS
70
0
71
3
72
8
73
4
74
2
42
0.0000001000
43
0.0000001000
44
0.0000000001
40
0.0000000000
40
0.0000000000
40
0.0000000000
40
0.0000000000
40
1.0000000000
40
1.0000000000
40
1.0000000000
40
1.0000000000
10
149.2909557884
20
151.0135707435
30
0.0000000000
10
149.2786151940
20
151.0103669843
30
0.0000000000
10
149.2661664478
20
151.0075541612
30
0.0000000000
10
149.2536379152
20
151.0051382519
30
0.0000000000
11
149.2909557884
21
151.0135707435
31
0.0000000000
11
149.2536379152
21
151.0051382519
31
0.0000000000
0
SPLINE
5
45D
100
AcDbEntity
8
0
100
AcDbSpline
62
7
6
CONTINUOUS
70
0
71
3
72
9
73
5
74
3
42
0.0000001000
43
0.0000001000
44
0.0000000001
40
0.0000000000
40
0.0000000000
40
0.0000000000
40
0.0000000000
40
0.3332119517
40
1.0000000000
40
1.0000000000
40
1.0000000000
40
1.0000000000
10
149.2536379152
20
151.0051382519
30
0.0000000000
10
149.2411132139
20
151.0027230814
30
0.0000000000
10
149.2032861230
20
150.9966653772
30
0.0000000000
10
149.1649961127
20
150.9942341028
30
0.0000000000
10
149.1394906213
20
150.9942341028
30
0.0000000000
11
149.2536379152
21
151.0051382519
31
0.0000000000
11
149.2158529383
21
150.9990887258
31
0.0000000000
11
149.1394906213
21
150.9942341028
31
0.0000000000
0
SPLINE
5
45E
100
AcDbEntity
8
0
100
AcDbSpline
62
7
6
CONTINUOUS
70
0
71
3
72
8
73
4
74
2
42
0.0000001000
43
0.0000001000
44
0.0000000001
40
0.0000000000
40
0.0000000000
40
0.0000000000
40
0.0000000000
40
1.0000000000
40
1.0000000000
40
1.0000000000
40
1.0000000000
10
149.2909557884
20
160.5748974622
30
0.0000000000
10
149.2786151940
20
160.5781012214
30
0.0000000000
10
149.2661664478
20
160.5809140445
30
0.0000000000
10
149.2536379152
20
160.5833299538
30
0.0000000000
11
149.2909557884
21
160.5748974622
31
0.0000000000
11
149.2536379152
21
160.5833299538
31
0.0000000000
0
SPLINE
5
45F
100
AcDbEntity
8
0
100
AcDbSpline
62
7
6
CONTINUOUS
70
0
71
3
72
9
73
5
74
3
42
0.0000001000
43
0.0000001000
44
0.0000000001
40
0.0000000000
40
0.0000000000
40
0.0000000000
40
0.0000000000
40
0.3332119517
40
1.0000000000
40
1.0000000000
40
1.0000000000
40
1.0000000000
10
149.2536379152
20
160.5833299538
30
0.0000000000
10
149.2411132139
20
160.5857451243
30
0.0000000000
10
149.2032861230
20
160.5918028284
30
0.0000000000
10
149.1649961127
20
160.5942341028
30
0.0000000000
10
149.1394906213
20
160.5942341028
30
0.0000000000
11
149.2536379152
21
160.5833299538
31
0.0000000000
11
149.2158529383
21
160.5893794799
31
0.0000000000
11
149.1394906213
21
160.5942341028
31
0.0000000000
0
SPLINE
5
460
100
AcDbEntity
8
0
100
AcDbSpline
62
7
6
CONTINUOUS
70
0
71
3
72
8
73
4
74
2
42
0.0000001000
43
0.0000001000
44
0.0000000001
40
0.0000000000
40
0.0000000000
40
0.0000000000
40
0.0000000000
40
1.0000000000
40
1.0000000000
40
1.0000000000
40
1.0000000000
10
153.7909557318
20
160.5748974622
30
0.0000000000
10
153.8032963262
20
160.5781012214
30
0.0000000000
10
153.8157450725
20
160.5809140445
30
0.0000000000
10
153.8282736050
20
160.5833299538
30
0.0000000000
11
153.7909557318
21
160.5748974622
31
0.0000000000
11
153.8282736050
21
160.5833299538
31
0.0000000000
0
SPLINE
5
461
100
AcDbEntity
8
0
100
AcDbSpline
62
7
6
CONTINUOUS
70
0
71
3
72
9
73
5
74
3
42
0.0000001000
43
0.0000001000
44
0.0000000001
40
0.0000000000
40
0.0000000000
40
0.0000000000
40
0.0000000000
40
0.3332119517
40
1.0000000000
40
1.0000000000
40
1.0000000000
40
1.0000000000
10
153.8282736050
20
160.5833299538
30
0.0000000000
10
153.8407983063
20
160.5857451243
30
0.0000000000
10
153.8786253972
20
160.5918028284
30
0.0000000000
10
153.9169154076
20
160.5942341028
30
0.0000000000
10
153.9424208990
20
160.5942341028
30
0.0000000000
11
153.8282736050
21
160.5833299538
31
0.0000000000
11
153.8660585819
21
160.5893794799
31
0.0000000000
11
153.9424208990
21
160.5942341028
31
0.0000000000
0
SPLINE
5
462
100
AcDbEntity
8
0
100
AcDbSpline
62
7
6
CONTINUOUS
70
0
71
3
72
8
73
4
74
2
42
0.0000001000
43
0.0000001000
44
0.0000000001
40
0.0000000000
40
0.0000000000
40
0.0000000000
40
0.0000000000
40
1.0000000000
40
1.0000000000
40
1.0000000000
40
1.0000000000
10
153.7909557318
20
151.0135707435
30
0.0000000000
10
153.8032963262
20
151.0103669843
30
0.0000000000
10
153.8157450725
20
151.0075541612
30
0.0000000000
10
153.8282736050
20
151.0051382519
30
0.0000000000
11
153.7909557318
21
151.0135707435
31
0.0000000000
11
153.8282736050
21
151.0051382519
31
0.0000000000
0
SPLINE
5
463
100
AcDbEntity
8
0
100
AcDbSpline
62
7
6
CONTINUOUS
70
0
71
3
72
9
73
5
74
3
42
0.0000001000
43
0.0000001000
44
0.0000000001
40
0.0000000000
40
0.0000000000
40
0.0000000000
40
0.0000000000
40
0.3332119517
40
1.0000000000
40
1.0000000000
40
1.0000000000
40
1.0000000000
10
153.8282736050
20
151.0051382519
30
0.0000000000
10
153.8407983063
20
151.0027230814
30
0.0000000000
10
153.8786253972
20
150.9966653772
30
0.0000000000
10
153.9169154076
20
150.9942341028
30
0.0000000000
10
153.9424208990
20
150.9942341028
30
0.0000000000
11
153.8282736050
21
151.0051382519
31
0.0000000000
11
153.8660585819
21
150.9990887258
31
0.0000000000
11
153.9424208990
21
150.9942341028
31
0.0000000000
0
ENDSEC
0
SECTION
2
OBJECTS
0
DICTIONARY
5
464
100
AcDbDictionary
3
ACAD_GROUP
350
465
3
ACAD_MLINESTYLE
350
466
0
DICTIONARY
5
465
102
{ACAD_REACTORS
330
464
102
}
100
AcDbDictionary
0
DICTIONARY
5
466
102
{ACAD_REACTORS
330
464
102
}
100
AcDbDictionary
3
STANDARD
350
467
0
MLINESTYLE
5
467
102
{ACAD_REACTORS
330
466
102
}
100
AcDbMlineStyle
2
STANDARD
70
0
3

62
256
51
90.0
52
90.0
71
2
49
0.5
62
256
6
BYLAYER
49
-0.5
62
256
6
BYLAYER
0
ENDSEC
0
EOF
