999
DXF file: VC-SCH-5_25t_7906439_M31413-P-1.dxf
999
Pro/ENGINEER 2010140 by Parametric Technology Corporation
  0
SECTION
  2
HEADER
  9
$ACADVER
  1
AC1015
  9
$DWGCODEPAGE
  3
ANSI_1252
  9
$EXTMAX
 10
420.0
 20
297.0
 30
0.0
  9
$EXTMIN
 10
0.0
 20
0.0
 30
0.0
  9
$LIMMIN
 10
0.0
 20
0.0
  9
$LIMMAX
 10
420.0
 20
297.0
  9
$VIEWCTR
 10
210.0
 20
148.5
  9
$VIEWSIZE
 40
297.0
  9
$CLAYER
  8
0
  9
$LTSCALE
 40
23.1
  9
$CELTYPE
  6
BYLAYER
  9
$DIMSCALE
 40
1.0
  9
$DIMASZ
 40
3.5
  9
$DIMEXO
 40
2.625
  9
$DIMDLI
 40
15.96
  9
$DIMEXE
 40
7.56
  9
$DIMCEN
 40
3.78
  9
$DIMLFAC
 40
1.0
  9
$DIMBLK
  1
_FILLED
  9
$DIMTXT
 40
3.5
  9
$DIMTOL
 70
1
  9
$DIMLIM
 70
0
  9
$DIMTFAC
 40
1.0
  9
$DIMTP
 40
0.005
  9
$DIMTM
 40
0.005
  9
$PDMODE
 70
3
  9
$PDSIZE
 40
0.3125
  9
$HANDSEED
  5
416
  9
$TILEMODE
 70
1
  9
$MEASUREMENT
 70
1
  9
$INSUNITS
 70
4
  0
ENDSEC
  0
SECTION
  2
CLASSES
  0
CLASS
  1
ACDBDICTIONARYWDFLT
  2
AcDbDictionaryWithDefault
  3
AutoCAD 2000
 90
0
280
0
281
0
  0
CLASS
  1
ACDBPLACEHOLDER
  2
AcDbPlaceHolder
  3
AutoCAD 2000
 90
0
280
0
281
0
  0
CLASS
  1
LAYOUT
  2
AcDbLayout
  3
AutoCAD 2000
 90
0
280
0
281
0
  0
ENDSEC
  0
SECTION
  2
TABLES
  0
TABLE
  2
VPORT
  5
8
100
AcDbSymbolTable
 70
2
  0
VPORT
  5
1F4
100
AcDbSymbolTableRecord
100
AcDbViewportTableRecord
  2
*ACTIVE
 70
0
 10
0.0
 20
0.0
 11
1.0
 21
1.0
 12
210.0
 22
148.5
 13
0.0
 23
0.0
 14
1.0
 24
1.0
 15
0.0
 25
0.0
 16
0.0
 26
0.0
 36
1.0
 17
0.0
 27
0.0
 37
0.0
 40
297.0
 41
1.4141414141
 42
50.0
 43
0.0
 44
0.0
 50
0.0
 51
0.0
 71
0
 72
100
 73
1
 74
1
 75
0
 76
0
 77
0
 78
0
  0
ENDTAB
  0
TABLE
  2
LTYPE
  5
5
100
AcDbSymbolTable
 70
6
  0
LTYPE
  5
14
100
AcDbSymbolTableRecord
100
AcDbLinetypeTableRecord
  2
BYBLOCK
 70
0
  3

 72
65
 73
0
 40
0.0
  0
LTYPE
  5
15
100
AcDbSymbolTableRecord
100
AcDbLinetypeTableRecord
  2
BYLAYER
 70
0
  3

 72
65
 73
0
 40
0.0
  0
LTYPE
  5
16
100
AcDbSymbolTableRecord
100
AcDbLinetypeTableRecord
  2
CONTINUOUS
 70
64
  3
Solid line
 72
65
 73
0
 40
0.0
  0
LTYPE
  5
1F5
100
AcDbSymbolTableRecord
100
AcDbLinetypeTableRecord
  2
CENTER
 70
64
  3
____ _ ____ _ ____ _ ____ _ ____ _ ____ _ ____
 72
65
 73
4
 40
0.6
 49
0.375
 74
0
 49
-0.075
 74
0
 49
0.075
 74
0
 49
-0.075
 74
0
  0
LTYPE
  5
1F6
100
AcDbSymbolTableRecord
100
AcDbLinetypeTableRecord
  2
HIDDEN
 70
64
  3
- - - - - - - - - - - - - - - - - - - -
 72
65
 73
2
 40
0.2
 49
0.1
 74
0
 49
-0.1
 74
0
  0
LTYPE
  5
1F7
100
AcDbSymbolTableRecord
100
AcDbLinetypeTableRecord
  2
PHANTOM
 70
64
  3
_____ _ _ _____ _ _ _____ _ _ _____
 72
65
 73
6
 40
0.8
 49
0.45
 74
0
 49
-0.05
 74
0
 49
0.1
 74
0
 49
-0.05
 74
0
 49
0.1
 74
0
 49
-0.05
 74
0
  0
LTYPE
  5
1F8
100
AcDbSymbolTableRecord
100
AcDbLinetypeTableRecord
  2
DOT
 70
64
  3
. . . . . . . . . . . . . . . . . . . .
 72
65
 73
2
 40
0.2
 49
0.1
 74
0
 49
-0.1
 74
0
  0
LTYPE
  5
1F9
100
AcDbSymbolTableRecord
100
AcDbLinetypeTableRecord
  2
DASHED
 70
64
  3
- - - - - - - - - - - - - - - - - - - -
 72
65
 73
2
 40
0.2
 49
0.1
 74
0
 49
-0.1
 74
0
  0
ENDTAB
  0
TABLE
  2
LAYER
  5
2
100
AcDbSymbolTable
 70
36
  0
LAYER
  5
10
100
AcDbSymbolTableRecord
100
AcDbLayerTableRecord
  2
0
 70
0
 62
7
  6
CONTINUOUS
370
-3
390
F
  0
LAYER
  5
1FA
100
AcDbSymbolTableRecord
100
AcDbLayerTableRecord
  2
DEFAULT_1
 70
0
 62
7
  6
CENTER
370
-3
390
F
  0
LAYER
  5
1FB
100
AcDbSymbolTableRecord
100
AcDbLayerTableRecord
  2
DEFAULT_2
 70
0
 62
8
  6
HIDDEN
370
-3
390
F
  0
LAYER
  5
1FC
100
AcDbSymbolTableRecord
100
AcDbLayerTableRecord
  2
DEFAULT_3
 70
0
 62
7
  6
PHANTOM
370
-3
390
F
  0
LAYER
  5
1FD
100
AcDbSymbolTableRecord
100
AcDbLayerTableRecord
  2
BEZUGSACHSEN
 70
0
 62
7
  6
CONTINUOUS
370
-3
390
F
  0
LAYER
  5
1FE
100
AcDbSymbolTableRecord
100
AcDbLayerTableRecord
  2
BEZUGSEBENEN
 70
0
 62
7
  6
CONTINUOUS
370
-3
390
F
  0
LAYER
  5
1FF
100
AcDbSymbolTableRecord
100
AcDbLayerTableRecord
  2
BG_STARTBEZUEGE
 70
0
 62
7
  6
CONTINUOUS
370
-3
390
F
  0
LAYER
  5
200
100
AcDbSymbolTableRecord
100
AcDbLayerTableRecord
  2
BOHRUNGEN
 70
0
 62
7
  6
CONTINUOUS
370
-3
390
F
  0
LAYER
  5
201
100
AcDbSymbolTableRecord
100
AcDbLayerTableRecord
  2
FASEN
 70
0
 62
7
  6
CONTINUOUS
370
-3
390
F
  0
LAYER
  5
202
100
AcDbSymbolTableRecord
100
AcDbLayerTableRecord
  2
FLAECHEN
 70
0
 62
7
  6
CONTINUOUS
370
-3
390
F
  0
LAYER
  5
203
100
AcDbSymbolTableRecord
100
AcDbLayerTableRecord
  2
GEWINDE
 70
0
 62
7
  6
CONTINUOUS
370
-3
390
F
  0
LAYER
  5
204
100
AcDbSymbolTableRecord
100
AcDbLayerTableRecord
  2
HILFEN
 70
0
 62
7
  6
CONTINUOUS
370
-3
390
F
  0
LAYER
  5
205
100
AcDbSymbolTableRecord
100
AcDbLayerTableRecord
  2
KONSTRUKTIONSELEMENTE
 70
0
 62
7
  6
CONTINUOUS
370
-3
390
F
  0
LAYER
  5
206
100
AcDbSymbolTableRecord
100
AcDbLayerTableRecord
  2
NORM
 70
0
 62
7
  6
CONTINUOUS
370
-3
390
F
  0
LAYER
  5
207
100
AcDbSymbolTableRecord
100
AcDbLayerTableRecord
  2
PLATZIERUNG
 70
0
 62
7
  6
CONTINUOUS
370
-3
390
F
  0
LAYER
  5
208
100
AcDbSymbolTableRecord
100
AcDbLayerTableRecord
  2
RUNDUNGEN
 70
0
 62
7
  6
CONTINUOUS
370
-3
390
F
  0
LAYER
  5
209
100
AcDbSymbolTableRecord
100
AcDbLayerTableRecord
  2
TEIL_STARTBEZUEGE
 70
0
 62
7
  6
CONTINUOUS
370
-3
390
F
  0
ENDTAB
  0
TABLE
  2
STYLE
  5
3
100
AcDbSymbolTable
 70
1
  0
STYLE
  5
11
100
AcDbSymbolTableRecord
100
AcDbTextStyleTableRecord
  2
STANDARD
 70
0
 40
0.0
 41
0.7
 50
0.0
 71
0
 42
0.2
  3
txt
  4

  0
STYLE
  5
20A
100
AcDbSymbolTableRecord
100
AcDbTextStyleTableRecord
  2
TEXTSTYLE_1
 70
0
 40
0.0
 41
0.8
 50
0.0
 71
0
 42
0.2
  3
gdt
  4

  0
ENDTAB
  0
TABLE
  2
VIEW
  5
6
100
AcDbSymbolTable
 70
0
  0
ENDTAB
  0
TABLE
  2
UCS
  5
7
100
AcDbSymbolTable
 70
0
  0
ENDTAB
  0
TABLE
  2
APPID
  5
9
100
AcDbSymbolTable
 70
1
  0
APPID
  5
20B
100
AcDbSymbolTableRecord
100
AcDbRegAppTableRecord
  2
ACAD
 70
0
  0
ENDTAB
  0
TABLE
  2
BLOCK_RECORD
  5
1
100
AcDbSymbolTable
 70
0
  0
BLOCK_RECORD
  5
20C
100
AcDbSymbolTableRecord
100
AcDbBlockTableRecord
  2
*Model_Space
  0
BLOCK_RECORD
  5
20D
100
AcDbSymbolTableRecord
100
AcDbBlockTableRecord
  2
*Paper_Space
  0
ENDTAB
  0
TABLE
  2
DIMSTYLE
  5
A
100
AcDbSymbolTable
 70
1
100
AcDbDimStyleTable
 71
0
  0
DIMSTYLE
105
20E
100
AcDbSymbolTableRecord
100
AcDbDimStyleTableRecord
  2
STANDARD
 70
0
  3

  4

 40
1.0
 41
3.5
 42
0.0625
 43
0.38
 44
0.18
 45
0.0
 46
0.0
 47
0.005
 48
0.005
140
3.5
141
0.09
142
0.0
143
25.4
144
1.0
145
0.0
146
1.0
147
0.09
 71
1.0
 72
0.0
 73
0
 74
0
 75
0
 76
0
 77
1
 78
8
170
0
171
2
172
0
173
0
174
0
175
0
176
0
177
0
178
5
270
2
271
3
272
3
273
2
274
2
275
0
280
0
281
0
282
0
283
1
284
8
285
0
286
0
287
3
288
0
340
11
  0
ENDTAB
  0
ENDSEC
  0
SECTION
  2
BLOCKS
  0
BLOCK
  5
20
100
AcDbEntity
  8
0
100
AcDbBlockBegin
  2
*Model_Space
 70
0
 10
0.0
 20
0.0
 30
0.0
  3
*Model_Space
  1

  0
ENDBLK
  5
21
100
AcDbEntity
  8
0
100
AcDbBlockEnd
  0
BLOCK
  5
1C
100
AcDbEntity
  8
0
100
AcDbBlockBegin
  2
*Paper_Space
 70
0
 10
0.0
 20
0.0
 30
0.0
  3
*Paper_Space
  1

  0
ENDBLK
  5
1D
100
AcDbEntity
  8
0
100
AcDbBlockEnd
  0
ENDSEC
  0
SECTION
  2
ENTITIES
  0
MTEXT
  5
20F
100
AcDbEntity
  8
0
100
AcDbMText
 62
5
  6
CONTINUOUS
  7
STANDARD
 71
1
 72
1
 10
98.8588306344
 20
51.0333960056
 30
0.0
 11
1.0
 21
0.0
 31
0.0
 44
0.9
  1
VC-SCH \P5,0/VIP
 40
7.0
 41
39.0
  0
MTEXT
  5
210
100
AcDbEntity
  8
0
100
AcDbMText
 62
5
  6
CONTINUOUS
  7
STANDARD
 71
1
 72
1
 10
288.15745892
 20
163.9894006432
 30
0.0
 11
0.0
 21
1.0
 31
0.0
 44
0.9
  1
VC-SCH 5,0/VIP
 40
8.0
 41
85.3333333333
  0
LINE
  5
211
100
AcDbEntity
  8
0
100
AcDbLine
 62
7
  6
CONTINUOUS
 10
0.0
 20
0.0
 11
0.0
 21
297.0
  0
LINE
  5
212
100
AcDbEntity
  8
0
100
AcDbLine
 62
7
  6
CONTINUOUS
 10
0.0
 20
0.0
 11
420.0
 21
0.0
  0
LINE
  5
213
100
AcDbEntity
  8
0
100
AcDbLine
 62
7
  6
CONTINUOUS
 10
0.0
 20
297.0
 11
420.0
 21
297.0
  0
LINE
  5
214
100
AcDbEntity
  8
0
100
AcDbLine
 62
7
  6
CONTINUOUS
 10
420.0
 20
0.0
 11
420.0
 21
297.0
  0
LINE
  5
215
100
AcDbEntity
  8
BEZUGSACHSEN
100
AcDbLine
 62
7
  6
CONTINUOUS
 10
168.8067514351
 20
91.9686022194
 11
138.8067514351
 21
91.9686022194
  0
LINE
  5
216
100
AcDbEntity
  8
BEZUGSACHSEN
100
AcDbLine
 62
7
  6
CONTINUOUS
 10
91.8067514351
 20
91.9686022194
 11
61.8067514351
 21
91.9686022194
  0
LINE
  5
217
100
AcDbEntity
  8
KONSTRUKTIONSELEMENTE
100
AcDbLine
 62
7
  6
CONTINUOUS
 10
168.8067514351
 20
100.4686022194
 11
188.8067514351
 21
100.4686022194
  0
LINE
  5
218
100
AcDbEntity
  8
BEZUGSACHSEN
100
AcDbLine
 62
7
  6
CONTINUOUS
 10
61.8067514351
 20
104.9686022194
 11
54.8067514351
 21
104.9686022194
  0
LINE
  5
219
100
AcDbEntity
  8
KONSTRUKTIONSELEMENTE
100
AcDbLine
 62
7
  6
CONTINUOUS
 10
55.8067514351
 20
105.5186578987
 11
49.8067514351
 21
105.5186578987
  0
LINE
  5
21A
100
AcDbEntity
  8
KONSTRUKTIONSELEMENTE
100
AcDbLine
 62
7
  6
CONTINUOUS
 10
191.8067514351
 20
107.4686022194
 11
195.8067514351
 21
107.4686022194
  0
LINE
  5
21B
100
AcDbEntity
  8
KONSTRUKTIONSELEMENTE
100
AcDbLine
 62
7
  6
CONTINUOUS
 10
193.7067514351
 20
109.4686022194
 11
193.9067514351
 21
109.4686022194
  0
LINE
  5
21C
100
AcDbEntity
  8
KONSTRUKTIONSELEMENTE
100
AcDbLine
 62
7
  6
CONTINUOUS
 10
200.8067514351
 20
109.9686022194
 11
188.8067514351
 21
109.9686022194
  0
LINE
  5
21D
100
AcDbEntity
  8
KONSTRUKTIONSELEMENTE
100
AcDbLine
 62
7
  6
CONTINUOUS
 10
138.8067514351
 20
109.9686022194
 11
91.8067514351
 21
109.9686022194
  0
LINE
  5
21E
100
AcDbEntity
  8
KONSTRUKTIONSELEMENTE
100
AcDbLine
 62
7
  6
CONTINUOUS
 10
193.7067514351
 20
121.9686022194
 11
193.9067514351
 21
121.9686022194
  0
LINE
  5
21F
100
AcDbEntity
  8
KONSTRUKTIONSELEMENTE
100
AcDbLine
 62
7
  6
CONTINUOUS
 10
55.8067514351
 20
105.5186578987
 11
55.8067514351
 21
150.41854654
  0
LINE
  5
220
100
AcDbEntity
  8
BEZUGSACHSEN
100
AcDbLine
 62
2
  6
CENTER
 10
29.4927865844
 20
127.9686022194
 11
186.3772865321
 21
127.9686022194
  0
LINE
  5
221
100
AcDbEntity
  8
KONSTRUKTIONSELEMENTE
100
AcDbLine
 62
7
  6
CONTINUOUS
 10
168.8067514351
 20
127.9686022194
 11
188.8067514351
 21
127.9686022194
  0
LINE
  5
222
100
AcDbEntity
  8
BEZUGSACHSEN
100
AcDbLine
 62
7
  6
CONTINUOUS
 10
61.8067514351
 20
236.4686022194
 11
61.8067514351
 21
183.9687260523
  0
LINE
  5
223
100
AcDbEntity
  8
KONSTRUKTIONSELEMENTE
100
AcDbLine
 62
7
  6
CONTINUOUS
 10
61.8067514351
 20
91.9686022237
 11
61.8067514351
 21
183.9683312437
  0
LINE
  5
224
100
AcDbEntity
  8
KONSTRUKTIONSELEMENTE
100
AcDbLine
 62
7
  6
CONTINUOUS
 10
72.0195173672
 20
219.9686022194
 11
72.4450492313
 21
220.8019371422
  0
LINE
  5
225
100
AcDbEntity
  8
KONSTRUKTIONSELEMENTE
100
AcDbLine
 62
7
  6
CONTINUOUS
 10
73.7216448238
 20
220.3852672966
 11
73.2961129597
 21
219.7602696808
  0
LINE
  5
226
100
AcDbEntity
  8
KONSTRUKTIONSELEMENTE
100
AcDbLine
 62
7
  6
CONTINUOUS
 10
72.4450492313
 20
220.8019371422
 11
73.2961129597
 21
221.6352672966
  0
LINE
  5
227
100
AcDbEntity
  8
KONSTRUKTIONSELEMENTE
100
AcDbLine
 62
7
  6
CONTINUOUS
 10
193.7067514351
 20
133.9686022194
 11
193.9067514351
 21
133.9686022194
  0
LINE
  5
228
100
AcDbEntity
  8
KONSTRUKTIONSELEMENTE
100
AcDbLine
 62
7
  6
CONTINUOUS
 10
71.8067514351
 20
179.9686022194
 11
71.8067514351
 21
181.2186022194
  0
LINE
  5
229
100
AcDbEntity
  8
KONSTRUKTIONSELEMENTE
100
AcDbLine
 62
7
  6
CONTINUOUS
 10
71.8067514351
 20
187.051935354
 11
71.8067514351
 21
188.301935354
  0
LINE
  5
22A
100
AcDbEntity
  8
KONSTRUKTIONSELEMENTE
100
AcDbLine
 62
7
  6
CONTINUOUS
 10
71.8067514351
 20
193.3019359501
 11
71.8067514351
 21
195.1769359501
  0
LINE
  5
22B
100
AcDbEntity
  8
KONSTRUKTIONSELEMENTE
100
AcDbLine
 62
7
  6
CONTINUOUS
 10
71.8067514351
 20
207.676934758
 11
71.8067514351
 21
208.7186022194
  0
LINE
  5
22C
100
AcDbEntity
  8
KONSTRUKTIONSELEMENTE
100
AcDbLine
 62
7
  6
CONTINUOUS
 10
71.8067514351
 20
217.051934758
 11
71.8067514351
 21
218.926934758
  0
LINE
  5
22D
100
AcDbEntity
  8
KONSTRUKTIONSELEMENTE
100
AcDbLine
 62
7
  6
CONTINUOUS
 10
71.8067514351
 20
223.5102672966
 11
71.8067514351
 21
224.7602672966
  0
LINE
  5
22E
100
AcDbEntity
  8
KONSTRUKTIONSELEMENTE
100
AcDbLine
 62
7
  6
CONTINUOUS
 10
71.8067514351
 20
230.5936022194
 11
71.8067514351
 21
231.8436022194
  0
LINE
  5
22F
100
AcDbEntity
  8
KONSTRUKTIONSELEMENTE
100
AcDbLine
 62
7
  6
CONTINUOUS
 10
73.0833470276
 20
218.926934758
 11
73.0833470276
 21
217.051934758
  0
LINE
  5
230
100
AcDbEntity
  8
KONSTRUKTIONSELEMENTE
100
AcDbLine
 62
7
  6
CONTINUOUS
 10
73.0833470276
 20
208.926934758
 11
73.0833470276
 21
207.676934758
  0
LINE
  5
231
100
AcDbEntity
  8
KONSTRUKTIONSELEMENTE
100
AcDbLine
 62
7
  6
CONTINUOUS
 10
73.0833470276
 20
195.1769359501
 11
73.0833470276
 21
193.3019359501
  0
LINE
  5
232
100
AcDbEntity
  8
KONSTRUKTIONSELEMENTE
100
AcDbLine
 62
7
  6
CONTINUOUS
 10
71.8067514351
 20
218.926934758
 11
72.0195173672
 21
219.9686022194
  0
LINE
  5
233
100
AcDbEntity
  8
KONSTRUKTIONSELEMENTE
100
AcDbLine
 62
7
  6
CONTINUOUS
 10
71.8067514351
 20
208.7186022194
 11
72.0195173672
 21
209.7602696808
  0
LINE
  5
234
100
AcDbEntity
  8
KONSTRUKTIONSELEMENTE
100
AcDbLine
 62
7
  6
CONTINUOUS
 10
71.8067514351
 20
195.1769359501
 11
72.0195173672
 21
196.2186022194
  0
LINE
  5
235
100
AcDbEntity
  8
KONSTRUKTIONSELEMENTE
100
AcDbLine
 62
7
  6
CONTINUOUS
 10
76.0620706728
 20
208.926934758
 11
76.2748366049
 21
209.9686022194
  0
LINE
  5
236
100
AcDbEntity
  8
KONSTRUKTIONSELEMENTE
100
AcDbLine
 62
7
  6
CONTINUOUS
 10
73.2961129597
 20
219.7602696808
 11
73.0833470276
 21
218.926934758
  0
LINE
  5
237
100
AcDbEntity
  8
KONSTRUKTIONSELEMENTE
100
AcDbLine
 62
7
  6
CONTINUOUS
 10
73.2961129597
 20
196.0102684887
 11
73.0833470276
 21
195.1769359501
  0
LINE
  5
238
100
AcDbEntity
  8
KONSTRUKTIONSELEMENTE
100
AcDbLine
 62
7
  6
CONTINUOUS
 10
77.5514321974
 20
209.7602696808
 11
77.3386662653
 21
208.926934758
  0
LINE
  5
239
100
AcDbEntity
  8
KONSTRUKTIONSELEMENTE
100
AcDbLine
 62
7
  6
CONTINUOUS
 10
73.2961129597
 20
209.551934758
 11
73.0833470276
 21
208.926934758
  0
LINE
  5
23A
100
AcDbEntity
  8
KONSTRUKTIONSELEMENTE
100
AcDbLine
 62
7
  6
CONTINUOUS
 10
75.8493047407
 20
207.051934758
 11
76.0620706728
 21
207.676934758
  0
LINE
  5
23B
100
AcDbEntity
  8
KONSTRUKTIONSELEMENTE
100
AcDbLine
 62
7
  6
CONTINUOUS
 10
76.2748366049
 20
209.9686022194
 11
76.700368469
 21
210.801934758
  0
LINE
  5
23C
100
AcDbEntity
  8
KONSTRUKTIONSELEMENTE
100
AcDbLine
 62
7
  6
CONTINUOUS
 10
81.5939854844
 20
216.0102696808
 11
81.1684535643
 21
215.176934758
  0
LINE
  5
23D
100
AcDbEntity
  8
KONSTRUKTIONSELEMENTE
100
AcDbLine
 62
7
  6
CONTINUOUS
 10
79.8918577483
 20
215.5936022194
 11
80.3173897615
 21
216.2186022194
  0
LINE
  5
23E
100
AcDbEntity
  8
KONSTRUKTIONSELEMENTE
100
AcDbLine
 62
7
  6
CONTINUOUS
 10
77.9769640615
 20
210.3852696808
 11
77.5514321974
 21
209.7602696808
  0
LINE
  5
23F
100
AcDbEntity
  8
KONSTRUKTIONSELEMENTE
100
AcDbLine
 62
7
  6
CONTINUOUS
 10
75.4237728765
 20
206.426934758
 11
75.8493047407
 21
207.051934758
  0
LINE
  5
240
100
AcDbEntity
  8
KONSTRUKTIONSELEMENTE
100
AcDbLine
 62
7
  6
CONTINUOUS
 10
72.0195173672
 20
209.7602696808
 11
72.6578151634
 21
210.5936022194
  0
LINE
  5
241
100
AcDbEntity
  8
KONSTRUKTIONSELEMENTE
100
AcDbLine
 62
7
  6
CONTINUOUS
 10
73.7216448238
 20
209.9686022194
 11
73.2961129597
 21
209.551934758
  0
LINE
  5
242
100
AcDbEntity
  8
KONSTRUKTIONSELEMENTE
100
AcDbLine
 62
7
  6
CONTINUOUS
 10
200.8067514351
 20
145.9686022194
 11
188.8067514351
 21
145.9686022194
  0
LINE
  5
243
100
AcDbEntity
  8
KONSTRUKTIONSELEMENTE
100
AcDbLine
 62
7
  6
CONTINUOUS
 10
138.8067514351
 20
145.9686022194
 11
91.8067514351
 21
145.9686022194
  0
LINE
  5
244
100
AcDbEntity
  8
KONSTRUKTIONSELEMENTE
100
AcDbLine
 62
7
  6
CONTINUOUS
 10
193.7067514351
 20
146.4686022194
 11
193.9067514351
 21
146.4686022194
  0
LINE
  5
245
100
AcDbEntity
  8
KONSTRUKTIONSELEMENTE
100
AcDbLine
 62
7
  6
CONTINUOUS
 10
191.8067514351
 20
148.4686022194
 11
195.8067514351
 21
148.4686022194
  0
LINE
  5
246
100
AcDbEntity
  8
KONSTRUKTIONSELEMENTE
100
AcDbLine
 62
7
  6
CONTINUOUS
 10
72.0195173672
 20
192.2602684887
 11
71.8067514351
 21
193.3019359501
  0
LINE
  5
247
100
AcDbEntity
  8
KONSTRUKTIONSELEMENTE
100
AcDbLine
 62
7
  6
CONTINUOUS
 10
74.147176688
 20
211.426934758
 11
74.147176688
 21
210.176934758
  0
LINE
  5
248
100
AcDbEntity
  8
KONSTRUKTIONSELEMENTE
100
AcDbLine
 62
7
  6
CONTINUOUS
 10
74.3599432161
 20
221.8436022194
 11
74.3599432161
 21
220.5936022194
  0
LINE
  5
249
100
AcDbEntity
  8
KONSTRUKTIONSELEMENTE
100
AcDbLine
 62
7
  6
CONTINUOUS
 10
74.3599432161
 20
198.0936022194
 11
74.3599432161
 21
196.8436022194
  0
LINE
  5
24A
100
AcDbEntity
  8
KONSTRUKTIONSELEMENTE
100
AcDbLine
 62
7
  6
CONTINUOUS
 10
75.8493047407
 20
224.7602672966
 11
75.8493047407
 21
230.5936022194
  0
LINE
  5
24B
100
AcDbEntity
  8
KONSTRUKTIONSELEMENTE
100
AcDbLine
 62
7
  6
CONTINUOUS
 10
76.0620706728
 20
207.676934758
 11
76.0620706728
 21
208.926934758
  0
LINE
  5
24C
100
AcDbEntity
  8
KONSTRUKTIONSELEMENTE
100
AcDbLine
 62
7
  6
CONTINUOUS
 10
77.1259003332
 20
230.5936022194
 11
77.1259003332
 21
224.7602672966
  0
LINE
  5
24D
100
AcDbEntity
  8
KONSTRUKTIONSELEMENTE
100
AcDbLine
 62
7
  6
CONTINUOUS
 10
77.1259003332
 20
199.7602684887
 11
77.1259003332
 21
202.676934758
  0
LINE
  5
24E
100
AcDbEntity
  8
KONSTRUKTIONSELEMENTE
100
AcDbLine
 62
7
  6
CONTINUOUS
 10
77.3386662653
 20
208.926934758
 11
77.3386662653
 21
207.676934758
  0
LINE
  5
24F
100
AcDbEntity
  8
KONSTRUKTIONSELEMENTE
100
AcDbLine
 62
7
  6
CONTINUOUS
 10
78.1897302917
 20
202.676934758
 11
78.1897302917
 21
199.7602684887
  0
LINE
  5
250
100
AcDbEntity
  8
KONSTRUKTIONSELEMENTE
100
AcDbLine
 62
7
  6
CONTINUOUS
 10
79.04079402
 20
204.3436022194
 11
79.04079402
 21
205.5936022194
  0
LINE
  5
251
100
AcDbEntity
  8
KONSTRUKTIONSELEMENTE
100
AcDbLine
 62
7
  6
CONTINUOUS
 10
79.2535599521
 20
196.8436022194
 11
79.2535599521
 21
198.0936022194
  0
LINE
  5
252
100
AcDbEntity
  8
KONSTRUKTIONSELEMENTE
100
AcDbLine
 62
7
  6
CONTINUOUS
 10
79.2535599521
 20
220.5936022194
 11
79.2535599521
 21
221.8436022194
  0
LINE
  5
253
100
AcDbEntity
  8
KONSTRUKTIONSELEMENTE
100
AcDbLine
 62
7
  6
CONTINUOUS
 10
80.5301556936
 20
193.3019359501
 11
80.5301556936
 21
195.1769359501
  0
LINE
  5
254
100
AcDbEntity
  8
KONSTRUKTIONSELEMENTE
100
AcDbLine
 62
7
  6
CONTINUOUS
 10
80.5301556936
 20
207.2602696808
 11
80.5301556936
 21
208.926934758
  0
LINE
  5
255
100
AcDbEntity
  8
KONSTRUKTIONSELEMENTE
100
AcDbLine
 62
7
  6
CONTINUOUS
 10
80.5301556936
 20
217.051934758
 11
80.5301556936
 21
218.926934758
  0
LINE
  5
256
100
AcDbEntity
  8
KONSTRUKTIONSELEMENTE
100
AcDbLine
 62
7
  6
CONTINUOUS
 10
81.8067514351
 20
231.8436022194
 11
81.8067514351
 21
230.5936022194
  0
LINE
  5
257
100
AcDbEntity
  8
KONSTRUKTIONSELEMENTE
100
AcDbLine
 62
7
  6
CONTINUOUS
 10
81.8067514351
 20
224.7602672966
 11
81.8067514351
 21
223.5102672966
  0
LINE
  5
258
100
AcDbEntity
  8
KONSTRUKTIONSELEMENTE
100
AcDbLine
 62
7
  6
CONTINUOUS
 10
81.8067514351
 20
218.926934758
 11
81.8067514351
 21
217.051934758
  0
LINE
  5
259
100
AcDbEntity
  8
KONSTRUKTIONSELEMENTE
100
AcDbLine
 62
7
  6
CONTINUOUS
 10
81.8067514351
 20
208.926934758
 11
81.8067514351
 21
207.2602696808
  0
LINE
  5
25A
100
AcDbEntity
  8
KONSTRUKTIONSELEMENTE
100
AcDbLine
 62
7
  6
CONTINUOUS
 10
81.8067514351
 20
195.1769359501
 11
81.8067514351
 21
193.3019359501
  0
LINE
  5
25B
100
AcDbEntity
  8
KONSTRUKTIONSELEMENTE
100
AcDbLine
 62
7
  6
CONTINUOUS
 10
81.8067514351
 20
184.9686022194
 11
81.8067514351
 21
183.3019356521
  0
LINE
  5
25C
100
AcDbEntity
  8
KONSTRUKTIONSELEMENTE
100
AcDbLine
 62
7
  6
CONTINUOUS
 10
81.8067514351
 20
217.051934758
 11
81.5939854844
 21
216.0102696808
  0
LINE
  5
25D
100
AcDbEntity
  8
KONSTRUKTIONSELEMENTE
100
AcDbLine
 62
7
  6
CONTINUOUS
 10
81.8067514351
 20
207.2602696808
 11
81.5939854844
 21
206.2186022194
  0
LINE
  5
25E
100
AcDbEntity
  8
KONSTRUKTIONSELEMENTE
100
AcDbLine
 62
7
  6
CONTINUOUS
 10
81.8067514351
 20
193.3019359501
 11
81.5939854844
 21
192.2602684887
  0
LINE
  5
25F
100
AcDbEntity
  8
KONSTRUKTIONSELEMENTE
100
AcDbLine
 62
7
  6
CONTINUOUS
 10
77.3386662653
 20
207.676934758
 11
77.1259003332
 21
206.8436022194
  0
LINE
  5
260
100
AcDbEntity
  8
KONSTRUKTIONSELEMENTE
100
AcDbLine
 62
7
  6
CONTINUOUS
 10
80.3173897615
 20
216.2186022194
 11
80.5301556936
 21
217.051934758
  0
LINE
  5
261
100
AcDbEntity
  8
KONSTRUKTIONSELEMENTE
100
AcDbLine
 62
7
  6
CONTINUOUS
 10
80.3173897615
 20
206.426934758
 11
80.5301556936
 21
207.2602696808
  0
LINE
  5
262
100
AcDbEntity
  8
KONSTRUKTIONSELEMENTE
100
AcDbLine
 62
7
  6
CONTINUOUS
 10
80.3173897615
 20
192.4686022194
 11
80.5301556936
 21
193.3019359501
  0
LINE
  5
263
100
AcDbEntity
  8
KONSTRUKTIONSELEMENTE
100
AcDbLine
 62
7
  6
CONTINUOUS
 10
77.1259003332
 20
206.8436022194
 11
76.700368469
 21
206.0102696808
  0
LINE
  5
264
100
AcDbEntity
  8
KONSTRUKTIONSELEMENTE
100
AcDbLine
 62
7
  6
CONTINUOUS
 10
72.0195173672
 20
196.2186022194
 11
72.4450492313
 21
197.0519359501
  0
LINE
  5
265
100
AcDbEntity
  8
KONSTRUKTIONSELEMENTE
100
AcDbLine
 62
7
  6
CONTINUOUS
 10
81.5939854844
 20
206.2186022194
 11
80.9556876323
 21
205.176934758
  0
LINE
  5
266
100
AcDbEntity
  8
KONSTRUKTIONSELEMENTE
100
AcDbLine
 62
7
  6
CONTINUOUS
 10
73.7216448238
 20
196.6352684887
 11
73.2961129597
 21
196.0102684887
  0
LINE
  5
267
100
AcDbEntity
  8
KONSTRUKTIONSELEMENTE
100
AcDbLine
 62
7
  6
CONTINUOUS
 10
76.700368469
 20
210.801934758
 11
77.5514321974
 21
211.6352696808
  0
LINE
  5
268
100
AcDbEntity
  8
KONSTRUKTIONSELEMENTE
100
AcDbLine
 62
7
  6
CONTINUOUS
 10
81.1684535643
 20
215.176934758
 11
80.3173897615
 21
214.3436022194
  0
LINE
  5
269
100
AcDbEntity
  8
KONSTRUKTIONSELEMENTE
100
AcDbLine
 62
7
  6
CONTINUOUS
 10
76.700368469
 20
206.0102696808
 11
75.8493047407
 21
205.176934758
  0
LINE
  5
26A
100
AcDbEntity
  8
KONSTRUKTIONSELEMENTE
100
AcDbLine
 62
7
  6
CONTINUOUS
 10
79.6790918162
 20
205.801934758
 11
80.3173897615
 21
206.426934758
  0
LINE
  5
26B
100
AcDbEntity
  8
KONSTRUKTIONSELEMENTE
100
AcDbLine
 62
7
  6
CONTINUOUS
 10
72.4450492313
 20
197.0519359501
 11
73.2961129597
 21
197.8852684887
  0
LINE
  5
26C
100
AcDbEntity
  8
KONSTRUKTIONSELEMENTE
100
AcDbLine
 62
7
  6
CONTINUOUS
 10
72.6578151634
 20
210.5936022194
 11
73.5088788918
 21
211.2186022194
  0
LINE
  5
26D
100
AcDbEntity
  8
KONSTRUKTIONSELEMENTE
100
AcDbLine
 62
7
  6
CONTINUOUS
 10
79.2535599521
 20
215.176934758
 11
79.8918577483
 21
215.5936022194
  0
LINE
  5
26E
100
AcDbEntity
  8
KONSTRUKTIONSELEMENTE
100
AcDbLine
 62
7
  6
CONTINUOUS
 10
78.6152621558
 20
210.801934758
 11
77.9769640615
 21
210.3852696808
  0
LINE
  5
26F
100
AcDbEntity
  8
KONSTRUKTIONSELEMENTE
100
AcDbLine
 62
7
  6
CONTINUOUS
 10
80.3173897615
 20
214.3436022194
 11
79.4663258842
 21
213.926934758
  0
LINE
  5
270
100
AcDbEntity
  8
KONSTRUKTIONSELEMENTE
100
AcDbLine
 62
7
  6
CONTINUOUS
 10
74.147176688
 20
210.176934758
 11
73.7216448238
 21
209.9686022194
  0
LINE
  5
271
100
AcDbEntity
  8
KONSTRUKTIONSELEMENTE
100
AcDbLine
 62
7
  6
CONTINUOUS
 10
77.5514321974
 20
211.6352696808
 11
78.4024962237
 21
212.051934758
  0
LINE
  5
272
100
AcDbEntity
  8
KONSTRUKTIONSELEMENTE
100
AcDbLine
 62
7
  6
CONTINUOUS
 10
74.3599432161
 20
220.5936022194
 11
73.7216448238
 21
220.3852672966
  0
LINE
  5
273
100
AcDbEntity
  8
KONSTRUKTIONSELEMENTE
100
AcDbLine
 62
7
  6
CONTINUOUS
 10
55.8067514351
 20
150.41854654
 11
49.8067514351
 21
150.41854654
  0
LINE
  5
274
100
AcDbEntity
  8
BEZUGSACHSEN
100
AcDbLine
 62
7
  6
CONTINUOUS
 10
61.8067514351
 20
150.9686022194
 11
54.8067514351
 21
150.9686022194
  0
LINE
  5
275
100
AcDbEntity
  8
KONSTRUKTIONSELEMENTE
100
AcDbLine
 62
7
  6
CONTINUOUS
 10
168.8067514351
 20
155.4686022194
 11
188.8067514351
 21
155.4686022194
  0
LINE
  5
276
100
AcDbEntity
  8
KONSTRUKTIONSELEMENTE
100
AcDbLine
 62
7
  6
CONTINUOUS
 10
73.2961129597
 20
192.4686022194
 11
73.7216448238
 21
191.8436022194
  0
LINE
  5
277
100
AcDbEntity
  8
KONSTRUKTIONSELEMENTE
100
AcDbLine
 62
7
  6
CONTINUOUS
 10
72.4450492313
 20
191.4269359501
 11
72.0195173672
 21
192.2602684887
  0
LINE
  5
278
100
AcDbEntity
  8
KONSTRUKTIONSELEMENTE
100
AcDbLine
 62
7
  6
CONTINUOUS
 10
73.0833470276
 20
207.676934758
 11
73.2961129597
 21
207.051934758
  0
LINE
  5
279
100
AcDbEntity
  8
KONSTRUKTIONSELEMENTE
100
AcDbLine
 62
7
  6
CONTINUOUS
 10
73.0833470276
 20
193.3019359501
 11
73.2961129597
 21
192.4686022194
  0
LINE
  5
27A
100
AcDbEntity
  8
KONSTRUKTIONSELEMENTE
100
AcDbLine
 62
7
  6
CONTINUOUS
 10
72.0195173672
 20
206.8436022194
 11
71.8067514351
 21
207.676934758
  0
LINE
  5
27B
100
AcDbEntity
  8
KONSTRUKTIONSELEMENTE
100
AcDbLine
 62
7
  6
CONTINUOUS
 10
73.0833470276
 20
217.051934758
 11
73.2961129597
 21
216.2186022194
  0
LINE
  5
27C
100
AcDbEntity
  8
KONSTRUKTIONSELEMENTE
100
AcDbLine
 62
7
  6
CONTINUOUS
 10
80.5301556936
 20
195.1769359501
 11
80.3173897615
 21
196.0102684887
  0
LINE
  5
27D
100
AcDbEntity
  8
KONSTRUKTIONSELEMENTE
100
AcDbLine
 62
7
  6
CONTINUOUS
 10
72.0195173672
 20
216.0102696808
 11
71.8067514351
 21
217.051934758
  0
LINE
  5
27E
100
AcDbEntity
  8
KONSTRUKTIONSELEMENTE
100
AcDbLine
 62
7
  6
CONTINUOUS
 10
81.5939854844
 20
192.2602684887
 11
81.1684535643
 21
191.4269359501
  0
LINE
  5
27F
100
AcDbEntity
  8
KONSTRUKTIONSELEMENTE
100
AcDbLine
 62
7
  6
CONTINUOUS
 10
79.8918577483
 20
191.8436022194
 11
80.3173897615
 21
192.4686022194
  0
LINE
  5
280
100
AcDbEntity
  8
KONSTRUKTIONSELEMENTE
100
AcDbLine
 62
7
  6
CONTINUOUS
 10
81.1684535643
 20
191.4269359501
 11
80.3173897615
 21
190.5936022194
  0
LINE
  5
281
100
AcDbEntity
  8
KONSTRUKTIONSELEMENTE
100
AcDbLine
 62
7
  6
CONTINUOUS
 10
80.9556876323
 20
205.176934758
 11
79.8918577483
 21
204.551934758
  0
LINE
  5
282
100
AcDbEntity
  8
KONSTRUKTIONSELEMENTE
100
AcDbLine
 62
7
  6
CONTINUOUS
 10
73.5088788918
 20
211.2186022194
 11
74.147176688
 21
211.426934758
  0
LINE
  5
283
100
AcDbEntity
  8
KONSTRUKTIONSELEMENTE
100
AcDbLine
 62
7
  6
CONTINUOUS
 10
74.7854750803
 20
206.2186022194
 11
75.4237728765
 21
206.426934758
  0
LINE
  5
284
100
AcDbEntity
  8
KONSTRUKTIONSELEMENTE
100
AcDbLine
 62
7
  6
CONTINUOUS
 10
79.04079402
 20
205.5936022194
 11
79.6790918162
 21
205.801934758
  0
LINE
  5
285
100
AcDbEntity
  8
KONSTRUKTIONSELEMENTE
100
AcDbLine
 62
7
  6
CONTINUOUS
 10
73.2961129597
 20
190.5936022194
 11
72.4450492313
 21
191.4269359501
  0
LINE
  5
286
100
AcDbEntity
  8
KONSTRUKTIONSELEMENTE
100
AcDbLine
 62
7
  6
CONTINUOUS
 10
80.3173897615
 20
196.0102684887
 11
79.8918577483
 21
196.6352684887
  0
LINE
  5
287
100
AcDbEntity
  8
KONSTRUKTIONSELEMENTE
100
AcDbLine
 62
7
  6
CONTINUOUS
 10
73.2961129597
 20
207.051934758
 11
73.7216448238
 21
206.426934758
  0
LINE
  5
288
100
AcDbEntity
  8
KONSTRUKTIONSELEMENTE
100
AcDbLine
 62
7
  6
CONTINUOUS
 10
72.4450492313
 20
206.0102696808
 11
72.0195173672
 21
206.8436022194
  0
LINE
  5
289
100
AcDbEntity
  8
KONSTRUKTIONSELEMENTE
100
AcDbLine
 62
7
  6
CONTINUOUS
 10
81.1684535643
 20
197.0519359501
 11
81.5939854844
 21
196.2186022194
  0
LINE
  5
28A
100
AcDbEntity
  8
KONSTRUKTIONSELEMENTE
100
AcDbLine
 62
7
  6
CONTINUOUS
 10
72.4450492313
 20
215.176934758
 11
72.0195173672
 21
216.0102696808
  0
LINE
  5
28B
100
AcDbEntity
  8
KONSTRUKTIONSELEMENTE
100
AcDbLine
 62
7
  6
CONTINUOUS
 10
80.5301556936
 20
208.926934758
 11
80.3173897615
 21
209.7602696808
  0
LINE
  5
28C
100
AcDbEntity
  8
KONSTRUKTIONSELEMENTE
100
AcDbLine
 62
7
  6
CONTINUOUS
 10
80.5301556936
 20
218.926934758
 11
80.3173897615
 21
219.7602696808
  0
LINE
  5
28D
100
AcDbEntity
  8
KONSTRUKTIONSELEMENTE
100
AcDbLine
 62
7
  6
CONTINUOUS
 10
81.5939854844
 20
196.2186022194
 11
81.8067514351
 21
195.1769359501
  0
LINE
  5
28E
100
AcDbEntity
  8
KONSTRUKTIONSELEMENTE
100
AcDbLine
 62
7
  6
CONTINUOUS
 10
81.5939854844
 20
209.9686022194
 11
81.8067514351
 21
208.926934758
  0
LINE
  5
28F
100
AcDbEntity
  8
KONSTRUKTIONSELEMENTE
100
AcDbLine
 62
7
  6
CONTINUOUS
 10
81.5939854844
 20
219.9686022194
 11
81.8067514351
 21
218.926934758
  0
LINE
  5
290
100
AcDbEntity
  8
BEZUGSACHSEN
100
AcDbLine
 62
7
  6
CONTINUOUS
 10
91.8067514351
 20
233.4686022194
 11
91.8067514351
 21
183.9687372529
  0
LINE
  5
291
100
AcDbEntity
  8
KONSTRUKTIONSELEMENTE
100
AcDbLine
 62
7
  6
CONTINUOUS
 10
91.8067514351
 20
183.9683265689
 11
91.8067514351
 21
91.9686022195
  0
LINE
  5
292
100
AcDbEntity
  8
KONSTRUKTIONSELEMENTE
100
AcDbLine
 62
7
  6
CONTINUOUS
 10
79.2535599521
 20
191.4269359501
 11
79.8918577483
 21
191.8436022194
  0
LINE
  5
293
100
AcDbEntity
  8
KONSTRUKTIONSELEMENTE
100
AcDbLine
 62
7
  6
CONTINUOUS
 10
150.5088788918
 20
226.4269371422
 11
151.147176688
 21
226.6352672966
  0
LINE
  5
294
100
AcDbEntity
  8
KONSTRUKTIONSELEMENTE
100
AcDbLine
 62
7
  6
CONTINUOUS
 10
151.147176688
 20
225.3852672966
 11
150.5088788918
 21
225.1769371422
  0
LINE
  5
295
100
AcDbEntity
  8
KONSTRUKTIONSELEMENTE
100
AcDbLine
 62
7
  6
CONTINUOUS
 10
74.3599432161
 20
196.8436022194
 11
73.7216448238
 21
196.6352684887
  0
LINE
  5
296
100
AcDbEntity
  8
KONSTRUKTIONSELEMENTE
100
AcDbLine
 62
7
  6
CONTINUOUS
 10
71.8067514351
 20
188.301935354
 11
81.8067514351
 21
184.9686022194
  0
LINE
  5
297
100
AcDbEntity
  8
KONSTRUKTIONSELEMENTE
100
AcDbLine
 62
7
  6
CONTINUOUS
 10
80.5301556936
 20
184.1352687867
 11
71.8067514351
 21
187.051935354
  0
LINE
  5
298
100
AcDbEntity
  8
KONSTRUKTIONSELEMENTE
100
AcDbLine
 62
7
  6
CONTINUOUS
 10
74.147176688
 20
190.1769359501
 11
73.2961129597
 21
190.5936022194
  0
LINE
  5
299
100
AcDbEntity
  8
KONSTRUKTIONSELEMENTE
100
AcDbLine
 62
7
  6
CONTINUOUS
 10
73.7216448238
 20
191.8436022194
 11
74.3599432161
 21
191.4269359501
  0
LINE
  5
29A
100
AcDbEntity
  8
KONSTRUKTIONSELEMENTE
100
AcDbLine
 62
7
  6
CONTINUOUS
 10
80.3173897615
 20
197.8852684887
 11
81.1684535643
 21
197.0519359501
  0
LINE
  5
29B
100
AcDbEntity
  8
KONSTRUKTIONSELEMENTE
100
AcDbLine
 62
7
  6
CONTINUOUS
 10
73.2961129597
 20
205.176934758
 11
72.4450492313
 21
206.0102696808
  0
LINE
  5
29C
100
AcDbEntity
  8
KONSTRUKTIONSELEMENTE
100
AcDbLine
 62
7
  6
CONTINUOUS
 10
73.2961129597
 20
216.2186022194
 11
73.7216448238
 21
215.5936022194
  0
LINE
  5
29D
100
AcDbEntity
  8
KONSTRUKTIONSELEMENTE
100
AcDbLine
 62
7
  6
CONTINUOUS
 10
80.3173897615
 20
209.7602696808
 11
79.8918577483
 21
210.3852696808
  0
LINE
  5
29E
100
AcDbEntity
  8
KONSTRUKTIONSELEMENTE
100
AcDbLine
 62
7
  6
CONTINUOUS
 10
81.1684535643
 20
210.801934758
 11
81.5939854844
 21
209.9686022194
  0
LINE
  5
29F
100
AcDbEntity
  8
KONSTRUKTIONSELEMENTE
100
AcDbLine
 62
7
  6
CONTINUOUS
 10
81.1684535643
 20
220.8019371422
 11
81.5939854844
 21
219.9686022194
  0
LINE
  5
2A0
100
AcDbEntity
  8
KONSTRUKTIONSELEMENTE
100
AcDbLine
 62
7
  6
CONTINUOUS
 10
149.6578151634
 20
225.8019371422
 11
150.5088788918
 21
226.4269371422
  0
LINE
  5
2A1
100
AcDbEntity
  8
KONSTRUKTIONSELEMENTE
100
AcDbLine
 62
7
  6
CONTINUOUS
 10
80.3173897615
 20
190.5936022194
 11
79.4663258842
 21
190.1769359501
  0
LINE
  5
2A2
100
AcDbEntity
  8
KONSTRUKTIONSELEMENTE
100
AcDbLine
 62
7
  6
CONTINUOUS
 10
154.3386662653
 20
179.9686022194
 11
148.8067514351
 21
179.9686022194
  0
LINE
  5
2A3
100
AcDbEntity
  8
KONSTRUKTIONSELEMENTE
100
AcDbLine
 62
7
  6
CONTINUOUS
 10
149.8705810955
 20
181.0102688612
 11
153.2748366049
 21
181.0102688612
  0
LINE
  5
2A4
100
AcDbEntity
  8
KONSTRUKTIONSELEMENTE
100
AcDbLine
 62
7
  6
CONTINUOUS
 10
75.2110069445
 20
189.9686022194
 11
74.147176688
 21
190.1769359501
  0
LINE
  5
2A5
100
AcDbEntity
  8
KONSTRUKTIONSELEMENTE
100
AcDbLine
 62
7
  6
CONTINUOUS
 10
74.3599432161
 20
191.4269359501
 11
75.2110069445
 21
191.2186022194
  0
LINE
  5
2A6
100
AcDbEntity
  8
KONSTRUKTIONSELEMENTE
100
AcDbLine
 62
7
  6
CONTINUOUS
 10
73.2961129597
 20
214.3436022194
 11
72.4450492313
 21
215.176934758
  0
LINE
  5
2A7
100
AcDbEntity
  8
KONSTRUKTIONSELEMENTE
100
AcDbLine
 62
7
  6
CONTINUOUS
 10
80.3173897615
 20
211.6352696808
 11
81.1684535643
 21
210.801934758
  0
LINE
  5
2A8
100
AcDbEntity
  8
KONSTRUKTIONSELEMENTE
100
AcDbLine
 62
7
  6
CONTINUOUS
 10
80.3173897615
 20
219.7602696808
 11
79.8918577483
 21
220.3852672966
  0
LINE
  5
2A9
100
AcDbEntity
  8
KONSTRUKTIONSELEMENTE
100
AcDbLine
 62
7
  6
CONTINUOUS
 10
150.5088788918
 20
225.1769371422
 11
150.0833470276
 21
224.7602672966
  0
LINE
  5
2AA
100
AcDbEntity
  8
KONSTRUKTIONSELEMENTE
100
AcDbLine
 62
7
  6
CONTINUOUS
 10
148.8067514351
 20
207.2602696808
 11
157.5301556936
 21
210.176934758
  0
LINE
  5
2AB
100
AcDbEntity
  8
KONSTRUKTIONSELEMENTE
100
AcDbLine
 62
7
  6
CONTINUOUS
 10
71.8067514351
 20
181.2186022194
 11
80.5301556936
 21
184.1352687867
  0
LINE
  5
2AC
100
AcDbEntity
  8
KONSTRUKTIONSELEMENTE
100
AcDbLine
 62
7
  6
CONTINUOUS
 10
158.8067514351
 20
209.3436022194
 11
148.8067514351
 21
206.0102696808
  0
LINE
  5
2AD
100
AcDbEntity
  8
KONSTRUKTIONSELEMENTE
100
AcDbLine
 62
7
  6
CONTINUOUS
 10
81.8067514351
 20
183.3019356521
 11
71.8067514351
 21
179.9686022194
  0
LINE
  5
2AE
100
AcDbEntity
  8
KONSTRUKTIONSELEMENTE
100
AcDbLine
 62
7
  6
CONTINUOUS
 10
155.8280280879
 20
192.0519359501
 11
154.7641981295
 21
191.8436022194
  0
LINE
  5
2AF
100
AcDbEntity
  8
KONSTRUKTIONSELEMENTE
100
AcDbLine
 62
7
  6
CONTINUOUS
 10
154.5514321974
 20
192.8852684887
 11
155.8280280879
 21
193.0936022194
  0
LINE
  5
2B0
100
AcDbEntity
  8
KONSTRUKTIONSELEMENTE
100
AcDbLine
 62
7
  6
CONTINUOUS
 10
155.8280280879
 20
186.426935354
 11
155.4024962237
 21
186.426935354
  0
LINE
  5
2B1
100
AcDbEntity
  8
KONSTRUKTIONSELEMENTE
100
AcDbLine
 62
7
  6
CONTINUOUS
 10
148.8067514351
 20
187.051935354
 11
149.8705810955
 21
187.051935354
  0
LINE
  5
2B2
100
AcDbEntity
  8
KONSTRUKTIONSELEMENTE
100
AcDbLine
 62
7
  6
CONTINUOUS
 10
155.1897302917
 20
187.4686022194
 11
156.04079402
 21
187.4686022194
  0
LINE
  5
2B3
100
AcDbEntity
  8
KONSTRUKTIONSELEMENTE
100
AcDbLine
 62
7
  6
CONTINUOUS
 10
158.8067514351
 20
189.1352690847
 11
157.7429216257
 21
189.1352690847
  0
LINE
  5
2B4
100
AcDbEntity
  8
KONSTRUKTIONSELEMENTE
100
AcDbLine
 62
7
  6
CONTINUOUS
 10
78.4024962237
 20
189.9686022194
 11
75.2110069445
 21
189.9686022194
  0
LINE
  5
2B5
100
AcDbEntity
  8
KONSTRUKTIONSELEMENTE
100
AcDbLine
 62
7
  6
CONTINUOUS
 10
157.7429216257
 20
190.1769359501
 11
158.8067514351
 21
190.1769359501
  0
LINE
  5
2B6
100
AcDbEntity
  8
KONSTRUKTIONSELEMENTE
100
AcDbLine
 62
7
  6
CONTINUOUS
 10
75.2110069445
 20
191.2186022194
 11
78.4024962237
 21
191.2186022194
  0
LINE
  5
2B7
100
AcDbEntity
  8
KONSTRUKTIONSELEMENTE
100
AcDbLine
 62
7
  6
CONTINUOUS
 10
154.7641981295
 20
191.8436022194
 11
152.8493047407
 21
191.8436022194
  0
LINE
  5
2B8
100
AcDbEntity
  8
KONSTRUKTIONSELEMENTE
100
AcDbLine
 62
7
  6
CONTINUOUS
 10
79.2535599521
 20
198.0936022194
 11
80.3173897615
 21
197.8852684887
  0
LINE
  5
2B9
100
AcDbEntity
  8
KONSTRUKTIONSELEMENTE
100
AcDbLine
 62
7
  6
CONTINUOUS
 10
79.8918577483
 20
196.6352684887
 11
79.2535599521
 21
196.8436022194
  0
LINE
  5
2BA
100
AcDbEntity
  8
KONSTRUKTIONSELEMENTE
100
AcDbLine
 62
7
  6
CONTINUOUS
 10
79.8918577483
 20
210.3852696808
 11
79.2535599521
 21
210.801934758
  0
LINE
  5
2BB
100
AcDbEntity
  8
KONSTRUKTIONSELEMENTE
100
AcDbLine
 62
7
  6
CONTINUOUS
 10
73.7216448238
 20
215.5936022194
 11
74.3599432161
 21
215.176934758
  0
LINE
  5
2BC
100
AcDbEntity
  8
KONSTRUKTIONSELEMENTE
100
AcDbLine
 62
7
  6
CONTINUOUS
 10
80.3173897615
 20
221.6352672966
 11
81.1684535643
 21
220.8019371422
  0
LINE
  5
2BD
100
AcDbEntity
  8
KONSTRUKTIONSELEMENTE
100
AcDbLine
 62
7
  6
CONTINUOUS
 10
149.0195173672
 20
224.9686022194
 11
149.6578151634
 21
225.8019371422
  0
LINE
  5
2BE
100
AcDbEntity
  8
KONSTRUKTIONSELEMENTE
100
AcDbLine
 62
7
  6
CONTINUOUS
 10
150.2961129597
 20
198.5102684887
 11
151.147176688
 21
198.9269359501
  0
LINE
  5
2BF
100
AcDbEntity
  8
KONSTRUKTIONSELEMENTE
100
AcDbLine
 62
7
  6
CONTINUOUS
 10
151.147176688
 20
198.9269359501
 11
151.7854750803
 21
199.1352684887
  0
LINE
  5
2C0
100
AcDbEntity
  8
KONSTRUKTIONSELEMENTE
100
AcDbLine
 62
7
  6
CONTINUOUS
 10
78.4024962237
 20
191.2186022194
 11
79.2535599521
 21
191.4269359501
  0
LINE
  5
2C1
100
AcDbEntity
  8
KONSTRUKTIONSELEMENTE
100
AcDbLine
 62
7
  6
CONTINUOUS
 10
151.7854750803
 20
199.1352684887
 11
152.8493047407
 21
199.3436022194
  0
LINE
  5
2C2
100
AcDbEntity
  8
KONSTRUKTIONSELEMENTE
100
AcDbLine
 62
7
  6
CONTINUOUS
 10
79.4663258842
 20
190.1769359501
 11
78.4024962237
 21
189.9686022194
  0
LINE
  5
2C3
100
AcDbEntity
  8
KONSTRUKTIONSELEMENTE
100
AcDbLine
 62
7
  6
CONTINUOUS
 10
153.0620706728
 20
198.3019359501
 11
151.7854750803
 21
198.0936022194
  0
LINE
  5
2C4
100
AcDbEntity
  8
KONSTRUKTIONSELEMENTE
100
AcDbLine
 62
7
  6
CONTINUOUS
 10
153.0620706728
 20
192.8852684887
 11
154.5514321974
 21
192.8852684887
  0
LINE
  5
2C5
100
AcDbEntity
  8
KONSTRUKTIONSELEMENTE
100
AcDbLine
 62
7
  6
CONTINUOUS
 10
154.5514321974
 20
198.3019359501
 11
153.0620706728
 21
198.3019359501
  0
LINE
  5
2C6
100
AcDbEntity
  8
KONSTRUKTIONSELEMENTE
100
AcDbLine
 62
7
  6
CONTINUOUS
 10
152.8493047407
 20
199.3436022194
 11
154.7641981295
 21
199.3436022194
  0
LINE
  5
2C7
100
AcDbEntity
  8
KONSTRUKTIONSELEMENTE
100
AcDbLine
 62
7
  6
CONTINUOUS
 10
78.1897302917
 20
199.7602684887
 11
77.1259003332
 21
199.7602684887
  0
LINE
  5
2C8
100
AcDbEntity
  8
KONSTRUKTIONSELEMENTE
100
AcDbLine
 62
7
  6
CONTINUOUS
 10
151.7854750803
 20
193.0936022194
 11
153.0620706728
 21
192.8852684887
  0
LINE
  5
2C9
100
AcDbEntity
  8
KONSTRUKTIONSELEMENTE
100
AcDbLine
 62
7
  6
CONTINUOUS
 10
152.8493047407
 20
191.8436022194
 11
151.7854750803
 21
192.0519359501
  0
LINE
  5
2CA
100
AcDbEntity
  8
KONSTRUKTIONSELEMENTE
100
AcDbLine
 62
7
  6
CONTINUOUS
 10
74.147176688
 20
204.9686022194
 11
73.2961129597
 21
205.176934758
  0
LINE
  5
2CB
100
AcDbEntity
  8
KONSTRUKTIONSELEMENTE
100
AcDbLine
 62
7
  6
CONTINUOUS
 10
73.7216448238
 20
206.426934758
 11
74.3599432161
 21
206.2186022194
  0
LINE
  5
2CC
100
AcDbEntity
  8
KONSTRUKTIONSELEMENTE
100
AcDbLine
 62
7
  6
CONTINUOUS
 10
156.4663258842
 20
186.2186022194
 11
155.8280280879
 21
186.426935354
  0
LINE
  5
2CD
100
AcDbEntity
  8
KONSTRUKTIONSELEMENTE
100
AcDbLine
 62
7
  6
CONTINUOUS
 10
74.147176688
 20
213.926934758
 11
73.2961129597
 21
214.3436022194
  0
LINE
  5
2CE
100
AcDbEntity
  8
KONSTRUKTIONSELEMENTE
100
AcDbLine
 62
7
  6
CONTINUOUS
 10
79.4663258842
 20
212.051934758
 11
80.3173897615
 21
211.6352696808
  0
LINE
  5
2CF
100
AcDbEntity
  8
KONSTRUKTIONSELEMENTE
100
AcDbLine
 62
7
  6
CONTINUOUS
 10
149.6578151634
 20
197.8852684887
 11
150.2961129597
 21
198.5102684887
  0
LINE
  5
2D0
100
AcDbEntity
  8
KONSTRUKTIONSELEMENTE
100
AcDbLine
 62
7
  6
CONTINUOUS
 10
151.7854750803
 20
198.0936022194
 11
150.5088788918
 21
197.2602684887
  0
LINE
  5
2D1
100
AcDbEntity
  8
KONSTRUKTIONSELEMENTE
100
AcDbLine
 62
7
  6
CONTINUOUS
 10
157.3173897615
 20
192.6769359501
 11
156.4663258842
 21
192.2602684887
  0
LINE
  5
2D2
100
AcDbEntity
  8
KONSTRUKTIONSELEMENTE
100
AcDbLine
 62
7
  6
CONTINUOUS
 10
154.1259003332
 20
187.051935354
 11
155.1897302917
 21
187.4686022194
  0
LINE
  5
2D3
100
AcDbEntity
  8
KONSTRUKTIONSELEMENTE
100
AcDbLine
 62
7
  6
CONTINUOUS
 10
156.4663258842
 20
192.2602684887
 11
155.8280280879
 21
192.0519359501
  0
LINE
  5
2D4
100
AcDbEntity
  8
KONSTRUKTIONSELEMENTE
100
AcDbLine
 62
7
  6
CONTINUOUS
 10
155.4024962237
 20
186.426935354
 11
154.7641981295
 21
186.2186022194
  0
LINE
  5
2D5
100
AcDbEntity
  8
KONSTRUKTIONSELEMENTE
100
AcDbLine
 62
7
  6
CONTINUOUS
 10
73.2961129597
 20
197.8852684887
 11
74.3599432161
 21
198.0936022194
  0
LINE
  5
2D6
100
AcDbEntity
  8
KONSTRUKTIONSELEMENTE
100
AcDbLine
 62
7
  6
CONTINUOUS
 10
77.1259003332
 20
202.676934758
 11
78.1897302917
 21
202.676934758
  0
LINE
  5
2D7
100
AcDbEntity
  8
KONSTRUKTIONSELEMENTE
100
AcDbLine
 62
7
  6
CONTINUOUS
 10
74.9982410124
 20
204.9686022194
 11
74.147176688
 21
204.9686022194
  0
LINE
  5
2D8
100
AcDbEntity
  8
KONSTRUKTIONSELEMENTE
100
AcDbLine
 62
7
  6
CONTINUOUS
 10
74.3599432161
 20
206.2186022194
 11
74.7854750803
 21
206.2186022194
  0
LINE
  5
2D9
100
AcDbEntity
  8
KONSTRUKTIONSELEMENTE
100
AcDbLine
 62
7
  6
CONTINUOUS
 10
155.8280280879
 20
198.0936022194
 11
154.5514321974
 21
198.3019359501
  0
LINE
  5
2DA
100
AcDbEntity
  8
KONSTRUKTIONSELEMENTE
100
AcDbLine
 62
7
  6
CONTINUOUS
 10
75.2110069445
 20
213.7186022194
 11
74.147176688
 21
213.926934758
  0
LINE
  5
2DB
100
AcDbEntity
  8
KONSTRUKTIONSELEMENTE
100
AcDbLine
 62
7
  6
CONTINUOUS
 10
154.7641981295
 20
199.3436022194
 11
155.8280280879
 21
199.1352684887
  0
LINE
  5
2DC
100
AcDbEntity
  8
KONSTRUKTIONSELEMENTE
100
AcDbLine
 62
7
  6
CONTINUOUS
 10
74.3599432161
 20
215.176934758
 11
75.2110069445
 21
214.9686022194
  0
LINE
  5
2DD
100
AcDbEntity
  8
KONSTRUKTIONSELEMENTE
100
AcDbLine
 62
7
  6
CONTINUOUS
 10
151.7854750803
 20
192.0519359501
 11
151.147176688
 21
192.2602684887
  0
LINE
  5
2DE
100
AcDbEntity
  8
KONSTRUKTIONSELEMENTE
100
AcDbLine
 62
7
  6
CONTINUOUS
 10
79.8918577483
 20
220.3852672966
 11
79.2535599521
 21
220.5936022194
  0
LINE
  5
2DF
100
AcDbEntity
  8
KONSTRUKTIONSELEMENTE
100
AcDbLine
 62
7
  6
CONTINUOUS
 10
156.04079402
 20
187.4686022194
 11
157.1046238294
 21
187.051935354
  0
LINE
  5
2E0
100
AcDbEntity
  8
KONSTRUKTIONSELEMENTE
100
AcDbLine
 62
7
  6
CONTINUOUS
 10
151.147176688
 20
192.2602684887
 11
150.2961129597
 21
192.6769359501
  0
LINE
  5
2E1
100
AcDbEntity
  8
KONSTRUKTIONSELEMENTE
100
AcDbLine
 62
7
  6
CONTINUOUS
 10
157.1046238294
 20
185.801935354
 11
156.4663258842
 21
186.2186022194
  0
LINE
  5
2E2
100
AcDbEntity
  8
BEZUGSACHSEN
100
AcDbLine
 62
7
  6
CONTINUOUS
 10
138.8067514351
 20
233.4686022194
 11
138.8067514351
 21
183.9687260523
  0
LINE
  5
2E3
100
AcDbEntity
  8
KONSTRUKTIONSELEMENTE
100
AcDbLine
 62
7
  6
CONTINUOUS
 10
138.8067514351
 20
91.9686022195
 11
138.8067514351
 21
183.968335091
  0
LINE
  5
2E4
100
AcDbEntity
  8
KONSTRUKTIONSELEMENTE
100
AcDbLine
 62
7
  6
CONTINUOUS
 10
148.8067514351
 20
223.9269371422
 11
149.0195173672
 21
224.9686022194
  0
LINE
  5
2E5
100
AcDbEntity
  8
KONSTRUKTIONSELEMENTE
100
AcDbLine
 62
7
  6
CONTINUOUS
 10
150.0833470276
 20
224.7602672966
 11
149.8705810955
 21
224.1352672966
  0
LINE
  5
2E6
100
AcDbEntity
  8
KONSTRUKTIONSELEMENTE
100
AcDbLine
 62
7
  6
CONTINUOUS
 10
149.0195173672
 20
196.8436022194
 11
149.6578151634
 21
197.8852684887
  0
LINE
  5
2E7
100
AcDbEntity
  8
KONSTRUKTIONSELEMENTE
100
AcDbLine
 62
7
  6
CONTINUOUS
 10
150.9344107559
 20
203.7186022194
 11
151.3599432161
 21
204.3436022194
  0
LINE
  5
2E8
100
AcDbEntity
  8
KONSTRUKTIONSELEMENTE
100
AcDbLine
 62
7
  6
CONTINUOUS
 10
150.5088788918
 20
197.2602684887
 11
150.0833470276
 21
196.6352684887
  0
LINE
  5
2E9
100
AcDbEntity
  8
KONSTRUKTIONSELEMENTE
100
AcDbLine
 62
7
  6
CONTINUOUS
 10
153.2748366049
 20
186.426935354
 11
154.1259003332
 21
187.051935354
  0
LINE
  5
2EA
100
AcDbEntity
  8
KONSTRUKTIONSELEMENTE
100
AcDbLine
 62
7
  6
CONTINUOUS
 10
155.8280280879
 20
193.0936022194
 11
157.1046238294
 21
193.9269359501
  0
LINE
  5
2EB
100
AcDbEntity
  8
KONSTRUKTIONSELEMENTE
100
AcDbLine
 62
7
  6
CONTINUOUS
 10
154.7641981295
 20
186.2186022194
 11
154.1259003332
 21
185.801935354
  0
LINE
  5
2EC
100
AcDbEntity
  8
KONSTRUKTIONSELEMENTE
100
AcDbLine
 62
7
  6
CONTINUOUS
 10
156.2535599521
 20
181.2186022194
 11
157.1046238294
 21
181.6352689357
  0
LINE
  5
2ED
100
AcDbEntity
  8
KONSTRUKTIONSELEMENTE
100
AcDbLine
 62
7
  6
CONTINUOUS
 10
79.8918577483
 20
204.551934758
 11
79.04079402
 21
204.3436022194
  0
LINE
  5
2EE
100
AcDbEntity
  8
KONSTRUKTIONSELEMENTE
100
AcDbLine
 62
7
  6
CONTINUOUS
 10
75.8493047407
 20
205.176934758
 11
74.9982410124
 21
204.9686022194
  0
LINE
  5
2EF
100
AcDbEntity
  8
KONSTRUKTIONSELEMENTE
100
AcDbLine
 62
7
  6
CONTINUOUS
 10
79.2535599521
 20
210.801934758
 11
78.6152621558
 21
210.801934758
  0
LINE
  5
2F0
100
AcDbEntity
  8
KONSTRUKTIONSELEMENTE
100
AcDbLine
 62
7
  6
CONTINUOUS
 10
78.4024962237
 20
212.051934758
 11
79.4663258842
 21
212.051934758
  0
LINE
  5
2F1
100
AcDbEntity
  8
KONSTRUKTIONSELEMENTE
100
AcDbLine
 62
7
  6
CONTINUOUS
 10
78.4024962237
 20
213.7186022194
 11
75.2110069445
 21
213.7186022194
  0
LINE
  5
2F2
100
AcDbEntity
  8
KONSTRUKTIONSELEMENTE
100
AcDbLine
 62
7
  6
CONTINUOUS
 10
75.2110069445
 20
214.9686022194
 11
78.4024962237
 21
214.9686022194
  0
LINE
  5
2F3
100
AcDbEntity
  8
KONSTRUKTIONSELEMENTE
100
AcDbLine
 62
7
  6
CONTINUOUS
 10
158.8067514351
 20
216.0102696808
 11
148.8067514351
 21
216.0102696808
  0
LINE
  5
2F4
100
AcDbEntity
  8
KONSTRUKTIONSELEMENTE
100
AcDbLine
 62
7
  6
CONTINUOUS
 10
148.8067514351
 20
217.2602696808
 11
158.8067514351
 21
217.2602696808
  0
LINE
  5
2F5
100
AcDbEntity
  8
KONSTRUKTIONSELEMENTE
100
AcDbLine
 62
7
  6
CONTINUOUS
 10
79.2535599521
 20
221.8436022194
 11
80.3173897615
 21
221.6352672966
  0
LINE
  5
2F6
100
AcDbEntity
  8
KONSTRUKTIONSELEMENTE
100
AcDbLine
 62
7
  6
CONTINUOUS
 10
155.8280280879
 20
199.1352684887
 11
156.4663258842
 21
198.9269359501
  0
LINE
  5
2F7
100
AcDbEntity
  8
KONSTRUKTIONSELEMENTE
100
AcDbLine
 62
7
  6
CONTINUOUS
 10
156.4663258842
 20
198.9269359501
 11
157.3173897615
 21
198.5102684887
  0
LINE
  5
2F8
100
AcDbEntity
  8
KONSTRUKTIONSELEMENTE
100
AcDbLine
 62
7
  6
CONTINUOUS
 10
156.2535599521
 20
201.0102696808
 11
150.9344107559
 21
203.7186022194
  0
LINE
  5
2F9
100
AcDbEntity
  8
KONSTRUKTIONSELEMENTE
100
AcDbLine
 62
7
  6
CONTINUOUS
 10
150.5088788918
 20
193.9269359501
 11
151.7854750803
 21
193.0936022194
  0
LINE
  5
2FA
100
AcDbEntity
  8
KONSTRUKTIONSELEMENTE
100
AcDbLine
 62
7
  6
CONTINUOUS
 10
157.1046238294
 20
187.051935354
 11
157.9556876323
 21
186.426935354
  0
LINE
  5
2FB
100
AcDbEntity
  8
KONSTRUKTIONSELEMENTE
100
AcDbLine
 62
7
  6
CONTINUOUS
 10
150.2961129597
 20
192.6769359501
 11
149.6578151634
 21
193.3019359501
  0
LINE
  5
2FC
100
AcDbEntity
  8
KONSTRUKTIONSELEMENTE
100
AcDbLine
 62
7
  6
CONTINUOUS
 10
153.700368469
 20
182.2602689357
 11
154.3386662653
 21
181.426935503
  0
LINE
  5
2FD
100
AcDbEntity
  8
KONSTRUKTIONSELEMENTE
100
AcDbLine
 62
7
  6
CONTINUOUS
 10
153.2748366049
 20
181.0102688612
 11
152.6365388086
 21
182.051935503
  0
LINE
  5
2FE
100
AcDbEntity
  8
KONSTRUKTIONSELEMENTE
100
AcDbLine
 62
7
  6
CONTINUOUS
 10
148.8067514351
 20
179.9686022194
 11
148.8067514351
 21
187.051935354
  0
LINE
  5
2FF
100
AcDbEntity
  8
KONSTRUKTIONSELEMENTE
100
AcDbLine
 62
7
  6
CONTINUOUS
 10
148.8067514351
 20
206.0102696808
 11
148.8067514351
 21
207.2602696808
  0
LINE
  5
300
100
AcDbEntity
  8
KONSTRUKTIONSELEMENTE
100
AcDbLine
 62
7
  6
CONTINUOUS
 10
148.8067514351
 20
213.0936022194
 11
148.8067514351
 21
214.3436022194
  0
LINE
  5
301
100
AcDbEntity
  8
KONSTRUKTIONSELEMENTE
100
AcDbLine
 62
7
  6
CONTINUOUS
 10
148.8067514351
 20
216.0102696808
 11
148.8067514351
 21
217.2602696808
  0
LINE
  5
302
100
AcDbEntity
  8
KONSTRUKTIONSELEMENTE
100
AcDbLine
 62
7
  6
CONTINUOUS
 10
148.8067514351
 20
218.926934758
 11
148.8067514351
 21
223.9269371422
  0
LINE
  5
303
100
AcDbEntity
  8
KONSTRUKTIONSELEMENTE
100
AcDbLine
 62
7
  6
CONTINUOUS
 10
149.8705810955
 20
224.1352672966
 11
149.8705810955
 21
220.1769371422
  0
LINE
  5
304
100
AcDbEntity
  8
KONSTRUKTIONSELEMENTE
100
AcDbLine
 62
7
  6
CONTINUOUS
 10
149.8705810955
 20
187.051935354
 11
149.8705810955
 21
181.0102688612
  0
LINE
  5
305
100
AcDbEntity
  8
KONSTRUKTIONSELEMENTE
100
AcDbLine
 62
7
  6
CONTINUOUS
 10
148.8067514351
 20
195.5936022194
 11
149.0195173672
 21
196.8436022194
  0
LINE
  5
306
100
AcDbEntity
  8
KONSTRUKTIONSELEMENTE
100
AcDbLine
 62
7
  6
CONTINUOUS
 10
150.0833470276
 20
196.6352684887
 11
149.8705810955
 21
195.5936022194
  0
LINE
  5
307
100
AcDbEntity
  8
KONSTRUKTIONSELEMENTE
100
AcDbLine
 62
7
  6
CONTINUOUS
 10
152.6365388086
 20
185.3852690847
 11
153.2748366049
 21
186.426935354
  0
LINE
  5
308
100
AcDbEntity
  8
KONSTRUKTIONSELEMENTE
100
AcDbLine
 62
7
  6
CONTINUOUS
 10
158.5939854844
 20
194.3436022194
 11
157.9556876323
 21
193.3019359501
  0
LINE
  5
309
100
AcDbEntity
  8
KONSTRUKTIONSELEMENTE
100
AcDbLine
 62
7
  6
CONTINUOUS
 10
156.6790918162
 20
201.6352696808
 11
156.2535599521
 21
201.0102696808
  0
LINE
  5
30A
100
AcDbEntity
  8
KONSTRUKTIONSELEMENTE
100
AcDbLine
 62
7
  6
CONTINUOUS
 10
157.1046238294
 20
193.9269359501
 11
157.5301556936
 21
194.5519359501
  0
LINE
  5
30B
100
AcDbEntity
  8
KONSTRUKTIONSELEMENTE
100
AcDbLine
 62
7
  6
CONTINUOUS
 10
154.1259003332
 20
185.801935354
 11
153.700368469
 21
185.176935354
  0
LINE
  5
30C
100
AcDbEntity
  8
KONSTRUKTIONSELEMENTE
100
AcDbLine
 62
7
  6
CONTINUOUS
 10
157.9556876323
 20
193.3019359501
 11
157.3173897615
 21
192.6769359501
  0
LINE
  5
30D
100
AcDbEntity
  8
KONSTRUKTIONSELEMENTE
100
AcDbLine
 62
7
  6
CONTINUOUS
 10
157.9556876323
 20
181.0102688612
 11
157.1046238294
 21
180.3852688985
  0
LINE
  5
30E
100
AcDbEntity
  8
KONSTRUKTIONSELEMENTE
100
AcDbLine
 62
7
  6
CONTINUOUS
 10
157.1046238294
 20
180.3852688985
 11
156.2535599521
 21
179.9686022194
  0
LINE
  5
30F
100
AcDbEntity
  8
KONSTRUKTIONSELEMENTE
100
AcDbLine
 62
7
  6
CONTINUOUS
 10
78.4024962237
 20
214.9686022194
 11
79.2535599521
 21
215.176934758
  0
LINE
  5
310
100
AcDbEntity
  8
KONSTRUKTIONSELEMENTE
100
AcDbLine
 62
7
  6
CONTINUOUS
 10
79.4663258842
 20
213.926934758
 11
78.4024962237
 21
213.7186022194
  0
LINE
  5
311
100
AcDbEntity
  8
KONSTRUKTIONSELEMENTE
100
AcDbLine
 62
7
  6
CONTINUOUS
 10
158.8067514351
 20
218.926934758
 11
148.8067514351
 21
218.926934758
  0
LINE
  5
312
100
AcDbEntity
  8
KONSTRUKTIONSELEMENTE
100
AcDbLine
 62
7
  6
CONTINUOUS
 10
149.8705810955
 20
220.1769371422
 11
153.0620706728
 21
220.1769371422
  0
LINE
  5
313
100
AcDbEntity
  8
KONSTRUKTIONSELEMENTE
100
AcDbLine
 62
7
  6
CONTINUOUS
 10
154.3386662653
 20
220.1769371422
 11
158.8067514351
 21
220.1769371422
  0
LINE
  5
314
100
AcDbEntity
  8
KONSTRUKTIONSELEMENTE
100
AcDbLine
 62
7
  6
CONTINUOUS
 10
81.8067514351
 20
223.5102672966
 11
71.8067514351
 21
223.5102672966
  0
LINE
  5
315
100
AcDbEntity
  8
KONSTRUKTIONSELEMENTE
100
AcDbLine
 62
7
  6
CONTINUOUS
 10
71.8067514351
 20
224.7602672966
 11
75.8493047407
 21
224.7602672966
  0
LINE
  5
316
100
AcDbEntity
  8
KONSTRUKTIONSELEMENTE
100
AcDbLine
 62
7
  6
CONTINUOUS
 10
77.1259003332
 20
224.7602672966
 11
81.8067514351
 21
224.7602672966
  0
LINE
  5
317
100
AcDbEntity
  8
KONSTRUKTIONSELEMENTE
100
AcDbLine
 62
7
  6
CONTINUOUS
 10
151.7854750803
 20
225.3852672966
 11
151.147176688
 21
225.3852672966
  0
LINE
  5
318
100
AcDbEntity
  8
KONSTRUKTIONSELEMENTE
100
AcDbLine
 62
7
  6
CONTINUOUS
 10
151.147176688
 20
226.6352672966
 11
151.9982410124
 21
226.6352672966
  0
LINE
  5
319
100
AcDbEntity
  8
KONSTRUKTIONSELEMENTE
100
AcDbLine
 62
7
  6
CONTINUOUS
 10
148.8067514351
 20
214.3436022194
 11
158.8067514351
 21
211.0102696808
  0
LINE
  5
31A
100
AcDbEntity
  8
KONSTRUKTIONSELEMENTE
100
AcDbLine
 62
7
  6
CONTINUOUS
 10
157.5301556936
 20
210.176934758
 11
148.8067514351
 21
213.0936022194
  0
LINE
  5
31B
100
AcDbEntity
  8
KONSTRUKTIONSELEMENTE
100
AcDbLine
 62
7
  6
CONTINUOUS
 10
151.3599432161
 20
204.3436022194
 11
156.6790918162
 21
201.6352696808
  0
LINE
  5
31C
100
AcDbEntity
  8
KONSTRUKTIONSELEMENTE
100
AcDbLine
 62
7
  6
CONTINUOUS
 10
157.1046238294
 20
197.2602684887
 11
155.8280280879
 21
198.0936022194
  0
LINE
  5
31D
100
AcDbEntity
  8
KONSTRUKTIONSELEMENTE
100
AcDbLine
 62
7
  6
CONTINUOUS
 10
157.3173897615
 20
198.5102684887
 11
157.9556876323
 21
197.8852684887
  0
LINE
  5
31E
100
AcDbEntity
  8
KONSTRUKTIONSELEMENTE
100
AcDbLine
 62
7
  6
CONTINUOUS
 10
150.0833470276
 20
194.5519359501
 11
150.5088788918
 21
193.9269359501
  0
LINE
  5
31F
100
AcDbEntity
  8
KONSTRUKTIONSELEMENTE
100
AcDbLine
 62
7
  6
CONTINUOUS
 10
157.5301556936
 20
185.176935354
 11
157.1046238294
 21
185.801935354
  0
LINE
  5
320
100
AcDbEntity
  8
KONSTRUKTIONSELEMENTE
100
AcDbLine
 62
7
  6
CONTINUOUS
 10
149.6578151634
 20
193.3019359501
 11
149.0195173672
 21
194.3436022194
  0
LINE
  5
321
100
AcDbEntity
  8
KONSTRUKTIONSELEMENTE
100
AcDbLine
 62
7
  6
CONTINUOUS
 10
157.9556876323
 20
186.426935354
 11
158.5939854844
 21
185.3852690847
  0
LINE
  5
322
100
AcDbEntity
  8
KONSTRUKTIONSELEMENTE
100
AcDbLine
 62
7
  6
CONTINUOUS
 10
153.487602537
 20
183.0936022194
 11
153.700368469
 21
182.2602689357
  0
LINE
  5
323
100
AcDbEntity
  8
KONSTRUKTIONSELEMENTE
100
AcDbLine
 62
7
  6
CONTINUOUS
 10
149.8705810955
 20
195.5936022194
 11
150.0833470276
 21
194.5519359501
  0
LINE
  5
324
100
AcDbEntity
  8
KONSTRUKTIONSELEMENTE
100
AcDbLine
 62
7
  6
CONTINUOUS
 10
152.6365388086
 20
182.051935503
 11
152.4237728765
 21
183.0936022194
  0
LINE
  5
325
100
AcDbEntity
  8
KONSTRUKTIONSELEMENTE
100
AcDbLine
 62
7
  6
CONTINUOUS
 10
149.0195173672
 20
194.3436022194
 11
148.8067514351
 21
195.5936022194
  0
LINE
  5
326
100
AcDbEntity
  8
KONSTRUKTIONSELEMENTE
100
AcDbLine
 62
7
  6
CONTINUOUS
 10
152.4237728765
 20
183.0936022194
 11
152.4237728765
 21
184.3436022194
  0
LINE
  5
327
100
AcDbEntity
  8
KONSTRUKTIONSELEMENTE
100
AcDbLine
 62
7
  6
CONTINUOUS
 10
153.0620706728
 20
220.1769371422
 11
153.0620706728
 21
224.1352672966
  0
LINE
  5
328
100
AcDbEntity
  8
KONSTRUKTIONSELEMENTE
100
AcDbLine
 62
7
  6
CONTINUOUS
 10
153.487602537
 20
184.3436022194
 11
153.487602537
 21
183.0936022194
  0
LINE
  5
329
100
AcDbEntity
  8
KONSTRUKTIONSELEMENTE
100
AcDbLine
 62
7
  6
CONTINUOUS
 10
154.3386662653
 20
223.9269371422
 11
154.3386662653
 21
220.1769371422
  0
LINE
  5
32A
100
AcDbEntity
  8
KONSTRUKTIONSELEMENTE
100
AcDbLine
 62
7
  6
CONTINUOUS
 10
154.3386662653
 20
181.426935503
 11
154.3386662653
 21
179.9686022194
  0
LINE
  5
32B
100
AcDbEntity
  8
KONSTRUKTIONSELEMENTE
100
AcDbLine
 62
7
  6
CONTINUOUS
 10
156.2535599521
 20
179.9686022194
 11
156.2535599521
 21
181.2186022194
  0
LINE
  5
32C
100
AcDbEntity
  8
KONSTRUKTIONSELEMENTE
100
AcDbLine
 62
7
  6
CONTINUOUS
 10
157.7429216257
 20
183.0936022194
 11
157.7429216257
 21
184.3436022194
  0
LINE
  5
32D
100
AcDbEntity
  8
KONSTRUKTIONSELEMENTE
100
AcDbLine
 62
7
  6
CONTINUOUS
 10
157.7429216257
 20
189.1352690847
 11
157.7429216257
 21
190.1769359501
  0
LINE
  5
32E
100
AcDbEntity
  8
KONSTRUKTIONSELEMENTE
100
AcDbLine
 62
7
  6
CONTINUOUS
 10
158.8067514351
 20
220.1769371422
 11
158.8067514351
 21
218.926934758
  0
LINE
  5
32F
100
AcDbEntity
  8
KONSTRUKTIONSELEMENTE
100
AcDbLine
 62
7
  6
CONTINUOUS
 10
158.8067514351
 20
217.2602696808
 11
158.8067514351
 21
216.0102696808
  0
LINE
  5
330
100
AcDbEntity
  8
KONSTRUKTIONSELEMENTE
100
AcDbLine
 62
7
  6
CONTINUOUS
 10
158.8067514351
 20
211.0102696808
 11
158.8067514351
 21
209.3436022194
  0
LINE
  5
331
100
AcDbEntity
  8
KONSTRUKTIONSELEMENTE
100
AcDbLine
 62
7
  6
CONTINUOUS
 10
158.8067514351
 20
190.1769359501
 11
158.8067514351
 21
189.1352690847
  0
LINE
  5
332
100
AcDbEntity
  8
KONSTRUKTIONSELEMENTE
100
AcDbLine
 62
7
  6
CONTINUOUS
 10
158.8067514351
 20
184.3436022194
 11
158.8067514351
 21
183.0936022194
  0
LINE
  5
333
100
AcDbEntity
  8
KONSTRUKTIONSELEMENTE
100
AcDbLine
 62
7
  6
CONTINUOUS
 10
158.8067514351
 20
195.5936022194
 11
158.5939854844
 21
194.3436022194
  0
LINE
  5
334
100
AcDbEntity
  8
KONSTRUKTIONSELEMENTE
100
AcDbLine
 62
7
  6
CONTINUOUS
 10
152.4237728765
 20
184.3436022194
 11
152.6365388086
 21
185.3852690847
  0
LINE
  5
335
100
AcDbEntity
  8
KONSTRUKTIONSELEMENTE
100
AcDbLine
 62
7
  6
CONTINUOUS
 10
157.5301556936
 20
194.5519359501
 11
157.7429216257
 21
195.5936022194
  0
LINE
  5
336
100
AcDbEntity
  8
KONSTRUKTIONSELEMENTE
100
AcDbLine
 62
7
  6
CONTINUOUS
 10
158.8067514351
 20
183.0936022194
 11
158.5939854844
 21
182.051935503
  0
LINE
  5
337
100
AcDbEntity
  8
KONSTRUKTIONSELEMENTE
100
AcDbLine
 62
7
  6
CONTINUOUS
 10
153.700368469
 20
185.176935354
 11
153.487602537
 21
184.3436022194
  0
LINE
  5
338
100
AcDbEntity
  8
KONSTRUKTIONSELEMENTE
100
AcDbLine
 62
7
  6
CONTINUOUS
 10
157.5301556936
 20
182.2602689357
 11
157.7429216257
 21
183.0936022194
  0
LINE
  5
339
100
AcDbEntity
  8
KONSTRUKTIONSELEMENTE
100
AcDbLine
 62
7
  6
CONTINUOUS
 10
158.5939854844
 20
182.051935503
 11
157.9556876323
 21
181.0102688612
  0
LINE
  5
33A
100
AcDbEntity
  8
KONSTRUKTIONSELEMENTE
100
AcDbLine
 62
7
  6
CONTINUOUS
 10
157.1046238294
 20
181.6352689357
 11
157.5301556936
 21
182.2602689357
  0
LINE
  5
33B
100
AcDbEntity
  8
KONSTRUKTIONSELEMENTE
100
AcDbLine
 62
7
  6
CONTINUOUS
 10
73.2961129597
 20
221.6352672966
 11
74.3599432161
 21
221.8436022194
  0
LINE
  5
33C
100
AcDbEntity
  8
KONSTRUKTIONSELEMENTE
100
AcDbLine
 62
7
  6
CONTINUOUS
 10
81.8067514351
 20
230.5936022194
 11
77.1259003332
 21
230.5936022194
  0
LINE
  5
33D
100
AcDbEntity
  8
KONSTRUKTIONSELEMENTE
100
AcDbLine
 62
7
  6
CONTINUOUS
 10
75.8493047407
 20
230.5936022194
 11
71.8067514351
 21
230.5936022194
  0
LINE
  5
33E
100
AcDbEntity
  8
KONSTRUKTIONSELEMENTE
100
AcDbLine
 62
7
  6
CONTINUOUS
 10
71.8067514351
 20
231.8436022194
 11
81.8067514351
 21
231.8436022194
  0
LINE
  5
33F
100
AcDbEntity
  8
KONSTRUKTIONSELEMENTE
100
AcDbLine
 62
7
  6
CONTINUOUS
 10
76.8067514351
 20
233.4686022194
 11
77.0066397161
 21
233.4686022194
  0
LINE
  5
340
100
AcDbEntity
  8
KONSTRUKTIONSELEMENTE
100
AcDbLine
 62
7
  6
CONTINUOUS
 10
153.6068642345
 20
233.4686022194
 11
153.8067514351
 21
233.4686022194
  0
LINE
  5
341
100
AcDbEntity
  8
KONSTRUKTIONSELEMENTE
100
AcDbLine
 62
7
  6
CONTINUOUS
 10
152.4237728765
 20
225.1769371422
 11
151.7854750803
 21
225.3852672966
  0
LINE
  5
342
100
AcDbEntity
  8
KONSTRUKTIONSELEMENTE
100
AcDbLine
 62
7
  6
CONTINUOUS
 10
157.5301556936
 20
196.6352684887
 11
157.1046238294
 21
197.2602684887
  0
LINE
  5
343
100
AcDbEntity
  8
KONSTRUKTIONSELEMENTE
100
AcDbLine
 62
7
  6
CONTINUOUS
 10
157.9556876323
 20
197.8852684887
 11
158.5939854844
 21
196.8436022194
  0
LINE
  5
344
100
AcDbEntity
  8
KONSTRUKTIONSELEMENTE
100
AcDbLine
 62
7
  6
CONTINUOUS
 10
157.7429216257
 20
184.3436022194
 11
157.5301556936
 21
185.176935354
  0
LINE
  5
345
100
AcDbEntity
  8
KONSTRUKTIONSELEMENTE
100
AcDbLine
 62
7
  6
CONTINUOUS
 10
158.5939854844
 20
185.3852690847
 11
158.8067514351
 21
184.3436022194
  0
LINE
  5
346
100
AcDbEntity
  8
KONSTRUKTIONSELEMENTE
100
AcDbLine
 62
7
  6
CONTINUOUS
 10
157.7429216257
 20
195.5936022194
 11
157.5301556936
 21
196.6352684887
  0
LINE
  5
347
100
AcDbEntity
  8
KONSTRUKTIONSELEMENTE
100
AcDbLine
 62
7
  6
CONTINUOUS
 10
154.1259003332
 20
224.9686022194
 11
154.3386662653
 21
223.9269371422
  0
LINE
  5
348
100
AcDbEntity
  8
KONSTRUKTIONSELEMENTE
100
AcDbLine
 62
7
  6
CONTINUOUS
 10
158.5939854844
 20
196.8436022194
 11
158.8067514351
 21
195.5936022194
  0
LINE
  5
349
100
AcDbEntity
  8
BEZUGSACHSEN
100
AcDbLine
 62
7
  6
CONTINUOUS
 10
168.8067514351
 20
236.4686022194
 11
168.8067514351
 21
183.9685459571
  0
LINE
  5
34A
100
AcDbEntity
  8
KONSTRUKTIONSELEMENTE
100
AcDbLine
 62
7
  6
CONTINUOUS
 10
168.8067514351
 20
183.9685886992
 11
168.8067514351
 21
91.9686022236
  0
LINE
  5
34B
100
AcDbEntity
  8
KONSTRUKTIONSELEMENTE
100
AcDbLine
 62
7
  6
CONTINUOUS
 10
151.9982410124
 20
226.6352672966
 11
152.6365388086
 21
226.4269371422
  0
LINE
  5
34C
100
AcDbEntity
  8
KONSTRUKTIONSELEMENTE
100
AcDbLine
 62
7
  6
CONTINUOUS
 10
152.6365388086
 20
226.4269371422
 11
153.487602537
 21
225.8019371422
  0
LINE
  5
34D
100
AcDbEntity
  8
KONSTRUKTIONSELEMENTE
100
AcDbLine
 62
7
  6
CONTINUOUS
 10
152.8493047407
 20
224.7602672966
 11
152.4237728765
 21
225.1769371422
  0
LINE
  5
34E
100
AcDbEntity
  8
KONSTRUKTIONSELEMENTE
100
AcDbLine
 62
7
  6
CONTINUOUS
 10
153.487602537
 20
225.8019371422
 11
154.1259003332
 21
224.9686022194
  0
LINE
  5
34F
100
AcDbEntity
  8
KONSTRUKTIONSELEMENTE
100
AcDbLine
 62
7
  6
CONTINUOUS
 10
153.0620706728
 20
224.1352672966
 11
152.8493047407
 21
224.7602672966
  0
LINE
  5
350
100
AcDbEntity
  8
KONSTRUKTIONSELEMENTE
100
AcDbLine
 62
7
  6
CONTINUOUS
 10
188.8067514351
 20
155.4686022194
 11
188.8067514351
 21
100.4686022194
  0
LINE
  5
351
100
AcDbEntity
  8
KONSTRUKTIONSELEMENTE
100
AcDbLine
 62
7
  6
CONTINUOUS
 10
191.8067514351
 20
148.4686022194
 11
191.8067514351
 21
148.3688050213
  0
LINE
  5
352
100
AcDbEntity
  8
KONSTRUKTIONSELEMENTE
100
AcDbLine
 62
7
  6
CONTINUOUS
 10
191.8067514351
 20
109.9686022194
 11
191.8067514351
 21
107.4686022194
  0
LINE
  5
353
100
AcDbEntity
  8
KONSTRUKTIONSELEMENTE
100
AcDbLine
 62
7
  6
CONTINUOUS
 10
191.8067514351
 20
123.8686849295
 11
191.8067514351
 21
132.0685208969
  0
LINE
  5
354
100
AcDbEntity
  8
KONSTRUKTIONSELEMENTE
100
AcDbLine
 62
7
  6
CONTINUOUS
 10
191.8067514351
 20
145.9686022194
 11
191.8067514351
 21
148.327161647
  0
LINE
  5
355
100
AcDbEntity
  8
KONSTRUKTIONSELEMENTE
100
AcDbLine
 62
7
  6
CONTINUOUS
 10
195.8067514351
 20
148.4686022194
 11
195.8067514351
 21
145.9686022194
  0
LINE
  5
356
100
AcDbEntity
  8
KONSTRUKTIONSELEMENTE
100
AcDbLine
 62
7
  6
CONTINUOUS
 10
195.8067514351
 20
132.0685208969
 11
195.8067514351
 21
123.8686849295
  0
LINE
  5
357
100
AcDbEntity
  8
KONSTRUKTIONSELEMENTE
100
AcDbLine
 62
7
  6
CONTINUOUS
 10
195.8067514351
 20
107.4686022194
 11
195.8067514351
 21
109.9686022194
  0
LINE
  5
358
100
AcDbEntity
  8
KONSTRUKTIONSELEMENTE
100
AcDbLine
 62
7
  6
CONTINUOUS
 10
200.8067514351
 20
109.9686022194
 11
200.8067514351
 21
145.9686022194
  0
LINE
  5
359
100
AcDbEntity
  8
TEIL_STARTBEZUEGE
100
AcDbLine
 62
2
  6
CENTER
 10
260.8125474074
 20
127.9686022194
 11
338.8158494468
 21
127.9686022194
  0
LINE
  5
35A
100
AcDbEntity
  8
BEZUGSACHSEN
100
AcDbLine
 62
7
  6
CONTINUOUS
 10
284.8141958509
 20
233.4686022194
 11
284.8141958509
 21
171.7033967922
  0
LINE
  5
35B
100
AcDbEntity
  8
KONSTRUKTIONSELEMENTE
100
AcDbLine
 62
7
  6
CONTINUOUS
 10
284.8141958509
 20
233.4686022194
 11
284.8141958509
 21
274.9685284883
  0
LINE
  5
35C
100
AcDbEntity
  8
KONSTRUKTIONSELEMENTE
100
AcDbLine
 62
7
  6
CONTINUOUS
 10
315.3141958509
 20
179.9686022194
 11
313.9563314746
 21
179.9686022194
  0
LINE
  5
35D
100
AcDbEntity
  8
KONSTRUKTIONSELEMENTE
100
AcDbLine
 62
7
  6
CONTINUOUS
 10
315.3141958509
 20
181.2186022194
 11
313.9563314746
 21
181.2186022194
  0
LINE
  5
35E
100
AcDbEntity
  8
KONSTRUKTIONSELEMENTE
100
AcDbLine
 62
7
  6
CONTINUOUS
 10
315.3141958509
 20
184.1352687867
 11
314.8141958509
 21
184.1352687867
  0
LWPOLYLINE
  5
35F
100
AcDbEntity
  8
KONSTRUKTIONSELEMENTE
100
AcDbPolyline
 62
7
  6
CONTINUOUS
 90
17
 70
0
 10
322.3141903462
 20
156.07115797
 10
321.4916280247
 20
156.766904442
 10
320.6691995069
 20
157.5443693032
 10
319.891986912
 20
158.3671968271
 10
319.162506384
 20
159.2327496382
 10
318.4831147049
 20
160.1382551356
 10
317.8560078885
 20
161.0808080494
 10
317.2832120851
 20
162.0573819118
 10
316.7665768274
 20
163.0648392597
 10
316.3077692511
 20
164.0999414353
 10
315.9082684455
 20
165.1593594298
 10
315.5693605278
 20
166.2396849109
 10
315.2921343714
 20
167.3374415273
 10
315.0774780047
 20
168.4490964459
 10
314.9260756947
 20
169.5710720735
 10
314.8384060728
 20
170.6997508391
 10
314.8141918897
 20
171.6836083882
  0
LINE
  5
360
100
AcDbEntity
  8
KONSTRUKTIONSELEMENTE
100
AcDbLine
 62
7
  6
CONTINUOUS
 10
294.8141958509
 20
150.41854654
 11
294.8141958509
 21
105.5186578987
  0
LINE
  5
361
100
AcDbEntity
  8
BEZUGSACHSEN
100
AcDbLine
 62
2
  6
CENTER
 10
299.8141958509
 20
90.7314114619
 11
299.8141958509
 21
293.4297916796
  0
LINE
  5
362
100
AcDbEntity
  8
KONSTRUKTIONSELEMENTE
100
AcDbLine
 62
7
  6
CONTINUOUS
 10
315.3141958509
 20
187.051935354
 11
313.9563314746
 21
187.051935354
  0
LINE
  5
363
100
AcDbEntity
  8
KONSTRUKTIONSELEMENTE
100
AcDbLine
 62
7
  6
CONTINUOUS
 10
315.3141958509
 20
188.301935354
 11
313.9563314746
 21
188.301935354
  0
LINE
  5
364
100
AcDbEntity
  8
KONSTRUKTIONSELEMENTE
100
AcDbLine
 62
7
  6
CONTINUOUS
 10
315.3141958509
 20
189.1352690847
 11
314.8141958509
 21
189.1352690847
  0
LINE
  5
365
100
AcDbEntity
  8
KONSTRUKTIONSELEMENTE
100
AcDbLine
 62
7
  6
CONTINUOUS
 10
315.3141958509
 20
189.9686022194
 11
314.7290743124
 21
189.9686022194
  0
LINE
  5
366
100
AcDbEntity
  8
KONSTRUKTIONSELEMENTE
100
AcDbLine
 62
7
  6
CONTINUOUS
 10
315.3141958509
 20
190.1769359501
 11
314.5765351698
 21
190.1769359501
  0
LINE
  5
367
100
AcDbEntity
  8
KONSTRUKTIONSELEMENTE
100
AcDbLine
 62
7
  6
CONTINUOUS
 10
315.3141958509
 20
190.5936022194
 11
314.3975911173
 21
190.5936022194
  0
LINE
  5
368
100
AcDbEntity
  8
KONSTRUKTIONSELEMENTE
100
AcDbLine
 62
7
  6
CONTINUOUS
 10
315.3141958509
 20
191.4269359501
 11
314.1660442993
 21
191.4269359501
  0
LINE
  5
369
100
AcDbEntity
  8
KONSTRUKTIONSELEMENTE
100
AcDbLine
 62
7
  6
CONTINUOUS
 10
304.8141958509
 20
105.5186578987
 11
304.8141958509
 21
150.41854654
  0
LINE
  5
36A
100
AcDbEntity
  8
KONSTRUKTIONSELEMENTE
100
AcDbLine
 62
7
  6
CONTINUOUS
 10
315.3141958509
 20
192.2602684887
 11
314.0297644283
 21
192.2602684887
  0
LINE
  5
36B
100
AcDbEntity
  8
KONSTRUKTIONSELEMENTE
100
AcDbLine
 62
7
  6
CONTINUOUS
 10
315.3141958509
 20
193.3019359501
 11
313.9563314746
 21
193.3019359501
  0
LINE
  5
36C
100
AcDbEntity
  8
KONSTRUKTIONSELEMENTE
100
AcDbLine
 62
7
  6
CONTINUOUS
 10
315.3141958509
 20
195.1769359501
 11
313.9563314746
 21
195.1769359501
  0
LINE
  5
36D
100
AcDbEntity
  8
KONSTRUKTIONSELEMENTE
100
AcDbLine
 62
7
  6
CONTINUOUS
 10
315.3141958509
 20
196.2186022194
 11
314.0297644283
 21
196.2186022194
  0
LINE
  5
36E
100
AcDbEntity
  8
KONSTRUKTIONSELEMENTE
100
AcDbLine
 62
7
  6
CONTINUOUS
 10
315.3141958509
 20
197.0519359501
 11
314.1660442993
 21
197.0519359501
  0
LINE
  5
36F
100
AcDbEntity
  8
KONSTRUKTIONSELEMENTE
100
AcDbLine
 62
7
  6
CONTINUOUS
 10
315.3141958509
 20
197.8852684887
 11
314.3975911173
 21
197.8852684887
  0
LINE
  5
370
100
AcDbEntity
  8
KONSTRUKTIONSELEMENTE
100
AcDbLine
 62
7
  6
CONTINUOUS
 10
315.3141958509
 20
198.0936022194
 11
314.6132880372
 21
198.0936022194
  0
LINE
  5
371
100
AcDbEntity
  8
KONSTRUKTIONSELEMENTE
100
AcDbLine
 62
7
  6
CONTINUOUS
 10
315.3141958509
 20
198.5102684887
 11
314.8141958509
 21
198.5102684887
  0
LINE
  5
372
100
AcDbEntity
  8
KONSTRUKTIONSELEMENTE
100
AcDbLine
 62
7
  6
CONTINUOUS
 10
315.3141958509
 20
198.9269359501
 11
314.8141958509
 21
198.9269359501
  0
LINE
  5
373
100
AcDbEntity
  8
KONSTRUKTIONSELEMENTE
100
AcDbLine
 62
7
  6
CONTINUOUS
 10
313.9563314746
 20
231.8436022194
 11
313.9563314746
 21
230.5936022194
  0
LINE
  5
374
100
AcDbEntity
  8
KONSTRUKTIONSELEMENTE
100
AcDbLine
 62
7
  6
CONTINUOUS
 10
313.9563314746
 20
224.7602672966
 11
313.9563314746
 21
223.5102672966
  0
LINE
  5
375
100
AcDbEntity
  8
KONSTRUKTIONSELEMENTE
100
AcDbLine
 62
7
  6
CONTINUOUS
 10
313.9563314746
 20
218.926934758
 11
313.9563314746
 21
217.051934758
  0
LINE
  5
376
100
AcDbEntity
  8
KONSTRUKTIONSELEMENTE
100
AcDbLine
 62
7
  6
CONTINUOUS
 10
313.9563314746
 20
208.7186022194
 11
313.9563314746
 21
207.676934758
  0
LINE
  5
377
100
AcDbEntity
  8
KONSTRUKTIONSELEMENTE
100
AcDbLine
 62
7
  6
CONTINUOUS
 10
313.9563314746
 20
195.1769359501
 11
313.9563314746
 21
193.3019359501
  0
LINE
  5
378
100
AcDbEntity
  8
KONSTRUKTIONSELEMENTE
100
AcDbLine
 62
7
  6
CONTINUOUS
 10
313.9563314746
 20
188.301935354
 11
313.9563314746
 21
187.051935354
  0
LINE
  5
379
100
AcDbEntity
  8
KONSTRUKTIONSELEMENTE
100
AcDbLine
 62
7
  6
CONTINUOUS
 10
313.9563314746
 20
181.2186022194
 11
313.9563314746
 21
179.9686022194
  0
LINE
  5
37A
100
AcDbEntity
  8
KONSTRUKTIONSELEMENTE
100
AcDbLine
 62
7
  6
CONTINUOUS
 10
314.7836078576
 20
230.5936022194
 11
314.7836078576
 21
224.7602672966
  0
LINE
  5
37B
100
AcDbEntity
  8
KONSTRUKTIONSELEMENTE
100
AcDbLine
 62
7
  6
CONTINUOUS
 10
315.3141958509
 20
199.1352684887
 11
314.8141958509
 21
199.1352684887
  0
LINE
  5
37C
100
AcDbEntity
  8
KONSTRUKTIONSELEMENTE
100
AcDbLine
 62
7
  6
CONTINUOUS
 10
315.3141958509
 20
199.3436022194
 11
314.8141958509
 21
199.3436022194
  0
LINE
  5
37D
100
AcDbEntity
  8
KONSTRUKTIONSELEMENTE
100
AcDbLine
 62
7
  6
CONTINUOUS
 10
315.3141958509
 20
199.7602684887
 11
314.8108002659
 21
199.7602684887
  0
LINE
  5
37E
100
AcDbEntity
  8
KONSTRUKTIONSELEMENTE
100
AcDbLine
 62
7
  6
CONTINUOUS
 10
315.3141958509
 20
202.676934758
 11
314.8108002659
 21
202.676934758
  0
LINE
  5
37F
100
AcDbEntity
  8
KONSTRUKTIONSELEMENTE
100
AcDbLine
 62
7
  6
CONTINUOUS
 10
315.3141958509
 20
203.7186022194
 11
314.8141958509
 21
203.7186022194
  0
LINE
  5
380
100
AcDbEntity
  8
KONSTRUKTIONSELEMENTE
100
AcDbLine
 62
7
  6
CONTINUOUS
 10
315.3141958509
 20
204.3436022194
 11
314.8141958509
 21
204.3436022194
  0
LINE
  5
381
100
AcDbEntity
  8
KONSTRUKTIONSELEMENTE
100
AcDbLine
 62
7
  6
CONTINUOUS
 10
315.3141958509
 20
204.9686022194
 11
314.5765351698
 21
204.9686022194
  0
LINE
  5
382
100
AcDbEntity
  8
KONSTRUKTIONSELEMENTE
100
AcDbLine
 62
7
  6
CONTINUOUS
 10
315.3141958509
 20
205.176934758
 11
314.3975911173
 21
205.176934758
  0
LINE
  5
383
100
AcDbEntity
  8
KONSTRUKTIONSELEMENTE
100
AcDbLine
 62
7
  6
CONTINUOUS
 10
314.8141958509
 20
274.9685284883
 11
314.8141958509
 21
233.4686022194
  0
LINE
  5
384
100
AcDbEntity
  8
BEZUGSACHSEN
100
AcDbLine
 62
7
  6
CONTINUOUS
 10
314.8141958509
 20
233.4686022194
 11
314.8141958509
 21
231.8436022194
  0
LINE
  5
385
100
AcDbEntity
  8
BEZUGSACHSEN
100
AcDbLine
 62
7
  6
CONTINUOUS
 10
314.8141958509
 20
223.5102672966
 11
314.8141958509
 21
221.8436022194
  0
LINE
  5
386
100
AcDbEntity
  8
BEZUGSACHSEN
100
AcDbLine
 62
7
  6
CONTINUOUS
 10
314.8141958509
 20
213.7186022194
 11
314.8141958509
 21
211.426934758
  0
LINE
  5
387
100
AcDbEntity
  8
BEZUGSACHSEN
100
AcDbLine
 62
7
  6
CONTINUOUS
 10
314.8141958509
 20
204.9686022194
 11
314.8141958509
 21
198.0936022194
  0
LINE
  5
388
100
AcDbEntity
  8
BEZUGSACHSEN
100
AcDbLine
 62
7
  6
CONTINUOUS
 10
314.8141958509
 20
189.9686022194
 11
314.8141958509
 21
188.301935354
  0
LINE
  5
389
100
AcDbEntity
  8
BEZUGSACHSEN
100
AcDbLine
 62
7
  6
CONTINUOUS
 10
314.8141958509
 20
185.3800751062
 11
314.8141958509
 21
182.8904624672
  0
LINE
  5
38A
100
AcDbEntity
  8
BEZUGSACHSEN
100
AcDbLine
 62
7
  6
CONTINUOUS
 10
314.8141958509
 20
179.9686022194
 11
314.8141958509
 21
171.7031185784
  0
LINE
  5
38B
100
AcDbEntity
  8
KONSTRUKTIONSELEMENTE
100
AcDbLine
 62
7
  6
CONTINUOUS
 10
315.3141958509
 20
179.9686022194
 11
315.3141958509
 21
188.301935354
  0
LINE
  5
38C
100
AcDbEntity
  8
KONSTRUKTIONSELEMENTE
100
AcDbLine
 62
7
  6
CONTINUOUS
 10
315.3141958509
 20
189.1352690847
 11
315.3141958509
 21
199.3436022194
  0
LINE
  5
38D
100
AcDbEntity
  8
KONSTRUKTIONSELEMENTE
100
AcDbLine
 62
7
  6
CONTINUOUS
 10
315.3141958509
 20
199.7602684887
 11
315.3141958509
 21
231.8436022194
  0
LINE
  5
38E
100
AcDbEntity
  8
KONSTRUKTIONSELEMENTE
100
AcDbLine
 62
7
  6
CONTINUOUS
 10
315.3141958509
 20
206.0102696808
 11
314.1660442993
 21
206.0102696808
  0
LINE
  5
38F
100
AcDbEntity
  8
KONSTRUKTIONSELEMENTE
100
AcDbLine
 62
7
  6
CONTINUOUS
 10
315.3141958509
 20
206.8436022194
 11
314.0297644283
 21
206.8436022194
  0
LINE
  5
390
100
AcDbEntity
  8
KONSTRUKTIONSELEMENTE
100
AcDbLine
 62
7
  6
CONTINUOUS
 10
315.3141958509
 20
207.676934758
 11
313.9563314746
 21
207.676934758
  0
LINE
  5
391
100
AcDbEntity
  8
KONSTRUKTIONSELEMENTE
100
AcDbLine
 62
7
  6
CONTINUOUS
 10
315.3141958509
 20
208.7186022194
 11
313.9563314746
 21
208.7186022194
  0
LINE
  5
392
100
AcDbEntity
  8
KONSTRUKTIONSELEMENTE
100
AcDbLine
 62
7
  6
CONTINUOUS
 10
315.3141958509
 20
209.7602696808
 11
314.0297644283
 21
209.7602696808
  0
LINE
  5
393
100
AcDbEntity
  8
KONSTRUKTIONSELEMENTE
100
AcDbLine
 62
7
  6
CONTINUOUS
 10
315.3141958509
 20
210.5936022194
 11
314.2289912991
 21
210.5936022194
  0
LINE
  5
394
100
AcDbEntity
  8
KONSTRUKTIONSELEMENTE
100
AcDbLine
 62
7
  6
CONTINUOUS
 10
315.3141958509
 20
211.2186022194
 11
314.4471735618
 21
211.2186022194
  0
LINE
  5
395
100
AcDbEntity
  8
KONSTRUKTIONSELEMENTE
100
AcDbLine
 62
7
  6
CONTINUOUS
 10
315.3141958509
 20
211.426934758
 11
314.5765351698
 21
211.426934758
  0
LINE
  5
396
100
AcDbEntity
  8
KONSTRUKTIONSELEMENTE
100
AcDbLine
 62
7
  6
CONTINUOUS
 10
315.3141958509
 20
211.6352696808
 11
314.8141958509
 21
211.6352696808
  0
LINE
  5
397
100
AcDbEntity
  8
KONSTRUKTIONSELEMENTE
100
AcDbLine
 62
7
  6
CONTINUOUS
 10
315.3141958509
 20
212.051934758
 11
314.8141958509
 21
212.051934758
  0
LINE
  5
398
100
AcDbEntity
  8
KONSTRUKTIONSELEMENTE
100
AcDbLine
 62
7
  6
CONTINUOUS
 10
315.3141958509
 20
213.0936022194
 11
314.8141958509
 21
213.0936022194
  0
LINE
  5
399
100
AcDbEntity
  8
KONSTRUKTIONSELEMENTE
100
AcDbLine
 62
7
  6
CONTINUOUS
 10
315.3141958509
 20
213.7186022194
 11
314.7290743124
 21
213.7186022194
  0
LINE
  5
39A
100
AcDbEntity
  8
KONSTRUKTIONSELEMENTE
100
AcDbLine
 62
7
  6
CONTINUOUS
 10
315.3141958509
 20
213.926934758
 11
314.5765351698
 21
213.926934758
  0
LINE
  5
39B
100
AcDbEntity
  8
KONSTRUKTIONSELEMENTE
100
AcDbLine
 62
7
  6
CONTINUOUS
 10
315.3141958509
 20
214.3436022194
 11
314.3975911173
 21
214.3436022194
  0
LINE
  5
39C
100
AcDbEntity
  8
KONSTRUKTIONSELEMENTE
100
AcDbLine
 62
7
  6
CONTINUOUS
 10
315.3141958509
 20
215.176934758
 11
314.1660442993
 21
215.176934758
  0
LINE
  5
39D
100
AcDbEntity
  8
KONSTRUKTIONSELEMENTE
100
AcDbLine
 62
7
  6
CONTINUOUS
 10
315.3141958509
 20
216.0102696808
 11
314.0297644283
 21
216.0102696808
  0
LINE
  5
39E
100
AcDbEntity
  8
KONSTRUKTIONSELEMENTE
100
AcDbLine
 62
7
  6
CONTINUOUS
 10
315.3141958509
 20
217.051934758
 11
313.9563314746
 21
217.051934758
  0
LINE
  5
39F
100
AcDbEntity
  8
KONSTRUKTIONSELEMENTE
100
AcDbLine
 62
7
  6
CONTINUOUS
 10
315.3141958509
 20
218.926934758
 11
313.9563314746
 21
218.926934758
  0
LINE
  5
3A0
100
AcDbEntity
  8
KONSTRUKTIONSELEMENTE
100
AcDbLine
 62
7
  6
CONTINUOUS
 10
315.3141958509
 20
219.9686022194
 11
314.0297644283
 21
219.9686022194
  0
LINE
  5
3A1
100
AcDbEntity
  8
KONSTRUKTIONSELEMENTE
100
AcDbLine
 62
7
  6
CONTINUOUS
 10
315.3141958509
 20
220.8019371422
 11
314.1660442993
 21
220.8019371422
  0
LINE
  5
3A2
100
AcDbEntity
  8
KONSTRUKTIONSELEMENTE
100
AcDbLine
 62
7
  6
CONTINUOUS
 10
315.3141958509
 20
221.6352672966
 11
314.3975911173
 21
221.6352672966
  0
LINE
  5
3A3
100
AcDbEntity
  8
KONSTRUKTIONSELEMENTE
100
AcDbLine
 62
7
  6
CONTINUOUS
 10
315.3141958509
 20
221.8436022194
 11
314.6132880372
 21
221.8436022194
  0
LINE
  5
3A4
100
AcDbEntity
  8
KONSTRUKTIONSELEMENTE
100
AcDbLine
 62
7
  6
CONTINUOUS
 10
315.3141958509
 20
223.5102672966
 11
313.9563314746
 21
223.5102672966
  0
LINE
  5
3A5
100
AcDbEntity
  8
KONSTRUKTIONSELEMENTE
100
AcDbLine
 62
7
  6
CONTINUOUS
 10
315.3141958509
 20
224.7602672966
 11
313.9563314746
 21
224.7602672966
  0
LINE
  5
3A6
100
AcDbEntity
  8
KONSTRUKTIONSELEMENTE
100
AcDbLine
 62
7
  6
CONTINUOUS
 10
315.3141958509
 20
230.5936022194
 11
313.9563314746
 21
230.5936022194
  0
LINE
  5
3A7
100
AcDbEntity
  8
KONSTRUKTIONSELEMENTE
100
AcDbLine
 62
7
  6
CONTINUOUS
 10
315.3141958509
 20
231.8436022194
 11
313.9563314746
 21
231.8436022194
  0
LINE
  5
3A8
100
AcDbEntity
  8
KONSTRUKTIONSELEMENTE
100
AcDbLine
 62
7
  6
CONTINUOUS
 10
31.8067514351
 20
47.7374280668
 11
31.8067514351
 21
37.7374280668
  0
LINE
  5
3A9
100
AcDbEntity
  8
KONSTRUKTIONSELEMENTE
100
AcDbLine
 62
7
  6
CONTINUOUS
 10
55.8067514351
 20
19.7374280668
 11
55.8067514351
 21
37.7374280668
  0
LINE
  5
3AA
100
AcDbEntity
  8
KONSTRUKTIONSELEMENTE
100
AcDbLine
 62
7
  6
CONTINUOUS
 10
55.8067514351
 20
47.7374280668
 11
55.8067514351
 21
65.7374280668
  0
LINE
  5
3AB
100
AcDbEntity
  8
KONSTRUKTIONSELEMENTE
100
AcDbLine
 62
7
  6
CONTINUOUS
 10
61.8067514351
 20
6.7374609974
 11
61.8067514351
 21
78.7374093086
  0
LINE
  5
3AC
100
AcDbEntity
  8
KONSTRUKTIONSELEMENTE
100
AcDbLine
 62
7
  6
CONTINUOUS
 10
71.8067514351
 20
27.2374280668
 11
71.8067514351
 21
28.5952924431
  0
LINE
  5
3AD
100
AcDbEntity
  8
BEZUGSACHSEN
100
AcDbLine
 62
7
  6
CONTINUOUS
 10
168.8067514351
 20
6.7374280668
 11
138.8067514351
 21
6.7374280668
  0
LINE
  5
3AE
100
AcDbEntity
  8
BEZUGSACHSEN
100
AcDbLine
 62
7
  6
CONTINUOUS
 10
91.8067514351
 20
6.7374280668
 11
61.8067514351
 21
6.7374280668
  0
LINE
  5
3AF
100
AcDbEntity
  8
KONSTRUKTIONSELEMENTE
100
AcDbLine
 62
7
  6
CONTINUOUS
 10
81.8067514351
 20
27.2374280668
 11
81.8067514351
 21
27.7374280668
  0
LINE
  5
3B0
100
AcDbEntity
  8
KONSTRUKTIONSELEMENTE
100
AcDbLine
 62
7
  6
CONTINUOUS
 10
168.8067514351
 20
10.9852956641
 11
188.8067514351
 21
10.9852956641
  0
LINE
  5
3B1
100
AcDbEntity
  8
KONSTRUKTIONSELEMENTE
100
AcDbLine
 62
7
  6
CONTINUOUS
 10
193.7067514351
 20
12.1920299973
 11
193.9067514351
 21
12.1920299973
  0
LINE
  5
3B2
100
AcDbEntity
  8
KONSTRUKTIONSELEMENTE
100
AcDbLine
 62
7
  6
CONTINUOUS
 10
91.8067514351
 20
78.7373934214
 11
91.8067514351
 21
57.7374280668
  0
LINE
  5
3B3
100
AcDbEntity
  8
KONSTRUKTIONSELEMENTE
100
AcDbLine
 62
7
  6
CONTINUOUS
 10
91.8067514351
 20
27.7374280668
 11
91.8067514351
 21
6.7374607653
  0
LINE
  5
3B4
100
AcDbEntity
  8
BEZUGSACHSEN
100
AcDbLine
 62
7
  6
CONTINUOUS
 10
61.8067514351
 20
19.7374280668
 11
55.8067514351
 21
19.7374280668
  0
LINE
  5
3B5
100
AcDbEntity
  8
KONSTRUKTIONSELEMENTE
100
AcDbLine
 62
7
  6
CONTINUOUS
 10
200.8067514351
 20
24.7374280668
 11
195.8067514351
 21
24.7374280668
  0
LINE
  5
3B6
100
AcDbEntity
  8
KONSTRUKTIONSELEMENTE
100
AcDbLine
 62
7
  6
CONTINUOUS
 10
191.8067514351
 20
24.7374280668
 11
188.8067514351
 21
24.7374280668
  0
LINE
  5
3B7
100
AcDbEntity
  8
KONSTRUKTIONSELEMENTE
100
AcDbLine
 62
7
  6
CONTINUOUS
 10
138.8067514351
 20
24.7374280668
 11
91.8067514351
 21
24.7374280668
  0
LINE
  5
3B8
100
AcDbEntity
  8
KONSTRUKTIONSELEMENTE
100
AcDbLine
 62
7
  6
CONTINUOUS
 10
193.9067514351
 20
24.8488842468
 11
193.7067514351
 21
24.8488842468
  0
LINE
  5
3B9
100
AcDbEntity
  8
KONSTRUKTIONSELEMENTE
100
AcDbLine
 62
7
  6
CONTINUOUS
 10
168.8067514351
 20
26.8624280668
 11
188.8067514351
 21
26.8624280668
  0
LINE
  5
3BA
100
AcDbEntity
  8
KONSTRUKTIONSELEMENTE
100
AcDbLine
 62
7
  6
CONTINUOUS
 10
71.8067514351
 20
27.2374280668
 11
81.8067514351
 21
27.2374280668
  0
LINE
  5
3BB
100
AcDbEntity
  8
KONSTRUKTIONSELEMENTE
100
AcDbLine
 62
7
  6
CONTINUOUS
 10
148.8067514351
 20
27.2374280668
 11
158.8067514351
 21
27.2374280668
  0
LINE
  5
3BC
100
AcDbEntity
  8
KONSTRUKTIONSELEMENTE
100
AcDbLine
 62
7
  6
CONTINUOUS
 10
153.8067514351
 20
27.7374280668
 11
76.8067514351
 21
27.7374280668
  0
LINE
  5
3BD
100
AcDbEntity
  8
KONSTRUKTIONSELEMENTE
100
AcDbLine
 62
7
  6
CONTINUOUS
 10
31.8068992979
 20
37.7374280668
 11
55.8067514351
 21
37.7374280668
  0
LINE
  5
3BE
100
AcDbEntity
  8
BEZUGSACHSEN
100
AcDbLine
 62
2
  6
CENTER
 10
29.4927865844
 20
42.7374280668
 11
187.1207742515
 21
42.7374280668
  0
LINE
  5
3BF
100
AcDbEntity
  8
KONSTRUKTIONSELEMENTE
100
AcDbLine
 62
7
  6
CONTINUOUS
 10
191.8067514351
 20
42.7374280668
 11
195.8067514351
 21
42.7374280668
  0
LINE
  5
3C0
100
AcDbEntity
  8
KONSTRUKTIONSELEMENTE
100
AcDbLine
 62
7
  6
CONTINUOUS
 10
55.8067514351
 20
47.7374280668
 11
31.8068992979
 21
47.7374280668
  0
LINE
  5
3C1
100
AcDbEntity
  8
KONSTRUKTIONSELEMENTE
100
AcDbLine
 62
7
  6
CONTINUOUS
 10
153.8067514351
 20
57.7374280668
 11
76.8067514351
 21
57.7374280668
  0
LINE
  5
3C2
100
AcDbEntity
  8
KONSTRUKTIONSELEMENTE
100
AcDbLine
 62
7
  6
CONTINUOUS
 10
168.8067514351
 20
58.6166928722
 11
188.8067514351
 21
58.6166928722
  0
LINE
  5
3C3
100
AcDbEntity
  8
KONSTRUKTIONSELEMENTE
100
AcDbLine
 62
7
  6
CONTINUOUS
 10
200.8067514351
 20
60.7374280668
 11
195.8067514351
 21
60.7374280668
  0
LINE
  5
3C4
100
AcDbEntity
  8
KONSTRUKTIONSELEMENTE
100
AcDbLine
 62
7
  6
CONTINUOUS
 10
191.8067514351
 20
60.7374280668
 11
188.8067514351
 21
60.7374280668
  0
LINE
  5
3C5
100
AcDbEntity
  8
KONSTRUKTIONSELEMENTE
100
AcDbLine
 62
7
  6
CONTINUOUS
 10
138.8067514351
 20
60.7374280668
 11
91.8067514351
 21
60.7374280668
  0
LINE
  5
3C6
100
AcDbEntity
  8
KONSTRUKTIONSELEMENTE
100
AcDbLine
 62
7
  6
CONTINUOUS
 10
138.8067514351
 20
6.7374607697
 11
138.8067514351
 21
27.7374280668
  0
LINE
  5
3C7
100
AcDbEntity
  8
KONSTRUKTIONSELEMENTE
100
AcDbLine
 62
7
  6
CONTINUOUS
 10
138.8067514351
 20
57.7374280668
 11
138.8067514351
 21
78.7373934262
  0
LINE
  5
3C8
100
AcDbEntity
  8
KONSTRUKTIONSELEMENTE
100
AcDbLine
 62
7
  6
CONTINUOUS
 10
191.8067514351
 20
63.2033022977
 11
195.8067514351
 21
63.2033022977
  0
LINE
  5
3C9
100
AcDbEntity
  8
BEZUGSACHSEN
100
AcDbLine
 62
7
  6
CONTINUOUS
 10
61.8067514351
 20
65.7374280668
 11
55.8067514351
 21
65.7374280668
  0
LINE
  5
3CA
100
AcDbEntity
  8
KONSTRUKTIONSELEMENTE
100
AcDbLine
 62
7
  6
CONTINUOUS
 10
148.8067514351
 20
27.2374280668
 11
148.8067514351
 21
27.7374280668
  0
LINE
  5
3CB
100
AcDbEntity
  8
KONSTRUKTIONSELEMENTE
100
AcDbLine
 62
7
  6
CONTINUOUS
 10
149.0195173672
 20
27.2374280668
 11
149.0195173672
 21
27.7374280668
  0
LINE
  5
3CC
100
AcDbEntity
  8
KONSTRUKTIONSELEMENTE
100
AcDbLine
 62
7
  6
CONTINUOUS
 10
149.6578151634
 20
27.2374280668
 11
149.6578151634
 21
27.7374280668
  0
LINE
  5
3CD
100
AcDbEntity
  8
KONSTRUKTIONSELEMENTE
100
AcDbLine
 62
7
  6
CONTINUOUS
 10
150.5088788918
 20
27.2374280668
 11
150.5088788918
 21
27.7374280668
  0
LINE
  5
3CE
100
AcDbEntity
  8
KONSTRUKTIONSELEMENTE
100
AcDbLine
 62
7
  6
CONTINUOUS
 10
151.147176688
 20
27.2374280668
 11
151.147176688
 21
27.7374280668
  0
LINE
  5
3CF
100
AcDbEntity
  8
KONSTRUKTIONSELEMENTE
100
AcDbLine
 62
7
  6
CONTINUOUS
 10
151.9982410124
 20
27.2374280668
 11
151.9982410124
 21
27.7374280668
  0
LINE
  5
3D0
100
AcDbEntity
  8
KONSTRUKTIONSELEMENTE
100
AcDbLine
 62
7
  6
CONTINUOUS
 10
152.6365388086
 20
27.2374280668
 11
152.6365388086
 21
27.7374280668
  0
LINE
  5
3D1
100
AcDbEntity
  8
KONSTRUKTIONSELEMENTE
100
AcDbLine
 62
7
  6
CONTINUOUS
 10
153.487602537
 20
27.2374280668
 11
153.487602537
 21
27.7408236518
  0
LINE
  5
3D2
100
AcDbEntity
  8
KONSTRUKTIONSELEMENTE
100
AcDbLine
 62
7
  6
CONTINUOUS
 10
168.8067514351
 20
74.493825275
 11
188.8067514351
 21
74.493825275
  0
LINE
  5
3D3
100
AcDbEntity
  8
BEZUGSACHSEN
100
AcDbLine
 62
7
  6
CONTINUOUS
 10
168.8067514351
 20
78.7374280668
 11
138.8067514351
 21
78.7374280668
  0
LINE
  5
3D4
100
AcDbEntity
  8
BEZUGSACHSEN
100
AcDbLine
 62
7
  6
CONTINUOUS
 10
91.8067514351
 20
78.7374280668
 11
61.8067514351
 21
78.7374280668
  0
LINE
  5
3D5
100
AcDbEntity
  8
KONSTRUKTIONSELEMENTE
100
AcDbLine
 62
7
  6
CONTINUOUS
 10
154.1259003332
 20
27.2374280668
 11
154.1259003332
 21
27.7408236518
  0
LINE
  5
3D6
100
AcDbEntity
  8
KONSTRUKTIONSELEMENTE
100
AcDbLine
 62
7
  6
CONTINUOUS
 10
154.3386662653
 20
27.2374280668
 11
154.3386662653
 21
27.7468621464
  0
LINE
  5
3D7
100
AcDbEntity
  8
KONSTRUKTIONSELEMENTE
100
AcDbLine
 62
7
  6
CONTINUOUS
 10
158.8067514351
 20
27.2374280668
 11
158.8067514351
 21
28.5952924431
  0
LINE
  5
3D8
100
AcDbEntity
  8
KONSTRUKTIONSELEMENTE
100
AcDbLine
 62
7
  6
CONTINUOUS
 10
168.8067514351
 20
78.7374093039
 11
168.8067514351
 21
6.7374609881
  0
LINE
  5
3D9
100
AcDbEntity
  8
KONSTRUKTIONSELEMENTE
100
AcDbLine
 62
7
  6
CONTINUOUS
 10
188.8067514351
 20
74.493825275
 11
188.8067514351
 21
10.9852956641
  0
LINE
  5
3DA
100
AcDbEntity
  8
KONSTRUKTIONSELEMENTE
100
AcDbLine
 62
7
  6
CONTINUOUS
 10
191.8067514351
 20
63.2033022977
 11
191.8067514351
 21
42.7374280668
  0
LINE
  5
3DB
100
AcDbEntity
  8
KONSTRUKTIONSELEMENTE
100
AcDbLine
 62
7
  6
CONTINUOUS
 10
191.8067514351
 20
14.0920301495
 11
191.8067514351
 21
24.7377058468
  0
LINE
  5
3DC
100
AcDbEntity
  8
KONSTRUKTIONSELEMENTE
100
AcDbLine
 62
7
  6
CONTINUOUS
 10
195.8067514351
 20
63.2033022977
 11
195.8067514351
 21
42.7374280668
  0
LINE
  5
3DD
100
AcDbEntity
  8
KONSTRUKTIONSELEMENTE
100
AcDbLine
 62
7
  6
CONTINUOUS
 10
195.8067514351
 20
24.7377058468
 11
195.8067514351
 21
14.0921262123
  0
LINE
  5
3DE
100
AcDbEntity
  8
KONSTRUKTIONSELEMENTE
100
AcDbLine
 62
7
  6
CONTINUOUS
 10
200.8067514351
 20
24.7374280668
 11
200.8067514351
 21
60.7374280668
  0
ARC
  5
3DF
100
AcDbEntity
  8
KONSTRUKTIONSELEMENTE
100
AcDbCircle
 62
7
  6
CONTINUOUS
 10
115.3067514351
 20
236.4686022194
 40
53.5
100
AcDbArc
 50
0.0
 51
180.0
  0
ARC
  5
3E0
100
AcDbEntity
  8
KONSTRUKTIONSELEMENTE
100
AcDbCircle
 62
7
  6
CONTINUOUS
 10
115.3067514351
 20
233.4686022194
 40
23.5
100
AcDbArc
 50
0.0
 51
180.0
  0
ARC
  5
3E1
100
AcDbEntity
  8
KONSTRUKTIONSELEMENTE
100
AcDbCircle
 62
7
  6
CONTINUOUS
 10
54.8067514351
 20
127.9686022194
 40
23.0
100
AcDbArc
 50
90.0
 51
270.0
  0
CIRCLE
  5
3E2
100
AcDbEntity
  8
BEZUGSACHSEN
100
AcDbCircle
 62
7
  6
CONTINUOUS
 10
44.8067514351
 20
127.91854654
 40
5.0
  0
ARC
  5
3E3
100
AcDbEntity
  8
KONSTRUKTIONSELEMENTE
100
AcDbCircle
 62
7
  6
CONTINUOUS
 10
193.7067514351
 20
132.0686022194
 40
1.9
100
AcDbArc
 50
90.0
 51
180.000021636
  0
ARC
  5
3E4
100
AcDbEntity
  8
KONSTRUKTIONSELEMENTE
100
AcDbCircle
 62
7
  6
CONTINUOUS
 10
193.7067514351
 20
123.8686022194
 40
1.9
100
AcDbArc
 50
179.9999335388
 51
270.0
  0
ARC
  5
3E5
100
AcDbEntity
  8
KONSTRUKTIONSELEMENTE
100
AcDbCircle
 62
7
  6
CONTINUOUS
 10
193.9067514351
 20
132.0686022194
 40
1.9
100
AcDbArc
 50
359.999978364
 51
90.0
  0
ARC
  5
3E6
100
AcDbEntity
  8
KONSTRUKTIONSELEMENTE
100
AcDbCircle
 62
7
  6
CONTINUOUS
 10
193.9067514351
 20
123.8686022194
 40
1.9
100
AcDbArc
 50
270.0
 51
0.0000664612
  0
ARC
  5
3E7
100
AcDbEntity
  8
KONSTRUKTIONSELEMENTE
100
AcDbCircle
 62
7
  6
CONTINUOUS
 10
193.9067514351
 20
107.5686022194
 40
1.9
100
AcDbArc
 50
0.0
 51
90.0
  0
ARC
  5
3E8
100
AcDbEntity
  8
KONSTRUKTIONSELEMENTE
100
AcDbCircle
 62
7
  6
CONTINUOUS
 10
193.9067514351
 20
148.3686022194
 40
1.9
100
AcDbArc
 50
270.0
 51
360.0
  0
ARC
  5
3E9
100
AcDbEntity
  8
KONSTRUKTIONSELEMENTE
100
AcDbCircle
 62
7
  6
CONTINUOUS
 10
193.7067514351
 20
148.3686022194
 40
1.9
100
AcDbArc
 50
180.0
 51
270.0
  0
ARC
  5
3EA
100
AcDbEntity
  8
KONSTRUKTIONSELEMENTE
100
AcDbCircle
 62
7
  6
CONTINUOUS
 10
193.7067514351
 20
107.5686022194
 40
1.9
100
AcDbArc
 50
90.0
 51
180.0
  0
ARC
  5
3EB
100
AcDbEntity
  8
KONSTRUKTIONSELEMENTE
100
AcDbCircle
 62
7
  6
CONTINUOUS
 10
299.8141958509
 20
127.9686022194
 40
36.0
100
AcDbArc
 50
124.3813799852
 51
55.6189282114
  0
CIRCLE
  5
3EC
100
AcDbEntity
  8
KONSTRUKTIONSELEMENTE
100
AcDbCircle
 62
7
  6
CONTINUOUS
 10
299.8141958509
 20
127.9686022194
 40
23.0
  0
ARC
  5
3ED
100
AcDbEntity
  8
KONSTRUKTIONSELEMENTE
100
AcDbCircle
 62
7
  6
CONTINUOUS
 10
264.8142045439
 20
171.6836072656
 40
19.9999950344
100
AcDbArc
 50
308.682256462
 51
359.9999999868
  0
ARC
  5
3EE
100
AcDbEntity
  8
KONSTRUKTIONSELEMENTE
100
AcDbCircle
 62
7
  6
CONTINUOUS
 10
334.8141863971
 20
171.6836088476
 40
19.9999945984
100
AcDbArc
 50
180.0500639709
 51
231.237550787
  0
ARC
  5
3EF
100
AcDbEntity
  8
KONSTRUKTIONSELEMENTE
100
AcDbCircle
 62
7
  6
CONTINUOUS
 10
299.8141958509
 20
274.9686022194
 40
15.0
100
AcDbArc
 50
0.0
 51
180.0000000206
  0
ARC
  5
3F0
100
AcDbEntity
  8
KONSTRUKTIONSELEMENTE
100
AcDbCircle
 62
8
  6
HIDDEN
 10
299.6141958509
 20
271.7686022194
 40
14.8
100
AcDbArc
 50
180.0
 51
270.0
  0
ARC
  5
3F1
100
AcDbEntity
  8
KONSTRUKTIONSELEMENTE
100
AcDbCircle
 62
8
  6
HIDDEN
 10
300.0141958509
 20
271.7686022194
 40
14.8
100
AcDbArc
 50
270.0
 51
360.0
  0
ARC
  5
3F2
100
AcDbEntity
  8
KONSTRUKTIONSELEMENTE
100
AcDbCircle
 62
7
  6
CONTINUOUS
 10
76.8067514351
 20
42.7374280668
 40
15.0
100
AcDbArc
 50
90.0
 51
270.0
  0
ARC
  5
3F3
100
AcDbEntity
  8
KONSTRUKTIONSELEMENTE
100
AcDbCircle
 62
7
  6
CONTINUOUS
 10
153.8067514351
 20
42.7374280668
 40
15.0
100
AcDbArc
 50
270.0
 51
90.0
  0
ARC
  5
3F4
100
AcDbEntity
  8
KONSTRUKTIONSELEMENTE
100
AcDbCircle
 62
7
  6
CONTINUOUS
 10
193.7067514351
 20
14.0920299973
 40
1.9
100
AcDbArc
 50
179.9999954108
 51
270.0
  0
ARC
  5
3F5
100
AcDbEntity
  8
KONSTRUKTIONSELEMENTE
100
AcDbCircle
 62
7
  6
CONTINUOUS
 10
193.9067514351
 20
14.0920299973
 40
1.9
100
AcDbArc
 50
270.0
 51
0.0000045892
  0
SPLINE
  5
3F6
100
AcDbEntity
  8
KONSTRUKTIONSELEMENTE
100
AcDbSpline
 62
7
  6
CONTINUOUS
 70
0
 71
3
 72
23
 73
19
 74
0
 42
0.0000001
 43
0.0000001
 44
0.0000000001
 40
0.0
 40
0.0
 40
0.0
 40
0.0
 40
0.0012704051
 40
0.0049382202
 40
0.0110058384
 40
0.0194627572
 40
0.0302928692
 40
0.0434634036
 40
0.0766781369
 40
0.1187845453
 40
0.1693493775
 40
0.227887169
 40
0.2938152886
 40
0.3665086765
 40
0.4452628848
 40
0.6179131378
 40
0.8052148541
 40
1.0
 40
1.0
 40
1.0
 40
1.0
 10
191.8067514351
 20
24.7377058468
 30
0.0
 10
191.8067514351
 20
24.7385123535
 30
0.0
 10
191.81152472
 20
24.7382763326
 30
0.0
 10
191.816796251
 20
24.7403222176
 30
0.0
 10
191.829136051
 20
24.7415029108
 30
0.0
 10
191.8446875827
 20
24.7438695368
 30
0.0
 10
191.8652826727
 20
24.7463868349
 30
0.0
 10
191.9012674363
 20
24.75080789
 30
0.0
 10
191.9571311711
 20
24.7571533058
 30
0.0
 10
192.0365759858
 20
24.7656636389
 30
0.0
 10
192.1321045739
 20
24.7751805371
 30
0.0
 10
192.2427497894
 20
24.785394753
 30
0.0
 10
192.3674731679
 20
24.7959249092
 30
0.0
 10
192.5050765314
 20
24.8063912215
 30
0.0
 10
192.7103669196
 20
24.8201858756
 30
0.0
 10
192.9885097576
 20
24.8348451411
 30
0.0
 10
193.3405201363
 20
24.8462373221
 30
0.0
 10
193.5830936126
 20
24.8488842468
 30
0.0
 10
193.7067514351
 20
24.8488842468
 30
0.0
  0
SPLINE
  5
3F7
100
AcDbEntity
  8
KONSTRUKTIONSELEMENTE
100
AcDbSpline
 62
7
  6
CONTINUOUS
 70
0
 71
3
 72
23
 73
19
 74
0
 42
0.0000001
 43
0.0000001
 44
0.0000000001
 40
0.0
 40
0.0
 40
0.0
 40
0.0
 40
0.1947851459
 40
0.3820868622
 40
0.5547371152
 40
0.6334913235
 40
0.7061847114
 40
0.772112831
 40
0.8306506225
 40
0.8812154547
 40
0.9233218631
 40
0.9565365964
 40
0.9697071308
 40
0.9805372428
 40
0.9889941616
 40
0.9950617798
 40
0.9987295949
 40
1.0
 40
1.0
 40
1.0
 40
1.0
 10
193.9067514351
 20
24.8488842468
 30
0.0
 10
194.0304092576
 20
24.8488842468
 30
0.0
 10
194.2729827339
 20
24.8462373221
 30
0.0
 10
194.6249931125
 20
24.8348451411
 30
0.0
 10
194.9031359506
 20
24.8201858756
 30
0.0
 10
195.1084263388
 20
24.8063912215
 30
0.0
 10
195.2460297023
 20
24.7959249092
 30
0.0
 10
195.3707530807
 20
24.785394753
 30
0.0
 10
195.4813982963
 20
24.7751805371
 30
0.0
 10
195.5769268844
 20
24.7656636389
 30
0.0
 10
195.6563716991
 20
24.7571533058
 30
0.0
 10
195.7122354339
 20
24.75080789
 30
0.0
 10
195.7482201975
 20
24.7463868349
 30
0.0
 10
195.7688152875
 20
24.7438695368
 30
0.0
 10
195.7843668192
 20
24.7415029108
 30
0.0
 10
195.7967066192
 20
24.7403222176
 30
0.0
 10
195.8019781502
 20
24.7382763326
 30
0.0
 10
195.8067514351
 20
24.7385123535
 30
0.0
 10
195.8067514351
 20
24.7377058468
 30
0.0
  0
ELLIPSE
  5
3F8
100
AcDbEntity
  8
KONSTRUKTIONSELEMENTE
100
AcDbEllipse
 62
7
  6
CONTINUOUS
 10
299.8141958509
 20
212.6248486493
 30
0.0
 11
15.0
 21
0.0
 31
0.0
 40
0.4895843255
 41
0.1782473677
 42
0.2362336651
  0
ELLIPSE
  5
3F9
100
AcDbEntity
  8
KONSTRUKTIONSELEMENTE
100
AcDbEllipse
 62
7
  6
CONTINUOUS
 10
299.8141958509
 20
210.906104914
 30
0.0
 11
15.0
 21
-0.0
 31
0.0
 40
0.9791658496
 41
0.2362336651
 42
0.2950421164
  0
ELLIPSE
  5
3FA
100
AcDbEntity
  8
KONSTRUKTIONSELEMENTE
100
AcDbEllipse
 62
7
  6
CONTINUOUS
 10
299.8141958509
 20
206.6352506321
 30
0.0
 11
0.0
 21
29.3750595301
 31
0.0
 40
0.510637263
 41
-1.2757542104
 42
-1.2459650002
  0
ELLIPSE
  5
3FB
100
AcDbEntity
  8
KONSTRUKTIONSELEMENTE
100
AcDbEllipse
 62
7
  6
CONTINUOUS
 10
299.8141958509
 20
192.5728025254
 30
0.0
 11
-0.0
 21
73.4373966977
 31
0.0
 40
0.2042556065
 41
-1.2459650002
 42
-1.2309594173
  0
ELLIPSE
  5
3FC
100
AcDbEntity
  8
KONSTRUKTIONSELEMENTE
100
AcDbEllipse
 62
7
  6
CONTINUOUS
 10
299.8141958509
 20
243.4061230189
 30
0.0
 11
-0.0
 21
73.4375647828
 31
0.0
 40
0.204255139
 41
-1.9106332362
 42
-1.8956276534
  0
ELLIPSE
  5
3FD
100
AcDbEntity
  8
KONSTRUKTIONSELEMENTE
100
AcDbEllipse
 62
7
  6
CONTINUOUS
 10
299.8141958509
 20
229.343621268
 30
0.0
 11
-0.0
 21
29.3750595301
 31
0.0
 40
0.510637263
 41
-1.8956276534
 42
-1.8658384432
  0
ELLIPSE
  5
3FE
100
AcDbEntity
  8
KONSTRUKTIONSELEMENTE
100
AcDbEllipse
 62
7
  6
CONTINUOUS
 10
299.8141958509
 20
225.0727547672
 30
0.0
 11
15.0
 21
-0.0
 31
0.0
 40
0.9791630482
 41
-0.2950421164
 42
-0.2362336651
  0
ELLIPSE
  5
3FF
100
AcDbEntity
  8
KONSTRUKTIONSELEMENTE
100
AcDbEllipse
 62
7
  6
CONTINUOUS
 10
299.8141958509
 20
222.3227722733
 30
0.0
 11
15.0
 21
0.0
 31
0.0
 40
0.195834741
 41
-0.2362336651
 42
-0.1638527432
  0
ELLIPSE
  5
400
100
AcDbEntity
  8
KONSTRUKTIONSELEMENTE
100
AcDbEllipse
 62
7
  6
CONTINUOUS
 10
299.8141958509
 20
204.3175628903
 30
0.0
 11
15.0
 21
-0.0
 31
0.0
 40
0.244790762
 41
0.1782473677
 42
0.2362336651
  0
ELLIPSE
  5
401
100
AcDbEntity
  8
KONSTRUKTIONSELEMENTE
100
AcDbEllipse
 62
7
  6
CONTINUOUS
 10
299.8141958509
 20
201.7394276178
 30
0.0
 11
15.0
 21
-0.0
 31
0.0
 40
0.979168651
 41
0.2362336651
 42
0.2950421164
  0
ELLIPSE
  5
402
100
AcDbEntity
  8
KONSTRUKTIONSELEMENTE
100
AcDbEllipse
 62
7
  6
CONTINUOUS
 10
299.8141958509
 20
197.4686099928
 30
0.0
 11
-0.0
 21
29.3749754876
 31
0.0
 40
0.510638724
 41
-1.2757542104
 42
-1.2459650002
  0
ELLIPSE
  5
403
100
AcDbEntity
  8
KONSTRUKTIONSELEMENTE
100
AcDbEllipse
 62
7
  6
CONTINUOUS
 10
299.8141958509
 20
188.0936177663
 30
0.0
 11
-0.0
 21
58.7499509752
 31
0.0
 40
0.255319362
 41
-1.2459650002
 42
-1.2309594173
  0
ELLIPSE
  5
404
100
AcDbEntity
  8
KONSTRUKTIONSELEMENTE
100
AcDbEllipse
 62
7
  6
CONTINUOUS
 10
299.8141958509
 20
233.1977904803
 30
0.0
 11
-0.0
 21
73.4375647828
 31
0.0
 40
0.204255139
 41
-1.9106332362
 42
-1.8956276534
  0
ELLIPSE
  5
405
100
AcDbEntity
  8
KONSTRUKTIONSELEMENTE
100
AcDbEllipse
 62
7
  6
CONTINUOUS
 10
299.8141958509
 20
216.0102644985
 30
0.0
 11
-0.0
 21
19.5833169917
 31
0.0
 40
0.765958086
 41
-1.8956276534
 42
-1.8510461683
  0
ELLIPSE
  5
406
100
AcDbEntity
  8
KONSTRUKTIONSELEMENTE
100
AcDbEllipse
 62
7
  6
CONTINUOUS
 10
299.8141958509
 20
213.6404776571
 30
0.0
 11
15.0
 21
-0.0
 31
0.0
 40
0.7343750875
 41
-0.2802498415
 42
-0.2216690803
  0
ELLIPSE
  5
407
100
AcDbEntity
  8
KONSTRUKTIONSELEMENTE
100
AcDbEllipse
 62
7
  6
CONTINUOUS
 10
299.8141958509
 20
212.2949871967
 30
0.0
 11
15.0
 21
-0.0
 31
0.0
 40
0.3263876827
 41
-0.2216690803
 42
-0.1782473677
  0
ELLIPSE
  5
408
100
AcDbEntity
  8
KONSTRUKTIONSELEMENTE
100
AcDbEllipse
 62
7
  6
CONTINUOUS
 10
299.8141958509
 20
182.8903501293
 30
0.0
 11
15.0
 21
-0.0
 31
0.0
 40
0.334349582
 41
-0.3398369095
 42
0.0000224353
  0
ELLIPSE
  5
409
100
AcDbEntity
  8
KONSTRUKTIONSELEMENTE
100
AcDbEllipse
 62
7
  6
CONTINUOUS
 10
299.8141958509
 20
189.6561017984
 30
0.0
 11
15.0
 21
0.0
 31
0.0
 40
0.1958336205
 41
0.1065846569
 42
0.1782473677
  0
ELLIPSE
  5
40A
100
AcDbEntity
  8
KONSTRUKTIONSELEMENTE
100
AcDbEllipse
 62
7
  6
CONTINUOUS
 10
299.8141958509
 20
188.8748535667
 30
0.0
 11
15.0
 21
0.0
 31
0.0
 40
0.4895829248
 41
0.1782473677
 42
0.2362336651
  0
ELLIPSE
  5
40B
100
AcDbEntity
  8
KONSTRUKTIONSELEMENTE
100
AcDbEllipse
 62
7
  6
CONTINUOUS
 10
299.8141958509
 20
187.1560999966
 30
0.0
 11
15.0
 21
0.0
 31
0.0
 40
0.9791672503
 41
0.2362336651
 42
0.2950421164
  0
ELLIPSE
  5
40C
100
AcDbEntity
  8
KONSTRUKTIONSELEMENTE
100
AcDbEllipse
 62
7
  6
CONTINUOUS
 10
299.8141958509
 20
182.8852762621
 30
0.0
 11
-0.0
 21
29.3749754876
 31
0.0
 40
0.510638724
 41
-1.2757542104
 42
-1.2459650002
  0
ELLIPSE
  5
40D
100
AcDbEntity
  8
KONSTRUKTIONSELEMENTE
100
AcDbEllipse
 62
7
  6
CONTINUOUS
 10
299.8141958509
 20
168.8227476891
 30
0.0
 11
0.0
 21
73.4375647828
 31
0.0
 40
0.204255139
 41
-1.2459650002
 42
-1.2309594173
  0
ELLIPSE
  5
40E
100
AcDbEntity
  8
KONSTRUKTIONSELEMENTE
100
AcDbEllipse
 62
7
  6
CONTINUOUS
 10
299.8141958509
 20
219.6560961968
 30
0.0
 11
0.0
 21
73.4374807402
 31
0.0
 40
0.2042553727
 41
-1.9106332362
 42
-1.8956276534
  0
ELLIPSE
  5
40F
100
AcDbEntity
  8
KONSTRUKTIONSELEMENTE
100
AcDbEllipse
 62
7
  6
CONTINUOUS
 10
299.8141958509
 20
205.593607857
 30
0.0
 11
0.0
 21
29.3750175089
 31
0.0
 40
0.5106379935
 41
-1.8956276534
 42
-1.8658384432
  0
ELLIPSE
  5
410
100
AcDbEntity
  8
KONSTRUKTIONSELEMENTE
100
AcDbEllipse
 62
7
  6
CONTINUOUS
 10
299.8141958509
 20
201.3227657941
 30
0.0
 11
15.0
 21
0.0
 31
0.0
 40
0.9791658496
 41
-0.2950421164
 42
-0.2362336651
  0
ELLIPSE
  5
411
100
AcDbEntity
  8
KONSTRUKTIONSELEMENTE
100
AcDbEllipse
 62
7
  6
CONTINUOUS
 10
299.8141958509
 20
185.3801874441
 30
0.0
 11
15.0
 21
0.0
 31
0.0
 40
0.334349582
 41
-0.0000224353
 42
0.3398369095
  0
ELLIPSE
  5
412
100
AcDbEntity
  8
KONSTRUKTIONSELEMENTE
100
AcDbEllipse
 62
7
  6
CONTINUOUS
 10
299.8141958509
 20
198.5727695315
 30
0.0
 11
15.0
 21
0.0
 31
0.0
 40
0.1958336205
 41
-0.2362336651
 42
-0.1638527432
  0
ELLIPSE
  5
413
100
AcDbEntity
  8
KONSTRUKTIONSELEMENTE
100
AcDbEllipse
 62
7
  6
CONTINUOUS
 10
299.8141958509
 20
213.4061035866
 30
0.0
 11
15.0
 21
-0.0
 31
0.0
 40
0.1958324999
 41
0.1065846569
 42
0.1782473677
  0
ENDSEC
  0
SECTION
  2
OBJECTS
  0
DICTIONARY
  5
C
100
AcDbDictionary
280
0
281
1
  3
ACAD_GROUP
350
D
  3
ACAD_MLINESTYLE
350
17
  3
ACAD_LAYOUT
350
1A
  3
ACAD_PLOTSETTINGS
350
19
  3
ACAD_PLOTSTYLENAME
350
E
  0
DICTIONARY
  5
D
102
{ACAD_REACTORS
330
C
102
}
100
AcDbDictionary
280
0
281
1
  0
ACDBDICTIONARYWDFLT
  5
E
102
{ACAD_REACTORS
330
C
102
}
100
AcDbDictionary
281
1
  3
Normal
350
F
100
AcDbDictionaryWithDefault
340
F
  0
DICTIONARY
  5
17
102
{ACAD_REACTORS
330
C
102
}
100
AcDbDictionary
280
0
281
1
  3
Standard
350
18
  0
DICTIONARY
  5
19
102
{ACAD_REACTORS
330
C
102
}
100
AcDbDictionary
281
1
  0
DICTIONARY
  5
1A
102
{ACAD_REACTORS
330
C
102
}
100
AcDbDictionary
281
1
  3
Model
350
414
  3
Layout1
350
415
  0
ACDBPLACEHOLDER
  5
F
102
{ACAD_REACTORS
330
E
102
}
  0
MLINESTYLE
  5
18
102
{ACAD_REACTORS
330
17
102
}
100
AcDbMlineStyle
  2
STANDARD
 70
0
  3

 62
256
 51
90.0
 52
90.0
 71
2
 49
0.5
 62
256
  6
BYLAYER
 49
-0.5
 62
256
  6
BYLAYER
  0
LAYOUT
  5
414
102
{ACAD_REACTORS
330
1A
102
}
100
AcDbPlotSettings
  1

  2
none_device
  4
ISO_A3_(420.00_x_297.00_MM)
  6

 40
0.0
 41
0.0
 42
0.0
 43
0.0
 44
420.0
 45
297.0
 46
0.0
 47
0.0
 48
0.0
 49
0.0
140
0.0
141
0.0
142
1.0
143
1.0
 70
1024
 72
1
 73
0
 74
0
  7

 75
0
147
1.0
148
0.0
149
0.0
100
AcDbLayout
  1
Model
 70
0
 71
0
 10
0.0
 20
0.0
 11
420.0
 21
297.0
 12
0.0
 22
0.0
 32
0.0
 14
0.0
 24
0.0
 34
0.0
 15
0.0
 25
0.0
 35
0.0
146
0.0
 13
0.0
 23
0.0
 33
0.0
 16
1.0
 26
0.0
 36
0.0
 17
0.0
 27
1.0
 37
0.0
 76
0
330
20C
345
0
346
0
  0
LAYOUT
  5
415
102
{ACAD_REACTORS
330
1A
102
}
100
AcDbPlotSettings
  1

  2
none_device
  4
ISO_A3_(420.00_x_297.00_MM)
  6

 40
0.0
 41
0.0
 42
0.0
 43
0.0
 44
420.0
 45
297.0
 46
0.0
 47
0.0
 48
0.0
 49
0.0
140
0.0
141
0.0
142
1.0
143
1.0
 70
0
 72
1
 73
0
 74
0
  7

 75
0
147
1.0
148
0.0
149
0.0
100
AcDbLayout
  1
Layout1
 70
0
 71
1
 10
0.0
 20
0.0
 11
420.0
 21
297.0
 12
0.0
 22
0.0
 32
0.0
 14
0.0
 24
0.0
 34
0.0
 15
0.0
 25
0.0
 35
0.0
146
0.0
 13
0.0
 23
0.0
 33
0.0
 16
1.0
 26
0.0
 36
0.0
 17
0.0
 27
1.0
 37
0.0
 76
0
330
20D
345
0
346
0
  0
ENDSEC
  0
EOF
