999
DXF file: C:\Aktuell-Internet\CAD-Daten-NEU\2vc-sch6.dxf
999
Pro/ENGINEER 2001400 by Parametric Technology Corporation
0
SECTION
2
HEADER
9
$ACADVER
1
AC1014
9
$EXTMAX
10
420.0000000000
20
297.0000000000
9
$EXTMIN
10
0.0000000000
20
0.0000000000
9
$LIMMIN
10
0.0000000000
20
0.0000000000
9
$LIMMAX
10
420.0000000000
20
297.0000000000
9
$VIEWCTR
10
210.0000000000
20
148.5000000000
9
$VIEWSIZE
40
297.0000000000
9
$CLAYER
8
0
9
$LTSCALE
40
23.1000000000
9
$CELTYPE
6
BYLAYER
9
$DIMSCALE
40
1
9
$DIMASZ
40
3.5000000000
9
$DIMEXO
40
2.6250000000
9
$DIMDLI
40
15.9600000000
9
$DIMEXE
40
7.5600000000
9
$DIMCEN
40
3.7800000000
9
$DIMLFAC
40
1.0000000000
9
$DIMTXT
40
3.5000000000
9
$DIMTOL
70
1
9
$DIMTFAC
40
0.6000000000
9
$DIMTP
40
0.0050000000
9
$DIMTM
40
0.0050000000
9
$HANDSEED
5
419
0
ENDSEC
0
SECTION
2
CLASSES
0
ENDSEC
0
SECTION
2
TABLES
0
TABLE
2
VPORT
5
8
100
AcDbSymbolTable
70
2
0
VPORT
5
1F4
100
AcDbSymbolTableRecord
100
AcDbViewportTableRecord
2
*ACTIVE
70
0
10
0.0
20
0.0
11
1.0
21
1.0
12
210.0000000000
22
148.5000000000
13
0.0
23
0.0
14
1.0
24
1.0
15
0.0
25
0.0
16
0.0
26
0.0
36
1.0
17
0.0
27
0.0
37
0.0
40
297.0000000000
41
1.4141414141
42
50.0
43
0.0
44
0.0
50
0.0
51
0.0
71
0
72
100
73
1
74
1
75
0
76
0
77
0
78
0
0
ENDTAB
0
TABLE
2
LTYPE
5
5
100
AcDbSymbolTable
70
6
0
LTYPE
5
14
100
AcDbSymbolTableRecord
100
AcDbLinetypeTableRecord
2
BYBLOCK
70
0
3

72
65
73
0
40
0.0
0
LTYPE
5
15
100
AcDbSymbolTableRecord
100
AcDbLinetypeTableRecord
2
BYLAYER
70
0
3

72
65
73
0
40
0.0
0
LTYPE
5
16
100
AcDbSymbolTableRecord
100
AcDbLinetypeTableRecord
2
CONTINUOUS
70
64
3
Solid line
72
65
73
0
40
0
0
LTYPE
5
1F5
100
AcDbSymbolTableRecord
100
AcDbLinetypeTableRecord
2
CENTER
70
64
3
____ _ ____ _ ____ _ ____ _ ____ _ ____ _ ____
72
65
73
4
40
0.6
49
0.375
74
0
49
-0.075
74
0
49
0.075
74
0
49
-0.075
74
0
0
LTYPE
5
1F6
100
AcDbSymbolTableRecord
100
AcDbLinetypeTableRecord
2
HIDDEN
70
64
3
- - - - - - - - - - - - - - - - - - - -
72
65
73
2
40
0.2
49
0.1
74
0
49
-0.1
74
0
0
LTYPE
5
1F7
100
AcDbSymbolTableRecord
100
AcDbLinetypeTableRecord
2
PHANTOM
70
64
3
_____ _ _ _____ _ _ _____ _ _ _____
72
65
73
6
40
0.8
49
0.45
74
0
49
-0.05
74
0
49
0.1
74
0
49
-0.05
74
0
49
0.1
74
0
49
-0.05
74
0
0
LTYPE
5
1F8
100
AcDbSymbolTableRecord
100
AcDbLinetypeTableRecord
2
DOT
70
64
3
. . . . . . . . . . . . . . . . . . . .
72
65
73
2
40
0.2
49
0.1
74
0
49
-0.1
74
0
0
LTYPE
5
1F9
100
AcDbSymbolTableRecord
100
AcDbLinetypeTableRecord
2
DASHED
70
64
3
- - - - - - - - - - - - - - - - - - - -
72
65
73
2
40
0.2
49
0.1
74
0
49
-0.1
74
0
0
ENDTAB
0
TABLE
2
LAYER
5
2
100
AcDbSymbolTable
70
36
0
LAYER
5
10
100
AcDbSymbolTableRecord
100
AcDbLayerTableRecord
2
0
70
0
62
7
6
CONTINUOUS
0
LAYER
5
1FA
100
AcDbSymbolTableRecord
100
AcDbLayerTableRecord
2
DEFAULT_1
70
0
62
7
6
CENTER
0
LAYER
5
1FB
100
AcDbSymbolTableRecord
100
AcDbLayerTableRecord
2
DEFAULT_2
70
0
62
8
6
HIDDEN
0
LAYER
5
1FC
100
AcDbSymbolTableRecord
100
AcDbLayerTableRecord
2
DEFAULT_3
70
0
62
7
6
PHANTOM
0
ENDTAB
0
TABLE
2
STYLE
5
3
100
AcDbSymbolTable
70
1
0
STYLE
5
11
100
AcDbSymbolTableRecord
100
AcDbTextStyleTableRecord
2
STANDARD
70
0
40
0.0
41
1.0
50
0.0
71
0
42
0.0
3
txt
4

0
STYLE
5
1FD
100
AcDbSymbolTableRecord
100
AcDbTextStyleTableRecord
2
TEXTSTYLE_0
70
0
40
0.0
41
0.80
50
0.0
71
0
42
0.2
3
txt
4

0
ENDTAB
0
TABLE
2
VIEW
5
6
100
AcDbSymbolTable
70
0
0
ENDTAB
0
TABLE
2
UCS
5
7
100
AcDbSymbolTable
70
0
0
ENDTAB
0
TABLE
2
APPID
5
9
100
AcDbSymbolTable
70
1
0
APPID
5
1FE
100
AcDbSymbolTableRecord
100
AcDbRegAppTableRecord
2
ACAD
70
0
0
ENDTAB
0
TABLE
2
DIMSTYLE
5
A
100
AcDbSymbolTable
70
1
0
DIMSTYLE
105
1FF
100
AcDbSymbolTableRecord
100
AcDbDimStyleTableRecord
2
STANDARD
70
0
3

4

5

6

7

40
1.0
41
0.18
42
0.0625
43
0.38
44
0.18
45
0.0
46
0.0
47
0.0050000000
48
0.0050000000
140
3.5000000000
141
0.09
142
0.0
143
25.4
144
1.0000000000
145
0.0
146
0.6000000000
147
0.09
71
1
72
0
73
1
74
1
75
0
76
0
77
0
78
0
170
0
171
2
172
0
173
0
174
0
175
0
176
0
177
0
178
0
270
2
271
3
272
4
273
2
274
2
340
11
275
0
280
0
281
0
282
0
283
1
284
0
285
0
286
0
287
3
288
0
0
ENDTAB
0
TABLE
2
BLOCK_RECORD
5
1
100
AcDbSymbolTable
70
0
0
BLOCK_RECORD
5
1B
100
AcDbSymbolTableRecord
100
AcDbBlockTableRecord
2
*MODEL_SPACE
0
BLOCK_RECORD
5
1C
100
AcDbSymbolTableRecord
100
AcDbBlockTableRecord
2
*PAPER_SPACE
0
ENDTAB
0
ENDSEC
0
SECTION
2
BLOCKS
0
BLOCK
5
1E
100
AcDbEntity
8
0
100
AcDbBlockBegin
2
*MODEL_SPACE
70
0
10
0.0
20
0.0
30
0.0
3
*MODEL_SPACE
1

0
ENDBLK
5
1F
100
AcDbEntity
8
0
100
AcDbBlockEnd
0
BLOCK
5
20
100
AcDbEntity
8
0
100
AcDbBlockBegin
2
*PAPER_SPACE
70
0
10
0.0
20
0.0
30
0.0
3
*PAPER_SPACE
1

0
ENDBLK
5
21
100
AcDbEntity
8
0
100
AcDbBlockEnd
0
ENDSEC
0
SECTION
2
ENTITIES
0
TEXT
5
200
100
AcDbEntity
8
0
100
AcDbText
62
2
6
CONTINUOUS
10
111.0260208361
20
-55.7701313232
7
TEXTSTYLE_0
40
8.0000000000
1
VC-SCH 
72
5
11
155.5974494075
21
-55.7701313232
100
AcDbText
0
TEXT
5
201
100
AcDbEntity
8
0
100
AcDbText
62
2
6
CONTINUOUS
10
111.0260208361
20
-67.7701312087
7
TEXTSTYLE_0
40
8.0000000000
1
6,0/VIP
72
5
11
152.3593541694
21
-67.7701312087
100
AcDbText
0
TEXT
5
202
100
AcDbEntity
8
0
100
AcDbText
62
2
6
CONTINUOUS
10
319.0927246375
20
120.0430712429
7
TEXTSTYLE_0
40
8.0000000000
1
VC-SCH  6,0/VIP
50
90.0000000000
72
5
11
319.0927246375
21
212.2335474334
100
AcDbText
0
LINE
5
203
100
AcDbEntity
8
0
100
AcDbLine
62
7
6
CONTINUOUS
10
0.0000000000
20
0.0000000000
11
0.0000000000
21
297.0000000000
0
LINE
5
204
100
AcDbEntity
8
0
100
AcDbLine
62
7
6
CONTINUOUS
10
0.0000000000
20
0.0000000000
11
420.0000000000
21
0.0000000000
0
LINE
5
205
100
AcDbEntity
8
DEFAULT_1
100
AcDbLine
62
2
6
CENTER
10
132.3485132592
20
260.7208148170
11
132.5283549675
21
50.6821665592
0
LINE
5
206
100
AcDbEntity
8
0
100
AcDbLine
62
7
6
CONTINUOUS
10
0.0000000000
20
297.0000000000
11
420.0000000000
21
297.0000000000
0
LINE
5
207
100
AcDbEntity
8
0
100
AcDbLine
62
7
6
CONTINUOUS
10
420.0000000000
20
0.0000000000
11
420.0000000000
21
297.0000000000
0
LINE
5
208
100
AcDbEntity
8
0
100
AcDbLine
62
7
6
CONTINUOUS
10
192.7818464543
20
38.5426701417
11
159.7818464543
21
38.5426701417
0
LINE
5
209
100
AcDbEntity
8
0
100
AcDbLine
62
7
6
CONTINUOUS
10
108.0818464543
20
38.5426701417
11
75.0818464543
21
38.5426701417
0
LINE
5
20A
100
AcDbEntity
8
0
100
AcDbLine
62
7
6
CONTINUOUS
10
192.7818464543
20
47.8926701417
11
214.7818464543
21
47.8926701417
0
LINE
5
20B
100
AcDbEntity
8
0
100
AcDbLine
62
7
6
CONTINUOUS
10
75.0818464543
20
52.8426701417
11
67.3818464543
21
52.8426701417
0
LINE
5
20C
100
AcDbEntity
8
0
100
AcDbLine
62
7
6
CONTINUOUS
10
68.4818464543
20
53.4477313890
11
61.8818464543
21
53.4477313890
0
LINE
5
20D
100
AcDbEntity
8
0
100
AcDbLine
62
7
6
CONTINUOUS
10
218.0818464543
20
55.5926701417
11
222.4818464543
21
55.5926701417
0
LINE
5
20E
100
AcDbEntity
8
0
100
AcDbLine
62
7
6
CONTINUOUS
10
220.1718464543
20
57.7926701417
11
220.3918464543
21
57.7926701417
0
LINE
5
20F
100
AcDbEntity
8
0
100
AcDbLine
62
7
6
CONTINUOUS
10
227.9818464543
20
58.3426701417
11
214.7818464543
21
58.3426701417
0
LINE
5
210
100
AcDbEntity
8
0
100
AcDbLine
62
7
6
CONTINUOUS
10
159.7818464543
20
58.3426701417
11
108.0818464543
21
58.3426701417
0
LINE
5
211
100
AcDbEntity
8
0
100
AcDbLine
62
7
6
CONTINUOUS
10
220.1718464543
20
71.5426701417
11
220.3918464543
21
71.5426701417
0
LINE
5
212
100
AcDbEntity
8
0
100
AcDbLine
62
7
6
CONTINUOUS
10
68.4818464543
20
53.4477313890
11
68.4818464543
21
102.8376088944
0
LINE
5
213
100
AcDbEntity
8
DEFAULT_1
100
AcDbLine
62
2
6
CENTER
10
35.1354297839
20
78.1426701417
11
192.7818464543
21
78.1426701417
0
LINE
5
214
100
AcDbEntity
8
0
100
AcDbLine
62
7
6
CONTINUOUS
10
192.7818464543
20
78.1426701417
11
214.7818464543
21
78.1426701417
0
LINE
5
215
100
AcDbEntity
8
0
100
AcDbLine
62
7
6
CONTINUOUS
10
75.0818464543
20
38.5426701465
11
75.0818464543
21
197.4926701417
0
LINE
5
216
100
AcDbEntity
8
0
100
AcDbLine
62
7
6
CONTINUOUS
10
86.3158889796
20
179.3426701417
11
86.7839740302
21
180.2593385568
0
LINE
5
217
100
AcDbEntity
8
0
100
AcDbLine
62
7
6
CONTINUOUS
10
88.1882291819
20
179.8010017266
11
87.7201441314
21
179.1135043492
0
LINE
5
218
100
AcDbEntity
8
0
100
AcDbLine
62
7
6
CONTINUOUS
10
86.7839740302
20
180.2593385568
11
87.7201441314
21
181.1760017266
0
LINE
5
219
100
AcDbEntity
8
0
100
AcDbLine
62
7
6
CONTINUOUS
10
220.1718464543
20
84.7426701417
11
220.3918464543
21
84.7426701417
0
LINE
5
21A
100
AcDbEntity
8
0
100
AcDbLine
62
7
6
CONTINUOUS
10
86.0818464543
20
135.3426701417
11
86.0818464543
21
136.7176701417
0
LINE
5
21B
100
AcDbEntity
8
0
100
AcDbLine
62
7
6
CONTINUOUS
10
86.0818464543
20
143.1343365898
11
86.0818464543
21
144.5093365898
0
LINE
5
21C
100
AcDbEntity
8
0
100
AcDbLine
62
7
6
CONTINUOUS
10
86.0818464543
20
150.0093372455
11
86.0818464543
21
152.0718372455
0
LINE
5
21D
100
AcDbEntity
8
0
100
AcDbLine
62
7
6
CONTINUOUS
10
86.0818464543
20
165.8218359342
11
86.0818464543
21
166.9676701417
0
LINE
5
21E
100
AcDbEntity
8
0
100
AcDbLine
62
7
6
CONTINUOUS
10
86.0818464543
20
176.1343359342
11
86.0818464543
21
178.1968359342
0
LINE
5
21F
100
AcDbEntity
8
0
100
AcDbLine
62
7
6
CONTINUOUS
10
86.0818464543
20
183.2385017266
11
86.0818464543
21
184.6135017266
0
LINE
5
220
100
AcDbEntity
8
0
100
AcDbLine
62
7
6
CONTINUOUS
10
86.0818464543
20
191.0301701417
11
86.0818464543
21
192.4051701417
0
LINE
5
221
100
AcDbEntity
8
0
100
AcDbLine
62
7
6
CONTINUOUS
10
87.4861016061
20
178.1968359342
11
87.4861016061
21
176.1343359342
0
LINE
5
222
100
AcDbEntity
8
0
100
AcDbLine
62
7
6
CONTINUOUS
10
87.4861016061
20
167.1968359342
11
87.4861016061
21
165.8218359342
0
LINE
5
223
100
AcDbEntity
8
0
100
AcDbLine
62
7
6
CONTINUOUS
10
87.4861016061
20
152.0718372455
11
87.4861016061
21
150.0093372455
0
LINE
5
224
100
AcDbEntity
8
0
100
AcDbLine
62
7
6
CONTINUOUS
10
86.0818464543
20
178.1968359342
11
86.3158889796
21
179.3426701417
0
LINE
5
225
100
AcDbEntity
8
0
100
AcDbLine
62
7
6
CONTINUOUS
10
86.0818464543
20
166.9676701417
11
86.3158889796
21
168.1135043492
0
LINE
5
226
100
AcDbEntity
8
0
100
AcDbLine
62
7
6
CONTINUOUS
10
86.0818464543
20
152.0718372455
11
86.3158889796
21
153.2176701417
0
LINE
5
227
100
AcDbEntity
8
0
100
AcDbLine
62
7
6
CONTINUOUS
10
90.7626976158
20
167.1968359342
11
90.9967401411
21
168.3426701417
0
LINE
5
228
100
AcDbEntity
8
0
100
AcDbLine
62
7
6
CONTINUOUS
10
87.7201441314
20
179.1135043492
11
87.4861016061
21
178.1968359342
0
LINE
5
229
100
AcDbEntity
8
0
100
AcDbLine
62
7
6
CONTINUOUS
10
87.7201441314
20
152.9885030379
11
87.4861016061
21
152.0718372455
0
LINE
5
22A
100
AcDbEntity
8
0
100
AcDbLine
62
7
6
CONTINUOUS
10
92.4009952928
20
168.1135043492
11
92.1669527675
21
167.1968359342
0
LINE
5
22B
100
AcDbEntity
8
0
100
AcDbLine
62
7
6
CONTINUOUS
10
87.7201441314
20
167.8843359342
11
87.4861016061
21
167.1968359342
0
LINE
5
22C
100
AcDbEntity
8
0
100
AcDbLine
62
7
6
CONTINUOUS
10
90.5286550905
20
165.1343359342
11
90.7626976158
21
165.8218359342
0
LINE
5
22D
100
AcDbEntity
8
0
100
AcDbLine
62
7
6
CONTINUOUS
10
90.9967401411
20
168.3426701417
11
91.4648251917
21
169.2593359342
0
LINE
5
22E
100
AcDbEntity
8
0
100
AcDbLine
62
7
6
CONTINUOUS
10
96.8478039085
20
174.9885043492
11
96.3797187965
21
174.0718359342
0
LINE
5
22F
100
AcDbEntity
8
0
100
AcDbLine
62
7
6
CONTINUOUS
10
94.9754633989
20
174.5301701417
11
95.4435486134
21
175.2176701417
0
LINE
5
230
100
AcDbEntity
8
0
100
AcDbLine
62
7
6
CONTINUOUS
10
92.8690803434
20
168.8010043492
11
92.4009952928
21
168.1135043492
0
LINE
5
231
100
AcDbEntity
8
0
100
AcDbLine
62
7
6
CONTINUOUS
10
90.0605700399
20
164.4468359342
11
90.5286550905
21
165.1343359342
0
LINE
5
232
100
AcDbEntity
8
0
100
AcDbLine
62
7
6
CONTINUOUS
10
86.3158889796
20
168.1135043492
11
87.0180165555
21
169.0301701417
0
LINE
5
233
100
AcDbEntity
8
0
100
AcDbLine
62
7
6
CONTINUOUS
10
88.1882291819
20
168.3426701417
11
87.7201441314
21
167.8843359342
0
LINE
5
234
100
AcDbEntity
8
0
100
AcDbLine
62
7
6
CONTINUOUS
10
227.9818464543
20
97.9426701417
11
214.7818464543
21
97.9426701417
0
LINE
5
235
100
AcDbEntity
8
0
100
AcDbLine
62
7
6
CONTINUOUS
10
159.7818464543
20
97.9426701417
11
108.0818464543
21
97.9426701417
0
LINE
5
236
100
AcDbEntity
8
0
100
AcDbLine
62
7
6
CONTINUOUS
10
220.1718464543
20
98.4926701417
11
220.3918464543
21
98.4926701417
0
LINE
5
237
100
AcDbEntity
8
0
100
AcDbLine
62
7
6
CONTINUOUS
10
218.0818464543
20
100.6926701417
11
222.4818464543
21
100.6926701417
0
LINE
5
238
100
AcDbEntity
8
0
100
AcDbLine
62
7
6
CONTINUOUS
10
86.3158889796
20
148.8635030379
11
86.0818464543
21
150.0093372455
0
LINE
5
239
100
AcDbEntity
8
0
100
AcDbLine
62
7
6
CONTINUOUS
10
88.6563142325
20
169.9468359342
11
88.6563142325
21
168.5718359342
0
LINE
5
23A
100
AcDbEntity
8
0
100
AcDbLine
62
7
6
CONTINUOUS
10
88.8903574135
20
181.4051701417
11
88.8903574135
21
180.0301701417
0
LINE
5
23B
100
AcDbEntity
8
0
100
AcDbLine
62
7
6
CONTINUOUS
10
88.8903574135
20
155.2801701417
11
88.8903574135
21
153.9051701417
0
LINE
5
23C
100
AcDbEntity
8
0
100
AcDbLine
62
7
6
CONTINUOUS
10
90.5286550905
20
184.6135017266
11
90.5286550905
21
191.0301701417
0
LINE
5
23D
100
AcDbEntity
8
0
100
AcDbLine
62
7
6
CONTINUOUS
10
90.7626976158
20
165.8218359342
11
90.7626976158
21
167.1968359342
0
LINE
5
23E
100
AcDbEntity
8
0
100
AcDbLine
62
7
6
CONTINUOUS
10
91.9329102423
20
191.0301701417
11
91.9329102423
21
184.6135017266
0
LINE
5
23F
100
AcDbEntity
8
0
100
AcDbLine
62
7
6
CONTINUOUS
10
91.9329102423
20
157.1135030379
11
91.9329102423
21
160.3218359342
0
LINE
5
240
100
AcDbEntity
8
0
100
AcDbLine
62
7
6
CONTINUOUS
10
92.1669527675
20
167.1968359342
11
92.1669527675
21
165.8218359342
0
LINE
5
241
100
AcDbEntity
8
0
100
AcDbLine
62
7
6
CONTINUOUS
10
93.1031231965
20
160.3218359342
11
93.1031231965
21
157.1135030379
0
LINE
5
242
100
AcDbEntity
8
0
100
AcDbLine
62
7
6
CONTINUOUS
10
94.0392932977
20
162.1551701417
11
94.0392932977
21
163.5301701417
0
LINE
5
243
100
AcDbEntity
8
0
100
AcDbLine
62
7
6
CONTINUOUS
10
94.2733358230
20
153.9051701417
11
94.2733358230
21
155.2801701417
0
LINE
5
244
100
AcDbEntity
8
0
100
AcDbLine
62
7
6
CONTINUOUS
10
94.2733358230
20
180.0301701417
11
94.2733358230
21
181.4051701417
0
LINE
5
245
100
AcDbEntity
8
0
100
AcDbLine
62
7
6
CONTINUOUS
10
95.6775911387
20
150.0093372455
11
95.6775911387
21
152.0718372455
0
LINE
5
246
100
AcDbEntity
8
0
100
AcDbLine
62
7
6
CONTINUOUS
10
95.6775911387
20
165.3635043492
11
95.6775911387
21
167.1968359342
0
LINE
5
247
100
AcDbEntity
8
0
100
AcDbLine
62
7
6
CONTINUOUS
10
95.6775911387
20
176.1343359342
11
95.6775911387
21
178.1968359342
0
LINE
5
248
100
AcDbEntity
8
0
100
AcDbLine
62
7
6
CONTINUOUS
10
97.0818464543
20
192.4051701417
11
97.0818464543
21
191.0301701417
0
LINE
5
249
100
AcDbEntity
8
0
100
AcDbLine
62
7
6
CONTINUOUS
10
97.0818464543
20
184.6135017266
11
97.0818464543
21
183.2385017266
0
LINE
5
24A
100
AcDbEntity
8
0
100
AcDbLine
62
7
6
CONTINUOUS
10
97.0818464543
20
178.1968359342
11
97.0818464543
21
176.1343359342
0
LINE
5
24B
100
AcDbEntity
8
0
100
AcDbLine
62
7
6
CONTINUOUS
10
97.0818464543
20
167.1968359342
11
97.0818464543
21
165.3635043492
0
LINE
5
24C
100
AcDbEntity
8
0
100
AcDbLine
62
7
6
CONTINUOUS
10
97.0818464543
20
152.0718372455
11
97.0818464543
21
150.0093372455
0
LINE
5
24D
100
AcDbEntity
8
0
100
AcDbLine
62
7
6
CONTINUOUS
10
97.0818464543
20
140.8426701417
11
97.0818464543
21
139.0093369176
0
LINE
5
24E
100
AcDbEntity
8
0
100
AcDbLine
62
7
6
CONTINUOUS
10
97.0818464543
20
176.1343359342
11
96.8478039085
21
174.9885043492
0
LINE
5
24F
100
AcDbEntity
8
0
100
AcDbLine
62
7
6
CONTINUOUS
10
97.0818464543
20
165.3635043492
11
96.8478039085
21
164.2176701417
0
LINE
5
250
100
AcDbEntity
8
0
100
AcDbLine
62
7
6
CONTINUOUS
10
97.0818464543
20
150.0093372455
11
96.8478039085
21
148.8635030379
0
LINE
5
251
100
AcDbEntity
8
0
100
AcDbLine
62
7
6
CONTINUOUS
10
92.1669527675
20
165.8218359342
11
91.9329102423
21
164.9051701417
0
LINE
5
252
100
AcDbEntity
8
0
100
AcDbLine
62
7
6
CONTINUOUS
10
95.4435486134
20
175.2176701417
11
95.6775911387
21
176.1343359342
0
LINE
5
253
100
AcDbEntity
8
0
100
AcDbLine
62
7
6
CONTINUOUS
10
95.4435486134
20
164.4468359342
11
95.6775911387
21
165.3635043492
0
LINE
5
254
100
AcDbEntity
8
0
100
AcDbLine
62
7
6
CONTINUOUS
10
95.4435486134
20
149.0926701417
11
95.6775911387
21
150.0093372455
0
LINE
5
255
100
AcDbEntity
8
0
100
AcDbLine
62
7
6
CONTINUOUS
10
91.9329102423
20
164.9051701417
11
91.4648251917
21
163.9885043492
0
LINE
5
256
100
AcDbEntity
8
0
100
AcDbLine
62
7
6
CONTINUOUS
10
86.3158889796
20
153.2176701417
11
86.7839740302
21
154.1343372455
0
LINE
5
257
100
AcDbEntity
8
0
100
AcDbLine
62
7
6
CONTINUOUS
10
96.8478039085
20
164.2176701417
11
96.1456762712
21
163.0718359342
0
LINE
5
258
100
AcDbEntity
8
0
100
AcDbLine
62
7
6
CONTINUOUS
10
88.1882291819
20
153.6760030379
11
87.7201441314
21
152.9885030379
0
LINE
5
259
100
AcDbEntity
8
0
100
AcDbLine
62
7
6
CONTINUOUS
10
91.4648251917
20
169.2593359342
11
92.4009952928
21
170.1760043492
0
LINE
5
25A
100
AcDbEntity
8
0
100
AcDbLine
62
7
6
CONTINUOUS
10
96.3797187965
20
174.0718359342
11
95.4435486134
21
173.1551701417
0
LINE
5
25B
100
AcDbEntity
8
0
100
AcDbLine
62
7
6
CONTINUOUS
10
91.4648251917
20
163.9885043492
11
90.5286550905
21
163.0718359342
0
LINE
5
25C
100
AcDbEntity
8
0
100
AcDbLine
62
7
6
CONTINUOUS
10
94.7414208736
20
163.7593359342
11
95.4435486134
21
164.4468359342
0
LINE
5
25D
100
AcDbEntity
8
0
100
AcDbLine
62
7
6
CONTINUOUS
10
86.7839740302
20
154.1343372455
11
87.7201441314
21
155.0510030379
0
LINE
5
25E
100
AcDbEntity
8
0
100
AcDbLine
62
7
6
CONTINUOUS
10
87.0180165555
20
169.0301701417
11
87.9541866566
21
169.7176701417
0
LINE
5
25F
100
AcDbEntity
8
0
100
AcDbLine
62
7
6
CONTINUOUS
10
94.2733358230
20
174.0718359342
11
94.9754633989
21
174.5301701417
0
LINE
5
260
100
AcDbEntity
8
0
100
AcDbLine
62
7
6
CONTINUOUS
10
93.5712082471
20
169.2593359342
11
92.8690803434
21
168.8010043492
0
LINE
5
261
100
AcDbEntity
8
0
100
AcDbLine
62
7
6
CONTINUOUS
10
95.4435486134
20
173.1551701417
11
94.5073783483
21
172.6968359342
0
LINE
5
262
100
AcDbEntity
8
0
100
AcDbLine
62
7
6
CONTINUOUS
10
88.6563142325
20
168.5718359342
11
88.1882291819
21
168.3426701417
0
LINE
5
263
100
AcDbEntity
8
0
100
AcDbLine
62
7
6
CONTINUOUS
10
92.4009952928
20
170.1760043492
11
93.3371657218
21
170.6343359342
0
LINE
5
264
100
AcDbEntity
8
0
100
AcDbLine
62
7
6
CONTINUOUS
10
88.8903574135
20
180.0301701417
11
88.1882291819
21
179.8010017266
0
LINE
5
265
100
AcDbEntity
8
0
100
AcDbLine
62
7
6
CONTINUOUS
10
68.4818464543
20
102.8376088944
11
61.8818464543
21
102.8376088944
0
LINE
5
266
100
AcDbEntity
8
0
100
AcDbLine
62
7
6
CONTINUOUS
10
75.0818464543
20
103.4426701417
11
67.3818464543
21
103.4426701417
0
LINE
5
267
100
AcDbEntity
8
0
100
AcDbLine
62
7
6
CONTINUOUS
10
192.7818464543
20
108.3926701417
11
214.7818464543
21
108.3926701417
0
LINE
5
268
100
AcDbEntity
8
0
100
AcDbLine
62
7
6
CONTINUOUS
10
87.7201441314
20
149.0926701417
11
88.1882291819
21
148.4051701417
0
LINE
5
269
100
AcDbEntity
8
0
100
AcDbLine
62
7
6
CONTINUOUS
10
86.7839740302
20
147.9468372455
11
86.3158889796
21
148.8635030379
0
LINE
5
26A
100
AcDbEntity
8
0
100
AcDbLine
62
7
6
CONTINUOUS
10
87.4861016061
20
165.8218359342
11
87.7201441314
21
165.1343359342
0
LINE
5
26B
100
AcDbEntity
8
0
100
AcDbLine
62
7
6
CONTINUOUS
10
87.4861016061
20
150.0093372455
11
87.7201441314
21
149.0926701417
0
LINE
5
26C
100
AcDbEntity
8
0
100
AcDbLine
62
7
6
CONTINUOUS
10
86.3158889796
20
164.9051701417
11
86.0818464543
21
165.8218359342
0
LINE
5
26D
100
AcDbEntity
8
0
100
AcDbLine
62
7
6
CONTINUOUS
10
87.4861016061
20
176.1343359342
11
87.7201441314
21
175.2176701417
0
LINE
5
26E
100
AcDbEntity
8
0
100
AcDbLine
62
7
6
CONTINUOUS
10
95.6775911387
20
152.0718372455
11
95.4435486134
21
152.9885030379
0
LINE
5
26F
100
AcDbEntity
8
0
100
AcDbLine
62
7
6
CONTINUOUS
10
86.3158889796
20
174.9885043492
11
86.0818464543
21
176.1343359342
0
LINE
5
270
100
AcDbEntity
8
0
100
AcDbLine
62
7
6
CONTINUOUS
10
96.8478039085
20
148.8635030379
11
96.3797187965
21
147.9468372455
0
LINE
5
271
100
AcDbEntity
8
0
100
AcDbLine
62
7
6
CONTINUOUS
10
94.9754633989
20
148.4051701417
11
95.4435486134
21
149.0926701417
0
LINE
5
272
100
AcDbEntity
8
0
100
AcDbLine
62
7
6
CONTINUOUS
10
96.3797187965
20
147.9468372455
11
95.4435486134
21
147.0301701417
0
LINE
5
273
100
AcDbEntity
8
0
100
AcDbLine
62
7
6
CONTINUOUS
10
96.1456762712
20
163.0718359342
11
94.9754633989
21
162.3843359342
0
LINE
5
274
100
AcDbEntity
8
0
100
AcDbLine
62
7
6
CONTINUOUS
10
87.9541866566
20
169.7176701417
11
88.6563142325
21
169.9468359342
0
LINE
5
275
100
AcDbEntity
8
0
100
AcDbLine
62
7
6
CONTINUOUS
10
89.3584424640
20
164.2176701417
11
90.0605700399
21
164.4468359342
0
LINE
5
276
100
AcDbEntity
8
0
100
AcDbLine
62
7
6
CONTINUOUS
10
94.0392932977
20
163.5301701417
11
94.7414208736
21
163.7593359342
0
LINE
5
277
100
AcDbEntity
8
0
100
AcDbLine
62
7
6
CONTINUOUS
10
87.7201441314
20
147.0301701417
11
86.7839740302
21
147.9468372455
0
LINE
5
278
100
AcDbEntity
8
0
100
AcDbLine
62
7
6
CONTINUOUS
10
95.4435486134
20
152.9885030379
11
94.9754633989
21
153.6760030379
0
LINE
5
279
100
AcDbEntity
8
0
100
AcDbLine
62
7
6
CONTINUOUS
10
87.7201441314
20
165.1343359342
11
88.1882291819
21
164.4468359342
0
LINE
5
27A
100
AcDbEntity
8
0
100
AcDbLine
62
7
6
CONTINUOUS
10
86.7839740302
20
163.9885043492
11
86.3158889796
21
164.9051701417
0
LINE
5
27B
100
AcDbEntity
8
0
100
AcDbLine
62
7
6
CONTINUOUS
10
96.3797187965
20
154.1343372455
11
96.8478039085
21
153.2176701417
0
LINE
5
27C
100
AcDbEntity
8
0
100
AcDbLine
62
7
6
CONTINUOUS
10
86.7839740302
20
174.0718359342
11
86.3158889796
21
174.9885043492
0
LINE
5
27D
100
AcDbEntity
8
0
100
AcDbLine
62
7
6
CONTINUOUS
10
95.6775911387
20
167.1968359342
11
95.4435486134
21
168.1135043492
0
LINE
5
27E
100
AcDbEntity
8
0
100
AcDbLine
62
7
6
CONTINUOUS
10
95.6775911387
20
178.1968359342
11
95.4435486134
21
179.1135043492
0
LINE
5
27F
100
AcDbEntity
8
0
100
AcDbLine
62
7
6
CONTINUOUS
10
96.8478039085
20
153.2176701417
11
97.0818464543
21
152.0718372455
0
LINE
5
280
100
AcDbEntity
8
0
100
AcDbLine
62
7
6
CONTINUOUS
10
96.8478039085
20
168.3426701417
11
97.0818464543
21
167.1968359342
0
LINE
5
281
100
AcDbEntity
8
0
100
AcDbLine
62
7
6
CONTINUOUS
10
96.8478039085
20
179.3426701417
11
97.0818464543
21
178.1968359342
0
LINE
5
282
100
AcDbEntity
8
0
100
AcDbLine
62
7
6
CONTINUOUS
10
108.0818464543
20
194.1926701417
11
108.0818464543
21
38.5426701419
0
LINE
5
283
100
AcDbEntity
8
0
100
AcDbLine
62
7
6
CONTINUOUS
10
94.2733358230
20
147.9468372455
11
94.9754633989
21
148.4051701417
0
LINE
5
284
100
AcDbEntity
8
0
100
AcDbLine
62
7
6
CONTINUOUS
10
172.6541866566
20
186.4468385568
11
173.3563142325
21
186.6760017266
0
LINE
5
285
100
AcDbEntity
8
0
100
AcDbLine
62
7
6
CONTINUOUS
10
173.3563142325
20
185.3010017266
11
172.6541866566
21
185.0718385568
0
LINE
5
286
100
AcDbEntity
8
0
100
AcDbLine
62
7
6
CONTINUOUS
10
88.8903574135
20
153.9051701417
11
88.1882291819
21
153.6760030379
0
LINE
5
287
100
AcDbEntity
8
0
100
AcDbLine
62
7
6
CONTINUOUS
10
178.7392932977
20
135.5718368152
11
177.1009952928
21
135.3426701417
0
LINE
5
288
100
AcDbEntity
8
0
100
AcDbLine
62
7
6
CONTINUOUS
10
86.0818464543
20
144.5093365898
11
97.0818464543
21
140.8426701417
0
LINE
5
289
100
AcDbEntity
8
0
100
AcDbLine
62
7
6
CONTINUOUS
10
95.6775911387
20
139.9260033658
11
86.0818464543
21
143.1343365898
0
LINE
5
28A
100
AcDbEntity
8
0
100
AcDbLine
62
7
6
CONTINUOUS
10
88.6563142325
20
146.5718372455
11
87.7201441314
21
147.0301701417
0
LINE
5
28B
100
AcDbEntity
8
0
100
AcDbLine
62
7
6
CONTINUOUS
10
88.1882291819
20
148.4051701417
11
88.8903574135
21
147.9468372455
0
LINE
5
28C
100
AcDbEntity
8
0
100
AcDbLine
62
7
6
CONTINUOUS
10
95.4435486134
20
155.0510030379
11
96.3797187965
21
154.1343372455
0
LINE
5
28D
100
AcDbEntity
8
0
100
AcDbLine
62
7
6
CONTINUOUS
10
87.7201441314
20
163.0718359342
11
86.7839740302
21
163.9885043492
0
LINE
5
28E
100
AcDbEntity
8
0
100
AcDbLine
62
7
6
CONTINUOUS
10
87.7201441314
20
175.2176701417
11
88.1882291819
21
174.5301701417
0
LINE
5
28F
100
AcDbEntity
8
0
100
AcDbLine
62
7
6
CONTINUOUS
10
95.4435486134
20
168.1135043492
11
94.9754633989
21
168.8010043492
0
LINE
5
290
100
AcDbEntity
8
0
100
AcDbLine
62
7
6
CONTINUOUS
10
96.3797187965
20
169.2593359342
11
96.8478039085
21
168.3426701417
0
LINE
5
291
100
AcDbEntity
8
0
100
AcDbLine
62
7
6
CONTINUOUS
10
96.3797187965
20
180.2593385568
11
96.8478039085
21
179.3426701417
0
LINE
5
292
100
AcDbEntity
8
0
100
AcDbLine
62
7
6
CONTINUOUS
10
171.7180165555
20
185.7593385568
11
172.6541866566
21
186.4468385568
0
LINE
5
293
100
AcDbEntity
8
0
100
AcDbLine
62
7
6
CONTINUOUS
10
95.4435486134
20
147.0301701417
11
94.5073783483
21
146.5718372455
0
LINE
5
294
100
AcDbEntity
8
0
100
AcDbLine
62
7
6
CONTINUOUS
10
177.1009952928
20
135.3426701417
11
175.4626976158
21
135.3426701417
0
LINE
5
295
100
AcDbEntity
8
0
100
AcDbLine
62
7
6
CONTINUOUS
10
175.4626976158
20
136.4885034477
11
175.9307826664
21
136.4885034477
0
LINE
5
296
100
AcDbEntity
8
0
100
AcDbLine
62
7
6
CONTINUOUS
10
178.5052507724
20
136.7176701417
11
177.8031231965
21
136.7176701417
0
LINE
5
297
100
AcDbEntity
8
0
100
AcDbLine
62
7
6
CONTINUOUS
10
89.8265275146
20
146.3426701417
11
88.6563142325
21
146.5718372455
0
LINE
5
298
100
AcDbEntity
8
0
100
AcDbLine
62
7
6
CONTINUOUS
10
88.8903574135
20
147.9468372455
11
89.8265275146
21
147.7176701417
0
LINE
5
299
100
AcDbEntity
8
0
100
AcDbLine
62
7
6
CONTINUOUS
10
87.7201441314
20
173.1551701417
11
86.7839740302
21
174.0718359342
0
LINE
5
29A
100
AcDbEntity
8
0
100
AcDbLine
62
7
6
CONTINUOUS
10
95.4435486134
20
170.1760043492
11
96.3797187965
21
169.2593359342
0
LINE
5
29B
100
AcDbEntity
8
0
100
AcDbLine
62
7
6
CONTINUOUS
10
95.4435486134
20
179.1135043492
11
94.9754633989
21
179.8010017266
0
LINE
5
29C
100
AcDbEntity
8
0
100
AcDbLine
62
7
6
CONTINUOUS
10
172.6541866566
20
185.0718385568
11
172.1861016061
21
184.6135017266
0
LINE
5
29D
100
AcDbEntity
8
0
100
AcDbLine
62
7
6
CONTINUOUS
10
170.7818464543
20
165.3635043492
11
180.3775911387
21
168.5718359342
0
LINE
5
29E
100
AcDbEntity
8
0
100
AcDbLine
62
7
6
CONTINUOUS
10
86.0818464543
20
136.7176701417
11
95.6775911387
21
139.9260033658
0
LINE
5
29F
100
AcDbEntity
8
0
100
AcDbLine
62
7
6
CONTINUOUS
10
181.7818464543
20
167.6551701417
11
170.7818464543
21
163.9885043492
0
LINE
5
2A0
100
AcDbEntity
8
0
100
AcDbLine
62
7
6
CONTINUOUS
10
97.0818464543
20
139.0093369176
11
86.0818464543
21
135.3426701417
0
LINE
5
2A1
100
AcDbEntity
8
0
100
AcDbLine
62
7
6
CONTINUOUS
10
178.5052507724
20
148.6343372455
11
177.3350378181
21
148.4051701417
0
LINE
5
2A2
100
AcDbEntity
8
0
100
AcDbLine
62
7
6
CONTINUOUS
10
177.1009952928
20
149.5510030379
11
178.5052507724
21
149.7801701417
0
LINE
5
2A3
100
AcDbEntity
8
0
100
AcDbLine
62
7
6
CONTINUOUS
10
177.8031231965
20
142.4468365898
11
178.5052507724
21
142.4468365898
0
LINE
5
2A4
100
AcDbEntity
8
0
100
AcDbLine
62
7
6
CONTINUOUS
10
177.5690803434
20
143.5926701417
11
178.7392932977
21
143.5926701417
0
LINE
5
2A5
100
AcDbEntity
8
0
100
AcDbLine
62
7
6
CONTINUOUS
10
181.7818464543
20
145.4260036936
11
180.6116336639
21
145.4260036936
0
LINE
5
2A6
100
AcDbEntity
8
0
100
AcDbLine
62
7
6
CONTINUOUS
10
93.3371657218
20
146.3426701417
11
89.8265275146
21
146.3426701417
0
LINE
5
2A7
100
AcDbEntity
8
0
100
AcDbLine
62
7
6
CONTINUOUS
10
180.6116336639
20
146.5718372455
11
181.7818464543
21
146.5718372455
0
LINE
5
2A8
100
AcDbEntity
8
0
100
AcDbLine
62
7
6
CONTINUOUS
10
89.8265275146
20
147.7176701417
11
93.3371657218
21
147.7176701417
0
LINE
5
2A9
100
AcDbEntity
8
0
100
AcDbLine
62
7
6
CONTINUOUS
10
177.3350378181
20
148.4051701417
11
175.2286550905
21
148.4051701417
0
LINE
5
2AA
100
AcDbEntity
8
0
100
AcDbLine
62
7
6
CONTINUOUS
10
175.4626976158
20
135.3426701417
11
173.8243999388
21
135.5718368152
0
LINE
5
2AB
100
AcDbEntity
8
0
100
AcDbLine
62
7
6
CONTINUOUS
10
174.0584424640
20
136.7176701417
11
175.4626976158
21
136.4885034477
0
LINE
5
2AC
100
AcDbEntity
8
0
100
AcDbLine
62
7
6
CONTINUOUS
10
94.2733358230
20
155.2801701417
11
95.4435486134
21
155.0510030379
0
LINE
5
2AD
100
AcDbEntity
8
0
100
AcDbLine
62
7
6
CONTINUOUS
10
94.9754633989
20
153.6760030379
11
94.2733358230
21
153.9051701417
0
LINE
5
2AE
100
AcDbEntity
8
0
100
AcDbLine
62
7
6
CONTINUOUS
10
94.9754633989
20
168.8010043492
11
94.2733358230
21
169.2593359342
0
LINE
5
2AF
100
AcDbEntity
8
0
100
AcDbLine
62
7
6
CONTINUOUS
10
88.1882291819
20
174.5301701417
11
88.8903574135
21
174.0718359342
0
LINE
5
2B0
100
AcDbEntity
8
0
100
AcDbLine
62
7
6
CONTINUOUS
10
95.4435486134
20
181.1760017266
11
96.3797187965
21
180.2593385568
0
LINE
5
2B1
100
AcDbEntity
8
0
100
AcDbLine
62
7
6
CONTINUOUS
10
171.0158889796
20
184.8426701417
11
171.7180165555
21
185.7593385568
0
LINE
5
2B2
100
AcDbEntity
8
0
100
AcDbLine
62
7
6
CONTINUOUS
10
172.4201441314
20
155.7385030379
11
173.3563142325
21
156.1968372455
0
LINE
5
2B3
100
AcDbEntity
8
0
100
AcDbLine
62
7
6
CONTINUOUS
10
173.3563142325
20
156.1968372455
11
174.0584424640
21
156.4260030379
0
LINE
5
2B4
100
AcDbEntity
8
0
100
AcDbLine
62
7
6
CONTINUOUS
10
93.3371657218
20
147.7176701417
11
94.2733358230
21
147.9468372455
0
LINE
5
2B5
100
AcDbEntity
8
0
100
AcDbLine
62
7
6
CONTINUOUS
10
174.0584424640
20
156.4260030379
11
175.2286550905
21
156.6551701417
0
LINE
5
2B6
100
AcDbEntity
8
0
100
AcDbLine
62
7
6
CONTINUOUS
10
94.5073783483
20
146.5718372455
11
93.3371657218
21
146.3426701417
0
LINE
5
2B7
100
AcDbEntity
8
0
100
AcDbLine
62
7
6
CONTINUOUS
10
175.4626976158
20
155.5093372455
11
174.0584424640
21
155.2801701417
0
LINE
5
2B8
100
AcDbEntity
8
0
100
AcDbLine
62
7
6
CONTINUOUS
10
175.4626976158
20
149.5510030379
11
177.1009952928
21
149.5510030379
0
LINE
5
2B9
100
AcDbEntity
8
0
100
AcDbLine
62
7
6
CONTINUOUS
10
177.1009952928
20
155.5093372455
11
175.4626976158
21
155.5093372455
0
LINE
5
2BA
100
AcDbEntity
8
0
100
AcDbLine
62
7
6
CONTINUOUS
10
175.2286550905
20
156.6551701417
11
177.3350378181
21
156.6551701417
0
LINE
5
2BB
100
AcDbEntity
8
0
100
AcDbLine
62
7
6
CONTINUOUS
10
93.1031231965
20
157.1135030379
11
91.9329102423
21
157.1135030379
0
LINE
5
2BC
100
AcDbEntity
8
0
100
AcDbLine
62
7
6
CONTINUOUS
10
174.0584424640
20
149.7801701417
11
175.4626976158
21
149.5510030379
0
LINE
5
2BD
100
AcDbEntity
8
0
100
AcDbLine
62
7
6
CONTINUOUS
10
175.2286550905
20
148.4051701417
11
174.0584424640
21
148.6343372455
0
LINE
5
2BE
100
AcDbEntity
8
0
100
AcDbLine
62
7
6
CONTINUOUS
10
88.6563142325
20
162.8426701417
11
87.7201441314
21
163.0718359342
0
LINE
5
2BF
100
AcDbEntity
8
0
100
AcDbLine
62
7
6
CONTINUOUS
10
88.1882291819
20
164.4468359342
11
88.8903574135
21
164.2176701417
0
LINE
5
2C0
100
AcDbEntity
8
0
100
AcDbLine
62
7
6
CONTINUOUS
10
173.3563142325
20
136.9468367537
11
174.0584424640
21
136.7176701417
0
LINE
5
2C1
100
AcDbEntity
8
0
100
AcDbLine
62
7
6
CONTINUOUS
10
177.8031231965
20
136.7176701417
11
177.1009952928
21
136.9468367537
0
LINE
5
2C2
100
AcDbEntity
8
0
100
AcDbLine
62
7
6
CONTINUOUS
10
178.5052507724
20
142.4468365898
11
179.2073783483
21
142.2176701417
0
LINE
5
2C3
100
AcDbEntity
8
0
100
AcDbLine
62
7
6
CONTINUOUS
10
173.8243999388
20
135.5718368152
11
172.6541866566
21
136.0301701417
0
LINE
5
2C4
100
AcDbEntity
8
0
100
AcDbLine
62
7
6
CONTINUOUS
10
88.6563142325
20
172.6968359342
11
87.7201441314
21
173.1551701417
0
LINE
5
2C5
100
AcDbEntity
8
0
100
AcDbLine
62
7
6
CONTINUOUS
10
94.5073783483
20
170.6343359342
11
95.4435486134
21
170.1760043492
0
LINE
5
2C6
100
AcDbEntity
8
0
100
AcDbLine
62
7
6
CONTINUOUS
10
171.7180165555
20
155.0510030379
11
172.4201441314
21
155.7385030379
0
LINE
5
2C7
100
AcDbEntity
8
0
100
AcDbLine
62
7
6
CONTINUOUS
10
174.0584424640
20
155.2801701417
11
172.6541866566
21
154.3635030379
0
LINE
5
2C8
100
AcDbEntity
8
0
100
AcDbLine
62
7
6
CONTINUOUS
10
180.1435486134
20
149.3218372455
11
179.2073783483
21
148.8635030379
0
LINE
5
2C9
100
AcDbEntity
8
0
100
AcDbLine
62
7
6
CONTINUOUS
10
176.3988677170
20
143.1343365898
11
177.5690803434
21
143.5926701417
0
LINE
5
2CA
100
AcDbEntity
8
0
100
AcDbLine
62
7
6
CONTINUOUS
10
179.2073783483
20
148.8635030379
11
178.5052507724
21
148.6343372455
0
LINE
5
2CB
100
AcDbEntity
8
0
100
AcDbLine
62
7
6
CONTINUOUS
10
172.6541866566
20
142.9051701417
11
173.3563142325
21
143.1343365898
0
LINE
5
2CC
100
AcDbEntity
8
0
100
AcDbLine
62
7
6
CONTINUOUS
10
177.1009952928
20
142.2176701417
11
177.8031231965
21
142.4468365898
0
LINE
5
2CD
100
AcDbEntity
8
0
100
AcDbLine
62
7
6
CONTINUOUS
10
87.7201441314
20
155.0510030379
11
88.8903574135
21
155.2801701417
0
LINE
5
2CE
100
AcDbEntity
8
0
100
AcDbLine
62
7
6
CONTINUOUS
10
91.9329102423
20
160.3218359342
11
93.1031231965
21
160.3218359342
0
LINE
5
2CF
100
AcDbEntity
8
0
100
AcDbLine
62
7
6
CONTINUOUS
10
89.5924849893
20
162.8426701417
11
88.6563142325
21
162.8426701417
0
LINE
5
2D0
100
AcDbEntity
8
0
100
AcDbLine
62
7
6
CONTINUOUS
10
88.8903574135
20
164.2176701417
11
89.3584424640
21
164.2176701417
0
LINE
5
2D1
100
AcDbEntity
8
0
100
AcDbLine
62
7
6
CONTINUOUS
10
178.5052507724
20
155.2801701417
11
177.1009952928
21
155.5093372455
0
LINE
5
2D2
100
AcDbEntity
8
0
100
AcDbLine
62
7
6
CONTINUOUS
10
89.8265275146
20
172.4676701417
11
88.6563142325
21
172.6968359342
0
LINE
5
2D3
100
AcDbEntity
8
0
100
AcDbLine
62
7
6
CONTINUOUS
10
177.3350378181
20
156.6551701417
11
178.5052507724
21
156.4260030379
0
LINE
5
2D4
100
AcDbEntity
8
0
100
AcDbLine
62
7
6
CONTINUOUS
10
88.8903574135
20
174.0718359342
11
89.8265275146
21
173.8426701417
0
LINE
5
2D5
100
AcDbEntity
8
0
100
AcDbLine
62
7
6
CONTINUOUS
10
174.0584424640
20
148.6343372455
11
173.3563142325
21
148.8635030379
0
LINE
5
2D6
100
AcDbEntity
8
0
100
AcDbLine
62
7
6
CONTINUOUS
10
94.9754633989
20
179.8010017266
11
94.2733358230
21
180.0301701417
0
LINE
5
2D7
100
AcDbEntity
8
0
100
AcDbLine
62
7
6
CONTINUOUS
10
178.7392932977
20
143.5926701417
11
179.9095060881
21
143.1343365898
0
LINE
5
2D8
100
AcDbEntity
8
0
100
AcDbLine
62
7
6
CONTINUOUS
10
173.3563142325
20
148.8635030379
11
172.4201441314
21
149.3218372455
0
LINE
5
2D9
100
AcDbEntity
8
0
100
AcDbLine
62
7
6
CONTINUOUS
10
172.6541866566
20
137.4051701417
11
173.3563142325
21
136.9468367537
0
LINE
5
2DA
100
AcDbEntity
8
0
100
AcDbLine
62
7
6
CONTINUOUS
10
179.2073783483
20
142.2176701417
11
179.9095060881
21
141.7593365898
0
LINE
5
2DB
100
AcDbEntity
8
0
100
AcDbLine
62
7
6
CONTINUOUS
10
172.6541866566
20
136.0301701417
11
171.7180165555
21
136.7176701417
0
LINE
5
2DC
100
AcDbEntity
8
0
100
AcDbLine
62
7
6
CONTINUOUS
10
159.7818464543
20
38.5426701419
11
159.7818464543
21
194.1926701417
0
LINE
5
2DD
100
AcDbEntity
8
0
100
AcDbLine
62
7
6
CONTINUOUS
10
170.7818464543
20
183.6968385568
11
171.0158889796
21
184.8426701417
0
LINE
5
2DE
100
AcDbEntity
8
0
100
AcDbLine
62
7
6
CONTINUOUS
10
172.1861016061
20
184.6135017266
11
171.9520590808
21
183.9260017266
0
LINE
5
2DF
100
AcDbEntity
8
0
100
AcDbLine
62
7
6
CONTINUOUS
10
171.0158889796
20
153.9051701417
11
171.7180165555
21
155.0510030379
0
LINE
5
2E0
100
AcDbEntity
8
0
100
AcDbLine
62
7
6
CONTINUOUS
10
173.1222717072
20
161.4676701417
11
173.5903574135
21
162.1551701417
0
LINE
5
2E1
100
AcDbEntity
8
0
100
AcDbLine
62
7
6
CONTINUOUS
10
172.6541866566
20
154.3635030379
11
172.1861016061
21
153.6760030379
0
LINE
5
2E2
100
AcDbEntity
8
0
100
AcDbLine
62
7
6
CONTINUOUS
10
171.7180165555
20
142.2176701417
11
172.6541866566
21
142.9051701417
0
LINE
5
2E3
100
AcDbEntity
8
0
100
AcDbLine
62
7
6
CONTINUOUS
10
178.5052507724
20
149.7801701417
11
179.9095060881
21
150.6968372455
0
LINE
5
2E4
100
AcDbEntity
8
0
100
AcDbLine
62
7
6
CONTINUOUS
10
173.3563142325
20
141.9885036936
11
172.6541866566
21
141.5301701417
0
LINE
5
2E5
100
AcDbEntity
8
0
100
AcDbLine
62
7
6
CONTINUOUS
10
179.9095060881
20
136.0301701417
11
178.7392932977
21
135.5718368152
0
LINE
5
2E6
100
AcDbEntity
8
0
100
AcDbLine
62
7
6
CONTINUOUS
10
179.2073783483
20
136.9468367537
11
178.5052507724
21
136.7176701417
0
LINE
5
2E7
100
AcDbEntity
8
0
100
AcDbLine
62
7
6
CONTINUOUS
10
94.9754633989
20
162.3843359342
11
94.0392932977
21
162.1551701417
0
LINE
5
2E8
100
AcDbEntity
8
0
100
AcDbLine
62
7
6
CONTINUOUS
10
90.5286550905
20
163.0718359342
11
89.5924849893
21
162.8426701417
0
LINE
5
2E9
100
AcDbEntity
8
0
100
AcDbLine
62
7
6
CONTINUOUS
10
94.2733358230
20
169.2593359342
11
93.5712082471
21
169.2593359342
0
LINE
5
2EA
100
AcDbEntity
8
0
100
AcDbLine
62
7
6
CONTINUOUS
10
93.3371657218
20
170.6343359342
11
94.5073783483
21
170.6343359342
0
LINE
5
2EB
100
AcDbEntity
8
0
100
AcDbLine
62
7
6
CONTINUOUS
10
93.3371657218
20
172.4676701417
11
89.8265275146
21
172.4676701417
0
LINE
5
2EC
100
AcDbEntity
8
0
100
AcDbLine
62
7
6
CONTINUOUS
10
89.8265275146
20
173.8426701417
11
93.3371657218
21
173.8426701417
0
LINE
5
2ED
100
AcDbEntity
8
0
100
AcDbLine
62
7
6
CONTINUOUS
10
181.7818464543
20
174.9885043492
11
170.7818464543
21
174.9885043492
0
LINE
5
2EE
100
AcDbEntity
8
0
100
AcDbLine
62
7
6
CONTINUOUS
10
170.7818464543
20
176.3635043492
11
181.7818464543
21
176.3635043492
0
LINE
5
2EF
100
AcDbEntity
8
0
100
AcDbLine
62
7
6
CONTINUOUS
10
94.2733358230
20
181.4051701417
11
95.4435486134
21
181.1760017266
0
LINE
5
2F0
100
AcDbEntity
8
0
100
AcDbLine
62
7
6
CONTINUOUS
10
178.5052507724
20
156.4260030379
11
179.2073783483
21
156.1968372455
0
LINE
5
2F1
100
AcDbEntity
8
0
100
AcDbLine
62
7
6
CONTINUOUS
10
179.2073783483
20
156.1968372455
11
180.1435486134
21
155.7385030379
0
LINE
5
2F2
100
AcDbEntity
8
0
100
AcDbLine
62
7
6
CONTINUOUS
10
178.9733358230
20
158.4885043492
11
173.1222717072
21
161.4676701417
0
LINE
5
2F3
100
AcDbEntity
8
0
100
AcDbLine
62
7
6
CONTINUOUS
10
172.6541866566
20
150.6968372455
11
174.0584424640
21
149.7801701417
0
LINE
5
2F4
100
AcDbEntity
8
0
100
AcDbLine
62
7
6
CONTINUOUS
10
179.9095060881
20
143.1343365898
11
180.8456762712
21
142.4468365898
0
LINE
5
2F5
100
AcDbEntity
8
0
100
AcDbLine
62
7
6
CONTINUOUS
10
177.1009952928
20
136.9468367537
11
176.6329102423
21
137.4051701417
0
LINE
5
2F6
100
AcDbEntity
8
0
100
AcDbLine
62
7
6
CONTINUOUS
10
172.4201441314
20
149.3218372455
11
171.7180165555
21
150.0093372455
0
LINE
5
2F7
100
AcDbEntity
8
0
100
AcDbLine
62
7
6
CONTINUOUS
10
172.1861016061
20
138.0926701417
11
172.6541866566
21
137.4051701417
0
LINE
5
2F8
100
AcDbEntity
8
0
100
AcDbLine
62
7
6
CONTINUOUS
10
175.9307826664
20
136.4885034477
11
174.9946125652
21
137.8635035297
0
LINE
5
2F9
100
AcDbEntity
8
0
100
AcDbLine
62
7
6
CONTINUOUS
10
176.6329102423
20
137.4051701417
11
176.1648251917
21
138.0926701417
0
LINE
5
2FA
100
AcDbEntity
8
0
100
AcDbLine
62
7
6
CONTINUOUS
10
171.7180165555
20
136.7176701417
11
171.0158889796
21
137.8635035297
0
LINE
5
2FB
100
AcDbEntity
8
0
100
AcDbLine
62
7
6
CONTINUOUS
10
170.7818464543
20
139.0093369176
11
170.7818464543
21
139.9260033658
0
LINE
5
2FC
100
AcDbEntity
8
0
100
AcDbLine
62
7
6
CONTINUOUS
10
170.7818464543
20
163.9885043492
11
170.7818464543
21
165.3635043492
0
LINE
5
2FD
100
AcDbEntity
8
0
100
AcDbLine
62
7
6
CONTINUOUS
10
170.7818464543
20
171.7801701417
11
170.7818464543
21
173.1551701417
0
LINE
5
2FE
100
AcDbEntity
8
0
100
AcDbLine
62
7
6
CONTINUOUS
10
170.7818464543
20
174.9885043492
11
170.7818464543
21
176.3635043492
0
LINE
5
2FF
100
AcDbEntity
8
0
100
AcDbLine
62
7
6
CONTINUOUS
10
170.7818464543
20
178.1968359342
11
170.7818464543
21
183.6968385568
0
LINE
5
300
100
AcDbEntity
8
0
100
AcDbLine
62
7
6
CONTINUOUS
10
171.9520590808
20
183.9260017266
11
171.9520590808
21
179.5718385568
0
LINE
5
301
100
AcDbEntity
8
0
100
AcDbLine
62
7
6
CONTINUOUS
10
171.9520590808
20
140.1551701417
11
171.9520590808
21
138.7801701417
0
LINE
5
302
100
AcDbEntity
8
0
100
AcDbLine
62
7
6
CONTINUOUS
10
173.3563142325
20
143.1343365898
11
173.3563142325
21
141.9885036936
0
LINE
5
303
100
AcDbEntity
8
0
100
AcDbLine
62
7
6
CONTINUOUS
10
170.7818464543
20
152.5301701417
11
171.0158889796
21
153.9051701417
0
LINE
5
304
100
AcDbEntity
8
0
100
AcDbLine
62
7
6
CONTINUOUS
10
172.1861016061
20
153.6760030379
11
171.9520590808
21
152.5301701417
0
LINE
5
305
100
AcDbEntity
8
0
100
AcDbLine
62
7
6
CONTINUOUS
10
170.7818464543
20
139.9260033658
11
171.0158889796
21
141.0718365898
0
LINE
5
306
100
AcDbEntity
8
0
100
AcDbLine
62
7
6
CONTINUOUS
10
172.1861016061
20
140.8426701417
11
171.9520590808
21
140.1551701417
0
LINE
5
307
100
AcDbEntity
8
0
100
AcDbLine
62
7
6
CONTINUOUS
10
171.0158889796
20
141.0718365898
11
171.7180165555
21
142.2176701417
0
LINE
5
308
100
AcDbEntity
8
0
100
AcDbLine
62
7
6
CONTINUOUS
10
174.9946125652
20
141.3010036936
11
175.6967401411
21
142.4468365898
0
LINE
5
309
100
AcDbEntity
8
0
100
AcDbLine
62
7
6
CONTINUOUS
10
181.5478039085
20
151.1551701417
11
180.8456762712
21
150.0093372455
0
LINE
5
30A
100
AcDbEntity
8
0
100
AcDbLine
62
7
6
CONTINUOUS
10
179.4414208736
20
159.1760043492
11
178.9733358230
21
158.4885043492
0
LINE
5
30B
100
AcDbEntity
8
0
100
AcDbLine
62
7
6
CONTINUOUS
10
172.6541866566
20
141.5301701417
11
172.1861016061
21
140.8426701417
0
LINE
5
30C
100
AcDbEntity
8
0
100
AcDbLine
62
7
6
CONTINUOUS
10
179.9095060881
20
150.6968372455
11
180.3775911387
21
151.3843372455
0
LINE
5
30D
100
AcDbEntity
8
0
100
AcDbLine
62
7
6
CONTINUOUS
10
176.1648251917
20
141.0718365898
11
176.6329102423
21
141.7593365898
0
LINE
5
30E
100
AcDbEntity
8
0
100
AcDbLine
62
7
6
CONTINUOUS
10
180.8456762712
20
150.0093372455
11
180.1435486134
21
149.3218372455
0
LINE
5
30F
100
AcDbEntity
8
0
100
AcDbLine
62
7
6
CONTINUOUS
10
175.6967401411
20
142.4468365898
11
176.3988677170
21
143.1343365898
0
LINE
5
310
100
AcDbEntity
8
0
100
AcDbLine
62
7
6
CONTINUOUS
10
176.6329102423
20
141.7593365898
11
177.1009952928
21
142.2176701417
0
LINE
5
311
100
AcDbEntity
8
0
100
AcDbLine
62
7
6
CONTINUOUS
10
180.8456762712
20
136.7176701417
11
179.9095060881
21
136.0301701417
0
LINE
5
312
100
AcDbEntity
8
0
100
AcDbLine
62
7
6
CONTINUOUS
10
179.9095060881
20
137.4051701417
11
179.2073783483
21
136.9468367537
0
LINE
5
313
100
AcDbEntity
8
0
100
AcDbLine
62
7
6
CONTINUOUS
10
93.3371657218
20
173.8426701417
11
94.2733358230
21
174.0718359342
0
LINE
5
314
100
AcDbEntity
8
0
100
AcDbLine
62
7
6
CONTINUOUS
10
94.5073783483
20
172.6968359342
11
93.3371657218
21
172.4676701417
0
LINE
5
315
100
AcDbEntity
8
0
100
AcDbLine
62
7
6
CONTINUOUS
10
181.7818464543
20
178.1968359342
11
170.7818464543
21
178.1968359342
0
LINE
5
316
100
AcDbEntity
8
0
100
AcDbLine
62
7
6
CONTINUOUS
10
171.9520590808
20
179.5718385568
11
175.4626976158
21
179.5718385568
0
LINE
5
317
100
AcDbEntity
8
0
100
AcDbLine
62
7
6
CONTINUOUS
10
176.8669527675
20
179.5718385568
11
181.7818464543
21
179.5718385568
0
LINE
5
318
100
AcDbEntity
8
0
100
AcDbLine
62
7
6
CONTINUOUS
10
97.0818464543
20
183.2385017266
11
86.0818464543
21
183.2385017266
0
LINE
5
319
100
AcDbEntity
8
0
100
AcDbLine
62
7
6
CONTINUOUS
10
86.0818464543
20
184.6135017266
11
90.5286550905
21
184.6135017266
0
LINE
5
31A
100
AcDbEntity
8
0
100
AcDbLine
62
7
6
CONTINUOUS
10
91.9329102423
20
184.6135017266
11
97.0818464543
21
184.6135017266
0
LINE
5
31B
100
AcDbEntity
8
0
100
AcDbLine
62
7
6
CONTINUOUS
10
174.0584424640
20
185.3010017266
11
173.3563142325
21
185.3010017266
0
LINE
5
31C
100
AcDbEntity
8
0
100
AcDbLine
62
7
6
CONTINUOUS
10
173.3563142325
20
186.6760017266
11
174.2924849893
21
186.6760017266
0
LINE
5
31D
100
AcDbEntity
8
0
100
AcDbLine
62
7
6
CONTINUOUS
10
170.7818464543
20
173.1551701417
11
181.7818464543
21
169.4885043492
0
LINE
5
31E
100
AcDbEntity
8
0
100
AcDbLine
62
7
6
CONTINUOUS
10
180.3775911387
20
168.5718359342
11
170.7818464543
21
171.7801701417
0
LINE
5
31F
100
AcDbEntity
8
0
100
AcDbLine
62
7
6
CONTINUOUS
10
173.5903574135
20
162.1551701417
11
179.4414208736
21
159.1760043492
0
LINE
5
320
100
AcDbEntity
8
0
100
AcDbLine
62
7
6
CONTINUOUS
10
179.9095060881
20
154.3635030379
11
178.5052507724
21
155.2801701417
0
LINE
5
321
100
AcDbEntity
8
0
100
AcDbLine
62
7
6
CONTINUOUS
10
180.1435486134
20
155.7385030379
11
180.8456762712
21
155.0510030379
0
LINE
5
322
100
AcDbEntity
8
0
100
AcDbLine
62
7
6
CONTINUOUS
10
172.1861016061
20
151.3843372455
11
172.6541866566
21
150.6968372455
0
LINE
5
323
100
AcDbEntity
8
0
100
AcDbLine
62
7
6
CONTINUOUS
10
179.9095060881
20
141.7593365898
11
180.3775911387
21
141.0718365898
0
LINE
5
324
100
AcDbEntity
8
0
100
AcDbLine
62
7
6
CONTINUOUS
10
171.7180165555
20
150.0093372455
11
171.0158889796
21
151.1551701417
0
LINE
5
325
100
AcDbEntity
8
0
100
AcDbLine
62
7
6
CONTINUOUS
10
180.8456762712
20
142.4468365898
11
181.5478039085
21
141.3010036936
0
LINE
5
326
100
AcDbEntity
8
0
100
AcDbLine
62
7
6
CONTINUOUS
10
171.9520590808
20
138.7801701417
11
172.1861016061
21
138.0926701417
0
LINE
5
327
100
AcDbEntity
8
0
100
AcDbLine
62
7
6
CONTINUOUS
10
176.1648251917
20
138.0926701417
11
175.9307826664
21
138.7801701417
0
LINE
5
328
100
AcDbEntity
8
0
100
AcDbLine
62
7
6
CONTINUOUS
10
171.0158889796
20
137.8635035297
11
170.7818464543
21
139.0093369176
0
LINE
5
329
100
AcDbEntity
8
0
100
AcDbLine
62
7
6
CONTINUOUS
10
171.9520590808
20
152.5301701417
11
172.1861016061
21
151.3843372455
0
LINE
5
32A
100
AcDbEntity
8
0
100
AcDbLine
62
7
6
CONTINUOUS
10
174.9946125652
20
137.8635035297
11
174.7605700399
21
139.0093369176
0
LINE
5
32B
100
AcDbEntity
8
0
100
AcDbLine
62
7
6
CONTINUOUS
10
171.0158889796
20
151.1551701417
11
170.7818464543
21
152.5301701417
0
LINE
5
32C
100
AcDbEntity
8
0
100
AcDbLine
62
7
6
CONTINUOUS
10
174.7605700399
20
139.0093369176
11
174.7605700399
21
140.1551701417
0
LINE
5
32D
100
AcDbEntity
8
0
100
AcDbLine
62
7
6
CONTINUOUS
10
175.4626976158
20
179.5718385568
11
175.4626976158
21
183.9260017266
0
LINE
5
32E
100
AcDbEntity
8
0
100
AcDbLine
62
7
6
CONTINUOUS
10
175.9307826664
20
138.7801701417
11
175.9307826664
21
140.3843369176
0
LINE
5
32F
100
AcDbEntity
8
0
100
AcDbLine
62
7
6
CONTINUOUS
10
176.8669527675
20
183.6968385568
11
176.8669527675
21
179.5718385568
0
LINE
5
330
100
AcDbEntity
8
0
100
AcDbLine
62
7
6
CONTINUOUS
10
180.6116336639
20
140.3843369176
11
180.6116336639
21
138.7801701417
0
LINE
5
331
100
AcDbEntity
8
0
100
AcDbLine
62
7
6
CONTINUOUS
10
180.6116336639
20
145.4260036936
11
180.6116336639
21
146.5718372455
0
LINE
5
332
100
AcDbEntity
8
0
100
AcDbLine
62
7
6
CONTINUOUS
10
181.7818464543
20
179.5718385568
11
181.7818464543
21
178.1968359342
0
LINE
5
333
100
AcDbEntity
8
0
100
AcDbLine
62
7
6
CONTINUOUS
10
181.7818464543
20
176.3635043492
11
181.7818464543
21
174.9885043492
0
LINE
5
334
100
AcDbEntity
8
0
100
AcDbLine
62
7
6
CONTINUOUS
10
181.7818464543
20
169.4885043492
11
181.7818464543
21
167.6551701417
0
LINE
5
335
100
AcDbEntity
8
0
100
AcDbLine
62
7
6
CONTINUOUS
10
181.7818464543
20
146.5718372455
11
181.7818464543
21
145.4260036936
0
LINE
5
336
100
AcDbEntity
8
0
100
AcDbLine
62
7
6
CONTINUOUS
10
181.7818464543
20
140.1551701417
11
181.7818464543
21
139.0093369176
0
LINE
5
337
100
AcDbEntity
8
0
100
AcDbLine
62
7
6
CONTINUOUS
10
181.7818464543
20
152.5301701417
11
181.5478039085
21
151.1551701417
0
LINE
5
338
100
AcDbEntity
8
0
100
AcDbLine
62
7
6
CONTINUOUS
10
174.7605700399
20
140.1551701417
11
174.9946125652
21
141.3010036936
0
LINE
5
339
100
AcDbEntity
8
0
100
AcDbLine
62
7
6
CONTINUOUS
10
180.3775911387
20
151.3843372455
11
180.6116336639
21
152.5301701417
0
LINE
5
33A
100
AcDbEntity
8
0
100
AcDbLine
62
7
6
CONTINUOUS
10
181.7818464543
20
139.0093369176
11
181.5478039085
21
137.8635035297
0
LINE
5
33B
100
AcDbEntity
8
0
100
AcDbLine
62
7
6
CONTINUOUS
10
175.9307826664
20
140.3843369176
11
176.1648251917
21
141.0718365898
0
LINE
5
33C
100
AcDbEntity
8
0
100
AcDbLine
62
7
6
CONTINUOUS
10
180.6116336639
20
138.7801701417
11
180.3775911387
21
138.0926701417
0
LINE
5
33D
100
AcDbEntity
8
0
100
AcDbLine
62
7
6
CONTINUOUS
10
181.5478039085
20
137.8635035297
11
180.8456762712
21
136.7176701417
0
LINE
5
33E
100
AcDbEntity
8
0
100
AcDbLine
62
7
6
CONTINUOUS
10
180.3775911387
20
138.0926701417
11
179.9095060881
21
137.4051701417
0
LINE
5
33F
100
AcDbEntity
8
0
100
AcDbLine
62
7
6
CONTINUOUS
10
87.7201441314
20
181.1760017266
11
88.8903574135
21
181.4051701417
0
LINE
5
340
100
AcDbEntity
8
0
100
AcDbLine
62
7
6
CONTINUOUS
10
97.0818464543
20
191.0301701417
11
91.9329102423
21
191.0301701417
0
LINE
5
341
100
AcDbEntity
8
0
100
AcDbLine
62
7
6
CONTINUOUS
10
90.5286550905
20
191.0301701417
11
86.0818464543
21
191.0301701417
0
LINE
5
342
100
AcDbEntity
8
0
100
AcDbLine
62
7
6
CONTINUOUS
10
86.0818464543
20
192.4051701417
11
97.0818464543
21
192.4051701417
0
LINE
5
343
100
AcDbEntity
8
0
100
AcDbLine
62
7
6
CONTINUOUS
10
91.5818464543
20
194.1926701417
11
91.8017235634
21
194.1926701417
0
LINE
5
344
100
AcDbEntity
8
0
100
AcDbLine
62
7
6
CONTINUOUS
10
176.0619705337
20
194.1926701417
11
176.2818464543
21
194.1926701417
0
LINE
5
345
100
AcDbEntity
8
0
100
AcDbLine
62
7
6
CONTINUOUS
10
174.7605700399
20
185.0718385568
11
174.0584424640
21
185.3010017266
0
LINE
5
346
100
AcDbEntity
8
0
100
AcDbLine
62
7
6
CONTINUOUS
10
180.3775911387
20
153.6760030379
11
179.9095060881
21
154.3635030379
0
LINE
5
347
100
AcDbEntity
8
0
100
AcDbLine
62
7
6
CONTINUOUS
10
180.8456762712
20
155.0510030379
11
181.5478039085
21
153.9051701417
0
LINE
5
348
100
AcDbEntity
8
0
100
AcDbLine
62
7
6
CONTINUOUS
10
180.3775911387
20
141.0718365898
11
180.6116336639
21
140.3843369176
0
LINE
5
349
100
AcDbEntity
8
0
100
AcDbLine
62
7
6
CONTINUOUS
10
181.5478039085
20
141.3010036936
11
181.7818464543
21
140.1551701417
0
LINE
5
34A
100
AcDbEntity
8
0
100
AcDbLine
62
7
6
CONTINUOUS
10
180.6116336639
20
152.5301701417
11
180.3775911387
21
153.6760030379
0
LINE
5
34B
100
AcDbEntity
8
0
100
AcDbLine
62
7
6
CONTINUOUS
10
176.6329102423
20
184.8426701417
11
176.8669527675
21
183.6968385568
0
LINE
5
34C
100
AcDbEntity
8
0
100
AcDbLine
62
7
6
CONTINUOUS
10
181.5478039085
20
153.9051701417
11
181.7818464543
21
152.5301701417
0
LINE
5
34D
100
AcDbEntity
8
0
100
AcDbLine
62
7
6
CONTINUOUS
10
192.7818464543
20
197.4926701417
11
192.7818464543
21
38.5426701463
0
LINE
5
34E
100
AcDbEntity
8
0
100
AcDbLine
62
7
6
CONTINUOUS
10
174.2924849893
20
186.6760017266
11
174.9946125652
21
186.4468385568
0
LINE
5
34F
100
AcDbEntity
8
0
100
AcDbLine
62
7
6
CONTINUOUS
10
174.9946125652
20
186.4468385568
11
175.9307826664
21
185.7593385568
0
LINE
5
350
100
AcDbEntity
8
0
100
AcDbLine
62
7
6
CONTINUOUS
10
175.2286550905
20
184.6135017266
11
174.7605700399
21
185.0718385568
0
LINE
5
351
100
AcDbEntity
8
0
100
AcDbLine
62
7
6
CONTINUOUS
10
175.9307826664
20
185.7593385568
11
176.6329102423
21
184.8426701417
0
LINE
5
352
100
AcDbEntity
8
0
100
AcDbLine
62
7
6
CONTINUOUS
10
175.4626976158
20
183.9260017266
11
175.2286550905
21
184.6135017266
0
LINE
5
353
100
AcDbEntity
8
0
100
AcDbLine
62
7
6
CONTINUOUS
10
214.7818464543
20
108.3926701417
11
214.7818464543
21
47.8926701417
0
LINE
5
354
100
AcDbEntity
8
0
100
AcDbLine
62
7
6
CONTINUOUS
10
218.0818464543
20
100.6926701417
11
218.0818464543
21
100.5828932239
0
LINE
5
355
100
AcDbEntity
8
0
100
AcDbLine
62
7
6
CONTINUOUS
10
218.0818464543
20
58.3426701417
11
218.0818464543
21
55.5926701417
0
LINE
5
356
100
AcDbEntity
8
0
100
AcDbLine
62
7
6
CONTINUOUS
10
218.0818464543
20
73.6327611229
11
218.0818464543
21
82.6525806869
0
LINE
5
357
100
AcDbEntity
8
0
100
AcDbLine
62
7
6
CONTINUOUS
10
218.0818464543
20
97.9426701417
11
218.0818464543
21
100.5370855121
0
LINE
5
358
100
AcDbEntity
8
0
100
AcDbLine
62
7
6
CONTINUOUS
10
222.4818464543
20
100.6926701417
11
222.4818464543
21
97.9426701417
0
LINE
5
359
100
AcDbEntity
8
0
100
AcDbLine
62
7
6
CONTINUOUS
10
222.4818464543
20
82.6525806869
11
222.4818464543
21
73.6327611229
0
LINE
5
35A
100
AcDbEntity
8
0
100
AcDbLine
62
7
6
CONTINUOUS
10
222.4818464543
20
55.5926701417
11
222.4818464543
21
58.3426701417
0
LINE
5
35B
100
AcDbEntity
8
0
100
AcDbLine
62
7
6
CONTINUOUS
10
227.9818464543
20
58.3426701417
11
227.9818464543
21
97.9426701417
0
LINE
5
35C
100
AcDbEntity
8
DEFAULT_1
100
AcDbLine
62
2
6
CENTER
10
280.9179523416
20
78.1426701417
11
366.1215845850
21
78.1426701417
0
LINE
5
35D
100
AcDbEntity
8
0
100
AcDbLine
62
7
6
CONTINUOUS
10
307.0197656295
20
126.2509441718
11
307.0197656295
21
239.8425890375
0
LINE
5
35E
100
AcDbEntity
8
0
100
AcDbLine
62
7
6
CONTINUOUS
10
340.5697656295
20
135.3426701417
11
339.0761148156
21
135.3426701417
0
LINE
5
35F
100
AcDbEntity
8
0
100
AcDbLine
62
7
6
CONTINUOUS
10
340.5697656295
20
136.7176701417
11
339.0761148156
21
136.7176701417
0
LINE
5
360
100
AcDbEntity
8
0
100
AcDbLine
62
7
6
CONTINUOUS
10
340.5697656295
20
139.9260033658
11
340.0197656295
21
139.9260033658
0
LINE
5
361
100
AcDbEntity
8
0
100
AcDbLine
62
7
6
CONTINUOUS
10
318.0197656295
20
102.8376088944
11
318.0197656295
21
53.4477313890
0
LINE
5
362
100
AcDbEntity
8
DEFAULT_1
100
AcDbLine
62
2
6
CENTER
10
323.5197656295
20
37.4013131250
11
323.5197656295
21
262.5433999132
0
LINE
5
363
100
AcDbEntity
8
0
100
AcDbLine
62
7
6
CONTINUOUS
10
340.5697656295
20
143.1343365898
11
339.0761148156
21
143.1343365898
0
LINE
5
364
100
AcDbEntity
8
0
100
AcDbLine
62
7
6
CONTINUOUS
10
340.5697656295
20
144.5093365898
11
339.0761148156
21
144.5093365898
0
LINE
5
365
100
AcDbEntity
8
0
100
AcDbLine
62
7
6
CONTINUOUS
10
340.5697656295
20
145.4260036936
11
340.0197656295
21
145.4260036936
0
LINE
5
366
100
AcDbEntity
8
0
100
AcDbLine
62
7
6
CONTINUOUS
10
340.5697656295
20
146.3426701417
11
339.9261319371
21
146.3426701417
0
LINE
5
367
100
AcDbEntity
8
0
100
AcDbLine
62
7
6
CONTINUOUS
10
340.5697656295
20
146.5718372455
11
339.7583388802
21
146.5718372455
0
LINE
5
368
100
AcDbEntity
8
0
100
AcDbLine
62
7
6
CONTINUOUS
10
340.5697656295
20
147.0301701417
11
339.5615004225
21
147.0301701417
0
LINE
5
369
100
AcDbEntity
8
0
100
AcDbLine
62
7
6
CONTINUOUS
10
340.5697656295
20
147.9468372455
11
339.3067989227
21
147.9468372455
0
LINE
5
36A
100
AcDbEntity
8
0
100
AcDbLine
62
7
6
CONTINUOUS
10
329.0197656295
20
53.4477313890
11
329.0197656295
21
102.8376088944
0
LINE
5
36B
100
AcDbEntity
8
0
100
AcDbLine
62
7
6
CONTINUOUS
10
340.5697656295
20
148.8635030379
11
339.1568910646
21
148.8635030379
0
LINE
5
36C
100
AcDbEntity
8
0
100
AcDbLine
62
7
6
CONTINUOUS
10
340.5697656295
20
150.0093372455
11
339.0761148156
21
150.0093372455
0
LINE
5
36D
100
AcDbEntity
8
0
100
AcDbLine
62
7
6
CONTINUOUS
10
340.5697656295
20
152.0718372455
11
339.0761148156
21
152.0718372455
0
LINE
5
36E
100
AcDbEntity
8
0
100
AcDbLine
62
7
6
CONTINUOUS
10
340.5697656295
20
153.2176701417
11
339.1568910646
21
153.2176701417
0
LINE
5
36F
100
AcDbEntity
8
0
100
AcDbLine
62
7
6
CONTINUOUS
10
340.5697656295
20
154.1343372455
11
339.3067989227
21
154.1343372455
0
LINE
5
370
100
AcDbEntity
8
0
100
AcDbLine
62
7
6
CONTINUOUS
10
340.5697656295
20
155.0510030379
11
339.5615004225
21
155.0510030379
0
LINE
5
371
100
AcDbEntity
8
0
100
AcDbLine
62
7
6
CONTINUOUS
10
340.5697656295
20
155.2801701417
11
339.7987670345
21
155.2801701417
0
LINE
5
372
100
AcDbEntity
8
0
100
AcDbLine
62
7
6
CONTINUOUS
10
340.5697656295
20
155.7385030379
11
340.0197656295
21
155.7385030379
0
LINE
5
373
100
AcDbEntity
8
0
100
AcDbLine
62
7
6
CONTINUOUS
10
340.5697656295
20
156.1968372455
11
340.0197656295
21
156.1968372455
0
LINE
5
374
100
AcDbEntity
8
0
100
AcDbLine
62
7
6
CONTINUOUS
10
339.0761148156
20
192.4051701417
11
339.0761148156
21
191.0301701417
0
LINE
5
375
100
AcDbEntity
8
0
100
AcDbLine
62
7
6
CONTINUOUS
10
339.0761148156
20
184.6135017266
11
339.0761148156
21
183.2385017266
0
LINE
5
376
100
AcDbEntity
8
0
100
AcDbLine
62
7
6
CONTINUOUS
10
339.0761148156
20
178.1968359342
11
339.0761148156
21
176.1343359342
0
LINE
5
377
100
AcDbEntity
8
0
100
AcDbLine
62
7
6
CONTINUOUS
10
339.0761148156
20
166.9676701417
11
339.0761148156
21
165.8218359342
0
LINE
5
378
100
AcDbEntity
8
0
100
AcDbLine
62
7
6
CONTINUOUS
10
339.0761148156
20
152.0718372455
11
339.0761148156
21
150.0093372455
0
LINE
5
379
100
AcDbEntity
8
0
100
AcDbLine
62
7
6
CONTINUOUS
10
339.0761148156
20
144.5093365898
11
339.0761148156
21
143.1343365898
0
LINE
5
37A
100
AcDbEntity
8
0
100
AcDbLine
62
7
6
CONTINUOUS
10
339.0761148156
20
136.7176701417
11
339.0761148156
21
135.3426701417
0
LINE
5
37B
100
AcDbEntity
8
0
100
AcDbLine
62
7
6
CONTINUOUS
10
339.9861188369
20
191.0301701417
11
339.9861188369
21
184.6135017266
0
LINE
5
37C
100
AcDbEntity
8
0
100
AcDbLine
62
7
6
CONTINUOUS
10
340.5697656295
20
156.4260030379
11
340.0197656295
21
156.4260030379
0
LINE
5
37D
100
AcDbEntity
8
0
100
AcDbLine
62
7
6
CONTINUOUS
10
340.5697656295
20
156.6551701417
11
340.0197656295
21
156.6551701417
0
LINE
5
37E
100
AcDbEntity
8
0
100
AcDbLine
62
7
6
CONTINUOUS
10
340.5697656295
20
157.1135030379
11
340.0160304860
21
157.1135030379
0
LINE
5
37F
100
AcDbEntity
8
0
100
AcDbLine
62
7
6
CONTINUOUS
10
340.5697656295
20
160.3218359342
11
340.0160304860
21
160.3218359342
0
LINE
5
380
100
AcDbEntity
8
0
100
AcDbLine
62
7
6
CONTINUOUS
10
340.5697656295
20
161.4676701417
11
340.0197656295
21
161.4676701417
0
LINE
5
381
100
AcDbEntity
8
0
100
AcDbLine
62
7
6
CONTINUOUS
10
340.5697656295
20
162.1551701417
11
340.0197656295
21
162.1551701417
0
LINE
5
382
100
AcDbEntity
8
0
100
AcDbLine
62
7
6
CONTINUOUS
10
340.5697656295
20
162.8426701417
11
339.7583388802
21
162.8426701417
0
LINE
5
383
100
AcDbEntity
8
0
100
AcDbLine
62
7
6
CONTINUOUS
10
340.5697656295
20
163.0718359342
11
339.5615004225
21
163.0718359342
0
LINE
5
384
100
AcDbEntity
8
0
100
AcDbLine
62
7
6
CONTINUOUS
10
340.0197656295
20
239.8425890375
11
340.0197656295
21
192.4051701417
0
LINE
5
385
100
AcDbEntity
8
0
100
AcDbLine
62
7
6
CONTINUOUS
10
340.0197656295
20
183.2385017266
11
340.0197656295
21
181.4051701417
0
LINE
5
386
100
AcDbEntity
8
0
100
AcDbLine
62
7
6
CONTINUOUS
10
340.0197656295
20
172.4676701417
11
340.0197656295
21
169.9468359342
0
LINE
5
387
100
AcDbEntity
8
0
100
AcDbLine
62
7
6
CONTINUOUS
10
340.0197656295
20
162.8426701417
11
340.0197656295
21
155.2801701417
0
LINE
5
388
100
AcDbEntity
8
0
100
AcDbLine
62
7
6
CONTINUOUS
10
340.0197656295
20
146.3426701417
11
340.0197656295
21
144.5093365898
0
LINE
5
389
100
AcDbEntity
8
0
100
AcDbLine
62
7
6
CONTINUOUS
10
340.0197656295
20
141.2952903172
11
340.0197656295
21
138.5567164143
0
LINE
5
38A
100
AcDbEntity
8
0
100
AcDbLine
62
7
6
CONTINUOUS
10
340.0197656295
20
135.3426701417
11
340.0197656295
21
126.2506381367
0
LINE
5
38B
100
AcDbEntity
8
0
100
AcDbLine
62
7
6
CONTINUOUS
10
340.5697656295
20
135.3426701417
11
340.5697656295
21
144.5093365898
0
LINE
5
38C
100
AcDbEntity
8
0
100
AcDbLine
62
7
6
CONTINUOUS
10
340.5697656295
20
145.4260036936
11
340.5697656295
21
156.6551701417
0
LINE
5
38D
100
AcDbEntity
8
0
100
AcDbLine
62
7
6
CONTINUOUS
10
340.5697656295
20
157.1135030379
11
340.5697656295
21
192.4051701417
0
LINE
5
38E
100
AcDbEntity
8
0
100
AcDbLine
62
7
6
CONTINUOUS
10
340.5697656295
20
163.9885043492
11
339.3067989227
21
163.9885043492
0
LINE
5
38F
100
AcDbEntity
8
0
100
AcDbLine
62
7
6
CONTINUOUS
10
340.5697656295
20
164.9051701417
11
339.1568910646
21
164.9051701417
0
LINE
5
390
100
AcDbEntity
8
0
100
AcDbLine
62
7
6
CONTINUOUS
10
340.5697656295
20
165.8218359342
11
339.0761148156
21
165.8218359342
0
LINE
5
391
100
AcDbEntity
8
0
100
AcDbLine
62
7
6
CONTINUOUS
10
340.5697656295
20
166.9676701417
11
339.0761148156
21
166.9676701417
0
LINE
5
392
100
AcDbEntity
8
0
100
AcDbLine
62
7
6
CONTINUOUS
10
340.5697656295
20
168.1135043492
11
339.1568910646
21
168.1135043492
0
LINE
5
393
100
AcDbEntity
8
0
100
AcDbLine
62
7
6
CONTINUOUS
10
340.5697656295
20
169.0301701417
11
339.3760406225
21
169.0301701417
0
LINE
5
394
100
AcDbEntity
8
0
100
AcDbLine
62
7
6
CONTINUOUS
10
340.5697656295
20
169.7176701417
11
339.6160411115
21
169.7176701417
0
LINE
5
395
100
AcDbEntity
8
0
100
AcDbLine
62
7
6
CONTINUOUS
10
340.5697656295
20
169.9468359342
11
339.7583388802
21
169.9468359342
0
LINE
5
396
100
AcDbEntity
8
0
100
AcDbLine
62
7
6
CONTINUOUS
10
340.5697656295
20
170.1760043492
11
340.0197656295
21
170.1760043492
0
LINE
5
397
100
AcDbEntity
8
0
100
AcDbLine
62
7
6
CONTINUOUS
10
340.5697656295
20
170.6343359342
11
340.0197656295
21
170.6343359342
0
LINE
5
398
100
AcDbEntity
8
0
100
AcDbLine
62
7
6
CONTINUOUS
10
340.5697656295
20
171.7801701417
11
340.0197656295
21
171.7801701417
0
LINE
5
399
100
AcDbEntity
8
0
100
AcDbLine
62
7
6
CONTINUOUS
10
340.5697656295
20
172.4676701417
11
339.9261319371
21
172.4676701417
0
LINE
5
39A
100
AcDbEntity
8
0
100
AcDbLine
62
7
6
CONTINUOUS
10
340.5697656295
20
172.6968359342
11
339.7583388802
21
172.6968359342
0
LINE
5
39B
100
AcDbEntity
8
0
100
AcDbLine
62
7
6
CONTINUOUS
10
340.5697656295
20
173.1551701417
11
339.5615004225
21
173.1551701417
0
LINE
5
39C
100
AcDbEntity
8
0
100
AcDbLine
62
7
6
CONTINUOUS
10
340.5697656295
20
174.0718359342
11
339.3067989227
21
174.0718359342
0
LINE
5
39D
100
AcDbEntity
8
0
100
AcDbLine
62
7
6
CONTINUOUS
10
340.5697656295
20
174.9885043492
11
339.1568910646
21
174.9885043492
0
LINE
5
39E
100
AcDbEntity
8
0
100
AcDbLine
62
7
6
CONTINUOUS
10
340.5697656295
20
176.1343359342
11
339.0761148156
21
176.1343359342
0
LINE
5
39F
100
AcDbEntity
8
0
100
AcDbLine
62
7
6
CONTINUOUS
10
340.5697656295
20
178.1968359342
11
339.0761148156
21
178.1968359342
0
LINE
5
3A0
100
AcDbEntity
8
0
100
AcDbLine
62
7
6
CONTINUOUS
10
340.5697656295
20
179.3426701417
11
339.1568910646
21
179.3426701417
0
LINE
5
3A1
100
AcDbEntity
8
0
100
AcDbLine
62
7
6
CONTINUOUS
10
340.5697656295
20
180.2593385568
11
339.3067989227
21
180.2593385568
0
LINE
5
3A2
100
AcDbEntity
8
0
100
AcDbLine
62
7
6
CONTINUOUS
10
340.5697656295
20
181.1760017266
11
339.5615004225
21
181.1760017266
0
LINE
5
3A3
100
AcDbEntity
8
0
100
AcDbLine
62
7
6
CONTINUOUS
10
340.5697656295
20
181.4051701417
11
339.7987670345
21
181.4051701417
0
LINE
5
3A4
100
AcDbEntity
8
0
100
AcDbLine
62
7
6
CONTINUOUS
10
340.5697656295
20
183.2385017266
11
339.0761148156
21
183.2385017266
0
LINE
5
3A5
100
AcDbEntity
8
0
100
AcDbLine
62
7
6
CONTINUOUS
10
340.5697656295
20
184.6135017266
11
339.0761148156
21
184.6135017266
0
LINE
5
3A6
100
AcDbEntity
8
0
100
AcDbLine
62
7
6
CONTINUOUS
10
340.5697656295
20
191.0301701417
11
339.0761148156
21
191.0301701417
0
LINE
5
3A7
100
AcDbEntity
8
0
100
AcDbLine
62
7
6
CONTINUOUS
10
340.5697656295
20
192.4051701417
11
339.0761148156
21
192.4051701417
0
LINE
5
3A8
100
AcDbEntity
8
0
100
AcDbLine
62
7
6
CONTINUOUS
10
42.0818464543
20
-52.5944371296
11
42.0818464543
21
-63.5944371296
0
LINE
5
3A9
100
AcDbEntity
8
0
100
AcDbLine
62
7
6
CONTINUOUS
10
68.4818464543
20
-83.3944371296
11
68.4818464543
21
-63.5944371296
0
LINE
5
3AA
100
AcDbEntity
8
0
100
AcDbLine
62
7
6
CONTINUOUS
10
68.4818464543
20
-52.5944371296
11
68.4818464543
21
-32.7944371296
0
LINE
5
3AB
100
AcDbEntity
8
0
100
AcDbLine
62
7
6
CONTINUOUS
10
75.0818464543
20
-97.6944009059
11
75.0818464543
21
-18.4944577636
0
LINE
5
3AC
100
AcDbEntity
8
0
100
AcDbLine
62
7
6
CONTINUOUS
10
86.0818464543
20
-75.1444371296
11
86.0818464543
21
-73.6507863157
0
LINE
5
3AD
100
AcDbEntity
8
0
100
AcDbLine
62
7
6
CONTINUOUS
10
192.7818464543
20
-97.6944371296
11
159.7818464543
21
-97.6944371296
0
LINE
5
3AE
100
AcDbEntity
8
0
100
AcDbLine
62
7
6
CONTINUOUS
10
108.0818464543
20
-97.6944371296
11
75.0818464543
21
-97.6944371296
0
LINE
5
3AF
100
AcDbEntity
8
0
100
AcDbLine
62
7
6
CONTINUOUS
10
97.0818464543
20
-75.1444371296
11
97.0818464543
21
-74.5944371296
0
LINE
5
3B0
100
AcDbEntity
8
0
100
AcDbLine
62
7
6
CONTINUOUS
10
192.7818464543
20
-93.0217827726
11
214.7818464543
21
-93.0217827726
0
LINE
5
3B1
100
AcDbEntity
8
0
100
AcDbLine
62
7
6
CONTINUOUS
10
220.1718464543
20
-91.6943750060
11
220.3918464543
21
-91.6943750060
0
LINE
5
3B2
100
AcDbEntity
8
0
100
AcDbLine
62
7
6
CONTINUOUS
10
108.0818464543
20
-18.4944752396
11
108.0818464543
21
-41.5944371296
0
LINE
5
3B3
100
AcDbEntity
8
0
100
AcDbLine
62
7
6
CONTINUOUS
10
108.0818464543
20
-74.5944371296
11
108.0818464543
21
-97.6944011612
0
LINE
5
3B4
100
AcDbEntity
8
0
100
AcDbLine
62
7
6
CONTINUOUS
10
75.0818464543
20
-83.3944371296
11
68.4818464543
21
-83.3944371296
0
LINE
5
3B5
100
AcDbEntity
8
0
100
AcDbLine
62
7
6
CONTINUOUS
10
227.9818464543
20
-77.8944371296
11
222.4818464543
21
-77.8944371296
0
LINE
5
3B6
100
AcDbEntity
8
0
100
AcDbLine
62
7
6
CONTINUOUS
10
218.0818464543
20
-77.8944371296
11
214.7818464543
21
-77.8944371296
0
LINE
5
3B7
100
AcDbEntity
8
0
100
AcDbLine
62
7
6
CONTINUOUS
10
159.7818464543
20
-77.8944371296
11
108.0818464543
21
-77.8944371296
0
LINE
5
3B8
100
AcDbEntity
8
0
100
AcDbLine
62
7
6
CONTINUOUS
10
220.3918464543
20
-77.7718353316
11
220.1718464543
21
-77.7718353316
0
LINE
5
3B9
100
AcDbEntity
8
0
100
AcDbLine
62
7
6
CONTINUOUS
10
192.7818464543
20
-75.5569371296
11
214.7818464543
21
-75.5569371296
0
LINE
5
3BA
100
AcDbEntity
8
0
100
AcDbLine
62
7
6
CONTINUOUS
10
86.0818464543
20
-75.1444371296
11
97.0818464543
21
-75.1444371296
0
LINE
5
3BB
100
AcDbEntity
8
0
100
AcDbLine
62
7
6
CONTINUOUS
10
170.7818464543
20
-75.1444371296
11
181.7818464543
21
-75.1444371296
0
LINE
5
3BC
100
AcDbEntity
8
0
100
AcDbLine
62
7
6
CONTINUOUS
10
176.2818464543
20
-74.5944371296
11
91.5818464543
21
-74.5944371296
0
LINE
5
3BD
100
AcDbEntity
8
0
100
AcDbLine
62
7
6
CONTINUOUS
10
42.0820091034
20
-63.5944371296
11
68.4818464543
21
-63.5944371296
0
LINE
5
3BE
100
AcDbEntity
8
DEFAULT_1
100
AcDbLine
62
2
6
CENTER
10
35.7678513760
20
-58.0944371296
11
213.2247693091
21
-58.0944371296
0
LINE
5
3BF
100
AcDbEntity
8
0
100
AcDbLine
62
7
6
CONTINUOUS
10
218.0818464543
20
-58.0944371296
11
222.4818464543
21
-58.0944371296
0
LINE
5
3C0
100
AcDbEntity
8
0
100
AcDbLine
62
7
6
CONTINUOUS
10
68.4818464543
20
-52.5944371296
11
42.0820091034
21
-52.5944371296
0
LINE
5
3C1
100
AcDbEntity
8
0
100
AcDbLine
62
7
6
CONTINUOUS
10
91.5818464543
20
-41.5944371296
11
176.2818464543
21
-41.5944371296
0
LINE
5
3C2
100
AcDbEntity
8
0
100
AcDbLine
62
7
6
CONTINUOUS
10
192.7818464543
20
-40.6272458436
11
214.7818464543
21
-40.6272458436
0
LINE
5
3C3
100
AcDbEntity
8
0
100
AcDbLine
62
7
6
CONTINUOUS
10
227.9818464543
20
-38.2944371296
11
222.4818464543
21
-38.2944371296
0
LINE
5
3C4
100
AcDbEntity
8
0
100
AcDbLine
62
7
6
CONTINUOUS
10
218.0818464543
20
-38.2944371296
11
214.7818464543
21
-38.2944371296
0
LINE
5
3C5
100
AcDbEntity
8
0
100
AcDbLine
62
7
6
CONTINUOUS
10
159.7818464543
20
-38.2944371296
11
108.0818464543
21
-38.2944371296
0
LINE
5
3C6
100
AcDbEntity
8
0
100
AcDbLine
62
7
6
CONTINUOUS
10
159.7818464543
20
-97.6944011564
11
159.7818464543
21
-74.5944371296
0
LINE
5
3C7
100
AcDbEntity
8
0
100
AcDbLine
62
7
6
CONTINUOUS
10
159.7818464543
20
-41.5944371296
11
159.7818464543
21
-18.4944752343
0
LINE
5
3C8
100
AcDbEntity
8
0
100
AcDbLine
62
7
6
CONTINUOUS
10
218.0818464543
20
-35.5819754756
11
222.4818464543
21
-35.5819754756
0
LINE
5
3C9
100
AcDbEntity
8
0
100
AcDbLine
62
7
6
CONTINUOUS
10
75.0818464543
20
-32.7944371296
11
68.4818464543
21
-32.7944371296
0
LINE
5
3CA
100
AcDbEntity
8
0
100
AcDbLine
62
7
6
CONTINUOUS
10
170.7818464543
20
-75.1444371296
11
170.7818464543
21
-74.5944371296
0
LINE
5
3CB
100
AcDbEntity
8
0
100
AcDbLine
62
7
6
CONTINUOUS
10
171.0158889796
20
-75.1444371296
11
171.0158889796
21
-74.5944371296
0
LINE
5
3CC
100
AcDbEntity
8
0
100
AcDbLine
62
7
6
CONTINUOUS
10
171.7180165555
20
-75.1444371296
11
171.7180165555
21
-74.5944371296
0
LINE
5
3CD
100
AcDbEntity
8
0
100
AcDbLine
62
7
6
CONTINUOUS
10
172.6541866566
20
-75.1444371296
11
172.6541866566
21
-74.5944371296
0
LINE
5
3CE
100
AcDbEntity
8
0
100
AcDbLine
62
7
6
CONTINUOUS
10
173.3563142325
20
-75.1444371296
11
173.3563142325
21
-74.5944371296
0
LINE
5
3CF
100
AcDbEntity
8
0
100
AcDbLine
62
7
6
CONTINUOUS
10
174.2924849893
20
-75.1444371296
11
174.2924849893
21
-74.5944371296
0
LINE
5
3D0
100
AcDbEntity
8
0
100
AcDbLine
62
7
6
CONTINUOUS
10
174.9946125652
20
-75.1444371296
11
174.9946125652
21
-74.5944371296
0
LINE
5
3D1
100
AcDbEntity
8
0
100
AcDbLine
62
7
6
CONTINUOUS
10
175.9307826664
20
-75.1444371296
11
175.9307826664
21
-74.5907019861
0
LINE
5
3D2
100
AcDbEntity
8
0
100
AcDbLine
62
7
6
CONTINUOUS
10
192.7818464543
20
-23.1624002006
11
214.7818464543
21
-23.1624002006
0
LINE
5
3D3
100
AcDbEntity
8
0
100
AcDbLine
62
7
6
CONTINUOUS
10
192.7818464543
20
-18.4944371296
11
159.7818464543
21
-18.4944371296
0
LINE
5
3D4
100
AcDbEntity
8
0
100
AcDbLine
62
7
6
CONTINUOUS
10
108.0818464543
20
-18.4944371296
11
75.0818464543
21
-18.4944371296
0
LINE
5
3D5
100
AcDbEntity
8
0
100
AcDbLine
62
7
6
CONTINUOUS
10
176.6329102423
20
-75.1444371296
11
176.6329102423
21
-74.5907019861
0
LINE
5
3D6
100
AcDbEntity
8
0
100
AcDbLine
62
7
6
CONTINUOUS
10
176.8669527675
20
-75.1444371296
11
176.8669527675
21
-74.5840596420
0
LINE
5
3D7
100
AcDbEntity
8
0
100
AcDbLine
62
7
6
CONTINUOUS
10
181.7818464543
20
-75.1444371296
11
181.7818464543
21
-73.6507863157
0
LINE
5
3D8
100
AcDbEntity
8
0
100
AcDbLine
62
7
6
CONTINUOUS
10
192.7818464543
20
-18.4944577688
11
192.7818464543
21
-97.6944009161
0
LINE
5
3D9
100
AcDbEntity
8
0
100
AcDbLine
62
7
6
CONTINUOUS
10
214.7818464543
20
-23.1624002006
11
214.7818464543
21
-93.0217827726
0
LINE
5
3DA
100
AcDbEntity
8
0
100
AcDbLine
62
7
6
CONTINUOUS
10
218.0818464543
20
-89.6042691696
11
218.0818464543
21
-77.8941315716
0
LINE
5
3DB
100
AcDbEntity
8
0
100
AcDbLine
62
7
6
CONTINUOUS
10
218.0818464543
20
-35.5819754756
11
218.0818464543
21
-58.0944371296
0
LINE
5
3DC
100
AcDbEntity
8
0
100
AcDbLine
62
7
6
CONTINUOUS
10
222.4818464543
20
-35.5819754756
11
222.4818464543
21
-58.0944371296
0
LINE
5
3DD
100
AcDbEntity
8
0
100
AcDbLine
62
7
6
CONTINUOUS
10
222.4818464543
20
-77.8941315716
11
222.4818464543
21
-89.6043750060
0
LINE
5
3DE
100
AcDbEntity
8
0
100
AcDbLine
62
7
6
CONTINUOUS
10
227.9818464543
20
-77.8944371296
11
227.9818464543
21
-38.2944371296
0
ARC
5
3DF
100
AcDbEntity
8
0
100
AcDbCircle
62
7
6
CONTINUOUS
10
220.1718464543
20
82.6526701417
40
2.0900000000
100
AcDbArc
50
90.0000000000
51
180.0000000000
0
ARC
5
3E0
100
AcDbEntity
8
0
100
AcDbCircle
62
7
6
CONTINUOUS
10
220.1718464543
20
73.6326701417
40
2.0900000000
100
AcDbArc
50
180.0000000000
51
270.0000000000
0
ARC
5
3E1
100
AcDbEntity
8
0
100
AcDbCircle
62
7
6
CONTINUOUS
10
220.3918464543
20
82.6526701417
40
2.0900000000
100
AcDbArc
50
0.0000000000
51
90.0000000000
0
ARC
5
3E2
100
AcDbEntity
8
0
100
AcDbCircle
62
7
6
CONTINUOUS
10
220.3918464543
20
73.6326701417
40
2.0900000000
100
AcDbArc
50
270.0000000000
51
360.0000000000
0
ARC
5
3E3
100
AcDbEntity
8
0
100
AcDbCircle
62
7
6
CONTINUOUS
10
67.3818464543
20
78.1426701417
40
25.3000000000
100
AcDbArc
50
90.0000000000
51
270.0000000000
0
ARC
5
3E4
100
AcDbEntity
8
0
100
AcDbCircle
62
7
6
CONTINUOUS
10
220.1718464543
20
55.7026701417
40
2.0900000000
100
AcDbArc
50
90.0000000000
51
180.0000000000
0
CIRCLE
5
3E5
100
AcDbEntity
8
0
100
AcDbCircle
62
7
6
CONTINUOUS
10
56.3818464543
20
78.0876088944
40
5.5000000000
0
ARC
5
3E6
100
AcDbEntity
8
0
100
AcDbCircle
62
7
6
CONTINUOUS
10
133.9318464543
20
197.4926701417
40
58.8500000000
100
AcDbArc
50
0.0000000000
51
180.0000000000
0
ARC
5
3E7
100
AcDbEntity
8
0
100
AcDbCircle
62
7
6
CONTINUOUS
10
133.9318464543
20
194.1926701417
40
25.8500000000
100
AcDbArc
50
0.0000000000
51
180.0000000000
0
ARC
5
3E8
100
AcDbEntity
8
0
100
AcDbCircle
62
7
6
CONTINUOUS
10
220.3918464543
20
100.5826701417
40
2.0900000000
100
AcDbArc
50
270.0000000000
51
360.0000000000
0
ARC
5
3E9
100
AcDbEntity
8
0
100
AcDbCircle
62
7
6
CONTINUOUS
10
220.1718464543
20
100.5826701417
40
2.0900000000
100
AcDbArc
50
180.0000000000
51
270.0000000000
0
ARC
5
3EA
100
AcDbEntity
8
0
100
AcDbCircle
62
7
6
CONTINUOUS
10
220.3918464543
20
55.7026701417
40
2.0900000000
100
AcDbArc
50
0.0000000000
51
90.0000000000
0
ARC
5
3EB
100
AcDbEntity
8
DEFAULT_2
100
AcDbCircle
62
8
6
HIDDEN
10
323.2997656295
20
236.3226701417
40
16.2800000000
100
AcDbArc
50
180.0000000000
51
270.0000000000
0
ARC
5
3EC
100
AcDbEntity
8
DEFAULT_2
100
AcDbCircle
62
8
6
HIDDEN
10
323.7397656295
20
236.3226701417
40
16.2800000000
100
AcDbArc
50
270.0000000000
51
360.0000000000
0
ARC
5
3ED
100
AcDbEntity
8
0
100
AcDbCircle
62
7
6
CONTINUOUS
10
362.0197552303
20
126.2291774327
40
21.9999940583
100
AcDbArc
50
180.0500639772
51
231.2375507886
0
ARC
5
3EE
100
AcDbEntity
8
0
100
AcDbCircle
62
7
6
CONTINUOUS
10
285.0197751918
20
126.2291756926
40
21.9999945379
100
AcDbArc
50
308.6822564620
51
360.0000000000
0
ARC
5
3EF
100
AcDbEntity
8
0
100
AcDbCircle
62
7
6
CONTINUOUS
10
323.5197656295
20
239.8426701417
40
16.5000000000
100
AcDbArc
50
0.0000000000
51
180.0000000000
0
CIRCLE
5
3F0
100
AcDbEntity
8
0
100
AcDbCircle
62
7
6
CONTINUOUS
10
323.5197656295
20
78.1426701417
40
25.3000000000
0
ARC
5
3F1
100
AcDbEntity
8
0
100
AcDbCircle
62
7
6
CONTINUOUS
10
323.5197656295
20
78.1426701417
40
39.6000000000
100
AcDbArc
50
124.3813799852
51
55.6189282114
0
ARC
5
3F2
100
AcDbEntity
8
0
100
AcDbCircle
62
7
6
CONTINUOUS
10
220.1718464543
20
-89.6043750060
40
2.0900000000
100
AcDbArc
50
180.0000000000
51
270.0000000000
0
ARC
5
3F3
100
AcDbEntity
8
0
100
AcDbCircle
62
7
6
CONTINUOUS
10
220.3918464543
20
-89.6043750060
40
2.0900000000
100
AcDbArc
50
270.0000000000
51
360.0000000000
0
ARC
5
3F4
100
AcDbEntity
8
0
100
AcDbCircle
62
7
6
CONTINUOUS
10
91.5818464543
20
-58.0944371296
40
16.5000000000
100
AcDbArc
50
90.0000000000
51
270.0000000000
0
ARC
5
3F5
100
AcDbEntity
8
0
100
AcDbCircle
62
7
6
CONTINUOUS
10
176.2818464543
20
-58.0944371296
40
16.5000000000
100
AcDbArc
50
270.0000000000
51
90.0000000000
0
SPLINE
5
3F6
100
AcDbEntity
8
0
100
AcDbSpline
62
7
6
CONTINUOUS
70
0
71
3
72
15
73
11
74
9
42
0.0000001000
43
0.0000001000
44
0.0000000001
40
0.0000000000
40
0.0000000000
40
0.0000000000
40
0.0000000000
40
0.1233362321
40
0.2497303145
40
0.3761429801
40
0.5025677586
40
0.6289983130
40
0.7554283097
40
0.8818514162
40
1.0000000000
40
1.0000000000
40
1.0000000000
40
1.0000000000
10
348.2697596778
20
109.0554815966
30
0.0000000000
10
347.6376941910
20
109.5615433207
30
0.0000000000
10
346.4134472657
20
110.6578934832
30
0.0000000000
10
344.7660555903
20
112.5040044793
30
0.0000000000
10
343.3258033332
20
114.5412240479
30
0.0000000000
10
342.1249001911
20
116.7282840070
30
0.0000000000
10
341.1787527209
20
119.0371313309
30
0.0000000000
10
340.4995681206
20
121.4381764121
30
0.0000000000
10
340.1048364278
20
123.8464973130
30
0.0000000000
10
340.0197725183
20
125.4534829892
30
0.0000000000
10
340.0197624064
20
126.2291769274
30
0.0000000000
11
348.2697596778
21
109.0554815966
31
0.0000000000
11
346.4602696511
21
110.6760139339
31
0.0000000000
11
344.8029072158
21
112.5332323024
31
0.0000000000
11
343.3657588708
21
114.5660965547
31
0.0000000000
11
342.1673847036
21
116.7485308860
31
0.0000000000
11
341.2232454835
21
119.0525030731
31
0.0000000000
11
340.5454980021
21
121.4483933804
31
0.0000000000
11
340.1428334576
21
123.9053869812
31
0.0000000000
11
340.0197624064
21
126.2291769274
31
0.0000000000
0
SPLINE
5
3F7
100
AcDbEntity
8
0
100
AcDbSpline
62
7
6
CONTINUOUS
70
0
71
3
72
9
73
5
74
3
42
0.0000001000
43
0.0000001000
44
0.0000000001
40
0.0000000000
40
0.0000000000
40
0.0000000000
40
0.0000000000
40
0.4791480071
40
1.0000000000
40
1.0000000000
40
1.0000000000
40
1.0000000000
10
339.9261319371
20
172.4676701417
30
0.0000000000
10
339.9043422163
20
172.5075535990
30
0.0000000000
10
339.8526741353
20
172.5874810628
30
0.0000000000
10
339.7917870112
20
172.6604779659
30
0.0000000000
10
339.7583388802
20
172.6968359342
30
0.0000000000
11
339.9261319371
21
172.4676701417
31
0.0000000000
11
339.8527123664
21
172.5825566313
31
0.0000000000
11
339.7583388802
21
172.6968359342
31
0.0000000000
0
SPLINE
5
3F8
100
AcDbEntity
8
0
100
AcDbSpline
62
7
6
CONTINUOUS
70
0
71
3
72
9
73
5
74
3
42
0.0000001000
43
0.0000001000
44
0.0000000001
40
0.0000000000
40
0.0000000000
40
0.0000000000
40
0.0000000000
40
0.4962494547
40
1.0000000000
40
1.0000000000
40
1.0000000000
40
1.0000000000
10
339.7583388802
20
172.6968359342
30
0.0000000000
10
339.7298340655
20
172.7742979350
30
0.0000000000
10
339.6681442826
20
172.9288584775
30
0.0000000000
10
339.5984713773
20
173.0799800334
30
0.0000000000
10
339.5615004225
20
173.1551701417
30
0.0000000000
11
339.7583388802
21
172.6968359342
31
0.0000000000
11
339.6666410714
21
172.9268522079
31
0.0000000000
11
339.5615004225
21
173.1551701417
31
0.0000000000
0
SPLINE
5
3F9
100
AcDbEntity
8
0
100
AcDbSpline
62
7
6
CONTINUOUS
70
0
71
3
72
9
73
5
74
3
42
0.0000001000
43
0.0000001000
44
0.0000000001
40
0.0000000000
40
0.0000000000
40
0.0000000000
40
0.0000000000
40
0.5010565584
40
1.0000000000
40
1.0000000000
40
1.0000000000
40
1.0000000000
10
339.5615004225
20
173.1551701417
30
0.0000000000
10
339.5235600273
20
173.3094931380
30
0.0000000000
10
339.4432097374
20
173.6163685946
30
0.0000000000
10
339.3537082346
20
173.9207002038
30
0.0000000000
10
339.3067989227
20
174.0718359342
30
0.0000000000
11
339.5615004225
21
173.1551701417
31
0.0000000000
11
339.4407424656
21
173.6163784059
31
0.0000000000
11
339.3067989227
21
174.0718359342
31
0.0000000000
0
SPLINE
5
3FA
100
AcDbEntity
8
0
100
AcDbSpline
62
7
6
CONTINUOUS
70
0
71
3
72
9
73
5
74
3
42
0.0000001000
43
0.0000001000
44
0.0000000001
40
0.0000000000
40
0.0000000000
40
0.0000000000
40
0.0000000000
40
0.5020029659
40
1.0000000000
40
1.0000000000
40
1.0000000000
40
1.0000000000
10
339.3067989227
20
174.0718359342
30
0.0000000000
10
339.2829633854
20
174.2254264050
30
0.0000000000
10
339.2342405197
20
174.5311902928
30
0.0000000000
10
339.1830221370
20
174.8365460930
30
0.0000000000
10
339.1568910646
20
174.9885043492
30
0.0000000000
11
339.3067989227
21
174.0718359342
31
0.0000000000
11
339.2334164515
21
174.5323123212
31
0.0000000000
11
339.1568910646
21
174.9885043492
31
0.0000000000
0
SPLINE
5
3FB
100
AcDbEntity
8
0
100
AcDbSpline
62
7
6
CONTINUOUS
70
0
71
3
72
9
73
5
74
3
42
0.0000001000
43
0.0000001000
44
0.0000000001
40
0.0000000000
40
0.0000000000
40
0.0000000000
40
0.0000000000
40
0.5009256652
40
1.0000000000
40
1.0000000000
40
1.0000000000
40
1.0000000000
10
339.1568910646
20
174.9885043492
30
0.0000000000
10
339.1437291558
20
175.1798525857
30
0.0000000000
10
339.1171298221
20
175.5618196432
30
0.0000000000
10
339.0898786965
20
175.9437407545
30
0.0000000000
10
339.0761148156
20
176.1343359342
30
0.0000000000
11
339.1568910646
21
174.9885043492
31
0.0000000000
11
339.1169170261
21
175.5625152613
31
0.0000000000
11
339.0761148156
21
176.1343359342
31
0.0000000000
0
SPLINE
5
3FC
100
AcDbEntity
8
0
100
AcDbSpline
62
7
6
CONTINUOUS
70
0
71
3
72
9
73
5
74
3
42
0.0000001000
43
0.0000001000
44
0.0000000001
40
0.0000000000
40
0.0000000000
40
0.0000000000
40
0.0000000000
40
0.5009256654
40
1.0000000000
40
1.0000000000
40
1.0000000000
40
1.0000000000
10
339.1568910646
20
179.3426701417
30
0.0000000000
10
339.1437291558
20
179.1513214673
30
0.0000000000
10
339.1171298221
20
178.7693535357
30
0.0000000000
10
339.0898786965
20
178.3874315501
30
0.0000000000
10
339.0761148156
20
178.1968359342
30
0.0000000000
11
339.1568910646
21
179.3426701417
31
0.0000000000
11
339.1169170260
21
178.7686579158
31
0.0000000000
11
339.0761148156
21
178.1968359342
31
0.0000000000
0
SPLINE
5
3FD
100
AcDbEntity
8
0
100
AcDbSpline
62
7
6
CONTINUOUS
70
0
71
3
72
9
73
5
74
3
42
0.0000001000
43
0.0000001000
44
0.0000000001
40
0.0000000000
40
0.0000000000
40
0.0000000000
40
0.0000000000
40
0.5020029659
40
1.0000000000
40
1.0000000000
40
1.0000000000
40
1.0000000000
10
339.3067989227
20
180.2593385568
30
0.0000000000
10
339.2829633854
20
180.1057480860
30
0.0000000000
10
339.2342405197
20
179.7999841981
30
0.0000000000
10
339.1830221370
20
179.4946283980
30
0.0000000000
10
339.1568910646
20
179.3426701417
30
0.0000000000
11
339.3067989227
21
180.2593385568
31
0.0000000000
11
339.2334164515
21
179.7988621698
31
0.0000000000
11
339.1568910646
21
179.3426701417
31
0.0000000000
0
SPLINE
5
3FE
100
AcDbEntity
8
0
100
AcDbSpline
62
7
6
CONTINUOUS
70
0
71
3
72
9
73
5
74
3
42
0.0000001000
43
0.0000001000
44
0.0000000001
40
0.0000000000
40
0.0000000000
40
0.0000000000
40
0.0000000000
40
0.5010565437
40
1.0000000000
40
1.0000000000
40
1.0000000000
40
1.0000000000
10
339.5615004225
20
181.1760017266
30
0.0000000000
10
339.5235600268
20
181.0216791698
30
0.0000000000
10
339.4432097349
20
180.7148045842
30
0.0000000000
10
339.3537082338
20
180.4104738523
30
0.0000000000
10
339.3067989227
20
180.2593385568
30
0.0000000000
11
339.5615004225
21
181.1760017266
31
0.0000000000
11
339.4407424665
21
180.7147947853
31
0.0000000000
11
339.3067989227
21
180.2593385568
31
0.0000000000
0
SPLINE
5
3FF
100
AcDbEntity
8
0
100
AcDbSpline
62
7
6
CONTINUOUS
70
0
71
3
72
9
73
5
74
3
42
0.0000001000
43
0.0000001000
44
0.0000000001
40
0.0000000000
40
0.0000000000
40
0.0000000000
40
0.0000000000
40
0.4778999047
40
1.0000000000
40
1.0000000000
40
1.0000000000
40
1.0000000000
10
339.7987670345
20
181.4051701417
30
0.0000000000
10
339.7648317619
20
181.3649747538
30
0.0000000000
10
339.6889520101
20
181.2849268232
30
0.0000000000
10
339.6060818335
20
181.2122690987
30
0.0000000000
10
339.5615004225
20
181.1760017266
30
0.0000000000
11
339.7987670345
21
181.4051701417
31
0.0000000000
11
339.6907093782
21
181.2901527937
31
0.0000000000
11
339.5615004225
21
181.1760017266
31
0.0000000000
0
SPLINE
5
400
100
AcDbEntity
8
0
100
AcDbSpline
62
7
6
CONTINUOUS
70
0
71
3
72
10
73
6
74
4
42
0.0000001000
43
0.0000001000
44
0.0000000001
40
0.0000000000
40
0.0000000000
40
0.0000000000
40
0.0000000000
40
0.2729577689
40
0.6111518949
40
1.0000000000
40
1.0000000000
40
1.0000000000
40
1.0000000000
10
340.0196740216
20
138.5567167251
30
0.0000000000
10
340.0193667605
20
138.3631506816
30
0.0000000000
10
339.9494213340
20
137.9291204846
30
0.0000000000
10
339.6208533478
20
137.2925757421
30
0.0000000000
10
339.2756640394
20
136.9063805355
30
0.0000000000
10
339.0761148156
20
136.7176701417
30
0.0000000000
11
340.0196740216
21
138.5567167251
31
0.0000000000
11
339.9307840876
21
137.9844276829
31
0.0000000000
11
339.6144942481
21
137.3413937469
31
0.0000000000
11
339.0761148156
21
136.7176701417
31
0.0000000000
0
SPLINE
5
401
100
AcDbEntity
8
0
100
AcDbSpline
62
7
6
CONTINUOUS
70
0
71
3
72
9
73
5
74
3
42
0.0000001000
43
0.0000001000
44
0.0000000001
40
0.0000000000
40
0.0000000000
40
0.0000000000
40
0.0000000000
40
0.4863404828
40
1.0000000000
40
1.0000000000
40
1.0000000000
40
1.0000000000
10
339.7583388802
20
162.8426701417
30
0.0000000000
10
339.7292914188
20
162.8821382390
30
0.0000000000
10
339.6662472401
20
162.9608829550
30
0.0000000000
10
339.5977911555
20
163.0349327957
30
0.0000000000
10
339.5615004225
20
163.0718359342
30
0.0000000000
11
339.7583388802
21
162.8426701417
31
0.0000000000
11
339.6666894840
21
162.9576212603
31
0.0000000000
11
339.5615004225
21
163.0718359342
31
0.0000000000
0
SPLINE
5
402
100
AcDbEntity
8
0
100
AcDbSpline
62
7
6
CONTINUOUS
70
0
71
3
72
9
73
5
74
3
42
0.0000001000
43
0.0000001000
44
0.0000000001
40
0.0000000000
40
0.0000000000
40
0.0000000000
40
0.0000000000
40
0.5010565730
40
1.0000000000
40
1.0000000000
40
1.0000000000
40
1.0000000000
10
339.5615004225
20
163.0718359342
30
0.0000000000
10
339.5235600278
20
163.2261593700
30
0.0000000000
10
339.4432097399
20
163.5330356975
30
0.0000000000
10
339.3537082353
20
163.8373681840
30
0.0000000000
10
339.3067989227
20
163.9885043492
30
0.0000000000
11
339.5615004225
21
163.0718359342
31
0.0000000000
11
339.4407424647
21
163.5330455211
31
0.0000000000
11
339.3067989227
21
163.9885043492
31
0.0000000000
0
SPLINE
5
403
100
AcDbEntity
8
0
100
AcDbSpline
62
7
6
CONTINUOUS
70
0
71
3
72
9
73
5
74
3
42
0.0000001000
43
0.0000001000
44
0.0000000001
40
0.0000000000
40
0.0000000000
40
0.0000000000
40
0.0000000000
40
0.5020029625
40
1.0000000000
40
1.0000000000
40
1.0000000000
40
1.0000000000
10
339.3067989227
20
163.9885043492
30
0.0000000000
10
339.2829633854
20
164.1420943807
30
0.0000000000
10
339.2342405195
20
164.4478573949
30
0.0000000000
10
339.1830221370
20
164.7532123203
30
0.0000000000
10
339.1568910646
20
164.9051701417
30
0.0000000000
11
339.3067989227
21
163.9885043492
31
0.0000000000
11
339.2334164517
21
164.4489794174
31
0.0000000000
11
339.1568910646
21
164.9051701417
31
0.0000000000
0
SPLINE
5
404
100
AcDbEntity
8
0
100
AcDbSpline
62
7
6
CONTINUOUS
70
0
71
3
72
9
73
5
74
3
42
0.0000001000
43
0.0000001000
44
0.0000000001
40
0.0000000000
40
0.0000000000
40
0.0000000000
40
0.0000000000
40
0.5009009833
40
1.0000000000
40
1.0000000000
40
1.0000000000
40
1.0000000000
10
339.1568910646
20
164.9051701417
30
0.0000000000
10
339.1437289306
20
165.0582514381
30
0.0000000000
10
339.1171286788
20
165.3638356155
30
0.0000000000
10
339.0898784423
20
165.6693625193
30
0.0000000000
10
339.0761148156
20
165.8218359342
30
0.0000000000
11
339.1568910646
21
164.9051701417
31
0.0000000000
11
339.1169176637
21
165.3643718979
31
0.0000000000
11
339.0761148156
21
165.8218359342
31
0.0000000000
0
SPLINE
5
405
100
AcDbEntity
8
0
100
AcDbSpline
62
7
6
CONTINUOUS
70
0
71
3
72
9
73
5
74
3
42
0.0000001000
43
0.0000001000
44
0.0000000001
40
0.0000000000
40
0.0000000000
40
0.0000000000
40
0.0000000000
40
0.5009256654
40
1.0000000000
40
1.0000000000
40
1.0000000000
40
1.0000000000
10
339.1568910646
20
168.1135043492
30
0.0000000000
10
339.1437291558
20
167.9221556749
30
0.0000000000
10
339.1171298221
20
167.5401877432
30
0.0000000000
10
339.0898786965
20
167.1582657576
30
0.0000000000
10
339.0761148156
20
166.9676701417
30
0.0000000000
11
339.1568910646
21
168.1135043492
31
0.0000000000
11
339.1169170260
21
167.5394921233
31
0.0000000000
11
339.0761148156
21
166.9676701417
31
0.0000000000
0
SPLINE
5
406
100
AcDbEntity
8
0
100
AcDbSpline
62
7
6
CONTINUOUS
70
0
71
3
72
9
73
5
74
3
42
0.0000001000
43
0.0000001000
44
0.0000000001
40
0.0000000000
40
0.0000000000
40
0.0000000000
40
0.0000000000
40
0.5019717113
40
1.0000000000
40
1.0000000000
40
1.0000000000
40
1.0000000000
10
339.3760406225
20
169.0301701417
30
0.0000000000
10
339.3420872287
20
168.8761597923
30
0.0000000000
10
339.2717377049
20
168.5699399003
30
0.0000000000
10
339.1959722888
20
168.2650148473
30
0.0000000000
10
339.1568910646
20
168.1135043492
30
0.0000000000
11
339.3760406225
21
169.0301701417
31
0.0000000000
11
339.2700956143
21
168.5690586137
31
0.0000000000
11
339.1568910646
21
168.1135043492
31
0.0000000000
0
SPLINE
5
407
100
AcDbEntity
8
0
100
AcDbSpline
62
7
6
CONTINUOUS
70
0
71
3
72
9
73
5
74
3
42
0.0000001000
43
0.0000001000
44
0.0000000001
40
0.0000000000
40
0.0000000000
40
0.0000000000
40
0.0000000000
40
0.4993200980
40
1.0000000000
40
1.0000000000
40
1.0000000000
40
1.0000000000
10
339.6160411115
20
169.7176701417
30
0.0000000000
10
339.5804765698
20
169.6017833351
30
0.0000000000
10
339.5047797112
20
169.3710435115
30
0.0000000000
10
339.4203954184
20
169.1433398616
30
0.0000000000
10
339.3760406225
20
169.0301701417
30
0.0000000000
11
339.6160411115
21
169.7176701417
31
0.0000000000
11
339.5027166882
21
169.3721142530
31
0.0000000000
11
339.3760406225
21
169.0301701417
31
0.0000000000
0
SPLINE
5
408
100
AcDbEntity
8
0
100
AcDbSpline
62
7
6
CONTINUOUS
70
0
71
3
72
9
73
5
74
3
42
0.0000001000
43
0.0000001000
44
0.0000000001
40
0.0000000000
40
0.0000000000
40
0.0000000000
40
0.0000000000
40
0.4934581275
40
1.0000000000
40
1.0000000000
40
1.0000000000
40
1.0000000000
10
339.7583388802
20
169.9468359342
30
0.0000000000
10
339.7368902921
20
169.9079783806
30
0.0000000000
10
339.6913181894
20
169.8303805162
30
0.0000000000
10
339.6419291764
20
169.7551615880
30
0.0000000000
10
339.6160411115
20
169.7176701417
30
0.0000000000
11
339.7583388802
21
169.9468359342
31
0.0000000000
11
339.6909850220
21
169.8319750601
31
0.0000000000
11
339.6160411115
21
169.7176701417
31
0.0000000000
0
SPLINE
5
409
100
AcDbEntity
8
0
100
AcDbSpline
62
7
6
CONTINUOUS
70
0
71
3
72
9
73
5
74
3
42
0.0000001000
43
0.0000001000
44
0.0000000001
40
0.0000000000
40
0.0000000000
40
0.0000000000
40
0.0000000000
40
0.4791481726
40
1.0000000000
40
1.0000000000
40
1.0000000000
40
1.0000000000
10
339.9261319371
20
146.3426701417
30
0.0000000000
10
339.9043422238
20
146.3825538135
30
0.0000000000
10
339.8526741636
20
146.4624817103
30
0.0000000000
10
339.7917870213
20
146.5354790582
30
0.0000000000
10
339.7583388802
20
146.5718372455
30
0.0000000000
11
339.9261319371
21
146.3426701417
31
0.0000000000
11
339.8527123663
21
146.4575572889
31
0.0000000000
11
339.7583388802
21
146.5718372455
31
0.0000000000
0
SPLINE
5
40A
100
AcDbEntity
8
0
100
AcDbSpline
62
7
6
CONTINUOUS
70
0
71
3
72
9
73
5
74
3
42
0.0000001000
43
0.0000001000
44
0.0000000001
40
0.0000000000
40
0.0000000000
40
0.0000000000
40
0.0000000000
40
0.4962494260
40
1.0000000000
40
1.0000000000
40
1.0000000000
40
1.0000000000
10
339.7583388802
20
146.5718372455
30
0.0000000000
10
339.7298340641
20
146.6492990284
30
0.0000000000
10
339.6681442774
20
146.8038591372
30
0.0000000000
10
339.5984713753
20
146.9549802525
30
0.0000000000
10
339.5615004225
20
147.0301701417
30
0.0000000000
11
339.7583388802
21
146.5718372455
31
0.0000000000
11
339.6666410717
21
146.8018528604
31
0.0000000000
11
339.5615004225
21
147.0301701417
31
0.0000000000
0
SPLINE
5
40B
100
AcDbEntity
8
0
100
AcDbSpline
62
7
6
CONTINUOUS
70
0
71
3
72
10
73
6
74
4
42
0.0000001000
43
0.0000001000
44
0.0000000001
40
0.0000000000
40
0.0000000000
40
0.0000000000
40
0.0000000000
40
0.2729577689
40
0.6111518949
40
1.0000000000
40
1.0000000000
40
1.0000000000
40
1.0000000000
10
340.0196740216
20
141.2952900064
30
0.0000000000
10
340.0193667605
20
141.4888560499
30
0.0000000000
10
339.9494213340
20
141.9228862469
30
0.0000000000
10
339.6208533478
20
142.5594309895
30
0.0000000000
10
339.2756640394
20
142.9456261960
30
0.0000000000
10
339.0761148156
20
143.1343365898
30
0.0000000000
11
340.0196740216
21
141.2952900064
31
0.0000000000
11
339.9307840876
21
141.8675790486
31
0.0000000000
11
339.6144942481
21
142.5106129846
31
0.0000000000
11
339.0761148156
21
143.1343365898
31
0.0000000000
0
SPLINE
5
40C
100
AcDbEntity
8
0
100
AcDbSpline
62
7
6
CONTINUOUS
70
0
71
3
72
9
73
5
74
3
42
0.0000001000
43
0.0000001000
44
0.0000000001
40
0.0000000000
40
0.0000000000
40
0.0000000000
40
0.0000000000
40
0.5010565657
40
1.0000000000
40
1.0000000000
40
1.0000000000
40
1.0000000000
10
339.5615004225
20
147.0301701417
30
0.0000000000
10
339.5235600276
20
147.1844933578
30
0.0000000000
10
339.4432097386
20
147.4913692498
30
0.0000000000
10
339.3537082350
20
147.7957012977
30
0.0000000000
10
339.3067989227
20
147.9468372455
30
0.0000000000
11
339.5615004225
21
147.0301701417
31
0.0000000000
11
339.4407424651
21
147.4913790673
31
0.0000000000
11
339.3067989227
21
147.9468372455
31
0.0000000000
0
SPLINE
5
40D
100
AcDbEntity
8
0
100
AcDbSpline
62
7
6
CONTINUOUS
70
0
71
3
72
9
73
5
74
3
42
0.0000001000
43
0.0000001000
44
0.0000000001
40
0.0000000000
40
0.0000000000
40
0.0000000000
40
0.0000000000
40
0.5020029625
40
1.0000000000
40
1.0000000000
40
1.0000000000
40
1.0000000000
10
339.3067989227
20
147.9468372455
30
0.0000000000
10
339.2829633854
20
148.1004272769
30
0.0000000000
10
339.2342405195
20
148.4061902911
30
0.0000000000
10
339.1830221370
20
148.7115452165
30
0.0000000000
10
339.1568910646
20
148.8635030379
30
0.0000000000
11
339.3067989227
21
147.9468372455
31
0.0000000000
11
339.2334164517
21
148.4073123136
31
0.0000000000
11
339.1568910646
21
148.8635030379
31
0.0000000000
0
SPLINE
5
40E
100
AcDbEntity
8
0
100
AcDbSpline
62
7
6
CONTINUOUS
70
0
71
3
72
9
73
5
74
3
42
0.0000001000
43
0.0000001000
44
0.0000000001
40
0.0000000000
40
0.0000000000
40
0.0000000000
40
0.0000000000
40
0.5009256654
40
1.0000000000
40
1.0000000000
40
1.0000000000
40
1.0000000000
10
339.1568910646
20
148.8635030379
30
0.0000000000
10
339.1437291558
20
149.0548517123
30
0.0000000000
10
339.1171298221
20
149.4368196440
30
0.0000000000
10
339.0898786965
20
149.8187416296
30
0.0000000000
10
339.0761148156
20
150.0093372455
30
0.0000000000
11
339.1568910646
21
148.8635030379
31
0.0000000000
11
339.1169170260
21
149.4375152639
31
0.0000000000
11
339.0761148156
21
150.0093372455
31
0.0000000000
0
SPLINE
5
40F
100
AcDbEntity
8
0
100
AcDbSpline
62
7
6
CONTINUOUS
70
0
71
3
72
9
73
5
74
3
42
0.0000001000
43
0.0000001000
44
0.0000000001
40
0.0000000000
40
0.0000000000
40
0.0000000000
40
0.0000000000
40
0.5009256653
40
1.0000000000
40
1.0000000000
40
1.0000000000
40
1.0000000000
10
339.1568910646
20
153.2176701417
30
0.0000000000
10
339.1437291558
20
153.0263216863
30
0.0000000000
10
339.1171298221
20
152.6443541917
30
0.0000000000
10
339.0898786965
20
152.2624326433
30
0.0000000000
10
339.0761148156
20
152.0718372455
30
0.0000000000
11
339.1568910646
21
153.2176701417
31
0.0000000000
11
339.1169170260
21
152.6436585727
31
0.0000000000
11
339.0761148156
21
152.0718372455
31
0.0000000000
0
SPLINE
5
410
100
AcDbEntity
8
0
100
AcDbSpline
62
7
6
CONTINUOUS
70
0
71
3
72
9
73
5
74
3
42
0.0000001000
43
0.0000001000
44
0.0000000001
40
0.0000000000
40
0.0000000000
40
0.0000000000
40
0.0000000000
40
0.5020029642
40
1.0000000000
40
1.0000000000
40
1.0000000000
40
1.0000000000
10
339.3067989227
20
154.1343372455
30
0.0000000000
10
339.2829633854
20
153.9807469943
30
0.0000000000
10
339.2342405196
20
153.6749835433
30
0.0000000000
10
339.1830221370
20
153.3696281805
30
0.0000000000
10
339.1568910646
20
153.2176701417
30
0.0000000000
11
339.3067989227
21
154.1343372455
31
0.0000000000
11
339.2334164516
21
153.6738615179
31
0.0000000000
11
339.1568910646
21
153.2176701417
31
0.0000000000
0
SPLINE
5
411
100
AcDbEntity
8
0
100
AcDbSpline
62
7
6
CONTINUOUS
70
0
71
3
72
9
73
5
74
3
42
0.0000001000
43
0.0000001000
44
0.0000000001
40
0.0000000000
40
0.0000000000
40
0.0000000000
40
0.0000000000
40
0.5010565584
40
1.0000000000
40
1.0000000000
40
1.0000000000
40
1.0000000000
10
339.5615004225
20
155.0510030379
30
0.0000000000
10
339.5235600273
20
154.8966800416
30
0.0000000000
10
339.4432097374
20
154.5898045851
30
0.0000000000
10
339.3537082346
20
154.2854729758
30
0.0000000000
10
339.3067989227
20
154.1343372455
30
0.0000000000
11
339.5615004225
21
155.0510030379
31
0.0000000000
11
339.4407424656
21
154.5897947738
31
0.0000000000
11
339.3067989227
21
154.1343372455
31
0.0000000000
0
SPLINE
5
412
100
AcDbEntity
8
0
100
AcDbSpline
62
7
6
CONTINUOUS
70
0
71
3
72
9
73
5
74
3
42
0.0000001000
43
0.0000001000
44
0.0000000001
40
0.0000000000
40
0.0000000000
40
0.0000000000
40
0.0000000000
40
0.4778997714
40
1.0000000000
40
1.0000000000
40
1.0000000000
40
1.0000000000
10
339.7987670345
20
155.2801701417
30
0.0000000000
10
339.7648317517
20
155.2399749717
30
0.0000000000
10
339.6889519784
20
155.1599274811
30
0.0000000000
10
339.6060818234
20
155.0872701942
30
0.0000000000
10
339.5615004225
20
155.0510030379
30
0.0000000000
11
339.7987670345
21
155.2801701417
31
0.0000000000
11
339.6907093784
21
155.1651534520
31
0.0000000000
11
339.5615004225
21
155.0510030379
31
0.0000000000
0
SPLINE
5
413
100
AcDbEntity
8
0
100
AcDbSpline
62
7
6
CONTINUOUS
70
0
71
3
72
15
73
11
74
9
42
0.0000001000
43
0.0000001000
44
0.0000000001
40
0.0000000000
40
0.0000000000
40
0.0000000000
40
0.0000000000
40
0.0194077603
40
0.0768490940
40
0.1689345683
40
0.2939017391
40
0.4460457374
40
0.6175960887
40
0.8055654403
40
1.0000000000
40
1.0000000000
40
1.0000000000
40
1.0000000000
10
218.0818464543
20
-77.8941315716
30
0.0000000000
10
218.0818464543
20
-77.8805789414
30
0.0000000000
10
218.1670925610
20
-77.8991367333
30
0.0000000000
10
218.2539894961
20
-77.8612438565
30
0.0000000000
10
218.4612673941
20
-77.8550073880
30
0.0000000000
10
218.7111157959
20
-77.8268201133
30
0.0000000000
10
219.0261667718
20
-77.8065572677
30
0.0000000000
10
219.3821727057
20
-77.7870987618
30
0.0000000000
10
219.7690854220
20
-77.7747924977
30
0.0000000000
10
220.0360708860
20
-77.7718353316
30
0.0000000000
10
220.1718464543
20
-77.7718353316
30
0.0000000000
11
218.0818464543
21
-77.8941315716
31
0.0000000000
11
218.1219874909
21
-77.8876692772
31
0.0000000000
11
218.2414815259
21
-77.8734629558
31
0.0000000000
11
218.4333749368
21
-77.8536593476
31
0.0000000000
11
218.6941594658
21
-77.8306524350
31
0.0000000000
11
219.0120804336
21
-77.8079438047
31
0.0000000000
11
219.3709676427
21
-77.7890177213
31
0.0000000000
11
219.7645439368
21
-77.7762742183
31
0.0000000000
11
220.1718464543
21
-77.7718353316
31
0.0000000000
0
SPLINE
5
414
100
AcDbEntity
8
0
100
AcDbSpline
62
7
6
CONTINUOUS
70
0
71
3
72
15
73
11
74
9
42
0.0000001000
43
0.0000001000
44
0.0000000001
40
0.0000000000
40
0.0000000000
40
0.0000000000
40
0.0000000000
40
0.1944345597
40
0.3824039113
40
0.5539542626
40
0.7060982609
40
0.8310654317
40
0.9231509060
40
0.9805922397
40
1.0000000000
40
1.0000000000
40
1.0000000000
40
1.0000000000
10
220.3918464543
20
-77.7718353316
30
0.0000000000
10
220.5276220226
20
-77.7718353316
30
0.0000000000
10
220.7946074867
20
-77.7747924977
30
0.0000000000
10
221.1815202029
20
-77.7870987618
30
0.0000000000
10
221.5375261369
20
-77.8065572677
30
0.0000000000
10
221.8525771127
20
-77.8268201133
30
0.0000000000
10
222.1024255145
20
-77.8550073880
30
0.0000000000
10
222.3097034126
20
-77.8612438565
30
0.0000000000
10
222.3966003476
20
-77.8991367333
30
0.0000000000
10
222.4818464543
20
-77.8805789414
30
0.0000000000
10
222.4818464543
20
-77.8941315716
30
0.0000000000
11
220.3918464543
21
-77.7718353316
31
0.0000000000
11
220.7991489718
21
-77.7762742183
31
0.0000000000
11
221.1927252659
21
-77.7890177213
31
0.0000000000
11
221.5516124750
21
-77.8079438047
31
0.0000000000
11
221.8695334429
21
-77.8306524350
31
0.0000000000
11
222.1303179719
21
-77.8536593476
31
0.0000000000
11
222.3222113827
21
-77.8734629558
31
0.0000000000
11
222.4417054177
21
-77.8876692772
31
0.0000000000
11
222.4818464543
21
-77.8941315716
31
0.0000000000
0
ENDSEC
0
SECTION
2
OBJECTS
0
DICTIONARY
5
415
100
AcDbDictionary
3
ACAD_GROUP
350
416
3
ACAD_MLINESTYLE
350
417
0
DICTIONARY
5
416
102
{ACAD_REACTORS
330
415
102
}
100
AcDbDictionary
0
DICTIONARY
5
417
102
{ACAD_REACTORS
330
415
102
}
100
AcDbDictionary
3
STANDARD
350
418
0
MLINESTYLE
5
418
102
{ACAD_REACTORS
330
417
102
}
100
AcDbMlineStyle
2
STANDARD
70
0
3

62
256
51
90.0
52
90.0
71
2
49
0.5
62
256
6
BYLAYER
49
-0.5
62
256
6
BYLAYER
0
ENDSEC
0
EOF
