999
DXF file: VV-SCH-10_7100609_M31004-P-11.dxf
999
Pro/ENGINEER 2010140 by Parametric Technology Corporation
  0
SECTION
  2
HEADER
  9
$ACADVER
  1
AC1015
  9
$DWGCODEPAGE
  3
ANSI_1252
  9
$EXTMAX
 10
420.0
 20
297.0
 30
0.0
  9
$EXTMIN
 10
0.0
 20
0.0
 30
0.0
  9
$LIMMIN
 10
0.0
 20
0.0
  9
$LIMMAX
 10
420.0
 20
297.0
  9
$VIEWCTR
 10
210.0
 20
148.5
  9
$VIEWSIZE
 40
297.0
  9
$CLAYER
  8
0
  9
$LTSCALE
 40
23.1
  9
$CELTYPE
  6
BYLAYER
  9
$DIMSCALE
 40
1.0
  9
$DIMASZ
 40
3.5
  9
$DIMEXO
 40
2.625
  9
$DIMDLI
 40
15.96
  9
$DIMEXE
 40
7.56
  9
$DIMCEN
 40
3.78
  9
$DIMLFAC
 40
1.0
  9
$DIMBLK
  1
_FILLED
  9
$DIMTXT
 40
3.5
  9
$DIMTOL
 70
1
  9
$DIMLIM
 70
0
  9
$DIMTFAC
 40
1.0
  9
$DIMTP
 40
0.005
  9
$DIMTM
 40
0.005
  9
$PDMODE
 70
3
  9
$PDSIZE
 40
0.3125
  9
$HANDSEED
  5
3B1
  9
$TILEMODE
 70
1
  9
$MEASUREMENT
 70
1
  9
$INSUNITS
 70
4
  0
ENDSEC
  0
SECTION
  2
CLASSES
  0
CLASS
  1
ACDBDICTIONARYWDFLT
  2
AcDbDictionaryWithDefault
  3
AutoCAD 2000
 90
0
280
0
281
0
  0
CLASS
  1
ACDBPLACEHOLDER
  2
AcDbPlaceHolder
  3
AutoCAD 2000
 90
0
280
0
281
0
  0
CLASS
  1
LAYOUT
  2
AcDbLayout
  3
AutoCAD 2000
 90
0
280
0
281
0
  0
ENDSEC
  0
SECTION
  2
TABLES
  0
TABLE
  2
VPORT
  5
8
100
AcDbSymbolTable
 70
2
  0
VPORT
  5
1F4
100
AcDbSymbolTableRecord
100
AcDbViewportTableRecord
  2
*ACTIVE
 70
0
 10
0.0
 20
0.0
 11
1.0
 21
1.0
 12
210.0
 22
148.5
 13
0.0
 23
0.0
 14
1.0
 24
1.0
 15
0.0
 25
0.0
 16
0.0
 26
0.0
 36
1.0
 17
0.0
 27
0.0
 37
0.0
 40
297.0
 41
1.4141414141
 42
50.0
 43
0.0
 44
0.0
 50
0.0
 51
0.0
 71
0
 72
100
 73
1
 74
1
 75
0
 76
0
 77
0
 78
0
  0
ENDTAB
  0
TABLE
  2
LTYPE
  5
5
100
AcDbSymbolTable
 70
6
  0
LTYPE
  5
14
100
AcDbSymbolTableRecord
100
AcDbLinetypeTableRecord
  2
BYBLOCK
 70
0
  3

 72
65
 73
0
 40
0.0
  0
LTYPE
  5
15
100
AcDbSymbolTableRecord
100
AcDbLinetypeTableRecord
  2
BYLAYER
 70
0
  3

 72
65
 73
0
 40
0.0
  0
LTYPE
  5
16
100
AcDbSymbolTableRecord
100
AcDbLinetypeTableRecord
  2
CONTINUOUS
 70
64
  3
Solid line
 72
65
 73
0
 40
0.0
  0
LTYPE
  5
1F5
100
AcDbSymbolTableRecord
100
AcDbLinetypeTableRecord
  2
CENTER
 70
64
  3
____ _ ____ _ ____ _ ____ _ ____ _ ____ _ ____
 72
65
 73
4
 40
0.6
 49
0.375
 74
0
 49
-0.075
 74
0
 49
0.075
 74
0
 49
-0.075
 74
0
  0
LTYPE
  5
1F6
100
AcDbSymbolTableRecord
100
AcDbLinetypeTableRecord
  2
HIDDEN
 70
64
  3
- - - - - - - - - - - - - - - - - - - -
 72
65
 73
2
 40
0.2
 49
0.1
 74
0
 49
-0.1
 74
0
  0
LTYPE
  5
1F7
100
AcDbSymbolTableRecord
100
AcDbLinetypeTableRecord
  2
PHANTOM
 70
64
  3
_____ _ _ _____ _ _ _____ _ _ _____
 72
65
 73
6
 40
0.8
 49
0.45
 74
0
 49
-0.05
 74
0
 49
0.1
 74
0
 49
-0.05
 74
0
 49
0.1
 74
0
 49
-0.05
 74
0
  0
LTYPE
  5
1F8
100
AcDbSymbolTableRecord
100
AcDbLinetypeTableRecord
  2
DOT
 70
64
  3
. . . . . . . . . . . . . . . . . . . .
 72
65
 73
2
 40
0.2
 49
0.1
 74
0
 49
-0.1
 74
0
  0
LTYPE
  5
1F9
100
AcDbSymbolTableRecord
100
AcDbLinetypeTableRecord
  2
DASHED
 70
64
  3
- - - - - - - - - - - - - - - - - - - -
 72
65
 73
2
 40
0.2
 49
0.1
 74
0
 49
-0.1
 74
0
  0
ENDTAB
  0
TABLE
  2
LAYER
  5
2
100
AcDbSymbolTable
 70
36
  0
LAYER
  5
10
100
AcDbSymbolTableRecord
100
AcDbLayerTableRecord
  2
0
 70
0
 62
7
  6
CONTINUOUS
370
-3
390
F
  0
LAYER
  5
1FA
100
AcDbSymbolTableRecord
100
AcDbLayerTableRecord
  2
DEFAULT_1
 70
0
 62
7
  6
CENTER
370
-3
390
F
  0
LAYER
  5
1FB
100
AcDbSymbolTableRecord
100
AcDbLayerTableRecord
  2
DEFAULT_2
 70
0
 62
8
  6
HIDDEN
370
-3
390
F
  0
LAYER
  5
1FC
100
AcDbSymbolTableRecord
100
AcDbLayerTableRecord
  2
DEFAULT_3
 70
0
 62
7
  6
PHANTOM
370
-3
390
F
  0
LAYER
  5
1FD
100
AcDbSymbolTableRecord
100
AcDbLayerTableRecord
  2
BEZUGSACHSEN
 70
0
 62
7
  6
CONTINUOUS
370
-3
390
F
  0
LAYER
  5
1FE
100
AcDbSymbolTableRecord
100
AcDbLayerTableRecord
  2
BEZUGSEBENEN
 70
0
 62
7
  6
CONTINUOUS
370
-3
390
F
  0
LAYER
  5
1FF
100
AcDbSymbolTableRecord
100
AcDbLayerTableRecord
  2
FASEN
 70
0
 62
7
  6
CONTINUOUS
370
-3
390
F
  0
LAYER
  5
200
100
AcDbSymbolTableRecord
100
AcDbLayerTableRecord
  2
HILFEN
 70
0
 62
7
  6
CONTINUOUS
370
-3
390
F
  0
LAYER
  5
201
100
AcDbSymbolTableRecord
100
AcDbLayerTableRecord
  2
KONSTRUKTIONSELEMENTE
 70
0
 62
7
  6
CONTINUOUS
370
-3
390
F
  0
LAYER
  5
202
100
AcDbSymbolTableRecord
100
AcDbLayerTableRecord
  2
PLATZIERUNG
 70
0
 62
7
  6
CONTINUOUS
370
-3
390
F
  0
LAYER
  5
203
100
AcDbSymbolTableRecord
100
AcDbLayerTableRecord
  2
RUNDUNGEN
 70
0
 62
7
  6
CONTINUOUS
370
-3
390
F
  0
LAYER
  5
204
100
AcDbSymbolTableRecord
100
AcDbLayerTableRecord
  2
TEIL_STARTBEZUEGE
 70
0
 62
7
  6
CONTINUOUS
370
-3
390
F
  0
LAYER
  5
205
100
AcDbSymbolTableRecord
100
AcDbLayerTableRecord
  2
ZEICHNUNGSBEMASSUNGEN
 70
0
 62
7
  6
CONTINUOUS
370
-3
390
F
  0
ENDTAB
  0
TABLE
  2
STYLE
  5
3
100
AcDbSymbolTable
 70
1
  0
STYLE
  5
11
100
AcDbSymbolTableRecord
100
AcDbTextStyleTableRecord
  2
STANDARD
 70
0
 40
0.0
 41
0.7
 50
0.0
 71
0
 42
0.2
  3
txt
  4

  0
STYLE
  5
206
100
AcDbSymbolTableRecord
100
AcDbTextStyleTableRecord
  2
TEXTSTYLE_1
 70
0
 40
0.0
 41
0.8
 50
0.0
 71
0
 42
0.2
  3
gdt
  4

  0
ENDTAB
  0
TABLE
  2
VIEW
  5
6
100
AcDbSymbolTable
 70
0
  0
ENDTAB
  0
TABLE
  2
UCS
  5
7
100
AcDbSymbolTable
 70
0
  0
ENDTAB
  0
TABLE
  2
APPID
  5
9
100
AcDbSymbolTable
 70
1
  0
APPID
  5
207
100
AcDbSymbolTableRecord
100
AcDbRegAppTableRecord
  2
ACAD
 70
0
  0
ENDTAB
  0
TABLE
  2
BLOCK_RECORD
  5
1
100
AcDbSymbolTable
 70
0
  0
BLOCK_RECORD
  5
208
100
AcDbSymbolTableRecord
100
AcDbBlockTableRecord
  2
*Model_Space
  0
BLOCK_RECORD
  5
209
100
AcDbSymbolTableRecord
100
AcDbBlockTableRecord
  2
*Paper_Space
  0
ENDTAB
  0
TABLE
  2
DIMSTYLE
  5
A
100
AcDbSymbolTable
 70
1
100
AcDbDimStyleTable
 71
0
  0
DIMSTYLE
105
20A
100
AcDbSymbolTableRecord
100
AcDbDimStyleTableRecord
  2
STANDARD
 70
0
  3

  4

 40
1.0
 41
3.5
 42
0.0625
 43
0.38
 44
0.18
 45
0.0
 46
0.0
 47
0.005
 48
0.005
140
3.5
141
0.09
142
0.0
143
25.4
144
1.0
145
0.0
146
1.0
147
0.09
 71
1.0
 72
0.0
 73
0
 74
0
 75
0
 76
0
 77
1
 78
8
170
0
171
2
172
0
173
0
174
0
175
0
176
0
177
0
178
5
270
2
271
3
272
3
273
2
274
2
275
0
280
0
281
0
282
0
283
1
284
8
285
0
286
0
287
3
288
0
340
11
  0
ENDTAB
  0
ENDSEC
  0
SECTION
  2
BLOCKS
  0
BLOCK
  5
20
100
AcDbEntity
  8
0
100
AcDbBlockBegin
  2
*Model_Space
 70
0
 10
0.0
 20
0.0
 30
0.0
  3
*Model_Space
  1

  0
ENDBLK
  5
21
100
AcDbEntity
  8
0
100
AcDbBlockEnd
  0
BLOCK
  5
1C
100
AcDbEntity
  8
0
100
AcDbBlockBegin
  2
*Paper_Space
 70
0
 10
0.0
 20
0.0
 30
0.0
  3
*Paper_Space
  1

  0
ENDBLK
  5
1D
100
AcDbEntity
  8
0
100
AcDbBlockEnd
  0
ENDSEC
  0
SECTION
  2
ENTITIES
  0
MTEXT
  5
20B
100
AcDbEntity
  8
0
100
AcDbMText
 62
5
  6
CONTINUOUS
  7
STANDARD
 71
1
 72
1
 10
216.5336841545
 20
219.9510056198
 30
0.0
 11
0.0
 21
1.0
 31
0.0
 44
0.9
  1
VV-SCH
 40
3.5
 41
16.75
  0
MTEXT
  5
20C
100
AcDbEntity
  8
0
100
AcDbMText
 62
5
  6
CONTINUOUS
  7
STANDARD
 71
1
 72
1
 10
223.072597235
 20
219.4267622531
 30
0.0
 11
0.0
 21
1.0
 31
0.0
 44
0.9
  1
10/VIP
 40
4.0
 41
17.5238095238
  0
MTEXT
  5
20D
100
AcDbEntity
  8
0
100
AcDbMText
 62
5
  6
CONTINUOUS
  7
STANDARD
 71
1
 72
1
 10
105.9043209264
 20
105.6676666513
 30
0.0
 11
1.0
 21
0.0
 31
0.0
 44
0.9
  1
VV-SCH
 40
4.0
 41
19.1428571429
  0
MTEXT
  5
20E
100
AcDbEntity
  8
0
100
AcDbMText
 62
5
  6
CONTINUOUS
  7
STANDARD
 71
1
 72
1
 10
105.2943759944
 20
99.3514293163
 30
0.0
 11
1.0
 21
0.0
 31
0.0
 44
0.9
  1
10/VIP
 40
4.5
 41
19.7142857143
  0
LINE
  5
20F
100
AcDbEntity
  8
0
100
AcDbLine
 62
7
  6
CONTINUOUS
 10
0.0
 20
0.0
 11
0.0
 21
297.0
  0
LINE
  5
210
100
AcDbEntity
  8
0
100
AcDbLine
 62
7
  6
CONTINUOUS
 10
0.0
 20
0.0
 11
420.0
 21
0.0
  0
LINE
  5
211
100
AcDbEntity
  8
DEFAULT_1
100
AcDbLine
 62
2
  6
CENTER
 10
115.0021453102
 20
258.2033264272
 11
115.0021453102
 21
169.0838512088
  0
LINE
  5
212
100
AcDbEntity
  8
0
100
AcDbLine
 62
7
  6
CONTINUOUS
 10
0.0
 20
297.0
 11
420.0
 21
297.0
  0
LINE
  5
213
100
AcDbEntity
  8
0
100
AcDbLine
 62
7
  6
CONTINUOUS
 10
420.0
 20
0.0
 11
420.0
 21
297.0
  0
LINE
  5
214
100
AcDbEntity
  8
KONSTRUKTIONSELEMENTE
100
AcDbLine
 62
7
  6
CONTINUOUS
 10
91.5188218214
 20
170.0019526045
 11
104.5188218214
 21
170.0019526045
  0
LINE
  5
215
100
AcDbEntity
  8
KONSTRUKTIONSELEMENTE
100
AcDbLine
 62
7
  6
CONTINUOUS
 10
125.5188218214
 20
170.0019526045
 11
147.5188218214
 21
170.0019526045
  0
LINE
  5
216
100
AcDbEntity
  8
KONSTRUKTIONSELEMENTE
100
AcDbLine
 62
7
  6
CONTINUOUS
 10
91.5188218214
 20
173.0019526045
 11
87.5188218214
 21
173.0019526045
  0
LINE
  5
217
100
AcDbEntity
  8
KONSTRUKTIONSELEMENTE
100
AcDbLine
 62
7
  6
CONTINUOUS
 10
137.5188218214
 20
174.15131971
 11
147.5188218214
 21
174.15131971
  0
LINE
  5
218
100
AcDbEntity
  8
BEZUGSACHSEN
100
AcDbLine
 62
7
  6
CONTINUOUS
 10
104.5188218214
 20
178.0019526045
 11
125.5188218214
 21
178.0019526045
  0
LINE
  5
219
100
AcDbEntity
  8
KONSTRUKTIONSELEMENTE
100
AcDbLine
 62
7
  6
CONTINUOUS
 10
91.5188218214
 20
178.1981050272
 11
87.5188218214
 21
178.1981050272
  0
LINE
  5
21A
100
AcDbEntity
  8
BEZUGSACHSEN
100
AcDbLine
 62
2
  6
CENTER
 10
150.3073436158
 20
186.0019526045
 11
71.15293042
 21
186.0019526045
  0
LINE
  5
21B
100
AcDbEntity
  8
KONSTRUKTIONSELEMENTE
100
AcDbLine
 62
7
  6
CONTINUOUS
 10
87.5188218214
 20
173.0019526045
 11
87.5188218214
 21
199.0019526045
  0
LINE
  5
21C
100
AcDbEntity
  8
KONSTRUKTIONSELEMENTE
100
AcDbLine
 62
7
  6
CONTINUOUS
 10
91.5188218214
 20
170.0019526045
 11
91.5188218214
 21
233.0019526045
  0
LINE
  5
21D
100
AcDbEntity
  8
KONSTRUKTIONSELEMENTE
100
AcDbLine
 62
7
  6
CONTINUOUS
 10
95.8752047874
 20
228.5940379596
 11
95.7688218214
 21
228.2419111413
  0
LINE
  5
21E
100
AcDbEntity
  8
KONSTRUKTIONSELEMENTE
100
AcDbLine
 62
7
  6
CONTINUOUS
 10
96.4071196177
 20
228.2419111413
 11
96.5135025837
 21
228.5236121124
  0
LINE
  5
21F
100
AcDbEntity
  8
KONSTRUKTIONSELEMENTE
100
AcDbLine
 62
7
  6
CONTINUOUS
 10
96.4071196177
 20
224.8614962643
 11
96.5135025837
 21
225.0727721941
  0
LINE
  5
220
100
AcDbEntity
  8
KONSTRUKTIONSELEMENTE
100
AcDbLine
 62
7
  6
CONTINUOUS
 10
96.0879707195
 20
228.8757381248
 11
95.8752047874
 21
228.5940379596
  0
LINE
  5
221
100
AcDbEntity
  8
KONSTRUKTIONSELEMENTE
100
AcDbLine
 62
7
  6
CONTINUOUS
 10
96.5135025837
 20
228.5236121124
 11
96.7262685158
 21
228.7348880422
  0
LINE
  5
222
100
AcDbEntity
  8
KONSTRUKTIONSELEMENTE
100
AcDbLine
 62
7
  6
CONTINUOUS
 10
96.1943536856
 20
225.4248982065
 11
95.8752047874
 21
225.1431972354
  0
LINE
  5
223
100
AcDbEntity
  8
KONSTRUKTIONSELEMENTE
100
AcDbLine
 62
7
  6
CONTINUOUS
 10
96.5135025837
 20
229.1574399018
 11
96.0879707195
 21
228.8757381248
  0
LINE
  5
224
100
AcDbEntity
  8
KONSTRUKTIONSELEMENTE
100
AcDbLine
 62
7
  6
CONTINUOUS
 10
91.5188218214
 20
193.5171250472
 11
87.5188218214
 21
193.5171250472
  0
LINE
  5
225
100
AcDbEntity
  8
BEZUGSACHSEN
100
AcDbLine
 62
7
  6
CONTINUOUS
 10
104.5188218214
 20
194.0019526045
 11
125.5188218214
 21
194.0019526045
  0
LINE
  5
226
100
AcDbEntity
  8
KONSTRUKTIONSELEMENTE
100
AcDbLine
 62
7
  6
CONTINUOUS
 10
95.7688218214
 20
232.608280626
 11
95.7688218214
 21
232.1857287664
  0
LINE
  5
227
100
AcDbEntity
  8
KONSTRUKTIONSELEMENTE
100
AcDbLine
 62
7
  6
CONTINUOUS
 10
95.7688218214
 20
230.2138195509
 11
95.7688218214
 21
229.7912676912
  0
LINE
  5
228
100
AcDbEntity
  8
KONSTRUKTIONSELEMENTE
100
AcDbLine
 62
7
  6
CONTINUOUS
 10
95.7688218214
 20
228.2419111413
 11
95.7688218214
 21
227.6080833518
  0
LINE
  5
229
100
AcDbEntity
  8
KONSTRUKTIONSELEMENTE
100
AcDbLine
 62
7
  6
CONTINUOUS
 10
95.7688218214
 20
224.7910704171
 11
95.7688218214
 21
224.4389444047
  0
LINE
  5
22A
100
AcDbEntity
  8
KONSTRUKTIONSELEMENTE
100
AcDbLine
 62
7
  6
CONTINUOUS
 10
95.7688218214
 20
221.1993800133
 11
95.7688218214
 21
220.7768281537
  0
LINE
  5
22B
100
AcDbEntity
  8
KONSTRUKTIONSELEMENTE
100
AcDbLine
 62
7
  6
CONTINUOUS
 10
95.7688218214
 20
218.8049193411
 11
95.7688218214
 21
218.3823674815
  0
LINE
  5
22C
100
AcDbEntity
  8
KONSTRUKTIONSELEMENTE
100
AcDbLine
 62
7
  6
CONTINUOUS
 10
95.7688218214
 20
217.8189649348
 11
95.7688218214
 21
217.3964130752
  0
LINE
  5
22D
100
AcDbEntity
  8
KONSTRUKTIONSELEMENTE
100
AcDbLine
 62
7
  6
CONTINUOUS
 10
95.7688218214
 20
215.4245044642
 11
95.7688218214
 21
215.0019526045
  0
LINE
  5
22E
100
AcDbEntity
  8
KONSTRUKTIONSELEMENTE
100
AcDbLine
 62
7
  6
CONTINUOUS
 10
96.4071196177
 20
224.4389444047
 11
96.4071196177
 21
224.8614962643
  0
LINE
  5
22F
100
AcDbEntity
  8
KONSTRUKTIONSELEMENTE
100
AcDbLine
 62
7
  6
CONTINUOUS
 10
96.4071196177
 20
227.6080833518
 11
96.4071196177
 21
228.2419111413
  0
LINE
  5
230
100
AcDbEntity
  8
KONSTRUKTIONSELEMENTE
100
AcDbLine
 62
7
  6
CONTINUOUS
 10
95.8752047874
 20
225.1431972354
 11
95.7688218214
 21
224.7910704171
  0
LINE
  5
231
100
AcDbEntity
  8
KONSTRUKTIONSELEMENTE
100
AcDbLine
 62
7
  6
CONTINUOUS
 10
98.0028644063
 20
225.2136222767
 11
97.8964814403
 21
224.8614962643
  0
LINE
  5
232
100
AcDbEntity
  8
KONSTRUKTIONSELEMENTE
100
AcDbLine
 62
7
  6
CONTINUOUS
 10
98.5347792365
 20
224.8614962643
 11
98.6411622026
 21
225.1431972354
  0
LINE
  5
233
100
AcDbEntity
  8
KONSTRUKTIONSELEMENTE
100
AcDbLine
 62
7
  6
CONTINUOUS
 10
98.4283962705
 20
224.1572426276
 11
98.5347792365
 21
224.4389444047
  0
LINE
  5
234
100
AcDbEntity
  8
KONSTRUKTIONSELEMENTE
100
AcDbLine
 62
7
  6
CONTINUOUS
 10
100.1305239507
 20
227.6080833518
 11
100.0241409846
 21
227.3263815748
  0
LINE
  5
235
100
AcDbEntity
  8
KONSTRUKTIONSELEMENTE
100
AcDbLine
 62
7
  6
CONTINUOUS
 10
97.8964814403
 20
224.4389444047
 11
97.7900984742
 21
224.2276684749
  0
LINE
  5
236
100
AcDbEntity
  8
KONSTRUKTIONSELEMENTE
100
AcDbLine
 62
7
  6
CONTINUOUS
 10
98.2156303384
 20
225.4953240537
 11
98.0028644063
 21
225.2136222767
  0
LINE
  5
237
100
AcDbEntity
  8
KONSTRUKTIONSELEMENTE
100
AcDbLine
 62
7
  6
CONTINUOUS
 10
100.449672886
 20
226.9742555624
 11
100.6624388461
 21
227.2559565335
  0
LINE
  5
238
100
AcDbEntity
  8
KONSTRUKTIONSELEMENTE
100
AcDbLine
 62
7
  6
CONTINUOUS
 10
98.2156303384
 20
223.8755416566
 11
98.4283962705
 21
224.1572426276
  0
LINE
  5
239
100
AcDbEntity
  8
KONSTRUKTIONSELEMENTE
100
AcDbLine
 62
7
  6
CONTINUOUS
 10
100.34328992
 20
223.5938406855
 11
100.6624388461
 21
223.9459666978
  0
LINE
  5
23A
100
AcDbEntity
  8
KONSTRUKTIONSELEMENTE
100
AcDbLine
 62
7
  6
CONTINUOUS
 10
100.0241409846
 20
227.3263815748
 11
99.811374978
 21
227.115105645
  0
LINE
  5
23B
100
AcDbEntity
  8
KONSTRUKTIONSELEMENTE
100
AcDbLine
 62
7
  6
CONTINUOUS
 10
98.6411622026
 20
225.1431972354
 11
98.8539281346
 21
225.3544731652
  0
LINE
  5
23C
100
AcDbEntity
  8
KONSTRUKTIONSELEMENTE
100
AcDbLine
 62
7
  6
CONTINUOUS
 10
97.7900984742
 20
224.2276684749
 11
97.5773325421
 21
224.0163925451
  0
LINE
  5
23D
100
AcDbEntity
  8
KONSTRUKTIONSELEMENTE
100
AcDbLine
 62
7
  6
CONTINUOUS
 10
96.5135025837
 20
225.0727721941
 11
96.7262685158
 21
225.2136222767
  0
LINE
  5
23E
100
AcDbEntity
  8
KONSTRUKTIONSELEMENTE
100
AcDbLine
 62
7
  6
CONTINUOUS
 10
100.0241409846
 20
226.6925537854
 11
100.449672886
 21
226.9742555624
  0
LINE
  5
23F
100
AcDbEntity
  8
KONSTRUKTIONSELEMENTE
100
AcDbLine
 62
7
  6
CONTINUOUS
 10
98.6411622026
 20
225.7770250248
 11
98.2156303384
 21
225.4953240537
  0
LINE
  5
240
100
AcDbEntity
  8
KONSTRUKTIONSELEMENTE
100
AcDbLine
 62
7
  6
CONTINUOUS
 10
97.7900984742
 20
223.5938406855
 11
98.2156303384
 21
223.8755416566
  0
LINE
  5
241
100
AcDbEntity
  8
KONSTRUKTIONSELEMENTE
100
AcDbLine
 62
7
  6
CONTINUOUS
 10
100.0241409846
 20
224.0163925451
 11
99.704992012
 21
223.8051166153
  0
LINE
  5
242
100
AcDbEntity
  8
KONSTRUKTIONSELEMENTE
100
AcDbLine
 62
7
  6
CONTINUOUS
 10
96.6198855497
 20
225.6361741363
 11
96.1943536856
 21
225.4248982065
  0
LINE
  5
243
100
AcDbEntity
  8
KONSTRUKTIONSELEMENTE
100
AcDbLine
 62
7
  6
CONTINUOUS
 10
99.811374978
 20
227.115105645
 11
99.4922260799
 21
226.9742555624
  0
LINE
  5
244
100
AcDbEntity
  8
KONSTRUKTIONSELEMENTE
100
AcDbLine
 62
7
  6
CONTINUOUS
 10
98.8539281346
 20
225.3544731652
 11
99.1730771818
 21
225.4953240537
  0
LINE
  5
245
100
AcDbEntity
  8
KONSTRUKTIONSELEMENTE
100
AcDbLine
 62
7
  6
CONTINUOUS
 10
99.5986090459
 20
226.5517037028
 11
100.0241409846
 21
226.6925537854
  0
LINE
  5
246
100
AcDbEntity
  8
KONSTRUKTIONSELEMENTE
100
AcDbLine
 62
7
  6
CONTINUOUS
 10
96.7262685158
 20
225.2136222767
 11
96.9390344479
 21
225.2840481239
  0
LINE
  5
247
100
AcDbEntity
  8
KONSTRUKTIONSELEMENTE
100
AcDbLine
 62
7
  6
CONTINUOUS
 10
99.0666942157
 20
225.9178759134
 11
98.6411622026
 21
225.7770250248
  0
LINE
  5
248
100
AcDbEntity
  8
KONSTRUKTIONSELEMENTE
100
AcDbLine
 62
7
  6
CONTINUOUS
 10
96.9390344479
 20
225.2840481239
 11
96.9390344479
 21
225.7065999836
  0
LINE
  5
249
100
AcDbEntity
  8
KONSTRUKTIONSELEMENTE
100
AcDbLine
 62
7
  6
CONTINUOUS
 10
97.0454177119
 20
228.8053138894
 11
97.0454177119
 21
229.227865749
  0
LINE
  5
24A
100
AcDbEntity
  8
KONSTRUKTIONSELEMENTE
100
AcDbLine
 62
7
  6
CONTINUOUS
 10
97.7900984742
 20
232.1857287664
 11
97.7900984742
 21
230.2138195509
  0
LINE
  5
24B
100
AcDbEntity
  8
KONSTRUKTIONSELEMENTE
100
AcDbLine
 62
7
  6
CONTINUOUS
 10
97.8964814403
 20
224.8614962643
 11
97.8964814403
 21
224.4389444047
  0
LINE
  5
24C
100
AcDbEntity
  8
KONSTRUKTIONSELEMENTE
100
AcDbLine
 62
7
  6
CONTINUOUS
 10
98.4283962705
 20
222.7487369662
 11
98.4283962705
 21
221.7627823585
  0
LINE
  5
24D
100
AcDbEntity
  8
KONSTRUKTIONSELEMENTE
100
AcDbLine
 62
7
  6
CONTINUOUS
 10
98.4283962705
 20
230.2138195509
 11
98.4283962705
 21
232.1857287664
  0
LINE
  5
24E
100
AcDbEntity
  8
KONSTRUKTIONSELEMENTE
100
AcDbLine
 62
7
  6
CONTINUOUS
 10
98.5347792365
 20
224.4389444047
 11
98.5347792365
 21
224.8614962643
  0
LINE
  5
24F
100
AcDbEntity
  8
KONSTRUKTIONSELEMENTE
100
AcDbLine
 62
7
  6
CONTINUOUS
 10
98.9603112497
 20
221.7627823585
 11
98.9603112497
 21
222.7487369662
  0
LINE
  5
250
100
AcDbEntity
  8
KONSTRUKTIONSELEMENTE
100
AcDbLine
 62
7
  6
CONTINUOUS
 10
99.3858431139
 20
223.734690768
 11
99.3858431139
 21
223.3121389084
  0
LINE
  5
251
100
AcDbEntity
  8
KONSTRUKTIONSELEMENTE
100
AcDbLine
 62
7
  6
CONTINUOUS
 10
99.4922260799
 20
229.227865749
 11
99.4922260799
 21
228.8053138894
  0
LINE
  5
252
100
AcDbEntity
  8
KONSTRUKTIONSELEMENTE
100
AcDbLine
 62
7
  6
CONTINUOUS
 10
100.1305239507
 20
228.2419111413
 11
100.1305239507
 21
227.6080833518
  0
LINE
  5
253
100
AcDbEntity
  8
KONSTRUKTIONSELEMENTE
100
AcDbLine
 62
7
  6
CONTINUOUS
 10
100.1305239507
 20
224.8614962643
 11
100.1305239507
 21
224.2980935162
  0
LINE
  5
254
100
AcDbEntity
  8
KONSTRUKTIONSELEMENTE
100
AcDbLine
 62
7
  6
CONTINUOUS
 10
100.6624388461
 20
227.2559565335
 11
100.7688218214
 21
227.6080833518
  0
LINE
  5
255
100
AcDbEntity
  8
KONSTRUKTIONSELEMENTE
100
AcDbLine
 62
7
  6
CONTINUOUS
 10
100.6624388461
 20
223.9459666978
 11
100.7688218214
 21
224.2980935162
  0
LINE
  5
256
100
AcDbEntity
  8
KONSTRUKTIONSELEMENTE
100
AcDbLine
 62
7
  6
CONTINUOUS
 10
100.1305239507
 20
224.2980935162
 11
100.0241409846
 21
224.0163925451
  0
LINE
  5
257
100
AcDbEntity
  8
KONSTRUKTIONSELEMENTE
100
AcDbLine
 62
7
  6
CONTINUOUS
 10
99.811374978
 20
223.3825647556
 11
100.34328992
 21
223.5938406855
  0
LINE
  5
258
100
AcDbEntity
  8
KONSTRUKTIONSELEMENTE
100
AcDbLine
 62
7
  6
CONTINUOUS
 10
147.5188218214
 20
198.923520021
 11
145.6294411387
 21
198.923520021
  0
LINE
  5
259
100
AcDbEntity
  8
KONSTRUKTIONSELEMENTE
100
AcDbLine
 62
7
  6
CONTINUOUS
 10
91.5188218214
 20
199.0019526045
 11
87.5188218214
 21
199.0019526045
  0
LINE
  5
25A
100
AcDbEntity
  8
KONSTRUKTIONSELEMENTE
100
AcDbLine
 62
7
  6
CONTINUOUS
 10
147.5188218214
 20
201.0019526045
 11
145.6294821228
 21
201.0019526045
  0
LINE
  5
25B
100
AcDbEntity
  8
KONSTRUKTIONSELEMENTE
100
AcDbLine
 62
7
  6
CONTINUOUS
 10
104.5188218214
 20
201.0019526045
 11
104.4414381107
 21
201.0019526045
  0
LINE
  5
25C
100
AcDbEntity
  8
KONSTRUKTIONSELEMENTE
100
AcDbLine
 62
7
  6
CONTINUOUS
 10
91.5962055829
 20
201.0019526045
 11
91.5188218214
 21
201.0019526045
  0
LINE
  5
25D
100
AcDbEntity
  8
KONSTRUKTIONSELEMENTE
100
AcDbLine
 62
7
  6
CONTINUOUS
 10
100.7688218214
 20
216.1287575971
 11
100.7688218214
 21
216.692160043
  0
LINE
  5
25E
100
AcDbEntity
  8
KONSTRUKTIONSELEMENTE
100
AcDbLine
 62
7
  6
CONTINUOUS
 10
100.7688218214
 20
219.5091725748
 11
100.7688218214
 21
220.07257492
  0
LINE
  5
25F
100
AcDbEntity
  8
KONSTRUKTIONSELEMENTE
100
AcDbLine
 62
7
  6
CONTINUOUS
 10
100.7688218214
 20
224.2980935162
 11
100.7688218214
 21
224.8614962643
  0
LINE
  5
260
100
AcDbEntity
  8
KONSTRUKTIONSELEMENTE
100
AcDbLine
 62
7
  6
CONTINUOUS
 10
100.7688218214
 20
227.6080833518
 11
100.7688218214
 21
228.2419111413
  0
LINE
  5
261
100
AcDbEntity
  8
KONSTRUKTIONSELEMENTE
100
AcDbLine
 62
7
  6
CONTINUOUS
 10
100.7688218214
 20
229.7912676912
 11
100.7688218214
 21
230.2138195509
  0
LINE
  5
262
100
AcDbEntity
  8
KONSTRUKTIONSELEMENTE
100
AcDbLine
 62
7
  6
CONTINUOUS
 10
100.7688218214
 20
232.1857287664
 11
100.7688218214
 21
232.608280626
  0
LINE
  5
263
100
AcDbEntity
  8
KONSTRUKTIONSELEMENTE
100
AcDbLine
 62
7
  6
CONTINUOUS
 10
96.5135025837
 20
224.2276684749
 11
96.4071196177
 21
224.4389444047
  0
LINE
  5
264
100
AcDbEntity
  8
KONSTRUKTIONSELEMENTE
100
AcDbLine
 62
7
  6
CONTINUOUS
 10
95.7688218214
 20
224.4389444047
 11
95.8752047874
 21
224.1572426276
  0
LINE
  5
265
100
AcDbEntity
  8
KONSTRUKTIONSELEMENTE
100
AcDbLine
 62
7
  6
CONTINUOUS
 10
96.5135025837
 20
227.3263815748
 11
96.4071196177
 21
227.6080833518
  0
LINE
  5
266
100
AcDbEntity
  8
KONSTRUKTIONSELEMENTE
100
AcDbLine
 62
7
  6
CONTINUOUS
 10
95.7688218214
 20
227.6080833518
 11
95.8752047874
 21
227.2559565335
  0
LINE
  5
267
100
AcDbEntity
  8
KONSTRUKTIONSELEMENTE
100
AcDbLine
 62
7
  6
CONTINUOUS
 10
104.5188218214
 20
201.0019526045
 11
104.5188218214
 21
170.0019526045
  0
LINE
  5
268
100
AcDbEntity
  8
KONSTRUKTIONSELEMENTE
100
AcDbLine
 62
7
  6
CONTINUOUS
 10
104.5188218214
 20
201.0417651803
 11
104.5188218214
 21
233.0019526045
  0
LINE
  5
269
100
AcDbEntity
  8
KONSTRUKTIONSELEMENTE
100
AcDbLine
 62
7
  6
CONTINUOUS
 10
130.6198855497
 20
232.7505438552
 11
130.1943536856
 21
232.4965343189
  0
LINE
  5
26A
100
AcDbEntity
  8
KONSTRUKTIONSELEMENTE
100
AcDbLine
 62
7
  6
CONTINUOUS
 10
95.8752047874
 20
224.1572426276
 11
96.0879707195
 21
223.8755416566
  0
LINE
  5
26B
100
AcDbEntity
  8
KONSTRUKTIONSELEMENTE
100
AcDbLine
 62
7
  6
CONTINUOUS
 10
95.8752047874
 20
227.2559565335
 11
96.0879707195
 21
226.9742555624
  0
LINE
  5
26C
100
AcDbEntity
  8
KONSTRUKTIONSELEMENTE
100
AcDbLine
 62
7
  6
CONTINUOUS
 10
100.0241409846
 20
225.1431972354
 11
100.1305239507
 21
224.8614962643
  0
LINE
  5
26D
100
AcDbEntity
  8
KONSTRUKTIONSELEMENTE
100
AcDbLine
 62
7
  6
CONTINUOUS
 10
100.0241409846
 20
228.5236121124
 11
100.1305239507
 21
228.2419111413
  0
LINE
  5
26E
100
AcDbEntity
  8
KONSTRUKTIONSELEMENTE
100
AcDbLine
 62
7
  6
CONTINUOUS
 10
100.7688218214
 20
224.8614962643
 11
100.6624388461
 21
225.2136222767
  0
LINE
  5
26F
100
AcDbEntity
  8
KONSTRUKTIONSELEMENTE
100
AcDbLine
 62
7
  6
CONTINUOUS
 10
100.7688218214
 20
228.2419111413
 11
100.6624388461
 21
228.5940379596
  0
LINE
  5
270
100
AcDbEntity
  8
KONSTRUKTIONSELEMENTE
100
AcDbLine
 62
7
  6
CONTINUOUS
 10
130.4071196177
 20
232.0731847688
 11
130.6198855497
 21
232.2425247826
  0
LINE
  5
271
100
AcDbEntity
  8
KONSTRUKTIONSELEMENTE
100
AcDbLine
 62
7
  6
CONTINUOUS
 10
130.9390344479
 20
221.574124258
 11
130.5135025837
 21
221.4047847286
  0
LINE
  5
272
100
AcDbEntity
  8
KONSTRUKTIONSELEMENTE
100
AcDbLine
 62
7
  6
CONTINUOUS
 10
133.2794601478
 20
218.7800193586
 11
133.5986090459
 21
218.8646892444
  0
LINE
  5
273
100
AcDbEntity
  8
KONSTRUKTIONSELEMENTE
100
AcDbLine
 62
7
  6
CONTINUOUS
 10
96.7262685158
 20
224.0163925451
 11
96.5135025837
 21
224.2276684749
  0
LINE
  5
274
100
AcDbEntity
  8
KONSTRUKTIONSELEMENTE
100
AcDbLine
 62
7
  6
CONTINUOUS
 10
96.7262685158
 20
227.115105645
 11
96.5135025837
 21
227.3263815748
  0
LINE
  5
275
100
AcDbEntity
  8
KONSTRUKTIONSELEMENTE
100
AcDbLine
 62
7
  6
CONTINUOUS
 10
100.6624388461
 20
225.2136222767
 11
100.449672886
 21
225.4953240537
  0
LINE
  5
276
100
AcDbEntity
  8
KONSTRUKTIONSELEMENTE
100
AcDbLine
 62
7
  6
CONTINUOUS
 10
130.1943536856
 20
232.4965343189
 11
129.8752047874
 21
232.1578552602
  0
LINE
  5
277
100
AcDbEntity
  8
KONSTRUKTIONSELEMENTE
100
AcDbLine
 62
7
  6
CONTINUOUS
 10
130.6198855497
 20
220.8967654137
 11
131.258183644
 21
221.2354447147
  0
LINE
  5
278
100
AcDbEntity
  8
KONSTRUKTIONSELEMENTE
100
AcDbLine
 62
7
  6
CONTINUOUS
 10
133.5986090459
 20
218.8646892444
 11
134.0241409846
 21
219.0340288949
  0
LINE
  5
279
100
AcDbEntity
  8
KONSTRUKTIONSELEMENTE
100
AcDbLine
 62
7
  6
CONTINUOUS
 10
131.258183644
 20
221.6587942649
 11
130.9390344479
 21
221.574124258
  0
LINE
  5
27A
100
AcDbEntity
  8
KONSTRUKTIONSELEMENTE
100
AcDbLine
 62
7
  6
CONTINUOUS
 10
132.7475451686
 20
218.6953494728
 11
133.2794601478
 21
218.7800193586
  0
LINE
  5
27B
100
AcDbEntity
  8
KONSTRUKTIONSELEMENTE
100
AcDbLine
 62
7
  6
CONTINUOUS
 10
133.2794601478
 20
219.2033686666
 11
132.6411622026
 21
219.1186986596
  0
LINE
  5
27C
100
AcDbEntity
  8
KONSTRUKTIONSELEMENTE
100
AcDbLine
 62
7
  6
CONTINUOUS
 10
130.5135025837
 20
217.0019526045
 11
131.3645666101
 21
217.0019526045
  0
LINE
  5
27D
100
AcDbEntity
  8
KONSTRUKTIONSELEMENTE
100
AcDbLine
 62
7
  6
CONTINUOUS
 10
100.7688218214
 20
216.692160043
 11
95.7688218214
 21
217.8189649348
  0
LINE
  5
27E
100
AcDbEntity
  8
KONSTRUKTIONSELEMENTE
100
AcDbLine
 62
7
  6
CONTINUOUS
 10
95.7688218214
 20
217.3964130752
 11
100.1305239507
 21
216.4104587697
  0
LINE
  5
27F
100
AcDbEntity
  8
KONSTRUKTIONSELEMENTE
100
AcDbLine
 62
7
  6
CONTINUOUS
 10
95.7688218214
 20
220.7768281537
 11
100.1305239507
 21
219.7908735459
  0
LINE
  5
280
100
AcDbEntity
  8
KONSTRUKTIONSELEMENTE
100
AcDbLine
 62
7
  6
CONTINUOUS
 10
96.0879707195
 20
223.8755416566
 11
96.5135025837
 21
223.5938406855
  0
LINE
  5
281
100
AcDbEntity
  8
KONSTRUKTIONSELEMENTE
100
AcDbLine
 62
7
  6
CONTINUOUS
 10
96.0879707195
 20
226.9742555624
 11
96.5135025837
 21
226.6925537854
  0
LINE
  5
282
100
AcDbEntity
  8
KONSTRUKTIONSELEMENTE
100
AcDbLine
 62
7
  6
CONTINUOUS
 10
99.811374978
 20
225.3544731652
 11
100.0241409846
 21
225.1431972354
  0
LINE
  5
283
100
AcDbEntity
  8
KONSTRUKTIONSELEMENTE
100
AcDbLine
 62
7
  6
CONTINUOUS
 10
99.811374978
 20
228.7348880422
 11
100.0241409846
 21
228.5236121124
  0
LINE
  5
284
100
AcDbEntity
  8
KONSTRUKTIONSELEMENTE
100
AcDbLine
 62
7
  6
CONTINUOUS
 10
100.6624388461
 20
228.5940379596
 11
100.449672886
 21
228.8757381248
  0
LINE
  5
285
100
AcDbEntity
  8
KONSTRUKTIONSELEMENTE
100
AcDbLine
 62
7
  6
CONTINUOUS
 10
130.5135025837
 20
221.4047847286
 11
130.1943536856
 21
221.1507751923
  0
LINE
  5
286
100
AcDbEntity
  8
KONSTRUKTIONSELEMENTE
100
AcDbLine
 62
7
  6
CONTINUOUS
 10
133.9177580186
 20
219.5420479675
 11
133.2794601478
 21
219.2033686666
  0
LINE
  5
287
100
AcDbEntity
  8
KONSTRUKTIONSELEMENTE
100
AcDbLine
 62
7
  6
CONTINUOUS
 10
134.1305239507
 20
226.1462959114
 11
129.7688218214
 21
224.9609182368
  0
LINE
  5
288
100
AcDbEntity
  8
KONSTRUKTIONSELEMENTE
100
AcDbLine
 62
7
  6
CONTINUOUS
 10
129.7688218214
 20
224.4528991642
 11
134.7688218214
 21
225.8076168526
  0
LINE
  5
289
100
AcDbEntity
  8
KONSTRUKTIONSELEMENTE
100
AcDbLine
 62
7
  6
CONTINUOUS
 10
100.1305239507
 20
216.4104587697
 11
95.7688218214
 21
215.4245044642
  0
LINE
  5
28A
100
AcDbEntity
  8
KONSTRUKTIONSELEMENTE
100
AcDbLine
 62
7
  6
CONTINUOUS
 10
95.7688218214
 20
215.0019526045
 11
100.7688218214
 21
216.1287575971
  0
LINE
  5
28B
100
AcDbEntity
  8
KONSTRUKTIONSELEMENTE
100
AcDbLine
 62
7
  6
CONTINUOUS
 10
131.7900984742
 20
221.7434637873
 11
131.258183644
 21
221.6587942649
  0
LINE
  5
28C
100
AcDbEntity
  8
KONSTRUKTIONSELEMENTE
100
AcDbLine
 62
7
  6
CONTINUOUS
 10
131.258183644
 20
221.2354447147
 11
131.8964814403
 21
221.3201147217
  0
LINE
  5
28D
100
AcDbEntity
  8
KONSTRUKTIONSELEMENTE
100
AcDbLine
 62
7
  6
CONTINUOUS
 10
130.6198855497
 20
217.5099716771
 11
134.7688218214
 21
217.5099716771
  0
LINE
  5
28E
100
AcDbEntity
  8
KONSTRUKTIONSELEMENTE
100
AcDbLine
 62
7
  6
CONTINUOUS
 10
134.7688218214
 20
218.0179907497
 11
129.7688218214
 21
218.0179907497
  0
LINE
  5
28F
100
AcDbEntity
  8
KONSTRUKTIONSELEMENTE
100
AcDbLine
 62
7
  6
CONTINUOUS
 10
131.7900984742
 20
218.6953494728
 11
132.7475451686
 21
218.6953494728
  0
LINE
  5
290
100
AcDbEntity
  8
KONSTRUKTIONSELEMENTE
100
AcDbLine
 62
7
  6
CONTINUOUS
 10
132.6411622026
 20
219.1186986596
 11
131.8964814403
 21
219.1186986596
  0
LINE
  5
291
100
AcDbEntity
  8
KONSTRUKTIONSELEMENTE
100
AcDbLine
 62
7
  6
CONTINUOUS
 10
97.0454177119
 20
223.9459666978
 11
96.7262685158
 21
224.0163925451
  0
LINE
  5
292
100
AcDbEntity
  8
KONSTRUKTIONSELEMENTE
100
AcDbLine
 62
7
  6
CONTINUOUS
 10
100.7688218214
 20
220.07257492
 11
95.7688218214
 21
221.1993800133
  0
LINE
  5
293
100
AcDbEntity
  8
KONSTRUKTIONSELEMENTE
100
AcDbLine
 62
7
  6
CONTINUOUS
 10
99.4922260799
 20
225.4953240537
 11
99.811374978
 21
225.3544731652
  0
LINE
  5
294
100
AcDbEntity
  8
KONSTRUKTIONSELEMENTE
100
AcDbLine
 62
7
  6
CONTINUOUS
 10
97.0454177119
 20
226.9742555624
 11
96.7262685158
 21
227.115105645
  0
LINE
  5
295
100
AcDbEntity
  8
KONSTRUKTIONSELEMENTE
100
AcDbLine
 62
7
  6
CONTINUOUS
 10
100.449672886
 20
225.4953240537
 11
100.0241409846
 21
225.7770250248
  0
LINE
  5
296
100
AcDbEntity
  8
KONSTRUKTIONSELEMENTE
100
AcDbLine
 62
7
  6
CONTINUOUS
 10
100.449672886
 20
228.8757381248
 11
100.0241409846
 21
229.1574399018
  0
LINE
  5
297
100
AcDbEntity
  8
KONSTRUKTIONSELEMENTE
100
AcDbLine
 62
7
  6
CONTINUOUS
 10
130.3007366516
 20
231.8191752325
 11
130.4071196177
 21
232.0731847688
  0
LINE
  5
298
100
AcDbEntity
  8
KONSTRUKTIONSELEMENTE
100
AcDbLine
 62
7
  6
CONTINUOUS
 10
130.1943536856
 20
221.1507751923
 11
129.8752047874
 21
220.7274258844
  0
LINE
  5
299
100
AcDbEntity
  8
KONSTRUKTIONSELEMENTE
100
AcDbLine
 62
7
  6
CONTINUOUS
 10
131.0454177119
 20
223.7755400777
 11
130.8326514818
 21
223.5215305414
  0
LINE
  5
29A
100
AcDbEntity
  8
KONSTRUKTIONSELEMENTE
100
AcDbLine
 62
7
  6
CONTINUOUS
 10
130.4071196177
 20
220.6427558774
 11
130.6198855497
 21
220.8967654137
  0
LINE
  5
29B
100
AcDbEntity
  8
KONSTRUKTIONSELEMENTE
100
AcDbLine
 62
7
  6
CONTINUOUS
 10
133.4922260799
 20
222.4208228738
 11
133.704992012
 21
222.6748324101
  0
LINE
  5
29C
100
AcDbEntity
  8
KONSTRUKTIONSELEMENTE
100
AcDbLine
 62
7
  6
CONTINUOUS
 10
134.0241409846
 20
219.0340288949
 11
134.34328992
 21
219.2880384312
  0
LINE
  5
29D
100
AcDbEntity
  8
KONSTRUKTIONSELEMENTE
100
AcDbLine
 62
7
  6
CONTINUOUS
 10
100.1305239507
 20
219.7908735459
 11
95.7688218214
 21
218.8049193411
  0
LINE
  5
29E
100
AcDbEntity
  8
KONSTRUKTIONSELEMENTE
100
AcDbLine
 62
7
  6
CONTINUOUS
 10
95.7688218214
 20
218.3823674815
 11
100.7688218214
 21
219.5091725748
  0
LINE
  5
29F
100
AcDbEntity
  8
KONSTRUKTIONSELEMENTE
100
AcDbLine
 62
7
  6
CONTINUOUS
 10
131.8964814403
 20
221.3201147217
 11
132.6411622026
 21
221.3201147217
  0
LINE
  5
2A0
100
AcDbEntity
  8
KONSTRUKTIONSELEMENTE
100
AcDbLine
 62
7
  6
CONTINUOUS
 10
132.7475451686
 20
221.7434637873
 11
131.7900984742
 21
221.7434637873
  0
LINE
  5
2A1
100
AcDbEntity
  8
KONSTRUKTIONSELEMENTE
100
AcDbLine
 62
7
  6
CONTINUOUS
 10
98.4283962705
 20
221.7627823585
 11
98.9603112497
 21
221.7627823585
  0
LINE
  5
2A2
100
AcDbEntity
  8
KONSTRUKTIONSELEMENTE
100
AcDbLine
 62
7
  6
CONTINUOUS
 10
98.9603112497
 20
222.7487369662
 11
98.4283962705
 21
222.7487369662
  0
LINE
  5
2A3
100
AcDbEntity
  8
KONSTRUKTIONSELEMENTE
100
AcDbLine
 62
7
  6
CONTINUOUS
 10
96.9390344479
 20
223.5234148382
 11
97.3645666101
 21
223.5234148382
  0
LINE
  5
2A4
100
AcDbEntity
  8
KONSTRUKTIONSELEMENTE
100
AcDbLine
 62
7
  6
CONTINUOUS
 10
97.258183644
 20
223.9459666978
 11
97.0454177119
 21
223.9459666978
  0
LINE
  5
2A5
100
AcDbEntity
  8
KONSTRUKTIONSELEMENTE
100
AcDbLine
 62
7
  6
CONTINUOUS
 10
96.9390344479
 20
226.5517037028
 11
97.4709495761
 21
226.4812778556
  0
LINE
  5
2A6
100
AcDbEntity
  8
KONSTRUKTIONSELEMENTE
100
AcDbLine
 62
7
  6
CONTINUOUS
 10
131.8964814403
 20
219.1186986596
 11
131.258183644
 21
219.2033686666
  0
LINE
  5
2A7
100
AcDbEntity
  8
KONSTRUKTIONSELEMENTE
100
AcDbLine
 62
7
  6
CONTINUOUS
 10
132.6411622026
 20
221.3201147217
 11
133.2794601478
 21
221.2354447147
  0
LINE
  5
2A8
100
AcDbEntity
  8
KONSTRUKTIONSELEMENTE
100
AcDbLine
 62
7
  6
CONTINUOUS
 10
131.258183644
 20
218.7800193586
 11
131.7900984742
 21
218.6953494728
  0
LINE
  5
2A9
100
AcDbEntity
  8
KONSTRUKTIONSELEMENTE
100
AcDbLine
 62
7
  6
CONTINUOUS
 10
96.5135025837
 20
223.5938406855
 11
96.9390344479
 21
223.5234148382
  0
LINE
  5
2AA
100
AcDbEntity
  8
KONSTRUKTIONSELEMENTE
100
AcDbLine
 62
7
  6
CONTINUOUS
 10
97.4709495761
 20
226.9038297152
 11
97.0454177119
 21
226.9742555624
  0
LINE
  5
2AB
100
AcDbEntity
  8
KONSTRUKTIONSELEMENTE
100
AcDbLine
 62
7
  6
CONTINUOUS
 10
130.9390344479
 20
218.8646892444
 11
131.258183644
 21
218.7800193586
  0
LINE
  5
2AC
100
AcDbEntity
  8
KONSTRUKTIONSELEMENTE
100
AcDbLine
 62
7
  6
CONTINUOUS
 10
96.5135025837
 20
226.6925537854
 11
96.9390344479
 21
226.5517037028
  0
LINE
  5
2AD
100
AcDbEntity
  8
KONSTRUKTIONSELEMENTE
100
AcDbLine
 62
7
  6
CONTINUOUS
 10
100.0241409846
 20
225.7770250248
 11
99.5986090459
 21
225.9178759134
  0
LINE
  5
2AE
100
AcDbEntity
  8
KONSTRUKTIONSELEMENTE
100
AcDbLine
 62
7
  6
CONTINUOUS
 10
125.5188218214
 20
170.0019526045
 11
125.5188218214
 21
233.0019526045
  0
LINE
  5
2AF
100
AcDbEntity
  8
KONSTRUKTIONSELEMENTE
100
AcDbLine
 62
7
  6
CONTINUOUS
 10
129.8752047874
 20
232.1578552602
 11
129.7688218214
 21
231.73450571
  0
LINE
  5
2B0
100
AcDbEntity
  8
KONSTRUKTIONSELEMENTE
100
AcDbLine
 62
7
  6
CONTINUOUS
 10
134.34328992
 20
219.2880384312
 11
134.6624388461
 21
219.7113877392
  0
LINE
  5
2B1
100
AcDbEntity
  8
KONSTRUKTIONSELEMENTE
100
AcDbLine
 62
7
  6
CONTINUOUS
 10
134.1305239507
 20
219.7960575038
 11
133.9177580186
 21
219.5420479675
  0
LINE
  5
2B2
100
AcDbEntity
  8
KONSTRUKTIONSELEMENTE
100
AcDbLine
 62
7
  6
CONTINUOUS
 10
130.6198855497
 20
232.2425247826
 11
130.9390344479
 21
232.3271943051
  0
LINE
  5
2B3
100
AcDbEntity
  8
KONSTRUKTIONSELEMENTE
100
AcDbLine
 62
7
  6
CONTINUOUS
 10
130.9390344479
 20
232.8352133777
 11
130.6198855497
 21
232.7505438552
  0
LINE
  5
2B4
100
AcDbEntity
  8
KONSTRUKTIONSELEMENTE
100
AcDbLine
 62
7
  6
CONTINUOUS
 10
99.704992012
 20
223.8051166153
 11
99.3858431139
 21
223.734690768
  0
LINE
  5
2B5
100
AcDbEntity
  8
KONSTRUKTIONSELEMENTE
100
AcDbLine
 62
7
  6
CONTINUOUS
 10
97.5773325421
 20
224.0163925451
 11
97.258183644
 21
223.9459666978
  0
LINE
  5
2B6
100
AcDbEntity
  8
KONSTRUKTIONSELEMENTE
100
AcDbLine
 62
7
  6
CONTINUOUS
 10
96.9390344479
 20
225.7065999836
 11
96.6198855497
 21
225.6361741363
  0
LINE
  5
2B7
100
AcDbEntity
  8
KONSTRUKTIONSELEMENTE
100
AcDbLine
 62
7
  6
CONTINUOUS
 10
99.3858431139
 20
223.3121389084
 11
99.811374978
 21
223.3825647556
  0
LINE
  5
2B8
100
AcDbEntity
  8
KONSTRUKTIONSELEMENTE
100
AcDbLine
 62
7
  6
CONTINUOUS
 10
97.3645666101
 20
223.5234148382
 11
97.7900984742
 21
223.5938406855
  0
LINE
  5
2B9
100
AcDbEntity
  8
KONSTRUKTIONSELEMENTE
100
AcDbLine
 62
7
  6
CONTINUOUS
 10
99.0666942157
 20
226.4812778556
 11
99.5986090459
 21
226.5517037028
  0
LINE
  5
2BA
100
AcDbEntity
  8
KONSTRUKTIONSELEMENTE
100
AcDbLine
 62
7
  6
CONTINUOUS
 10
99.1730771818
 20
225.4953240537
 11
99.4922260799
 21
225.4953240537
  0
LINE
  5
2BB
100
AcDbEntity
  8
KONSTRUKTIONSELEMENTE
100
AcDbLine
 62
7
  6
CONTINUOUS
 10
99.5986090459
 20
225.9178759134
 11
99.0666942157
 21
225.9178759134
  0
LINE
  5
2BC
100
AcDbEntity
  8
KONSTRUKTIONSELEMENTE
100
AcDbLine
 62
7
  6
CONTINUOUS
 10
97.4709495761
 20
226.4812778556
 11
99.0666942157
 21
226.4812778556
  0
LINE
  5
2BD
100
AcDbEntity
  8
KONSTRUKTIONSELEMENTE
100
AcDbLine
 62
7
  6
CONTINUOUS
 10
99.0666942157
 20
226.9038297152
 11
97.4709495761
 21
226.9038297152
  0
LINE
  5
2BE
100
AcDbEntity
  8
KONSTRUKTIONSELEMENTE
100
AcDbLine
 62
7
  6
CONTINUOUS
 10
129.7688218214
 20
228.5170512605
 11
134.7688218214
 21
228.5170512605
  0
LINE
  5
2BF
100
AcDbEntity
  8
KONSTRUKTIONSELEMENTE
100
AcDbLine
 62
7
  6
CONTINUOUS
 10
100.0241409846
 20
229.1574399018
 11
99.4922260799
 21
229.227865749
  0
LINE
  5
2C0
100
AcDbEntity
  8
KONSTRUKTIONSELEMENTE
100
AcDbLine
 62
7
  6
CONTINUOUS
 10
133.2794601478
 20
221.6587942649
 11
132.7475451686
 21
221.7434637873
  0
LINE
  5
2C1
100
AcDbEntity
  8
KONSTRUKTIONSELEMENTE
100
AcDbLine
 62
7
  6
CONTINUOUS
 10
99.4922260799
 20
228.8053138894
 11
99.811374978
 21
228.7348880422
  0
LINE
  5
2C2
100
AcDbEntity
  8
KONSTRUKTIONSELEMENTE
100
AcDbLine
 62
7
  6
CONTINUOUS
 10
133.5986090459
 20
221.574124258
 11
133.2794601478
 21
221.6587942649
  0
LINE
  5
2C3
100
AcDbEntity
  8
KONSTRUKTIONSELEMENTE
100
AcDbLine
 62
7
  6
CONTINUOUS
 10
130.5135025837
 20
219.0340288949
 11
130.9390344479
 21
218.8646892444
  0
LINE
  5
2C4
100
AcDbEntity
  8
KONSTRUKTIONSELEMENTE
100
AcDbLine
 62
7
  6
CONTINUOUS
 10
131.258183644
 20
219.2033686666
 11
130.6198855497
 21
219.5420479675
  0
LINE
  5
2C5
100
AcDbEntity
  8
KONSTRUKTIONSELEMENTE
100
AcDbLine
 62
7
  6
CONTINUOUS
 10
129.7688218214
 20
217.5099716771
 11
130.5135025837
 21
217.0019526045
  0
LINE
  5
2C6
100
AcDbEntity
  8
KONSTRUKTIONSELEMENTE
100
AcDbLine
 62
7
  6
CONTINUOUS
 10
131.3645666101
 20
217.0019526045
 11
130.6198855497
 21
217.5099716771
  0
LINE
  5
2C7
100
AcDbEntity
  8
KONSTRUKTIONSELEMENTE
100
AcDbLine
 62
7
  6
CONTINUOUS
 10
129.7688218214
 20
231.73450571
 11
129.7688218214
 21
229.7024294196
  0
LINE
  5
2C8
100
AcDbEntity
  8
KONSTRUKTIONSELEMENTE
100
AcDbLine
 62
7
  6
CONTINUOUS
 10
129.7688218214
 20
229.0250703331
 11
129.7688218214
 21
228.5170512605
  0
LINE
  5
2C9
100
AcDbEntity
  8
KONSTRUKTIONSELEMENTE
100
AcDbLine
 62
7
  6
CONTINUOUS
 10
129.7688218214
 20
227.839693143
 11
129.7688218214
 21
227.3316740704
  0
LINE
  5
2CA
100
AcDbEntity
  8
KONSTRUKTIONSELEMENTE
100
AcDbLine
 62
7
  6
CONTINUOUS
 10
129.7688218214
 20
224.9609182368
 11
129.7688218214
 21
224.4528991642
  0
LINE
  5
2CB
100
AcDbEntity
  8
KONSTRUKTIONSELEMENTE
100
AcDbLine
 62
7
  6
CONTINUOUS
 10
129.7688218214
 20
218.0179907497
 11
129.7688218214
 21
217.5099716771
  0
LINE
  5
2CC
100
AcDbEntity
  8
KONSTRUKTIONSELEMENTE
100
AcDbLine
 62
7
  6
CONTINUOUS
 10
130.3007366516
 20
230.2104484922
 11
130.3007366516
 21
231.8191752325
  0
LINE
  5
2CD
100
AcDbEntity
  8
KONSTRUKTIONSELEMENTE
100
AcDbLine
 62
7
  6
CONTINUOUS
 10
129.8752047874
 20
220.7274258844
 11
129.7688218214
 21
220.2194068118
  0
LINE
  5
2CE
100
AcDbEntity
  8
KONSTRUKTIONSELEMENTE
100
AcDbLine
 62
7
  6
CONTINUOUS
 10
130.3007366516
 20
220.2194068118
 11
130.4071196177
 21
220.6427558774
  0
LINE
  5
2CF
100
AcDbEntity
  8
KONSTRUKTIONSELEMENTE
100
AcDbLine
 62
7
  6
CONTINUOUS
 10
96.7262685158
 20
228.7348880422
 11
97.0454177119
 21
228.8053138894
  0
LINE
  5
2D0
100
AcDbEntity
  8
KONSTRUKTIONSELEMENTE
100
AcDbLine
 62
7
  6
CONTINUOUS
 10
99.4922260799
 20
226.9742555624
 11
99.0666942157
 21
226.9038297152
  0
LINE
  5
2D1
100
AcDbEntity
  8
KONSTRUKTIONSELEMENTE
100
AcDbLine
 62
7
  6
CONTINUOUS
 10
97.0454177119
 20
229.227865749
 11
96.5135025837
 21
229.1574399018
  0
LINE
  5
2D2
100
AcDbEntity
  8
KONSTRUKTIONSELEMENTE
100
AcDbLine
 62
7
  6
CONTINUOUS
 10
134.7688218214
 20
229.0250703331
 11
129.7688218214
 21
229.0250703331
  0
LINE
  5
2D3
100
AcDbEntity
  8
KONSTRUKTIONSELEMENTE
100
AcDbLine
 62
7
  6
CONTINUOUS
 10
129.7688218214
 20
229.7024294196
 11
134.7688218214
 21
229.7024294196
  0
LINE
  5
2D4
100
AcDbEntity
  8
KONSTRUKTIONSELEMENTE
100
AcDbLine
 62
7
  6
CONTINUOUS
 10
95.7688218214
 20
229.7912676912
 11
100.7688218214
 21
229.7912676912
  0
LINE
  5
2D5
100
AcDbEntity
  8
KONSTRUKTIONSELEMENTE
100
AcDbLine
 62
7
  6
CONTINUOUS
 10
134.7688218214
 20
230.2104484922
 11
132.5347792365
 21
230.2104484922
  0
LINE
  5
2D6
100
AcDbEntity
  8
KONSTRUKTIONSELEMENTE
100
AcDbLine
 62
7
  6
CONTINUOUS
 10
131.8964814403
 20
230.2104484922
 11
130.3007366516
 21
230.2104484922
  0
LINE
  5
2D7
100
AcDbEntity
  8
KONSTRUKTIONSELEMENTE
100
AcDbLine
 62
7
  6
CONTINUOUS
 10
100.7688218214
 20
230.2138195509
 11
98.4283962705
 21
230.2138195509
  0
LINE
  5
2D8
100
AcDbEntity
  8
KONSTRUKTIONSELEMENTE
100
AcDbLine
 62
7
  6
CONTINUOUS
 10
97.7900984742
 20
230.2138195509
 11
95.7688218214
 21
230.2138195509
  0
LINE
  5
2D9
100
AcDbEntity
  8
KONSTRUKTIONSELEMENTE
100
AcDbLine
 62
7
  6
CONTINUOUS
 10
95.7688218214
 20
232.1857287664
 11
97.7900984742
 21
232.1857287664
  0
LINE
  5
2DA
100
AcDbEntity
  8
KONSTRUKTIONSELEMENTE
100
AcDbLine
 62
7
  6
CONTINUOUS
 10
98.4283962705
 20
232.1857287664
 11
100.7688218214
 21
232.1857287664
  0
LINE
  5
2DB
100
AcDbEntity
  8
KONSTRUKTIONSELEMENTE
100
AcDbLine
 62
7
  6
CONTINUOUS
 10
134.7688218214
 20
226.4849749701
 11
129.7688218214
 21
227.839693143
  0
LINE
  5
2DC
100
AcDbEntity
  8
KONSTRUKTIONSELEMENTE
100
AcDbLine
 62
7
  6
CONTINUOUS
 10
129.7688218214
 20
227.3316740704
 11
134.1305239507
 21
226.1462959114
  0
LINE
  5
2DD
100
AcDbEntity
  8
KONSTRUKTIONSELEMENTE
100
AcDbLine
 62
7
  6
CONTINUOUS
 10
134.0241409846
 20
221.4047847286
 11
133.5986090459
 21
221.574124258
  0
LINE
  5
2DE
100
AcDbEntity
  8
KONSTRUKTIONSELEMENTE
100
AcDbLine
 62
7
  6
CONTINUOUS
 10
130.8326514818
 20
223.5215305414
 11
133.4922260799
 21
222.4208228738
  0
LINE
  5
2DF
100
AcDbEntity
  8
KONSTRUKTIONSELEMENTE
100
AcDbLine
 62
7
  6
CONTINUOUS
 10
133.704992012
 20
222.6748324101
 11
131.0454177119
 21
223.7755400777
  0
LINE
  5
2E0
100
AcDbEntity
  8
KONSTRUKTIONSELEMENTE
100
AcDbLine
 62
7
  6
CONTINUOUS
 10
133.2794601478
 20
221.2354447147
 11
133.9177580186
 21
220.8967654137
  0
LINE
  5
2E1
100
AcDbEntity
  8
KONSTRUKTIONSELEMENTE
100
AcDbLine
 62
7
  6
CONTINUOUS
 10
130.1943536856
 20
219.2880384312
 11
130.5135025837
 21
219.0340288949
  0
LINE
  5
2E2
100
AcDbEntity
  8
KONSTRUKTIONSELEMENTE
100
AcDbLine
 62
7
  6
CONTINUOUS
 10
130.6198855497
 20
219.5420479675
 11
130.4071196177
 21
219.7960575038
  0
LINE
  5
2E3
100
AcDbEntity
  8
KONSTRUKTIONSELEMENTE
100
AcDbLine
 62
7
  6
CONTINUOUS
 10
129.8752047874
 20
219.7113877392
 11
130.1943536856
 21
219.2880384312
  0
LINE
  5
2E4
100
AcDbEntity
  8
KONSTRUKTIONSELEMENTE
100
AcDbLine
 62
7
  6
CONTINUOUS
 10
131.8964814403
 20
231.8191752325
 11
131.8964814403
 21
230.2104484922
  0
LINE
  5
2E5
100
AcDbEntity
  8
KONSTRUKTIONSELEMENTE
100
AcDbLine
 62
7
  6
CONTINUOUS
 10
132.5347792365
 20
230.2104484922
 11
132.5347792365
 21
231.73450571
  0
LINE
  5
2E6
100
AcDbEntity
  8
KONSTRUKTIONSELEMENTE
100
AcDbLine
 62
7
  6
CONTINUOUS
 10
134.6624388461
 20
219.7113877392
 11
134.7688218214
 21
220.2194068118
  0
LINE
  5
2E7
100
AcDbEntity
  8
KONSTRUKTIONSELEMENTE
100
AcDbLine
 62
7
  6
CONTINUOUS
 10
134.2369069167
 20
220.2194068118
 11
134.1305239507
 21
219.7960575038
  0
LINE
  5
2E8
100
AcDbEntity
  8
KONSTRUKTIONSELEMENTE
100
AcDbLine
 62
7
  6
CONTINUOUS
 10
130.9390344479
 20
232.3271943051
 11
131.258183644
 21
232.3271943051
  0
LINE
  5
2E9
100
AcDbEntity
  8
KONSTRUKTIONSELEMENTE
100
AcDbLine
 62
7
  6
CONTINUOUS
 10
100.7688218214
 20
232.608280626
 11
95.7688218214
 21
232.608280626
  0
LINE
  5
2EA
100
AcDbEntity
  8
KONSTRUKTIONSELEMENTE
100
AcDbLine
 62
7
  6
CONTINUOUS
 10
131.3645666101
 20
232.8352133777
 11
130.9390344479
 21
232.8352133777
  0
LINE
  5
2EB
100
AcDbEntity
  8
KONSTRUKTIONSELEMENTE
100
AcDbLine
 62
7
  6
CONTINUOUS
 10
134.34328992
 20
221.1507751923
 11
134.0241409846
 21
221.4047847286
  0
LINE
  5
2EC
100
AcDbEntity
  8
KONSTRUKTIONSELEMENTE
100
AcDbLine
 62
7
  6
CONTINUOUS
 10
133.9177580186
 20
220.8967654137
 11
134.1305239507
 21
220.6427558774
  0
LINE
  5
2ED
100
AcDbEntity
  8
KONSTRUKTIONSELEMENTE
100
AcDbLine
 62
7
  6
CONTINUOUS
 10
130.4071196177
 20
219.7960575038
 11
130.3007366516
 21
220.2194068118
  0
LINE
  5
2EE
100
AcDbEntity
  8
KONSTRUKTIONSELEMENTE
100
AcDbLine
 62
7
  6
CONTINUOUS
 10
129.7688218214
 20
220.2194068118
 11
129.8752047874
 21
219.7113877392
  0
LINE
  5
2EF
100
AcDbEntity
  8
KONSTRUKTIONSELEMENTE
100
AcDbLine
 62
7
  6
CONTINUOUS
 10
134.7688218214
 20
217.5099716771
 11
134.7688218214
 21
218.0179907497
  0
LINE
  5
2F0
100
AcDbEntity
  8
KONSTRUKTIONSELEMENTE
100
AcDbLine
 62
7
  6
CONTINUOUS
 10
134.7688218214
 20
225.8076168526
 11
134.7688218214
 21
226.4849749701
  0
LINE
  5
2F1
100
AcDbEntity
  8
KONSTRUKTIONSELEMENTE
100
AcDbLine
 62
7
  6
CONTINUOUS
 10
134.7688218214
 20
228.5170512605
 11
134.7688218214
 21
229.0250703331
  0
LINE
  5
2F2
100
AcDbEntity
  8
KONSTRUKTIONSELEMENTE
100
AcDbLine
 62
7
  6
CONTINUOUS
 10
134.7688218214
 20
229.7024294196
 11
134.7688218214
 21
230.2104484922
  0
LINE
  5
2F3
100
AcDbEntity
  8
KONSTRUKTIONSELEMENTE
100
AcDbLine
 62
7
  6
CONTINUOUS
 10
137.5188218214
 20
174.15131971
 11
137.5188218214
 21
200.5804142309
  0
LINE
  5
2F4
100
AcDbEntity
  8
KONSTRUKTIONSELEMENTE
100
AcDbLine
 62
7
  6
CONTINUOUS
 10
131.258183644
 20
232.3271943051
 11
131.5773325421
 21
232.2425247826
  0
LINE
  5
2F5
100
AcDbEntity
  8
KONSTRUKTIONSELEMENTE
100
AcDbLine
 62
7
  6
CONTINUOUS
 10
131.6837155082
 20
232.7505438552
 11
131.3645666101
 21
232.8352133777
  0
LINE
  5
2F6
100
AcDbEntity
  8
KONSTRUKTIONSELEMENTE
100
AcDbLine
 62
7
  6
CONTINUOUS
 10
134.6624388461
 20
220.7274258844
 11
134.34328992
 21
221.1507751923
  0
LINE
  5
2F7
100
AcDbEntity
  8
KONSTRUKTIONSELEMENTE
100
AcDbLine
 62
7
  6
CONTINUOUS
 10
131.7900984742
 20
232.0731847688
 11
131.8964814403
 21
231.8191752325
  0
LINE
  5
2F8
100
AcDbEntity
  8
KONSTRUKTIONSELEMENTE
100
AcDbLine
 62
7
  6
CONTINUOUS
 10
134.1305239507
 20
220.6427558774
 11
134.2369069167
 21
220.2194068118
  0
LINE
  5
2F9
100
AcDbEntity
  8
KONSTRUKTIONSELEMENTE
100
AcDbLine
 62
7
  6
CONTINUOUS
 10
132.5347792365
 20
231.73450571
 11
132.4283962705
 21
232.1578552602
  0
LINE
  5
2FA
100
AcDbEntity
  8
KONSTRUKTIONSELEMENTE
100
AcDbLine
 62
7
  6
CONTINUOUS
 10
134.7688218214
 20
220.2194068118
 11
134.6624388461
 21
220.7274258844
  0
LINE
  5
2FB
100
AcDbEntity
  8
KONSTRUKTIONSELEMENTE
100
AcDbLine
 62
7
  6
CONTINUOUS
 10
138.5188218214
 20
209.0019526045
 11
138.5188218214
 21
233.0019526045
  0
LINE
  5
2FC
100
AcDbEntity
  8
KONSTRUKTIONSELEMENTE
100
AcDbLine
 62
7
  6
CONTINUOUS
 10
115.5188218214
 20
243.0019526045
 11
114.5188218214
 21
243.0019526045
  0
LINE
  5
2FD
100
AcDbEntity
  8
KONSTRUKTIONSELEMENTE
100
AcDbLine
 62
7
  6
CONTINUOUS
 10
132.1092473723
 20
232.4965343189
 11
131.6837155082
 21
232.7505438552
  0
LINE
  5
2FE
100
AcDbEntity
  8
KONSTRUKTIONSELEMENTE
100
AcDbLine
 62
7
  6
CONTINUOUS
 10
131.5773325421
 20
232.2425247826
 11
131.7900984742
 21
232.0731847688
  0
LINE
  5
2FF
100
AcDbEntity
  8
KONSTRUKTIONSELEMENTE
100
AcDbLine
 62
7
  6
CONTINUOUS
 10
132.4283962705
 20
232.1578552602
 11
132.1092473723
 21
232.4965343189
  0
LINE
  5
300
100
AcDbEntity
  8
KONSTRUKTIONSELEMENTE
100
AcDbLine
 62
7
  6
CONTINUOUS
 10
147.5188218214
 20
170.0019526045
 11
147.5188218214
 21
201.0019526045
  0
LINE
  5
301
100
AcDbEntity
  8
KONSTRUKTIONSELEMENTE
100
AcDbLine
 62
7
  6
CONTINUOUS
 10
115.5188218214
 20
256.0019526045
 11
114.5188218214
 21
256.0019526045
  0
LINE
  5
302
100
AcDbEntity
  8
KONSTRUKTIONSELEMENTE
100
AcDbLine
 62
7
  6
CONTINUOUS
 10
222.6197018942
 20
170.0019526045
 11
220.6197018942
 21
170.0019526045
  0
LINE
  5
303
100
AcDbEntity
  8
KONSTRUKTIONSELEMENTE
100
AcDbLine
 62
7
  6
CONTINUOUS
 10
218.6197018942
 20
173.0019526045
 11
224.6197018942
 21
173.0019526045
  0
LINE
  5
304
100
AcDbEntity
  8
KONSTRUKTIONSELEMENTE
100
AcDbLine
 62
7
  6
CONTINUOUS
 10
209.6197018942
 20
178.1981050272
 11
218.6197018942
 21
173.0019526045
  0
LINE
  5
305
100
AcDbEntity
  8
BEZUGSACHSEN
100
AcDbLine
 62
2
  6
CENTER
 10
221.6197018942
 20
186.0019526045
 11
210.6197018942
 21
186.0019526045
  0
LINE
  5
306
100
AcDbEntity
  8
BEZUGSACHSEN
100
AcDbLine
 62
2
  6
CENTER
 10
210.6197018942
 20
186.0019526045
 11
210.1197018942
 21
186.0019526045
  0
LINE
  5
307
100
AcDbEntity
  8
BEZUGSACHSEN
100
AcDbLine
 62
2
  6
CENTER
 10
221.6197018942
 20
186.0019526045
 11
232.6197018942
 21
186.0019526045
  0
LINE
  5
308
100
AcDbEntity
  8
BEZUGSACHSEN
100
AcDbLine
 62
2
  6
CENTER
 10
232.6197018942
 20
186.0019526045
 11
233.1197018942
 21
186.0019526045
  0
LINE
  5
309
100
AcDbEntity
  8
KONSTRUKTIONSELEMENTE
100
AcDbLine
 62
7
  6
CONTINUOUS
 10
204.6197018942
 20
186.0019526045
 11
204.6197018942
 21
197.0019526045
  0
LINE
  5
30A
100
AcDbEntity
  8
KONSTRUKTIONSELEMENTE
100
AcDbLine
 62
7
  6
CONTINUOUS
 10
209.6197018942
 20
193.5171250472
 11
209.6197018942
 21
178.1981050272
  0
LINE
  5
30B
100
AcDbEntity
  8
KONSTRUKTIONSELEMENTE
100
AcDbLine
 62
7
  6
CONTINUOUS
 10
218.6197018942
 20
199.0019526045
 11
224.6197018942
 21
199.0019526045
  0
LINE
  5
30C
100
AcDbEntity
  8
KONSTRUKTIONSELEMENTE
100
AcDbLine
 62
7
  6
CONTINUOUS
 10
208.6197018942
 20
201.0019526045
 11
208.6582204974
 21
201.0019526045
  0
LINE
  5
30D
100
AcDbEntity
  8
KONSTRUKTIONSELEMENTE
100
AcDbLine
 62
7
  6
CONTINUOUS
 10
234.581183291
 20
201.0019526045
 11
234.6197018942
 21
201.0019526045
  0
LWPOLYLINE
  5
30E
100
AcDbEntity
  8
KONSTRUKTIONSELEMENTE
100
AcDbPolyline
 62
7
  6
CONTINUOUS
 90
13
 70
0
 10
208.1026327796
 20
201.0619523884
 10
207.8626326317
 20
201.0237452369
 10
207.3767934111
 20
200.8980394909
 10
206.9105128721
 20
200.7124875101
 10
206.4711334504
 20
200.4700095314
 10
206.0655730973
 20
200.1744225591
 10
205.7002169937
 20
199.8303803251
 10
205.3808168782
 20
199.4432999056
 10
205.1124003567
 20
199.0192762848
 10
204.8991916288
 20
198.5649861902
 10
204.7445449085
 20
198.0875826999
 10
204.650891758
 20
197.5945833083
 10
204.6197016501
 20
197.0960363842
  0
LINE
  5
30F
100
AcDbEntity
  8
KONSTRUKTIONSELEMENTE
100
AcDbLine
 62
7
  6
CONTINUOUS
 10
233.6197018942
 20
193.5171250472
 11
224.6197018942
 21
198.7132774699
  0
LINE
  5
310
100
AcDbEntity
  8
KONSTRUKTIONSELEMENTE
100
AcDbLine
 62
7
  6
CONTINUOUS
 10
215.1197018942
 20
249.5019526045
 11
215.1197018942
 21
209.0019526045
  0
LINE
  5
311
100
AcDbEntity
  8
KONSTRUKTIONSELEMENTE
100
AcDbLine
 62
7
  6
CONTINUOUS
 10
218.6197018942
 20
199.0019526045
 11
218.6197018942
 21
173.0019526045
  0
LINE
  5
312
100
AcDbEntity
  8
TEIL_STARTBEZUEGE
100
AcDbLine
 62
2
  6
CENTER
 10
221.6197018942
 20
243.0019526045
 11
221.6197018942
 21
173.3601190476
  0
LINE
  5
313
100
AcDbEntity
  8
BEZUGSACHSEN
100
AcDbLine
 62
2
  6
CENTER
 10
221.6197018942
 20
186.0019526045
 11
221.6197018942
 21
175.0019526045
  0
LINE
  5
314
100
AcDbEntity
  8
BEZUGSACHSEN
100
AcDbLine
 62
2
  6
CENTER
 10
221.6197018942
 20
175.0019526045
 11
221.6197018942
 21
174.5019526045
  0
LINE
  5
315
100
AcDbEntity
  8
BEZUGSACHSEN
100
AcDbLine
 62
2
  6
CENTER
 10
221.6197018942
 20
186.0019526045
 11
221.6197018942
 21
197.0019526045
  0
LINE
  5
316
100
AcDbEntity
  8
BEZUGSACHSEN
100
AcDbLine
 62
2
  6
CENTER
 10
221.6197018942
 20
197.0019526045
 11
221.6197018942
 21
197.5019526045
  0
LINE
  5
317
100
AcDbEntity
  8
TEIL_STARTBEZUEGE
100
AcDbLine
 62
2
  6
CENTER
 10
221.6197018942
 20
243.0019526045
 11
221.6197018942
 21
258.5029761905
  0
LINE
  5
318
100
AcDbEntity
  8
KONSTRUKTIONSELEMENTE
100
AcDbLine
 62
7
  6
CONTINUOUS
 10
224.6197018942
 20
199.0019526045
 11
224.6197018942
 21
173.0019526045
  0
LINE
  5
319
100
AcDbEntity
  8
KONSTRUKTIONSELEMENTE
100
AcDbLine
 62
7
  6
CONTINUOUS
 10
227.717857353
 20
215.0019526045
 11
228.3697018942
 21
215.0019526045
  0
LINE
  5
31A
100
AcDbEntity
  8
KONSTRUKTIONSELEMENTE
100
AcDbLine
 62
7
  6
CONTINUOUS
 10
227.717857353
 20
230.2138195509
 11
227.717857353
 21
229.7912676912
  0
LINE
  5
31B
100
AcDbEntity
  8
KONSTRUKTIONSELEMENTE
100
AcDbLine
 62
7
  6
CONTINUOUS
 10
227.717857353
 20
221.1993800133
 11
227.717857353
 21
220.7768281537
  0
LINE
  5
31C
100
AcDbEntity
  8
KONSTRUKTIONSELEMENTE
100
AcDbLine
 62
7
  6
CONTINUOUS
 10
227.717857353
 20
218.8049193411
 11
227.717857353
 21
218.3823674815
  0
LINE
  5
31D
100
AcDbEntity
  8
KONSTRUKTIONSELEMENTE
100
AcDbLine
 62
7
  6
CONTINUOUS
 10
227.717857353
 20
217.8189649348
 11
227.717857353
 21
217.3964130752
  0
LINE
  5
31E
100
AcDbEntity
  8
KONSTRUKTIONSELEMENTE
100
AcDbLine
 62
7
  6
CONTINUOUS
 10
227.717857353
 20
215.4245044642
 11
227.717857353
 21
215.0019526045
  0
LINE
  5
31F
100
AcDbEntity
  8
KONSTRUKTIONSELEMENTE
100
AcDbLine
 62
7
  6
CONTINUOUS
 10
227.717857353
 20
224.4389444047
 11
227.717857353
 21
224.7910704171
  0
LINE
  5
320
100
AcDbEntity
  8
KONSTRUKTIONSELEMENTE
100
AcDbLine
 62
7
  6
CONTINUOUS
 10
227.717857353
 20
227.6080833518
 11
227.717857353
 21
228.2419111413
  0
LINE
  5
321
100
AcDbEntity
  8
KONSTRUKTIONSELEMENTE
100
AcDbLine
 62
7
  6
CONTINUOUS
 10
227.717857353
 20
232.1857287664
 11
227.717857353
 21
232.608280626
  0
LINE
  5
322
100
AcDbEntity
  8
KONSTRUKTIONSELEMENTE
100
AcDbLine
 62
7
  6
CONTINUOUS
 10
228.1156764655
 20
230.2138195509
 11
228.1156764655
 21
232.1857287664
  0
LINE
  5
323
100
AcDbEntity
  8
KONSTRUKTIONSELEMENTE
100
AcDbLine
 62
7
  6
CONTINUOUS
 10
228.1197018942
 20
249.5019526045
 11
228.1197018942
 21
232.608280626
  0
LINE
  5
324
100
AcDbEntity
  8
KONSTRUKTIONSELEMENTE
100
AcDbLine
 62
7
  6
CONTINUOUS
 10
228.1197018942
 20
229.7912676912
 11
228.1197018942
 21
229.227865749
  0
LINE
  5
325
100
AcDbEntity
  8
KONSTRUKTIONSELEMENTE
100
AcDbLine
 62
7
  6
CONTINUOUS
 10
228.1197018942
 20
226.4812778556
 11
228.1197018942
 21
225.7065999836
  0
LINE
  5
326
100
AcDbEntity
  8
KONSTRUKTIONSELEMENTE
100
AcDbLine
 62
7
  6
CONTINUOUS
 10
228.1197018942
 20
223.5234148382
 11
228.1197018942
 21
221.1993800133
  0
LINE
  5
327
100
AcDbEntity
  8
KONSTRUKTIONSELEMENTE
100
AcDbLine
 62
7
  6
CONTINUOUS
 10
228.1197018942
 20
220.268285959
 11
228.1197018942
 21
219.3134613279
  0
LINE
  5
328
100
AcDbEntity
  8
KONSTRUKTIONSELEMENTE
100
AcDbLine
 62
7
  6
CONTINUOUS
 10
228.1197018942
 20
218.3823674815
 11
228.1197018942
 21
217.8189649348
  0
LINE
  5
329
100
AcDbEntity
  8
KONSTRUKTIONSELEMENTE
100
AcDbLine
 62
7
  6
CONTINUOUS
 10
228.1197018942
 20
216.8878710364
 11
228.1197018942
 21
215.9330465029
  0
LINE
  5
32A
100
AcDbEntity
  8
KONSTRUKTIONSELEMENTE
100
AcDbLine
 62
7
  6
CONTINUOUS
 10
228.1197018942
 20
215.0019526045
 11
228.1197018942
 21
209.0019526045
  0
LINE
  5
32B
100
AcDbEntity
  8
KONSTRUKTIONSELEMENTE
100
AcDbLine
 62
7
  6
CONTINUOUS
 10
227.717857353
 20
217.8189649348
 11
228.3697018942
 21
217.8189649348
  0
LINE
  5
32C
100
AcDbEntity
  8
KONSTRUKTIONSELEMENTE
100
AcDbLine
 62
7
  6
CONTINUOUS
 10
228.1197018942
 20
218.0179907497
 11
228.3697018942
 21
218.0179907497
  0
LINE
  5
32D
100
AcDbEntity
  8
KONSTRUKTIONSELEMENTE
100
AcDbLine
 62
7
  6
CONTINUOUS
 10
227.717857353
 20
218.3823674815
 11
228.3697018942
 21
218.3823674815
  0
LINE
  5
32E
100
AcDbEntity
  8
KONSTRUKTIONSELEMENTE
100
AcDbLine
 62
7
  6
CONTINUOUS
 10
228.3697018942
 20
232.8352133777
 11
228.3697018942
 21
229.7024294196
  0
LINE
  5
32F
100
AcDbEntity
  8
KONSTRUKTIONSELEMENTE
100
AcDbLine
 62
7
  6
CONTINUOUS
 10
228.3697018942
 20
229.227865749
 11
228.3697018942
 21
221.7627823585
  0
LINE
  5
330
100
AcDbEntity
  8
KONSTRUKTIONSELEMENTE
100
AcDbLine
 62
7
  6
CONTINUOUS
 10
228.3697018942
 20
221.7434637873
 11
228.3697018942
 21
218.3823674815
  0
LINE
  5
331
100
AcDbEntity
  8
KONSTRUKTIONSELEMENTE
100
AcDbLine
 62
7
  6
CONTINUOUS
 10
228.3697018942
 20
218.0179907497
 11
228.3697018942
 21
215.0019526045
  0
LINE
  5
332
100
AcDbEntity
  8
KONSTRUKTIONSELEMENTE
100
AcDbLine
 62
7
  6
CONTINUOUS
 10
227.717857353
 20
221.1993800133
 11
228.3697018942
 21
221.1993800133
  0
LINE
  5
333
100
AcDbEntity
  8
KONSTRUKTIONSELEMENTE
100
AcDbLine
 62
7
  6
CONTINUOUS
 10
228.1197018942
 20
221.4047847286
 11
228.3697018942
 21
221.4047847286
  0
LINE
  5
334
100
AcDbEntity
  8
KONSTRUKTIONSELEMENTE
100
AcDbLine
 62
7
  6
CONTINUOUS
 10
228.1197018942
 20
221.574124258
 11
228.3697018942
 21
221.574124258
  0
LINE
  5
335
100
AcDbEntity
  8
KONSTRUKTIONSELEMENTE
100
AcDbLine
 62
7
  6
CONTINUOUS
 10
228.1197018942
 20
221.6587942649
 11
228.3697018942
 21
221.6587942649
  0
LINE
  5
336
100
AcDbEntity
  8
KONSTRUKTIONSELEMENTE
100
AcDbLine
 62
7
  6
CONTINUOUS
 10
228.1156764655
 20
221.7434637873
 11
228.3697018942
 21
221.7434637873
  0
LINE
  5
337
100
AcDbEntity
  8
KONSTRUKTIONSELEMENTE
100
AcDbLine
 62
7
  6
CONTINUOUS
 10
228.1067851194
 20
221.7627823585
 11
228.3697018942
 21
221.7627823585
  0
LINE
  5
338
100
AcDbEntity
  8
KONSTRUKTIONSELEMENTE
100
AcDbLine
 62
7
  6
CONTINUOUS
 10
233.6197018942
 20
178.1981050272
 11
233.6197018942
 21
193.5171250472
  0
LINE
  5
339
100
AcDbEntity
  8
KONSTRUKTIONSELEMENTE
100
AcDbLine
 62
7
  6
CONTINUOUS
 10
218.6197018942
 20
198.7132774699
 11
209.6197018942
 21
193.5171250472
  0
LINE
  5
33A
100
AcDbEntity
  8
KONSTRUKTIONSELEMENTE
100
AcDbLine
 62
7
  6
CONTINUOUS
 10
228.1197018942
 20
223.3121389084
 11
228.3697018942
 21
223.3121389084
  0
LINE
  5
33B
100
AcDbEntity
  8
KONSTRUKTIONSELEMENTE
100
AcDbLine
 62
7
  6
CONTINUOUS
 10
228.0293866936
 20
223.5234148382
 11
228.3697018942
 21
223.5234148382
  0
LINE
  5
33C
100
AcDbEntity
  8
KONSTRUKTIONSELEMENTE
100
AcDbLine
 62
7
  6
CONTINUOUS
 10
227.9429932834
 20
223.5938406855
 11
228.3697018942
 21
223.5938406855
  0
LINE
  5
33D
100
AcDbEntity
  8
KONSTRUKTIONSELEMENTE
100
AcDbLine
 62
7
  6
CONTINUOUS
 10
227.8262962923
 20
223.8755416566
 11
228.3697018942
 21
223.8755416566
  0
LINE
  5
33E
100
AcDbEntity
  8
KONSTRUKTIONSELEMENTE
100
AcDbLine
 62
7
  6
CONTINUOUS
 10
227.7560612393
 20
224.1572426276
 11
228.3697018942
 21
224.1572426276
  0
LINE
  5
33F
100
AcDbEntity
  8
KONSTRUKTIONSELEMENTE
100
AcDbLine
 62
7
  6
CONTINUOUS
 10
227.717857353
 20
224.4389444047
 11
228.3697018942
 21
224.4389444047
  0
LINE
  5
340
100
AcDbEntity
  8
KONSTRUKTIONSELEMENTE
100
AcDbLine
 62
7
  6
CONTINUOUS
 10
227.717857353
 20
224.7910704171
 11
228.3697018942
 21
224.7910704171
  0
LINE
  5
341
100
AcDbEntity
  8
KONSTRUKTIONSELEMENTE
100
AcDbLine
 62
7
  6
CONTINUOUS
 10
227.7560612393
 20
225.1431972354
 11
228.3697018942
 21
225.1431972354
  0
LINE
  5
342
100
AcDbEntity
  8
KONSTRUKTIONSELEMENTE
100
AcDbLine
 62
7
  6
CONTINUOUS
 10
227.8583969518
 20
225.4248982065
 11
228.3697018942
 21
225.4248982065
  0
LINE
  5
343
100
AcDbEntity
  8
KONSTRUKTIONSELEMENTE
100
AcDbLine
 62
7
  6
CONTINUOUS
 10
227.9673768471
 20
225.6361741363
 11
228.3697018942
 21
225.6361741363
  0
LINE
  5
344
100
AcDbEntity
  8
KONSTRUKTIONSELEMENTE
100
AcDbLine
 62
7
  6
CONTINUOUS
 10
228.0293866936
 20
225.7065999836
 11
228.3697018942
 21
225.7065999836
  0
LINE
  5
345
100
AcDbEntity
  8
KONSTRUKTIONSELEMENTE
100
AcDbLine
 62
7
  6
CONTINUOUS
 10
228.1197018942
 20
225.7770250248
 11
228.3697018942
 21
225.7770250248
  0
LINE
  5
346
100
AcDbEntity
  8
KONSTRUKTIONSELEMENTE
100
AcDbLine
 62
7
  6
CONTINUOUS
 10
228.1197018942
 20
225.9178759134
 11
228.3697018942
 21
225.9178759134
  0
LINE
  5
347
100
AcDbEntity
  8
KONSTRUKTIONSELEMENTE
100
AcDbLine
 62
7
  6
CONTINUOUS
 10
228.1197018942
 20
226.1462959114
 11
228.3697018942
 21
226.1462959114
  0
LINE
  5
348
100
AcDbEntity
  8
KONSTRUKTIONSELEMENTE
100
AcDbLine
 62
7
  6
CONTINUOUS
 10
228.0965711999
 20
226.4812778556
 11
228.3697018942
 21
226.4812778556
  0
LINE
  5
349
100
AcDbEntity
  8
KONSTRUKTIONSELEMENTE
100
AcDbLine
 62
7
  6
CONTINUOUS
 10
228.0293866936
 20
226.5517037028
 11
228.3697018942
 21
226.5517037028
  0
LINE
  5
34A
100
AcDbEntity
  8
KONSTRUKTIONSELEMENTE
100
AcDbLine
 62
7
  6
CONTINUOUS
 10
227.9429932834
 20
226.6925537854
 11
228.3697018942
 21
226.6925537854
  0
LINE
  5
34B
100
AcDbEntity
  8
KONSTRUKTIONSELEMENTE
100
AcDbLine
 62
7
  6
CONTINUOUS
 10
227.8262962923
 20
226.9742555624
 11
228.3697018942
 21
226.9742555624
  0
LINE
  5
34C
100
AcDbEntity
  8
KONSTRUKTIONSELEMENTE
100
AcDbLine
 62
7
  6
CONTINUOUS
 10
227.7560612393
 20
227.2559565335
 11
228.3697018942
 21
227.2559565335
  0
LINE
  5
34D
100
AcDbEntity
  8
KONSTRUKTIONSELEMENTE
100
AcDbLine
 62
7
  6
CONTINUOUS
 10
227.717857353
 20
227.6080833518
 11
228.3697018942
 21
227.6080833518
  0
LINE
  5
34E
100
AcDbEntity
  8
KONSTRUKTIONSELEMENTE
100
AcDbLine
 62
7
  6
CONTINUOUS
 10
227.717857353
 20
228.2419111413
 11
228.3697018942
 21
228.2419111413
  0
LINE
  5
34F
100
AcDbEntity
  8
KONSTRUKTIONSELEMENTE
100
AcDbLine
 62
7
  6
CONTINUOUS
 10
227.7560612393
 20
228.5940379596
 11
228.3697018942
 21
228.5940379596
  0
LWPOLYLINE
  5
350
100
AcDbEntity
  8
KONSTRUKTIONSELEMENTE
100
AcDbPolyline
 62
7
  6
CONTINUOUS
 90
13
 70
0
 10
238.6197022125
 20
197.0960380457
 10
238.5887532757
 20
197.5926612374
 10
238.4957441424
 20
198.0841183075
 10
238.3421250413
 20
198.5601337256
 10
238.1302959997
 20
199.0132611799
 10
237.8635680427
 20
199.4364127882
 10
237.5461115312
 20
199.8229693697
 10
237.1828908684
 20
200.1668842146
 10
236.7795867559
 20
200.4627778294
 10
236.3425072256
 20
200.7060222053
 10
235.8784888596
 20
200.8928132999
 10
235.394790396
 20
201.0202304865
 10
235.1364715419
 20
201.061961975
  0
LINE
  5
351
100
AcDbEntity
  8
KONSTRUKTIONSELEMENTE
100
AcDbLine
 62
7
  6
CONTINUOUS
 10
238.6197018942
 20
197.0019526045
 11
238.6197018942
 21
186.0019526045
  0
LINE
  5
352
100
AcDbEntity
  8
KONSTRUKTIONSELEMENTE
100
AcDbLine
 62
7
  6
CONTINUOUS
 10
227.8262962923
 20
228.8757381248
 11
228.3697018942
 21
228.8757381248
  0
LINE
  5
353
100
AcDbEntity
  8
KONSTRUKTIONSELEMENTE
100
AcDbLine
 62
7
  6
CONTINUOUS
 10
227.9429932834
 20
229.1574399018
 11
228.3697018942
 21
229.1574399018
  0
LINE
  5
354
100
AcDbEntity
  8
KONSTRUKTIONSELEMENTE
100
AcDbLine
 62
7
  6
CONTINUOUS
 10
228.0464027928
 20
229.227865749
 11
228.3697018942
 21
229.227865749
  0
LINE
  5
355
100
AcDbEntity
  8
KONSTRUKTIONSELEMENTE
100
AcDbLine
 62
7
  6
CONTINUOUS
 10
228.1197018942
 20
229.7024294196
 11
228.3697018942
 21
229.7024294196
  0
LINE
  5
356
100
AcDbEntity
  8
KONSTRUKTIONSELEMENTE
100
AcDbLine
 62
7
  6
CONTINUOUS
 10
228.1197018942
 20
232.7505438552
 11
228.3697018942
 21
232.7505438552
  0
LINE
  5
357
100
AcDbEntity
  8
KONSTRUKTIONSELEMENTE
100
AcDbLine
 62
7
  6
CONTINUOUS
 10
228.1197018942
 20
232.8352133777
 11
228.3697018942
 21
232.8352133777
  0
LINE
  5
358
100
AcDbEntity
  8
TEIL_STARTBEZUEGE
100
AcDbLine
 62
2
  6
CENTER
 10
221.6197018942
 20
243.0019526045
 11
220.8033924417
 21
243.0019526045
  0
LINE
  5
359
100
AcDbEntity
  8
TEIL_STARTBEZUEGE
100
AcDbLine
 62
2
  6
CENTER
 10
221.6197018942
 20
243.0019526045
 11
222.212538956
 21
243.0019526045
  0
LINE
  5
35A
100
AcDbEntity
  8
KONSTRUKTIONSELEMENTE
100
AcDbLine
 62
7
  6
CONTINUOUS
 10
224.6197018942
 20
173.0019526045
 11
233.6197018942
 21
178.1981050272
  0
LINE
  5
35B
100
AcDbEntity
  8
KONSTRUKTIONSELEMENTE
100
AcDbLine
 62
7
  6
CONTINUOUS
 10
74.5188218214
 20
103.5295214251
 11
74.5188218214
 21
97.5295214251
  0
LINE
  5
35C
100
AcDbEntity
  8
KONSTRUKTIONSELEMENTE
100
AcDbLine
 62
7
  6
CONTINUOUS
 10
87.5188218214
 20
88.5295214251
 11
87.5188218214
 21
98.0295214251
  0
LINE
  5
35D
100
AcDbEntity
  8
KONSTRUKTIONSELEMENTE
100
AcDbLine
 62
7
  6
CONTINUOUS
 10
87.5188218214
 20
103.0295214251
 11
87.5188218214
 21
112.5295214251
  0
LINE
  5
35E
100
AcDbEntity
  8
KONSTRUKTIONSELEMENTE
100
AcDbLine
 62
7
  6
CONTINUOUS
 10
91.5188218214
 20
83.5295214251
 11
91.5188218214
 21
117.5295214251
  0
LINE
  5
35F
100
AcDbEntity
  8
KONSTRUKTIONSELEMENTE
100
AcDbLine
 62
7
  6
CONTINUOUS
 10
137.5188218166
 20
83.5295214251
 11
125.5188218214
 21
83.5295214251
  0
LINE
  5
360
100
AcDbEntity
  8
KONSTRUKTIONSELEMENTE
100
AcDbLine
 62
7
  6
CONTINUOUS
 10
104.5188218214
 20
83.5295214251
 11
91.5188218214
 21
83.5295214251
  0
LINE
  5
361
100
AcDbEntity
  8
KONSTRUKTIONSELEMENTE
100
AcDbLine
 62
7
  6
CONTINUOUS
 10
95.7688218214
 20
94.4313659663
 11
95.7688218214
 21
93.7795214251
  0
LINE
  5
362
100
AcDbEntity
  8
KONSTRUKTIONSELEMENTE
100
AcDbLine
 62
7
  6
CONTINUOUS
 10
91.5188218214
 20
88.5295214251
 11
87.5188218214
 21
88.5295214251
  0
LINE
  5
363
100
AcDbEntity
  8
KONSTRUKTIONSELEMENTE
100
AcDbLine
 62
7
  6
CONTINUOUS
 10
137.5188218214
 20
88.7795214251
 11
147.5188218214
 21
88.7795214251
  0
LINE
  5
364
100
AcDbEntity
  8
KONSTRUKTIONSELEMENTE
100
AcDbLine
 62
7
  6
CONTINUOUS
 10
100.7688218214
 20
94.0295214251
 11
100.7688218214
 21
93.7795214251
  0
LINE
  5
365
100
AcDbEntity
  8
BEZUGSACHSEN
100
AcDbLine
 62
7
  6
CONTINUOUS
 10
104.5188218214
 20
92.5295214251
 11
125.5188218214
 21
92.5295214251
  0
LINE
  5
366
100
AcDbEntity
  8
KONSTRUKTIONSELEMENTE
100
AcDbLine
 62
7
  6
CONTINUOUS
 10
104.5188218214
 20
83.5295214251
 11
104.5188218214
 21
94.0295214251
  0
LINE
  5
367
100
AcDbEntity
  8
KONSTRUKTIONSELEMENTE
100
AcDbLine
 62
7
  6
CONTINUOUS
 10
104.5188218214
 20
107.0295214251
 11
104.5188218214
 21
117.5295214251
  0
LINE
  5
368
100
AcDbEntity
  8
KONSTRUKTIONSELEMENTE
100
AcDbLine
 62
7
  6
CONTINUOUS
 10
134.7688218214
 20
93.7795214251
 11
129.7688218214
 21
93.7795214251
  0
LINE
  5
369
100
AcDbEntity
  8
KONSTRUKTIONSELEMENTE
100
AcDbLine
 62
7
  6
CONTINUOUS
 10
100.7688218214
 20
93.7795214251
 11
95.7688218214
 21
93.7795214251
  0
LINE
  5
36A
100
AcDbEntity
  8
KONSTRUKTIONSELEMENTE
100
AcDbLine
 62
7
  6
CONTINUOUS
 10
132.0188218214
 20
94.0295214251
 11
98.0188218214
 21
94.0295214251
  0
LINE
  5
36B
100
AcDbEntity
  8
KONSTRUKTIONSELEMENTE
100
AcDbLine
 62
7
  6
CONTINUOUS
 10
87.5188218214
 20
97.5295214251
 11
74.5188218214
 21
97.5295214251
  0
LINE
  5
36C
100
AcDbEntity
  8
KONSTRUKTIONSELEMENTE
100
AcDbLine
 62
7
  6
CONTINUOUS
 10
91.5188218214
 20
98.0295214251
 11
87.5188218214
 21
98.0295214251
  0
LINE
  5
36D
100
AcDbEntity
  8
TEIL_STARTBEZUEGE
100
AcDbLine
 62
2
  6
CENTER
 10
71.5188218214
 20
100.5295214251
 11
150.5188218214
 21
100.5295214251
  0
LINE
  5
36E
100
AcDbEntity
  8
KONSTRUKTIONSELEMENTE
100
AcDbLine
 62
7
  6
CONTINUOUS
 10
91.5188218214
 20
103.0295214251
 11
87.5188218214
 21
103.0295214251
  0
LINE
  5
36F
100
AcDbEntity
  8
KONSTRUKTIONSELEMENTE
100
AcDbLine
 62
7
  6
CONTINUOUS
 10
87.5188218214
 20
103.5295214251
 11
74.5188218214
 21
103.5295214251
  0
LINE
  5
370
100
AcDbEntity
  8
BEZUGSACHSEN
100
AcDbLine
 62
7
  6
CENTER
 10
115.0188218214
 20
80.5294638421
 11
115.0188218214
 21
120.5306032788
  0
LINE
  5
371
100
AcDbEntity
  8
KONSTRUKTIONSELEMENTE
100
AcDbLine
 62
7
  6
CONTINUOUS
 10
132.0188218214
 20
107.0295214251
 11
98.0188218214
 21
107.0295214251
  0
LINE
  5
372
100
AcDbEntity
  8
BEZUGSACHSEN
100
AcDbLine
 62
7
  6
CONTINUOUS
 10
104.5188218214
 20
108.5295214251
 11
125.5188218214
 21
108.5295214251
  0
LINE
  5
373
100
AcDbEntity
  8
KONSTRUKTIONSELEMENTE
100
AcDbLine
 62
7
  6
CONTINUOUS
 10
147.5188218214
 20
112.2795214251
 11
137.5188218214
 21
112.2795214251
  0
LINE
  5
374
100
AcDbEntity
  8
KONSTRUKTIONSELEMENTE
100
AcDbLine
 62
7
  6
CONTINUOUS
 10
91.5188218214
 20
112.5295214251
 11
87.5188218214
 21
112.5295214251
  0
LINE
  5
375
100
AcDbEntity
  8
KONSTRUKTIONSELEMENTE
100
AcDbLine
 62
7
  6
CONTINUOUS
 10
125.5188218214
 20
83.5295214251
 11
125.5188218214
 21
94.0295214251
  0
LINE
  5
376
100
AcDbEntity
  8
KONSTRUKTIONSELEMENTE
100
AcDbLine
 62
7
  6
CONTINUOUS
 10
125.5188218214
 20
107.0295214251
 11
125.5188218214
 21
117.5295214251
  0
LINE
  5
377
100
AcDbEntity
  8
KONSTRUKTIONSELEMENTE
100
AcDbLine
 62
7
  6
CONTINUOUS
 10
129.7688218214
 20
94.0295214251
 11
129.7688218214
 21
93.7795214251
  0
LINE
  5
378
100
AcDbEntity
  8
KONSTRUKTIONSELEMENTE
100
AcDbLine
 62
7
  6
CONTINUOUS
 10
129.8752047874
 20
94.0295214251
 11
129.8752047874
 21
93.7795214251
  0
LINE
  5
379
100
AcDbEntity
  8
KONSTRUKTIONSELEMENTE
100
AcDbLine
 62
7
  6
CONTINUOUS
 10
137.5188218214
 20
117.5295214251
 11
125.5188218214
 21
117.5295214251
  0
LINE
  5
37A
100
AcDbEntity
  8
KONSTRUKTIONSELEMENTE
100
AcDbLine
 62
7
  6
CONTINUOUS
 10
104.5188218214
 20
117.5295214251
 11
91.5188218214
 21
117.5295214251
  0
LINE
  5
37B
100
AcDbEntity
  8
KONSTRUKTIONSELEMENTE
100
AcDbLine
 62
7
  6
CONTINUOUS
 10
130.1943536856
 20
94.0295214251
 11
130.1943536856
 21
93.7795214251
  0
LINE
  5
37C
100
AcDbEntity
  8
KONSTRUKTIONSELEMENTE
100
AcDbLine
 62
7
  6
CONTINUOUS
 10
130.6198855497
 20
94.0295214251
 11
130.6198855497
 21
93.7795214251
  0
LINE
  5
37D
100
AcDbEntity
  8
KONSTRUKTIONSELEMENTE
100
AcDbLine
 62
7
  6
CONTINUOUS
 10
130.9390344479
 20
94.0295214251
 11
130.9390344479
 21
93.7795214251
  0
LINE
  5
37E
100
AcDbEntity
  8
KONSTRUKTIONSELEMENTE
100
AcDbLine
 62
7
  6
CONTINUOUS
 10
131.3645666101
 20
94.0295214251
 11
131.3645666101
 21
93.7795214251
  0
LINE
  5
37F
100
AcDbEntity
  8
KONSTRUKTIONSELEMENTE
100
AcDbLine
 62
7
  6
CONTINUOUS
 10
131.6837155082
 20
94.038165345
 11
131.6837155082
 21
93.7795214251
  0
LINE
  5
380
100
AcDbEntity
  8
KONSTRUKTIONSELEMENTE
100
AcDbLine
 62
7
  6
CONTINUOUS
 10
132.1092473723
 20
94.0301504386
 11
132.1092473723
 21
93.7795214251
  0
LINE
  5
381
100
AcDbEntity
  8
KONSTRUKTIONSELEMENTE
100
AcDbLine
 62
7
  6
CONTINUOUS
 10
132.4283962705
 20
94.0424381999
 11
132.4283962705
 21
93.7795214251
  0
LINE
  5
382
100
AcDbEntity
  8
KONSTRUKTIONSELEMENTE
100
AcDbLine
 62
7
  6
CONTINUOUS
 10
132.5347792365
 20
94.0500316345
 11
132.5347792365
 21
93.7795214251
  0
LINE
  5
383
100
AcDbEntity
  8
KONSTRUKTIONSELEMENTE
100
AcDbLine
 62
7
  6
CONTINUOUS
 10
134.7688218214
 20
94.6399119304
 11
134.7688218214
 21
93.7795214251
  0
LINE
  5
384
100
AcDbEntity
  8
KONSTRUKTIONSELEMENTE
100
AcDbLine
 62
7
  6
CONTINUOUS
 10
137.5188218214
 20
83.5295214251
 11
137.5188218214
 21
88.7795214251
  0
LINE
  5
385
100
AcDbEntity
  8
KONSTRUKTIONSELEMENTE
100
AcDbLine
 62
7
  6
CONTINUOUS
 10
137.5188218214
 20
112.2795214251
 11
137.5188218214
 21
117.5295214251
  0
LINE
  5
386
100
AcDbEntity
  8
KONSTRUKTIONSELEMENTE
100
AcDbLine
 62
7
  6
CONTINUOUS
 10
147.5188218214
 20
112.2795214251
 11
147.5188218214
 21
88.7795214251
  0
ARC
  5
387
100
AcDbEntity
  8
KONSTRUKTIONSELEMENTE
100
AcDbCircle
 62
7
  6
CONTINUOUS
 10
114.5188218214
 20
233.0019526045
 40
23.0
100
AcDbArc
 50
90.0
 51
180.0
  0
ARC
  5
388
100
AcDbEntity
  8
KONSTRUKTIONSELEMENTE
100
AcDbCircle
 62
7
  6
CONTINUOUS
 10
115.5188218214
 20
233.0019526045
 40
23.0
100
AcDbArc
 50
0.0
 51
90.0
  0
ARC
  5
389
100
AcDbEntity
  8
KONSTRUKTIONSELEMENTE
100
AcDbCircle
 62
7
  6
CONTINUOUS
 10
87.5188218214
 20
186.0019526045
 40
13.0
100
AcDbArc
 50
90.0
 51
270.0
  0
ARC
  5
38A
100
AcDbEntity
  8
KONSTRUKTIONSELEMENTE
100
AcDbCircle
 62
7
  6
CONTINUOUS
 10
114.5188218214
 20
233.0019526045
 40
10.0
100
AcDbArc
 50
90.0
 51
180.0
  0
ARC
  5
38B
100
AcDbEntity
  8
KONSTRUKTIONSELEMENTE
100
AcDbCircle
 62
7
  6
CONTINUOUS
 10
115.5188218214
 20
233.0019526045
 40
10.0
100
AcDbArc
 50
0.0
 51
90.0
  0
ARC
  5
38C
100
AcDbEntity
  8
KONSTRUKTIONSELEMENTE
100
AcDbCircle
 62
7
  6
CONTINUOUS
 10
146.5188218214
 20
209.0019526045
 40
8.0
100
AcDbArc
 50
180.0
 51
263.5714285714
  0
CIRCLE
  5
38D
100
AcDbEntity
  8
BEZUGSACHSEN
100
AcDbCircle
 62
7
  6
CONTINUOUS
 10
98.0188218214
 20
193.0019526045
 40
2.5
  0
ARC
  5
38E
100
AcDbEntity
  8
KONSTRUKTIONSELEMENTE
100
AcDbCircle
 62
7
  6
CONTINUOUS
 10
220.6197018942
 20
186.0019526045
 40
16.0
100
AcDbArc
 50
180.0
 51
270.0
  0
ARC
  5
38F
100
AcDbEntity
  8
KONSTRUKTIONSELEMENTE
100
AcDbCircle
 62
7
  6
CONTINUOUS
 10
207.1197018942
 20
209.0019526045
 40
8.0
100
AcDbArc
 50
277.0568652008
 51
360.0
  0
ARC
  5
390
100
AcDbEntity
  8
KONSTRUKTIONSELEMENTE
100
AcDbCircle
 62
7
  6
CONTINUOUS
 10
208.6197018942
 20
197.0019526045
 40
4.0
100
AcDbArc
 50
90.0
 51
180.0
  0
ARC
  5
391
100
AcDbEntity
  8
KONSTRUKTIONSELEMENTE
100
AcDbCircle
 62
7
  6
CONTINUOUS
 10
222.6197018942
 20
186.0019526045
 40
16.0
100
AcDbArc
 50
270.0
 51
360.0
  0
CIRCLE
  5
392
100
AcDbEntity
  8
BEZUGSACHSEN
100
AcDbCircle
 62
8
  6
HIDDEN
 10
221.6197018942
 20
186.0019526045
 40
8.0
  0
ARC
  5
393
100
AcDbEntity
  8
KONSTRUKTIONSELEMENTE
100
AcDbCircle
 62
7
  6
CONTINUOUS
 10
236.1197018942
 20
209.0019526045
 40
8.0
100
AcDbArc
 50
180.0
 51
262.9410151056
  0
ARC
  5
394
100
AcDbEntity
  8
KONSTRUKTIONSELEMENTE
100
AcDbCircle
 62
7
  6
CONTINUOUS
 10
234.6197018942
 20
197.0019526045
 40
4.0
100
AcDbArc
 50
0.0
 51
90.0
  0
ARC
  5
395
100
AcDbEntity
  8
KONSTRUKTIONSELEMENTE
100
AcDbCircle
 62
8
  6
HIDDEN
 10
221.6197018942
 20
249.5019526045
 40
6.5
100
AcDbArc
 50
180.0
 51
360.0
  0
ARC
  5
396
100
AcDbEntity
  8
KONSTRUKTIONSELEMENTE
100
AcDbCircle
 62
7
  6
CONTINUOUS
 10
221.6197018942
 20
249.5019526045
 40
6.5
100
AcDbArc
 50
0.0
 51
180.0
  0
ARC
  5
397
100
AcDbEntity
  8
KONSTRUKTIONSELEMENTE
100
AcDbCircle
 62
7
  6
CONTINUOUS
 10
98.0188218214
 20
100.5295214251
 40
6.5
100
AcDbArc
 50
90.0
 51
270.0
  0
ARC
  5
398
100
AcDbEntity
  8
KONSTRUKTIONSELEMENTE
100
AcDbCircle
 62
7
  6
CONTINUOUS
 10
132.0188218214
 20
100.5295214251
 40
6.5
100
AcDbArc
 50
270.0
 51
90.0
  0
SPLINE
  5
399
100
AcDbEntity
  8
KONSTRUKTIONSELEMENTE
100
AcDbSpline
 62
7
  6
CONTINUOUS
 70
0
 71
3
 72
11
 73
7
 74
0
 42
0.0000001
 43
0.0000001
 44
0.0000000001
 40
0.0
 40
0.0
 40
0.0
 40
0.0
 40
0.2500006522
 40
0.500001216
 40
0.7500036313
 40
1.0
 40
1.0
 40
1.0
 40
1.0
 10
137.5188218214
 20
200.5804142309
 30
0.0
 10
138.1899629456
 20
200.4121453538
 30
0.0
 10
139.5219767942
 20
200.0361431332
 30
0.0
 10
141.5189783238
 20
199.4692444214
 30
0.0
 10
143.5522483409
 20
199.037393884
 30
0.0
 10
144.9375391093
 20
198.9235216485
 30
0.0
 10
145.6294411387
 20
198.923520021
 30
0.0
  0
ELLIPSE
  5
39A
100
AcDbEntity
  8
KONSTRUKTIONSELEMENTE
100
AcDbEllipse
 62
7
  6
CONTINUOUS
 10
221.6197018942
 20
215.9331125996
 30
0.0
 11
6.5
 21
-0.0
 31
0.0
 40
0.2260480602
 41
-0.3534683866
 42
-0.0000454921
  0
ELLIPSE
  5
39B
100
AcDbEntity
  8
KONSTRUKTIONSELEMENTE
100
AcDbEllipse
 62
7
  6
CONTINUOUS
 10
221.6197018942
 20
216.8878049397
 30
0.0
 11
6.5
 21
0.0
 31
0.0
 40
0.2260480602
 41
6.2832307993
 42
6.6366536938
  0
ELLIPSE
  5
39C
100
AcDbEntity
  8
KONSTRUKTIONSELEMENTE
100
AcDbEllipse
 62
7
  6
CONTINUOUS
 10
221.6197018942
 20
219.3135274246
 30
0.0
 11
6.5
 21
-0.0
 31
0.0
 40
0.2260480371
 41
-0.3534683866
 42
-0.0000454921
  0
ELLIPSE
  5
39D
100
AcDbEntity
  8
KONSTRUKTIONSELEMENTE
100
AcDbEllipse
 62
7
  6
CONTINUOUS
 10
221.6197018942
 20
220.2682198623
 30
0.0
 11
6.5
 21
0.0
 31
0.0
 40
0.2260481295
 41
6.2832307993
 42
6.6366536938
  0
ELLIPSE
  5
39E
100
AcDbEntity
  8
KONSTRUKTIONSELEMENTE
100
AcDbEllipse
 62
7
  6
CONTINUOUS
 10
221.6197018942
 20
229.3567449733
 30
0.0
 11
6.5
 21
-0.0
 31
0.0
 40
0.1324005344
 41
-0.2337093076
 42
-0.1503199462
  0
ELLIPSE
  5
39F
100
AcDbEntity
  8
KONSTRUKTIONSELEMENTE
100
AcDbEllipse
 62
7
  6
CONTINUOUS
 10
221.6197018942
 20
230.1539601157
 30
0.0
 11
6.5
 21
-0.0
 31
0.0
 40
0.661999255
 41
-0.3016059166
 42
-0.2337093076
  0
ELLIPSE
  5
3A0
100
AcDbEntity
  8
KONSTRUKTIONSELEMENTE
100
AcDbEllipse
 62
7
  6
CONTINUOUS
 10
221.6197018942
 20
231.4321674785
 30
0.0
 11
0.0
 21
8.605941071
 31
0.0
 40
0.7552921809
 41
-1.9068745207
 42
-1.8724022434
  0
ELLIPSE
  5
3A1
100
AcDbEntity
  8
KONSTRUKTIONSELEMENTE
100
AcDbEllipse
 62
7
  6
CONTINUOUS
 10
221.6197018942
 20
235.6893942369
 30
0.0
 11
-0.0
 21
21.514951165
 31
0.0
 40
0.3021154894
 41
-1.9242647134
 42
-1.9068745207
  0
ELLIPSE
  5
3A2
100
AcDbEntity
  8
KONSTRUKTIONSELEMENTE
100
AcDbEllipse
 62
7
  6
CONTINUOUS
 10
221.6197018942
 20
220.1606002563
 30
0.0
 11
-0.0
 21
21.514951165
 31
0.0
 40
0.3021154894
 41
-1.2347181329
 42
-1.2173279402
  0
ELLIPSE
  5
3A3
100
AcDbEntity
  8
KONSTRUKTIONSELEMENTE
100
AcDbEllipse
 62
7
  6
CONTINUOUS
 10
221.6197018942
 20
224.4178188946
 30
0.0
 11
-0.0
 21
8.6059656929
 31
0.0
 40
0.75529002
 41
-1.2691904102
 42
-1.2347181329
  0
ELLIPSE
  5
3A4
100
AcDbEntity
  8
KONSTRUKTIONSELEMENTE
100
AcDbEllipse
 62
7
  6
CONTINUOUS
 10
221.6197018942
 20
225.6960335715
 30
0.0
 11
6.5
 21
-0.0
 31
0.0
 40
0.661999255
 41
0.2337093076
 42
0.3016059166
  0
ELLIPSE
  5
3A5
100
AcDbEntity
  8
KONSTRUKTIONSELEMENTE
100
AcDbEllipse
 62
7
  6
CONTINUOUS
 10
221.6197018942
 20
223.3447092065
 30
0.0
 11
6.5
 21
0.0
 31
0.0
 40
0.1655007607
 41
0.1668948344
 42
0.2337093076
  0
ELLIPSE
  5
3A6
100
AcDbEntity
  8
KONSTRUKTIONSELEMENTE
100
AcDbEllipse
 62
7
  6
CONTINUOUS
 10
221.6197018942
 20
222.5973233226
 30
0.0
 11
6.5
 21
0.0
 31
0.0
 40
0.661997361
 41
0.2337093076
 42
0.3016059166
  0
ELLIPSE
  5
3A7
100
AcDbEntity
  8
KONSTRUKTIONSELEMENTE
100
AcDbEllipse
 62
7
  6
CONTINUOUS
 10
221.6197018942
 20
221.3191049887
 30
0.0
 11
0.0
 21
8.6059656929
 31
0.0
 40
0.75529002
 41
-1.2691904102
 42
-1.2347181329
  0
ELLIPSE
  5
3A8
100
AcDbEntity
  8
KONSTRUKTIONSELEMENTE
100
AcDbEllipse
 62
7
  6
CONTINUOUS
 10
221.6197018942
 20
218.4809511099
 30
0.0
 11
-0.0
 21
17.2119806295
 31
0.0
 40
0.3776439295
 41
-1.2347181329
 42
-1.2173279402
  0
ELLIPSE
  5
3A9
100
AcDbEntity
  8
KONSTRUKTIONSELEMENTE
100
AcDbEllipse
 62
7
  6
CONTINUOUS
 10
221.6197018942
 20
232.2385535127
 30
0.0
 11
-0.0
 21
21.514951165
 31
0.0
 40
0.3021154894
 41
-1.9242647134
 42
-1.9068745207
  0
ELLIPSE
  5
3AA
100
AcDbEntity
  8
KONSTRUKTIONSELEMENTE
100
AcDbEllipse
 62
7
  6
CONTINUOUS
 10
221.6197018942
 20
227.0352889947
 30
0.0
 11
6.5
 21
0.0
 31
0.0
 40
0.882663148
 41
-0.3360781939
 42
-0.2845102315
  0
ELLIPSE
  5
3AB
100
AcDbEntity
  8
KONSTRUKTIONSELEMENTE
100
AcDbEllipse
 62
7
  6
CONTINUOUS
 10
221.6197018942
 20
226.3307438887
 30
0.0
 11
6.5
 21
0.0
 31
0.0
 40
0.4964984942
 41
-0.2845102315
 42
-0.2169180916
  0
ELLIPSE
  5
3AC
100
AcDbEntity
  8
KONSTRUKTIONSELEMENTE
100
AcDbEllipse
 62
7
  6
CONTINUOUS
 10
221.6197018942
 20
225.9448741592
 30
0.0
 11
6.5
 21
-0.0
 31
0.0
 40
0.220667681
 41
-0.2169180916
 42
-0.1668948344
  0
ELLIPSE
  5
3AD
100
AcDbEntity
  8
KONSTRUKTIONSELEMENTE
100
AcDbEllipse
 62
7
  6
CONTINUOUS
 10
221.6197018942
 20
226.1942965295
 30
0.0
 11
6.5
 21
-0.0
 31
0.0
 40
0.3309977335
 41
0.1668948344
 42
0.2337093076
  0
ELLIPSE
  5
3AE
100
AcDbEntity
  8
KONSTRUKTIONSELEMENTE
100
AcDbEllipse
 62
7
  6
CONTINUOUS
 10
221.6197018942
 20
226.4087392775
 30
0.0
 11
6.5
 21
-0.0
 31
0.0
 40
0.1324005344
 41
0.0843881619
 42
0.1668948344
  0
ENDSEC
  0
SECTION
  2
OBJECTS
  0
DICTIONARY
  5
C
100
AcDbDictionary
280
0
281
1
  3
ACAD_GROUP
350
D
  3
ACAD_MLINESTYLE
350
17
  3
ACAD_LAYOUT
350
1A
  3
ACAD_PLOTSETTINGS
350
19
  3
ACAD_PLOTSTYLENAME
350
E
  0
DICTIONARY
  5
D
102
{ACAD_REACTORS
330
C
102
}
100
AcDbDictionary
280
0
281
1
  0
ACDBDICTIONARYWDFLT
  5
E
102
{ACAD_REACTORS
330
C
102
}
100
AcDbDictionary
281
1
  3
Normal
350
F
100
AcDbDictionaryWithDefault
340
F
  0
DICTIONARY
  5
17
102
{ACAD_REACTORS
330
C
102
}
100
AcDbDictionary
280
0
281
1
  3
Standard
350
18
  0
DICTIONARY
  5
19
102
{ACAD_REACTORS
330
C
102
}
100
AcDbDictionary
281
1
  0
DICTIONARY
  5
1A
102
{ACAD_REACTORS
330
C
102
}
100
AcDbDictionary
281
1
  3
Model
350
3AF
  3
Layout1
350
3B0
  0
ACDBPLACEHOLDER
  5
F
102
{ACAD_REACTORS
330
E
102
}
  0
MLINESTYLE
  5
18
102
{ACAD_REACTORS
330
17
102
}
100
AcDbMlineStyle
  2
STANDARD
 70
0
  3

 62
256
 51
90.0
 52
90.0
 71
2
 49
0.5
 62
256
  6
BYLAYER
 49
-0.5
 62
256
  6
BYLAYER
  0
LAYOUT
  5
3AF
102
{ACAD_REACTORS
330
1A
102
}
100
AcDbPlotSettings
  1

  2
none_device
  4
ISO_A3_(420.00_x_297.00_MM)
  6

 40
0.0
 41
0.0
 42
0.0
 43
0.0
 44
420.0
 45
297.0
 46
0.0
 47
0.0
 48
0.0
 49
0.0
140
0.0
141
0.0
142
1.0
143
1.0
 70
1024
 72
1
 73
0
 74
0
  7

 75
0
147
1.0
148
0.0
149
0.0
100
AcDbLayout
  1
Model
 70
0
 71
0
 10
0.0
 20
0.0
 11
420.0
 21
297.0
 12
0.0
 22
0.0
 32
0.0
 14
0.0
 24
0.0
 34
0.0
 15
0.0
 25
0.0
 35
0.0
146
0.0
 13
0.0
 23
0.0
 33
0.0
 16
1.0
 26
0.0
 36
0.0
 17
0.0
 27
1.0
 37
0.0
 76
0
330
208
345
0
346
0
  0
LAYOUT
  5
3B0
102
{ACAD_REACTORS
330
1A
102
}
100
AcDbPlotSettings
  1

  2
none_device
  4
ISO_A3_(420.00_x_297.00_MM)
  6

 40
0.0
 41
0.0
 42
0.0
 43
0.0
 44
420.0
 45
297.0
 46
0.0
 47
0.0
 48
0.0
 49
0.0
140
0.0
141
0.0
142
1.0
143
1.0
 70
0
 72
1
 73
0
 74
0
  7

 75
0
147
1.0
148
0.0
149
0.0
100
AcDbLayout
  1
Layout1
 70
0
 71
1
 10
0.0
 20
0.0
 11
420.0
 21
297.0
 12
0.0
 22
0.0
 32
0.0
 14
0.0
 24
0.0
 34
0.0
 15
0.0
 25
0.0
 35
0.0
146
0.0
 13
0.0
 23
0.0
 33
0.0
 16
1.0
 26
0.0
 36
0.0
 17
0.0
 27
1.0
 37
0.0
 76
0
330
209
345
0
346
0
  0
ENDSEC
  0
EOF
