999
DXF file: 001-m31102-dxf.dxf
999
Pro/ENGINEER 2011490 by Parametric Technology Corporation
  0
SECTION
  2
HEADER
  9
$ACADVER
  1
AC1015
  9
$DWGCODEPAGE
  3
ANSI_1252
  9
$EXTMAX
 10
420.0
 20
297.0
 30
0.0
  9
$EXTMIN
 10
0.0
 20
0.0
 30
0.0
  9
$LIMMIN
 10
0.0
 20
0.0
  9
$LIMMAX
 10
420.0
 20
297.0
  9
$VIEWCTR
 10
210.0
 20
148.5
  9
$VIEWSIZE
 40
297.0
  9
$CLAYER
  8
0
  9
$LTSCALE
 40
23.1
  9
$CELTYPE
  6
BYLAYER
  9
$DIMSCALE
 40
1.0
  9
$DIMASZ
 40
3.5
  9
$DIMEXO
 40
2.625
  9
$DIMDLI
 40
15.96
  9
$DIMEXE
 40
7.56
  9
$DIMCEN
 40
3.78
  9
$DIMLFAC
 40
1.0
  9
$DIMBLK
  1
_FILLED
  9
$DIMTXT
 40
3.5
  9
$DIMTOL
 70
1
  9
$DIMLIM
 70
0
  9
$DIMTFAC
 40
1.0
  9
$DIMTP
 40
0.005
  9
$DIMTM
 40
0.005
  9
$PDMODE
 70
3
  9
$PDSIZE
 40
0.3125
  9
$HANDSEED
  5
44A
  9
$TILEMODE
 70
1
  9
$MEASUREMENT
 70
1
  9
$INSUNITS
 70
4
  0
ENDSEC
  0
SECTION
  2
CLASSES
  0
CLASS
  1
ACDBDICTIONARYWDFLT
  2
AcDbDictionaryWithDefault
  3
AutoCAD 2000
 90
0
280
0
281
0
  0
CLASS
  1
ACDBPLACEHOLDER
  2
AcDbPlaceHolder
  3
AutoCAD 2000
 90
0
280
0
281
0
  0
CLASS
  1
LAYOUT
  2
AcDbLayout
  3
AutoCAD 2000
 90
0
280
0
281
0
  0
ENDSEC
  0
SECTION
  2
TABLES
  0
TABLE
  2
VPORT
  5
8
100
AcDbSymbolTable
 70
2
  0
VPORT
  5
1F4
100
AcDbSymbolTableRecord
100
AcDbViewportTableRecord
  2
*ACTIVE
 70
0
 10
0.0
 20
0.0
 11
1.0
 21
1.0
 12
210.0
 22
148.5
 13
0.0
 23
0.0
 14
1.0
 24
1.0
 15
0.0
 25
0.0
 16
0.0
 26
0.0
 36
1.0
 17
0.0
 27
0.0
 37
0.0
 40
297.0
 41
1.4141414141
 42
50.0
 43
0.0
 44
0.0
 50
0.0
 51
0.0
 71
0
 72
100
 73
1
 74
1
 75
0
 76
0
 77
0
 78
0
  0
ENDTAB
  0
TABLE
  2
LTYPE
  5
5
100
AcDbSymbolTable
 70
6
  0
LTYPE
  5
14
100
AcDbSymbolTableRecord
100
AcDbLinetypeTableRecord
  2
BYBLOCK
 70
0
  3

 72
65
 73
0
 40
0.0
  0
LTYPE
  5
15
100
AcDbSymbolTableRecord
100
AcDbLinetypeTableRecord
  2
BYLAYER
 70
0
  3

 72
65
 73
0
 40
0.0
  0
LTYPE
  5
16
100
AcDbSymbolTableRecord
100
AcDbLinetypeTableRecord
  2
CONTINUOUS
 70
64
  3
Solid line
 72
65
 73
0
 40
0.0
  0
LTYPE
  5
1F5
100
AcDbSymbolTableRecord
100
AcDbLinetypeTableRecord
  2
CENTER
 70
64
  3
____ _ ____ _ ____ _ ____ _ ____ _ ____ _ ____
 72
65
 73
4
 40
0.6
 49
0.375
 74
0
 49
-0.075
 74
0
 49
0.075
 74
0
 49
-0.075
 74
0
  0
LTYPE
  5
1F6
100
AcDbSymbolTableRecord
100
AcDbLinetypeTableRecord
  2
HIDDEN
 70
64
  3
- - - - - - - - - - - - - - - - - - - -
 72
65
 73
2
 40
0.2
 49
0.1
 74
0
 49
-0.1
 74
0
  0
LTYPE
  5
1F7
100
AcDbSymbolTableRecord
100
AcDbLinetypeTableRecord
  2
PHANTOM
 70
64
  3
_____ _ _ _____ _ _ _____ _ _ _____
 72
65
 73
6
 40
0.8
 49
0.45
 74
0
 49
-0.05
 74
0
 49
0.1
 74
0
 49
-0.05
 74
0
 49
0.1
 74
0
 49
-0.05
 74
0
  0
LTYPE
  5
1F8
100
AcDbSymbolTableRecord
100
AcDbLinetypeTableRecord
  2
DOT
 70
64
  3
. . . . . . . . . . . . . . . . . . . .
 72
65
 73
2
 40
0.2
 49
0.1
 74
0
 49
-0.1
 74
0
  0
LTYPE
  5
1F9
100
AcDbSymbolTableRecord
100
AcDbLinetypeTableRecord
  2
DASHED
 70
64
  3
- - - - - - - - - - - - - - - - - - - -
 72
65
 73
2
 40
0.2
 49
0.1
 74
0
 49
-0.1
 74
0
  0
ENDTAB
  0
TABLE
  2
LAYER
  5
2
100
AcDbSymbolTable
 70
36
  0
LAYER
  5
10
100
AcDbSymbolTableRecord
100
AcDbLayerTableRecord
  2
0
 70
0
 62
7
  6
CONTINUOUS
370
-3
390
F
  0
LAYER
  5
1FA
100
AcDbSymbolTableRecord
100
AcDbLayerTableRecord
  2
DEFAULT_1
 70
0
 62
7
  6
CENTER
370
-3
390
F
  0
LAYER
  5
1FB
100
AcDbSymbolTableRecord
100
AcDbLayerTableRecord
  2
DEFAULT_2
 70
0
 62
8
  6
HIDDEN
370
-3
390
F
  0
LAYER
  5
1FC
100
AcDbSymbolTableRecord
100
AcDbLayerTableRecord
  2
DEFAULT_3
 70
0
 62
7
  6
PHANTOM
370
-3
390
F
  0
LAYER
  5
1FD
100
AcDbSymbolTableRecord
100
AcDbLayerTableRecord
  2
BEZUGSACHSEN
 70
0
 62
7
  6
CONTINUOUS
370
-3
390
F
  0
LAYER
  5
1FE
100
AcDbSymbolTableRecord
100
AcDbLayerTableRecord
  2
BEZUGSEBENEN
 70
0
 62
7
  6
CONTINUOUS
370
-3
390
F
  0
LAYER
  5
1FF
100
AcDbSymbolTableRecord
100
AcDbLayerTableRecord
  2
FASEN
 70
0
 62
7
  6
CONTINUOUS
370
-3
390
F
  0
LAYER
  5
200
100
AcDbSymbolTableRecord
100
AcDbLayerTableRecord
  2
HILFEN
 70
0
 62
7
  6
CONTINUOUS
370
-3
390
F
  0
LAYER
  5
201
100
AcDbSymbolTableRecord
100
AcDbLayerTableRecord
  2
KONSTRUKTIONSELEMENTE
 70
0
 62
7
  6
CONTINUOUS
370
-3
390
F
  0
LAYER
  5
202
100
AcDbSymbolTableRecord
100
AcDbLayerTableRecord
  2
PLATZIERUNG
 70
0
 62
7
  6
CONTINUOUS
370
-3
390
F
  0
LAYER
  5
203
100
AcDbSymbolTableRecord
100
AcDbLayerTableRecord
  2
RUNDUNGEN
 70
0
 62
7
  6
CONTINUOUS
370
-3
390
F
  0
LAYER
  5
204
100
AcDbSymbolTableRecord
100
AcDbLayerTableRecord
  2
TEIL_STARTBEZUEGE
 70
0
 62
7
  6
CONTINUOUS
370
-3
390
F
  0
LAYER
  5
205
100
AcDbSymbolTableRecord
100
AcDbLayerTableRecord
  2
ZEICHNUNGSBEMASSUNGEN
 70
0
 62
7
  6
CONTINUOUS
370
-3
390
F
  0
ENDTAB
  0
TABLE
  2
STYLE
  5
3
100
AcDbSymbolTable
 70
1
  0
STYLE
  5
11
100
AcDbSymbolTableRecord
100
AcDbTextStyleTableRecord
  2
STANDARD
 70
0
 40
0.0
 41
0.7
 50
0.0
 71
0
 42
0.2
  3
txt
  4

  0
STYLE
  5
206
100
AcDbSymbolTableRecord
100
AcDbTextStyleTableRecord
  2
TEXTSTYLE_1
 70
0
 40
0.0
 41
0.8
 50
0.0
 71
0
 42
0.2
  3
gdt
  4

  0
ENDTAB
  0
TABLE
  2
VIEW
  5
6
100
AcDbSymbolTable
 70
0
  0
ENDTAB
  0
TABLE
  2
UCS
  5
7
100
AcDbSymbolTable
 70
0
  0
ENDTAB
  0
TABLE
  2
APPID
  5
9
100
AcDbSymbolTable
 70
1
  0
APPID
  5
207
100
AcDbSymbolTableRecord
100
AcDbRegAppTableRecord
  2
ACAD
 70
0
  0
ENDTAB
  0
TABLE
  2
BLOCK_RECORD
  5
1
100
AcDbSymbolTable
 70
0
  0
BLOCK_RECORD
  5
208
100
AcDbSymbolTableRecord
100
AcDbBlockTableRecord
  2
*Model_Space
  0
BLOCK_RECORD
  5
209
100
AcDbSymbolTableRecord
100
AcDbBlockTableRecord
  2
*Paper_Space
  0
ENDTAB
  0
TABLE
  2
DIMSTYLE
  5
A
100
AcDbSymbolTable
 70
1
100
AcDbDimStyleTable
 71
0
  0
DIMSTYLE
105
20A
100
AcDbSymbolTableRecord
100
AcDbDimStyleTableRecord
  2
STANDARD
 70
0
  3

  4

 40
1.0
 41
3.5
 42
0.0625
 43
0.38
 44
0.18
 45
0.0
 46
0.0
 47
0.005
 48
0.005
140
3.5
141
0.09
142
0.0
143
25.4
144
1.0
145
0.0
146
1.0
147
0.09
 71
1.0
 72
0.0
 73
0
 74
0
 75
0
 76
0
 77
1
 78
8
170
0
171
2
172
0
173
0
174
0
175
0
176
0
177
0
178
5
270
2
271
3
272
3
273
2
274
2
275
0
280
0
281
0
282
0
283
1
284
8
285
0
286
0
287
3
288
0
340
11
  0
ENDTAB
  0
ENDSEC
  0
SECTION
  2
BLOCKS
  0
BLOCK
  5
20
100
AcDbEntity
  8
0
100
AcDbBlockBegin
  2
*Model_Space
 70
0
 10
0.0
 20
0.0
 30
0.0
  3
*Model_Space
  1

  0
ENDBLK
  5
21
100
AcDbEntity
  8
0
100
AcDbBlockEnd
  0
BLOCK
  5
1C
100
AcDbEntity
  8
0
100
AcDbBlockBegin
  2
*Paper_Space
 70
0
 10
0.0
 20
0.0
 30
0.0
  3
*Paper_Space
  1

  0
ENDBLK
  5
1D
100
AcDbEntity
  8
0
100
AcDbBlockEnd
  0
ENDSEC
  0
SECTION
  2
ENTITIES
  0
MTEXT
  5
20B
100
AcDbEntity
  8
0
100
AcDbMText
 62
5
  6
CONTINUOUS
  7
STANDARD
 71
1
 72
1
 10
278.8763942868
 20
232.2249452008
 30
0.0
 11
0.0
 21
1.0
 31
0.0
 44
0.9
  1
VV-GSCH
 40
5.0
 41
27.8571428571
  0
MTEXT
  5
20C
100
AcDbEntity
  8
0
100
AcDbMText
 62
5
  6
CONTINUOUS
  7
STANDARD
 71
1
 72
1
 10
306.2299309772
 20
232.369343762
 30
0.0
 11
0.0
 21
1.0
 31
0.0
 44
0.9
  1
13/VIP
 40
6.0
 41
25.8571428571
  0
MTEXT
  5
20D
100
AcDbEntity
  8
0
100
AcDbMText
 62
5
  6
CONTINUOUS
  7
STANDARD
 71
1
 72
1
 10
99.9006050795
 20
96.746058871
 30
0.0
 11
1.0
 21
0.0
 31
0.0
 44
0.9
  1
VV-GSCH
 40
5.0
 41
27.8571428571
  0
MTEXT
  5
20E
100
AcDbEntity
  8
0
100
AcDbMText
 62
5
  6
CONTINUOUS
  7
STANDARD
 71
1
 72
1
 10
101.833800763
 20
53.7491559936
 30
0.0
 11
1.0
 21
0.0
 31
0.0
 44
0.9
  1
13/VIP
 40
6.0
 41
25.8571428571
  0
LINE
  5
20F
100
AcDbEntity
  8
0
100
AcDbLine
 62
7
  6
CONTINUOUS
 10
0.0
 20
0.0
 11
0.0
 21
297.0
  0
LINE
  5
210
100
AcDbEntity
  8
0
100
AcDbLine
 62
7
  6
CONTINUOUS
 10
0.0
 20
0.0
 11
420.0
 21
0.0
  0
LINE
  5
211
100
AcDbEntity
  8
0
100
AcDbLine
 62
7
  6
CONTINUOUS
 10
0.0
 20
297.0
 11
420.0
 21
297.0
  0
LINE
  5
212
100
AcDbEntity
  8
0
100
AcDbLine
 62
7
  6
CONTINUOUS
 10
420.0
 20
0.0
 11
420.0
 21
297.0
  0
LINE
  5
213
100
AcDbEntity
  8
RUNDUNGEN
100
AcDbLine
 62
7
  6
CONTINUOUS
 10
82.581387654
 20
146.5440550646
 11
95.581387654
 21
146.5440550646
  0
LINE
  5
214
100
AcDbEntity
  8
RUNDUNGEN
100
AcDbLine
 62
7
  6
CONTINUOUS
 10
132.581387654
 20
146.5440550646
 11
159.581387654
 21
146.5440550646
  0
LINE
  5
215
100
AcDbEntity
  8
RUNDUNGEN
100
AcDbLine
 62
7
  6
CONTINUOUS
 10
75.381387654
 20
151.5440550646
 11
80.581387654
 21
151.5440550646
  0
LINE
  5
216
100
AcDbEntity
  8
BEZUGSACHSEN
100
AcDbLine
 62
7
  6
CONTINUOUS
 10
97.581387654
 20
156.5440550646
 11
130.581387654
 21
156.5440550646
  0
LINE
  5
217
100
AcDbEntity
  8
RUNDUNGEN
100
AcDbLine
 62
7
  6
CONTINUOUS
 10
95.9911949634
 20
267.2453626473
 11
97.6768339467
 21
270.1300144669
  0
LINE
  5
218
100
AcDbEntity
  8
RUNDUNGEN
100
AcDbLine
 62
7
  6
CONTINUOUS
 10
75.381387654
 20
179.8120914472
 11
75.381387654
 21
152.75649063
  0
LINE
  5
219
100
AcDbEntity
  8
BEZUGSACHSEN
100
AcDbLine
 62
7
  6
CONTINUOUS
 10
97.581387654
 20
176.5440550646
 11
130.581387654
 21
176.5440550646
  0
LINE
  5
21A
100
AcDbEntity
  8
KONSTRUKTIONSELEMENTE
100
AcDbLine
 62
7
  6
CONTINUOUS
 10
80.581387654
 20
212.0440550646
 11
80.581387654
 21
194.5440550646
  0
LINE
  5
21B
100
AcDbEntity
  8
RUNDUNGEN
100
AcDbLine
 62
7
  6
CONTINUOUS
 10
80.581387654
 20
194.54377555
 11
80.581387654
 21
148.5440550646
  0
LINE
  5
21C
100
AcDbEntity
  8
RUNDUNGEN
100
AcDbLine
 62
7
  6
CONTINUOUS
 10
75.3813876538
 20
181.5440550646
 11
80.581387654
 21
181.5440550646
  0
LINE
  5
21D
100
AcDbEntity
  8
RUNDUNGEN
100
AcDbLine
 62
7
  6
CONTINUOUS
 10
134.6939058115
 20
183.5440550646
 11
132.581387654
 21
183.5440550646
  0
LINE
  5
21E
100
AcDbEntity
  8
RUNDUNGEN
100
AcDbLine
 62
7
  6
CONTINUOUS
 10
95.581387654
 20
183.5440550646
 11
93.4688698477
 21
183.5440550646
  0
LINE
  5
21F
100
AcDbEntity
  8
RUNDUNGEN
100
AcDbLine
 62
7
  6
CONTINUOUS
 10
84.6939051647
 20
183.5440550646
 11
82.581387654
 21
183.5440550646
  0
LINE
  5
220
100
AcDbEntity
  8
RUNDUNGEN
100
AcDbLine
 62
7
  6
CONTINUOUS
 10
154.0480064901
 20
183.5440550647
 11
159.581387654
 21
183.5440550646
  0
LINE
  5
221
100
AcDbEntity
  8
KONSTRUKTIONSELEMENTE
100
AcDbLine
 62
7
  6
CONTINUOUS
 10
86.206387654
 20
221.4852672312
 11
86.206387654
 21
220.9359498137
  0
LINE
  5
222
100
AcDbEntity
  8
KONSTRUKTIONSELEMENTE
100
AcDbLine
 62
7
  6
CONTINUOUS
 10
86.206387654
 20
218.3724678335
 11
86.206387654
 21
217.823150416
  0
LINE
  5
223
100
AcDbEntity
  8
KONSTRUKTIONSELEMENTE
100
AcDbLine
 62
7
  6
CONTINUOUS
 10
86.206387654
 20
215.8089879488
 11
86.206387654
 21
214.9850118225
  0
LINE
  5
224
100
AcDbEntity
  8
KONSTRUKTIONSELEMENTE
100
AcDbLine
 62
7
  6
CONTINUOUS
 10
86.206387654
 20
211.3228950073
 11
86.206387654
 21
210.8651301435
  0
LINE
  5
225
100
AcDbEntity
  8
KONSTRUKTIONSELEMENTE
100
AcDbLine
 62
7
  6
CONTINUOUS
 10
86.206387654
 20
207.3861205311
 11
86.206387654
 21
206.5621444049
  0
LINE
  5
226
100
AcDbEntity
  8
KONSTRUKTIONSELEMENTE
100
AcDbLine
 62
7
  6
CONTINUOUS
 10
86.206387654
 20
202.350710696
 11
86.206387654
 21
201.8013932785
  0
LINE
  5
227
100
AcDbEntity
  8
KONSTRUKTIONSELEMENTE
100
AcDbLine
 62
7
  6
CONTINUOUS
 10
86.206387654
 20
199.2379118222
 11
86.206387654
 21
198.6885944047
  0
LINE
  5
228
100
AcDbEntity
  8
KONSTRUKTIONSELEMENTE
100
AcDbLine
 62
7
  6
CONTINUOUS
 10
86.206387654
 20
197.956171094
 11
86.206387654
 21
197.4068536765
  0
LINE
  5
229
100
AcDbEntity
  8
KONSTRUKTIONSELEMENTE
100
AcDbLine
 62
7
  6
CONTINUOUS
 10
86.206387654
 20
194.8433724821
 11
86.206387654
 21
194.2940550646
  0
LINE
  5
22A
100
AcDbEntity
  8
KONSTRUKTIONSELEMENTE
100
AcDbLine
 62
7
  6
CONTINUOUS
 10
87.0361747892
 20
206.5621444049
 11
87.0361747892
 21
207.3861205311
  0
LINE
  5
22B
100
AcDbEntity
  8
KONSTRUKTIONSELEMENTE
100
AcDbLine
 62
7
  6
CONTINUOUS
 10
87.0361747892
 20
210.8651301435
 11
87.0361747892
 21
211.414447561
  0
LINE
  5
22C
100
AcDbEntity
  8
KONSTRUKTIONSELEMENTE
100
AcDbLine
 62
7
  6
CONTINUOUS
 10
87.0361747892
 20
214.9850118225
 11
87.0361747892
 21
215.8089879488
  0
LINE
  5
22D
100
AcDbEntity
  8
KONSTRUKTIONSELEMENTE
100
AcDbLine
 62
7
  6
CONTINUOUS
 10
87.7276640684
 20
211.9637660262
 11
87.7276640684
 21
212.5130834437
  0
LINE
  5
22E
100
AcDbEntity
  8
KONSTRUKTIONSELEMENTE
100
AcDbLine
 62
7
  6
CONTINUOUS
 10
87.8659623117
 20
208.118543056
 11
87.8659623117
 21
208.6678604735
  0
LINE
  5
22F
100
AcDbEntity
  8
KONSTRUKTIONSELEMENTE
100
AcDbLine
 62
7
  6
CONTINUOUS
 10
87.8659623117
 20
216.5414104736
 11
87.8659623117
 21
217.0907278911
  0
LINE
  5
230
100
AcDbEntity
  8
KONSTRUKTIONSELEMENTE
100
AcDbLine
 62
7
  6
CONTINUOUS
 10
88.8340473027
 20
220.9359498137
 11
88.8340473027
 21
218.3724678335
  0
LINE
  5
231
100
AcDbEntity
  8
KONSTRUKTIONSELEMENTE
100
AcDbLine
 62
7
  6
CONTINUOUS
 10
88.9723451585
 20
211.414447561
 11
88.9723451585
 21
210.8651301435
  0
LINE
  5
232
100
AcDbEntity
  8
KONSTRUKTIONSELEMENTE
100
AcDbLine
 62
7
  6
CONTINUOUS
 10
89.1106430144
 20
208.6678604735
 11
89.1106430144
 21
207.2945669297
  0
LINE
  5
233
100
AcDbEntity
  8
KONSTRUKTIONSELEMENTE
100
AcDbLine
 62
7
  6
CONTINUOUS
 10
86.3446855099
 20
216.2667517649
 11
86.206387654
 21
215.8089879488
  0
LINE
  5
234
100
AcDbEntity
  8
KONSTRUKTIONSELEMENTE
100
AcDbLine
 62
7
  6
CONTINUOUS
 10
86.3446855099
 20
211.7806598712
 11
86.206387654
 21
211.3228950073
  0
LINE
  5
235
100
AcDbEntity
  8
KONSTRUKTIONSELEMENTE
100
AcDbLine
 62
7
  6
CONTINUOUS
 10
86.3446855099
 20
207.8438843472
 11
86.206387654
 21
207.3861205311
  0
LINE
  5
236
100
AcDbEntity
  8
KONSTRUKTIONSELEMENTE
100
AcDbLine
 62
7
  6
CONTINUOUS
 10
87.0361747892
 20
215.8089879488
 11
87.174472645
 21
216.1751981635
  0
LINE
  5
237
100
AcDbEntity
  8
KONSTRUKTIONSELEMENTE
100
AcDbLine
 62
7
  6
CONTINUOUS
 10
86.6212812216
 20
216.632964075
 11
86.3446855099
 21
216.2667517649
  0
LINE
  5
238
100
AcDbEntity
  8
KONSTRUKTIONSELEMENTE
100
AcDbLine
 62
7
  6
CONTINUOUS
 10
141.1851110459
 20
197.1454709934
 11
141.6000047103
 21
197.255541845
  0
LINE
  5
239
100
AcDbEntity
  8
KONSTRUKTIONSELEMENTE
100
AcDbLine
 62
7
  6
CONTINUOUS
 10
87.4510683567
 20
205.9212733859
 11
87.174472645
 21
206.1959320947
  0
LINE
  5
23A
100
AcDbEntity
  8
KONSTRUKTIONSELEMENTE
100
AcDbLine
 62
7
  6
CONTINUOUS
 10
86.3446855099
 20
206.104379541
 11
86.6212812216
 21
205.7381682786
  0
LINE
  5
23B
100
AcDbEntity
  8
KONSTRUKTIONSELEMENTE
100
AcDbLine
 62
7
  6
CONTINUOUS
 10
87.174472645
 20
210.5904714347
 11
87.0361747892
 21
210.8651301435
  0
LINE
  5
23C
100
AcDbEntity
  8
KONSTRUKTIONSELEMENTE
100
AcDbLine
 62
7
  6
CONTINUOUS
 10
87.174472645
 20
206.1959320947
 11
87.0361747892
 21
206.5621444049
  0
LINE
  5
23D
100
AcDbEntity
  8
KONSTRUKTIONSELEMENTE
100
AcDbLine
 62
7
  6
CONTINUOUS
 10
86.206387654
 20
210.8651301435
 11
86.3446855099
 21
210.4989188811
  0
LINE
  5
23E
100
AcDbEntity
  8
KONSTRUKTIONSELEMENTE
100
AcDbLine
 62
7
  6
CONTINUOUS
 10
87.174472645
 20
214.6187995124
 11
87.0361747892
 21
214.9850118225
  0
LINE
  5
23F
100
AcDbEntity
  8
KONSTRUKTIONSELEMENTE
100
AcDbLine
 62
7
  6
CONTINUOUS
 10
86.206387654
 20
206.5621444049
 11
86.3446855099
 21
206.104379541
  0
LINE
  5
240
100
AcDbEntity
  8
KONSTRUKTIONSELEMENTE
100
AcDbLine
 62
7
  6
CONTINUOUS
 10
86.206387654
 20
214.9850118225
 11
86.3446855099
 21
214.5272459109
  0
LINE
  5
241
100
AcDbEntity
  8
KONSTRUKTIONSELEMENTE
100
AcDbLine
 62
7
  6
CONTINUOUS
 10
89.6638344378
 20
204.3648747348
 11
89.6638344378
 21
203.0831337447
  0
LINE
  5
242
100
AcDbEntity
  8
KONSTRUKTIONSELEMENTE
100
AcDbLine
 62
7
  6
CONTINUOUS
 10
89.6638344378
 20
218.3724678335
 11
89.6638344378
 21
220.9359498137
  0
LINE
  5
243
100
AcDbEntity
  8
KONSTRUKTIONSELEMENTE
100
AcDbLine
 62
7
  6
CONTINUOUS
 10
89.8021322937
 20
210.8651301435
 11
89.8021322937
 21
211.414447561
  0
LINE
  5
244
100
AcDbEntity
  8
KONSTRUKTIONSELEMENTE
100
AcDbLine
 62
7
  6
CONTINUOUS
 10
89.9404301495
 20
207.2945669297
 11
89.9404301495
 21
208.118543056
  0
LINE
  5
245
100
AcDbEntity
  8
KONSTRUKTIONSELEMENTE
100
AcDbLine
 62
7
  6
CONTINUOUS
 10
90.3553239108
 20
203.0831337447
 11
90.3553239108
 21
204.3648747348
  0
LINE
  5
246
100
AcDbEntity
  8
KONSTRUKTIONSELEMENTE
100
AcDbLine
 62
7
  6
CONTINUOUS
 10
90.9085153342
 20
209.9496014636
 11
90.9085153342
 21
209.4002840461
  0
LINE
  5
247
100
AcDbEntity
  8
KONSTRUKTIONSELEMENTE
100
AcDbLine
 62
7
  6
CONTINUOUS
 10
91.0468131901
 20
217.0907278911
 11
91.0468131901
 21
216.5414104736
  0
LINE
  5
248
100
AcDbEntity
  8
KONSTRUKTIONSELEMENTE
100
AcDbLine
 62
7
  6
CONTINUOUS
 10
91.876600422
 20
215.8089879488
 11
91.876600422
 21
214.9850118225
  0
LINE
  5
249
100
AcDbEntity
  8
KONSTRUKTIONSELEMENTE
100
AcDbLine
 62
7
  6
CONTINUOUS
 10
91.876600422
 20
211.414447561
 11
91.876600422
 21
210.6820250361
  0
LINE
  5
24A
100
AcDbEntity
  8
KONSTRUKTIONSELEMENTE
100
AcDbLine
 62
7
  6
CONTINUOUS
 10
91.876600422
 20
207.3861205311
 11
91.876600422
 21
206.5621444049
  0
LINE
  5
24B
100
AcDbEntity
  8
KONSTRUKTIONSELEMENTE
100
AcDbLine
 62
7
  6
CONTINUOUS
 10
92.706387654
 20
195.758901555
 11
92.706387654
 21
196.4913247347
  0
LINE
  5
24C
100
AcDbEntity
  8
KONSTRUKTIONSELEMENTE
100
AcDbLine
 62
7
  6
CONTINUOUS
 10
92.706387654
 20
200.153441026
 11
92.706387654
 21
200.8858640747
  0
LINE
  5
24D
100
AcDbEntity
  8
KONSTRUKTIONSELEMENTE
100
AcDbLine
 62
7
  6
CONTINUOUS
 10
92.706387654
 20
206.5621444049
 11
92.706387654
 21
207.3861205311
  0
LINE
  5
24E
100
AcDbEntity
  8
KONSTRUKTIONSELEMENTE
100
AcDbLine
 62
7
  6
CONTINUOUS
 10
92.706387654
 20
210.6820250361
 11
92.706387654
 21
211.414447561
  0
LINE
  5
24F
100
AcDbEntity
  8
KONSTRUKTIONSELEMENTE
100
AcDbLine
 62
7
  6
CONTINUOUS
 10
92.706387654
 20
214.9850118225
 11
92.706387654
 21
215.8089879488
  0
LINE
  5
250
100
AcDbEntity
  8
KONSTRUKTIONSELEMENTE
100
AcDbLine
 62
7
  6
CONTINUOUS
 10
92.706387654
 20
217.823150416
 11
92.706387654
 21
218.3724678335
  0
LINE
  5
251
100
AcDbEntity
  8
KONSTRUKTIONSELEMENTE
100
AcDbLine
 62
7
  6
CONTINUOUS
 10
92.706387654
 20
220.9359498137
 11
92.706387654
 21
221.4852672312
  0
LWPOLYLINE
  5
252
100
AcDbEntity
  8
KONSTRUKTIONSELEMENTE
100
AcDbPolyline
 62
7
  6
CONTINUOUS
 90
10
 70
0
 10
95.5118883472
 20
237.5440836076
 10
95.4092028947
 20
236.9452536786
 10
95.1908568295
 20
236.1269865624
 10
94.8840062534
 20
235.3291681326
 10
94.4911158195
 20
234.5640715001
 10
94.0167635147
 20
233.8434150471
 10
93.4675111998
 20
233.177976565
 10
92.8516897957
 20
232.5772288062
 10
92.1801887026
 20
232.0497843398
 10
91.7104373812
 20
231.7437756449
  0
LINE
  5
253
100
AcDbEntity
  8
KONSTRUKTIONSELEMENTE
100
AcDbLine
 62
7
  6
CONTINUOUS
 10
89.1106430144
 20
211.8722124248
 11
88.9723451585
 21
211.414447561
  0
LINE
  5
254
100
AcDbEntity
  8
KONSTRUKTIONSELEMENTE
100
AcDbLine
 62
7
  6
CONTINUOUS
 10
92.5680897861
 20
214.5272459109
 11
92.706387654
 21
214.9850118225
  0
LINE
  5
255
100
AcDbEntity
  8
KONSTRUKTIONSELEMENTE
100
AcDbLine
 62
7
  6
CONTINUOUS
 10
92.5680897861
 20
210.2242601723
 11
92.706387654
 21
210.6820250361
  0
LINE
  5
256
100
AcDbEntity
  8
KONSTRUKTIONSELEMENTE
100
AcDbLine
 62
7
  6
CONTINUOUS
 10
87.0361747892
 20
207.3861205311
 11
87.174472645
 21
207.7523317935
  0
LINE
  5
257
100
AcDbEntity
  8
KONSTRUKTIONSELEMENTE
100
AcDbLine
 62
7
  6
CONTINUOUS
 10
89.8021322937
 20
211.414447561
 11
89.9404301495
 21
211.7806598712
  0
LINE
  5
258
100
AcDbEntity
  8
KONSTRUKTIONSELEMENTE
100
AcDbLine
 62
7
  6
CONTINUOUS
 10
89.6638344378
 20
210.4989188811
 11
89.8021322937
 21
210.8651301435
  0
LINE
  5
259
100
AcDbEntity
  8
KONSTRUKTIONSELEMENTE
100
AcDbLine
 62
7
  6
CONTINUOUS
 10
91.876600422
 20
214.9850118225
 11
91.7383025662
 21
214.6187995124
  0
LINE
  5
25A
100
AcDbEntity
  8
KONSTRUKTIONSELEMENTE
100
AcDbLine
 62
7
  6
CONTINUOUS
 10
91.876600422
 20
210.6820250361
 11
91.7383025662
 21
210.315812726
  0
LINE
  5
25B
100
AcDbEntity
  8
KONSTRUKTIONSELEMENTE
100
AcDbLine
 62
7
  6
CONTINUOUS
 10
87.0361747892
 20
211.414447561
 11
87.174472645
 21
211.6891062697
  0
LINE
  5
25C
100
AcDbEntity
  8
KONSTRUKTIONSELEMENTE
100
AcDbLine
 62
7
  6
CONTINUOUS
 10
88.9723451585
 20
210.8651301435
 11
88.8340473027
 21
210.5904714347
  0
LINE
  5
25D
100
AcDbEntity
  8
KONSTRUKTIONSELEMENTE
100
AcDbLine
 62
7
  6
CONTINUOUS
 10
89.3872387261
 20
212.238424735
 11
89.1106430144
 21
211.8722124248
  0
LINE
  5
25E
100
AcDbEntity
  8
KONSTRUKTIONSELEMENTE
100
AcDbLine
 62
7
  6
CONTINUOUS
 10
86.6212812216
 20
208.2100966574
 11
86.3446855099
 21
207.8438843472
  0
LINE
  5
25F
100
AcDbEntity
  8
KONSTRUKTIONSELEMENTE
100
AcDbLine
 62
7
  6
CONTINUOUS
 10
87.174472645
 20
216.1751981635
 11
87.4510683567
 21
216.4498568722
  0
LINE
  5
260
100
AcDbEntity
  8
KONSTRUKTIONSELEMENTE
100
AcDbLine
 62
7
  6
CONTINUOUS
 10
87.174472645
 20
216.9991742897
 11
86.6212812216
 21
216.632964075
  0
LINE
  5
261
100
AcDbEntity
  8
KONSTRUKTIONSELEMENTE
100
AcDbLine
 62
7
  6
CONTINUOUS
 10
140.6319196225
 20
201.1080196023
 11
140.0787280054
 21
200.9979492231
  0
LINE
  5
262
100
AcDbEntity
  8
KONSTRUKTIONSELEMENTE
100
AcDbLine
 62
7
  6
CONTINUOUS
 10
137.7276640684
 20
200.9979492231
 11
137.174472645
 21
200.8878782141
  0
LINE
  5
263
100
AcDbEntity
  8
KONSTRUKTIONSELEMENTE
100
AcDbLine
 62
7
  6
CONTINUOUS
 10
137.174472645
 20
194.9440550646
 11
138.2808558793
 21
194.9440550646
  0
LINE
  5
264
100
AcDbEntity
  8
KONSTRUKTIONSELEMENTE
100
AcDbLine
 62
7
  6
CONTINUOUS
 10
137.3127705009
 20
195.604479859
 11
142.706387654
 21
195.604479859
  0
LINE
  5
265
100
AcDbEntity
  8
KONSTRUKTIONSELEMENTE
100
AcDbLine
 62
7
  6
CONTINUOUS
 10
142.706387654
 20
196.2649046534
 11
136.206387654
 21
196.2649046534
  0
LINE
  5
266
100
AcDbEntity
  8
KONSTRUKTIONSELEMENTE
100
AcDbLine
 62
7
  6
CONTINUOUS
 10
92.706387654
 20
196.4913247347
 11
86.206387654
 21
197.956171094
  0
LINE
  5
267
100
AcDbEntity
  8
KONSTRUKTIONSELEMENTE
100
AcDbLine
 62
7
  6
CONTINUOUS
 10
86.206387654
 20
197.4068536765
 11
91.876600422
 21
196.1251130793
  0
LINE
  5
268
100
AcDbEntity
  8
KONSTRUKTIONSELEMENTE
100
AcDbLine
 62
7
  6
CONTINUOUS
 10
86.206387654
 20
201.8013932785
 11
91.876600422
 21
200.5196522884
  0
LINE
  5
269
100
AcDbEntity
  8
KONSTRUKTIONSELEMENTE
100
AcDbLine
 62
7
  6
CONTINUOUS
 10
87.8659623117
 20
205.7381682786
 11
87.4510683567
 21
205.9212733859
  0
LINE
  5
26A
100
AcDbEntity
  8
KONSTRUKTIONSELEMENTE
100
AcDbLine
 62
7
  6
CONTINUOUS
 10
86.6212812216
 20
205.7381682786
 11
87.174472645
 21
205.3719559684
  0
LINE
  5
26B
100
AcDbEntity
  8
KONSTRUKTIONSELEMENTE
100
AcDbLine
 62
7
  6
CONTINUOUS
 10
87.4510683567
 20
210.315812726
 11
87.174472645
 21
210.5904714347
  0
LINE
  5
26C
100
AcDbEntity
  8
KONSTRUKTIONSELEMENTE
100
AcDbLine
 62
7
  6
CONTINUOUS
 10
91.4617067576
 20
208.0269905023
 11
91.7383025662
 21
207.7523317935
  0
LINE
  5
26D
100
AcDbEntity
  8
KONSTRUKTIONSELEMENTE
100
AcDbLine
 62
7
  6
CONTINUOUS
 10
86.3446855099
 20
210.4989188811
 11
86.6212812216
 21
210.1327076186
  0
LINE
  5
26E
100
AcDbEntity
  8
KONSTRUKTIONSELEMENTE
100
AcDbLine
 62
7
  6
CONTINUOUS
 10
86.3446855099
 20
214.5272459109
 11
86.6212812216
 21
214.1610356963
  0
LINE
  5
26F
100
AcDbEntity
  8
KONSTRUKTIONSELEMENTE
100
AcDbLine
 62
7
  6
CONTINUOUS
 10
92.5680897861
 20
207.8438843472
 11
92.291494038
 21
208.2100966574
  0
LINE
  5
270
100
AcDbEntity
  8
KONSTRUKTIONSELEMENTE
100
AcDbLine
 62
7
  6
CONTINUOUS
 10
91.7383025662
 20
207.7523317935
 11
91.876600422
 21
207.3861205311
  0
LINE
  5
271
100
AcDbEntity
  8
KONSTRUKTIONSELEMENTE
100
AcDbLine
 62
7
  6
CONTINUOUS
 10
91.7383025662
 20
211.7806598712
 11
91.876600422
 21
211.414447561
  0
LINE
  5
272
100
AcDbEntity
  8
KONSTRUKTIONSELEMENTE
100
AcDbLine
 62
7
  6
CONTINUOUS
 10
91.7383025662
 20
216.1751981635
 11
91.876600422
 21
215.8089879488
  0
LINE
  5
273
100
AcDbEntity
  8
KONSTRUKTIONSELEMENTE
100
AcDbLine
 62
7
  6
CONTINUOUS
 10
92.706387654
 20
207.3861205311
 11
92.5680897861
 21
207.8438843472
  0
LINE
  5
274
100
AcDbEntity
  8
KONSTRUKTIONSELEMENTE
100
AcDbLine
 62
7
  6
CONTINUOUS
 10
92.706387654
 20
211.414447561
 11
92.5680897861
 21
211.8722124248
  0
LINE
  5
275
100
AcDbEntity
  8
KONSTRUKTIONSELEMENTE
100
AcDbLine
 62
7
  6
CONTINUOUS
 10
92.706387654
 20
215.8089879488
 11
92.5680897861
 21
216.2667517649
  0
LINE
  5
276
100
AcDbEntity
  8
RUNDUNGEN
100
AcDbLine
 62
7
  6
CONTINUOUS
 10
95.581387654
 20
228.3993763012
 11
95.581387654
 21
265.7317901101
  0
LINE
  5
277
100
AcDbEntity
  8
KONSTRUKTIONSELEMENTE
100
AcDbLine
 62
7
  6
CONTINUOUS
 10
97.581387654
 20
212.0440550646
 11
97.581387654
 21
194.5437831934
  0
LINE
  5
278
100
AcDbEntity
  8
RUNDUNGEN
100
AcDbLine
 62
7
  6
CONTINUOUS
 10
97.581387654
 20
148.5440550646
 11
97.581387654
 21
194.54377555
  0
LINE
  5
279
100
AcDbEntity
  8
KONSTRUKTIONSELEMENTE
100
AcDbLine
 62
7
  6
CONTINUOUS
 10
92.5680897861
 20
206.104379541
 11
92.706387654
 21
206.5621444049
  0
LINE
  5
27A
100
AcDbEntity
  8
KONSTRUKTIONSELEMENTE
100
AcDbLine
 62
7
  6
CONTINUOUS
 10
91.876600422
 20
206.5621444049
 11
91.7383025662
 21
206.1959320947
  0
LINE
  5
27B
100
AcDbEntity
  8
KONSTRUKTIONSELEMENTE
100
AcDbLine
 62
7
  6
CONTINUOUS
 10
92.291494038
 20
214.1610356963
 11
92.5680897861
 21
214.5272459109
  0
LINE
  5
27C
100
AcDbEntity
  8
KONSTRUKTIONSELEMENTE
100
AcDbLine
 62
7
  6
CONTINUOUS
 10
89.3872387261
 20
210.1327076186
 11
89.6638344378
 21
210.4989188811
  0
LINE
  5
27D
100
AcDbEntity
  8
KONSTRUKTIONSELEMENTE
100
AcDbLine
 62
7
  6
CONTINUOUS
 10
92.291494038
 20
205.7381682786
 11
92.5680897861
 21
206.104379541
  0
LINE
  5
27E
100
AcDbEntity
  8
KONSTRUKTIONSELEMENTE
100
AcDbLine
 62
7
  6
CONTINUOUS
 10
92.1531961822
 20
209.7664953085
 11
92.5680897861
 21
210.2242601723
  0
LINE
  5
27F
100
AcDbEntity
  8
KONSTRUKTIONSELEMENTE
100
AcDbLine
 62
7
  6
CONTINUOUS
 10
91.7383025662
 20
214.6187995124
 11
91.4617067576
 21
214.3441408036
  0
LINE
  5
280
100
AcDbEntity
  8
KONSTRUKTIONSELEMENTE
100
AcDbLine
 62
7
  6
CONTINUOUS
 10
89.9404301495
 20
211.7806598712
 11
90.2170258612
 21
212.0553175322
  0
LINE
  5
281
100
AcDbEntity
  8
KONSTRUKTIONSELEMENTE
100
AcDbLine
 62
7
  6
CONTINUOUS
 10
88.8340473027
 20
210.5904714347
 11
88.557451591
 21
210.315812726
  0
LINE
  5
282
100
AcDbEntity
  8
KONSTRUKTIONSELEMENTE
100
AcDbLine
 62
7
  6
CONTINUOUS
 10
87.174472645
 20
207.7523317935
 11
87.4510683567
 21
208.0269905023
  0
LINE
  5
283
100
AcDbEntity
  8
KONSTRUKTIONSELEMENTE
100
AcDbLine
 62
7
  6
CONTINUOUS
 10
86.7595790774
 20
212.1468711336
 11
86.3446855099
 21
211.7806598712
  0
LINE
  5
284
100
AcDbEntity
  8
KONSTRUKTIONSELEMENTE
100
AcDbLine
 62
7
  6
CONTINUOUS
 10
87.174472645
 20
211.6891062697
 11
87.4510683567
 21
211.8722124248
  0
LINE
  5
285
100
AcDbEntity
  8
KONSTRUKTIONSELEMENTE
100
AcDbLine
 62
7
  6
CONTINUOUS
 10
91.7383025662
 20
213.7948233861
 11
92.291494038
 21
214.1610356963
  0
LINE
  5
286
100
AcDbEntity
  8
KONSTRUKTIONSELEMENTE
100
AcDbLine
 62
7
  6
CONTINUOUS
 10
89.9404301495
 20
212.6046349497
 11
89.3872387261
 21
212.238424735
  0
LINE
  5
287
100
AcDbEntity
  8
KONSTRUKTIONSELEMENTE
100
AcDbLine
 62
7
  6
CONTINUOUS
 10
141.876600422
 20
206.8317013635
 11
136.206387654
 21
205.2907103866
  0
LINE
  5
288
100
AcDbEntity
  8
KONSTRUKTIONSELEMENTE
100
AcDbLine
 62
7
  6
CONTINUOUS
 10
136.206387654
 20
204.6302855922
 11
142.706387654
 21
206.3914185872
  0
LINE
  5
289
100
AcDbEntity
  8
KONSTRUKTIONSELEMENTE
100
AcDbLine
 62
7
  6
CONTINUOUS
 10
91.876600422
 20
196.1251130793
 11
86.206387654
 21
194.8433724821
  0
LINE
  5
28A
100
AcDbEntity
  8
KONSTRUKTIONSELEMENTE
100
AcDbLine
 62
7
  6
CONTINUOUS
 10
86.206387654
 20
194.2940550646
 11
92.706387654
 21
195.758901555
  0
LINE
  5
28B
100
AcDbEntity
  8
KONSTRUKTIONSELEMENTE
100
AcDbLine
 62
7
  6
CONTINUOUS
 10
139.1106430144
 20
198.9066038309
 11
139.6638344378
 21
198.9066038309
  0
LINE
  5
28C
100
AcDbEntity
  8
KONSTRUKTIONSELEMENTE
100
AcDbLine
 62
7
  6
CONTINUOUS
 10
137.7276640684
 20
200.4475948079
 11
138.0042601676
 21
200.4475948079
  0
LINE
  5
28D
100
AcDbEntity
  8
KONSTRUKTIONSELEMENTE
100
AcDbLine
 62
7
  6
CONTINUOUS
 10
140.6319196225
 20
200.5576658169
 11
141.1851110459
 21
200.5576658169
  0
LINE
  5
28E
100
AcDbEntity
  8
KONSTRUKTIONSELEMENTE
100
AcDbLine
 62
7
  6
CONTINUOUS
 10
138.0042601676
 20
200.9979492231
 11
137.7276640684
 21
200.9979492231
  0
LINE
  5
28F
100
AcDbEntity
  8
KONSTRUKTIONSELEMENTE
100
AcDbLine
 62
7
  6
CONTINUOUS
 10
141.1851110459
 20
201.1080196023
 11
140.6319196225
 21
201.1080196023
  0
LINE
  5
290
100
AcDbEntity
  8
KONSTRUKTIONSELEMENTE
100
AcDbLine
 62
7
  6
CONTINUOUS
 10
87.7276640684
 20
205.1888508611
 11
88.4191537351
 21
205.0972972597
  0
LINE
  5
291
100
AcDbEntity
  8
KONSTRUKTIONSELEMENTE
100
AcDbLine
 62
7
  6
CONTINUOUS
 10
88.4191537351
 20
205.6466146772
 11
87.8659623117
 21
205.7381682786
  0
LINE
  5
292
100
AcDbEntity
  8
KONSTRUKTIONSELEMENTE
100
AcDbLine
 62
7
  6
CONTINUOUS
 10
92.706387654
 20
200.8858640747
 11
86.206387654
 21
202.350710696
  0
LINE
  5
293
100
AcDbEntity
  8
KONSTRUKTIONSELEMENTE
100
AcDbLine
 62
7
  6
CONTINUOUS
 10
87.174472645
 20
205.3719559684
 11
87.7276640684
 21
205.1888508611
  0
LINE
  5
294
100
AcDbEntity
  8
KONSTRUKTIONSELEMENTE
100
AcDbLine
 62
7
  6
CONTINUOUS
 10
86.6212812216
 20
210.1327076186
 11
87.174472645
 21
209.7664953085
  0
LINE
  5
295
100
AcDbEntity
  8
KONSTRUKTIONSELEMENTE
100
AcDbLine
 62
7
  6
CONTINUOUS
 10
92.291494038
 20
208.2100966574
 11
91.7383025662
 21
208.5763079198
  0
LINE
  5
296
100
AcDbEntity
  8
KONSTRUKTIONSELEMENTE
100
AcDbLine
 62
7
  6
CONTINUOUS
 10
86.6212812216
 20
214.1610356963
 11
87.174472645
 21
213.7948233861
  0
LINE
  5
297
100
AcDbEntity
  8
KONSTRUKTIONSELEMENTE
100
AcDbLine
 62
7
  6
CONTINUOUS
 10
92.291494038
 20
212.238424735
 11
91.7383025662
 21
212.6046349497
  0
LINE
  5
298
100
AcDbEntity
  8
KONSTRUKTIONSELEMENTE
100
AcDbLine
 62
7
  6
CONTINUOUS
 10
87.4510683567
 20
214.3441408036
 11
87.174472645
 21
214.6187995124
  0
LINE
  5
299
100
AcDbEntity
  8
KONSTRUKTIONSELEMENTE
100
AcDbLine
 62
7
  6
CONTINUOUS
 10
91.4617067576
 20
212.0553175322
 11
91.7383025662
 21
211.7806598712
  0
LINE
  5
29A
100
AcDbEntity
  8
KONSTRUKTIONSELEMENTE
100
AcDbLine
 62
7
  6
CONTINUOUS
 10
91.4617067576
 20
216.4498568722
 11
91.7383025662
 21
216.1751981635
  0
LINE
  5
29B
100
AcDbEntity
  8
KONSTRUKTIONSELEMENTE
100
AcDbLine
 62
7
  6
CONTINUOUS
 10
92.5680897861
 20
211.8722124248
 11
92.291494038
 21
212.238424735
  0
LINE
  5
29C
100
AcDbEntity
  8
KONSTRUKTIONSELEMENTE
100
AcDbLine
 62
7
  6
CONTINUOUS
 10
92.5680897861
 20
216.2667517649
 11
92.291494038
 21
216.632964075
  0
LINE
  5
29D
100
AcDbEntity
  8
KONSTRUKTIONSELEMENTE
100
AcDbLine
 62
7
  6
CONTINUOUS
 10
91.7383025662
 20
206.1959320947
 11
91.4617067576
 21
205.9212733859
  0
LINE
  5
29E
100
AcDbEntity
  8
KONSTRUKTIONSELEMENTE
100
AcDbLine
 62
7
  6
CONTINUOUS
 10
88.8340473027
 20
209.7664953085
 11
89.3872387261
 21
210.1327076186
  0
LINE
  5
29F
100
AcDbEntity
  8
KONSTRUKTIONSELEMENTE
100
AcDbLine
 62
7
  6
CONTINUOUS
 10
87.174472645
 20
208.5763079198
 11
86.6212812216
 21
208.2100966574
  0
LINE
  5
2A0
100
AcDbEntity
  8
KONSTRUKTIONSELEMENTE
100
AcDbLine
 62
7
  6
CONTINUOUS
 10
91.7383025662
 20
210.315812726
 11
91.3234089018
 21
210.0411540172
  0
LINE
  5
2A1
100
AcDbEntity
  8
KONSTRUKTIONSELEMENTE
100
AcDbLine
 62
7
  6
CONTINUOUS
 10
87.3127705009
 20
212.4215298423
 11
86.7595790774
 21
212.1468711336
  0
LINE
  5
2A2
100
AcDbEntity
  8
KONSTRUKTIONSELEMENTE
100
AcDbLine
 62
7
  6
CONTINUOUS
 10
91.4617067576
 20
214.3441408036
 11
91.0468131901
 21
214.1610356963
  0
LINE
  5
2A3
100
AcDbEntity
  8
KONSTRUKTIONSELEMENTE
100
AcDbLine
 62
7
  6
CONTINUOUS
 10
90.2170258612
 20
212.0553175322
 11
90.6319196225
 21
212.238424735
  0
LINE
  5
2A4
100
AcDbEntity
  8
KONSTRUKTIONSELEMENTE
100
AcDbLine
 62
7
  6
CONTINUOUS
 10
91.1851110459
 20
213.6117182788
 11
91.7383025662
 21
213.7948233861
  0
LINE
  5
2A5
100
AcDbEntity
  8
KONSTRUKTIONSELEMENTE
100
AcDbLine
 62
7
  6
CONTINUOUS
 10
87.4510683567
 20
211.8722124248
 11
87.7276640684
 21
211.9637660262
  0
LINE
  5
2A6
100
AcDbEntity
  8
KONSTRUKTIONSELEMENTE
100
AcDbLine
 62
7
  6
CONTINUOUS
 10
90.4936217667
 20
212.7877421525
 11
89.9404301495
 21
212.6046349497
  0
LINE
  5
2A7
100
AcDbEntity
  8
KONSTRUKTIONSELEMENTE
100
AcDbLine
 62
7
  6
CONTINUOUS
 10
137.3127705009
 20
214.7567988961
 11
137.7276640684
 21
214.8668692753
  0
LINE
  5
2A8
100
AcDbEntity
  8
KONSTRUKTIONSELEMENTE
100
AcDbLine
 62
7
  6
CONTINUOUS
 10
91.876600422
 20
200.5196522884
 11
86.206387654
 21
199.2379118222
  0
LINE
  5
2A9
100
AcDbEntity
  8
KONSTRUKTIONSELEMENTE
100
AcDbLine
 62
7
  6
CONTINUOUS
 10
86.206387654
 20
198.6885944047
 11
92.706387654
 21
200.153441026
  0
LINE
  5
2AA
100
AcDbEntity
  8
KONSTRUKTIONSELEMENTE
100
AcDbLine
 62
7
  6
CONTINUOUS
 10
90.4936217667
 20
205.0972972597
 11
91.1851110459
 21
205.1888508611
  0
LINE
  5
2AB
100
AcDbEntity
  8
KONSTRUKTIONSELEMENTE
100
AcDbLine
 62
7
  6
CONTINUOUS
 10
89.6638344378
 20
203.0831337447
 11
90.3553239108
 21
203.0831337447
  0
LINE
  5
2AC
100
AcDbEntity
  8
KONSTRUKTIONSELEMENTE
100
AcDbLine
 62
7
  6
CONTINUOUS
 10
90.3553239108
 20
204.3648747348
 11
89.6638344378
 21
204.3648747348
  0
LINE
  5
2AD
100
AcDbEntity
  8
KONSTRUKTIONSELEMENTE
100
AcDbLine
 62
7
  6
CONTINUOUS
 10
88.4191537351
 20
205.0972972597
 11
90.4936217667
 21
205.0972972597
  0
LINE
  5
2AE
100
AcDbEntity
  8
KONSTRUKTIONSELEMENTE
100
AcDbLine
 62
7
  6
CONTINUOUS
 10
90.4936217667
 20
205.6466146772
 11
88.4191537351
 21
205.6466146772
  0
LINE
  5
2AF
100
AcDbEntity
  8
KONSTRUKTIONSELEMENTE
100
AcDbLine
 62
7
  6
CONTINUOUS
 10
89.1106430144
 20
207.2945669297
 11
89.9404301495
 21
207.2945669297
  0
LINE
  5
2B0
100
AcDbEntity
  8
KONSTRUKTIONSELEMENTE
100
AcDbLine
 62
7
  6
CONTINUOUS
 10
89.9404301495
 20
208.118543056
 11
91.0468131901
 21
208.118543056
  0
LINE
  5
2B1
100
AcDbEntity
  8
KONSTRUKTIONSELEMENTE
100
AcDbLine
 62
7
  6
CONTINUOUS
 10
91.7383025662
 20
208.5763079198
 11
91.1851110459
 21
208.6678604735
  0
LINE
  5
2B2
100
AcDbEntity
  8
KONSTRUKTIONSELEMENTE
100
AcDbLine
 62
7
  6
CONTINUOUS
 10
87.174472645
 20
209.7664953085
 11
87.7276640684
 21
209.6749427548
  0
LINE
  5
2B3
100
AcDbEntity
  8
KONSTRUKTIONSELEMENTE
100
AcDbLine
 62
7
  6
CONTINUOUS
 10
137.174472645
 20
197.3656126965
 11
137.7276640684
 21
197.255541845
  0
LINE
  5
2B4
100
AcDbEntity
  8
KONSTRUKTIONSELEMENTE
100
AcDbLine
 62
7
  6
CONTINUOUS
 10
138.557451591
 20
200.8878782141
 11
138.0042601676
 21
200.9979492231
  0
LINE
  5
2B5
100
AcDbEntity
  8
KONSTRUKTIONSELEMENTE
100
AcDbLine
 62
7
  6
CONTINUOUS
 10
91.0468131901
 20
208.118543056
 11
91.4617067576
 21
208.0269905023
  0
LINE
  5
2B6
100
AcDbEntity
  8
KONSTRUKTIONSELEMENTE
100
AcDbLine
 62
7
  6
CONTINUOUS
 10
87.8659623117
 20
210.2242601723
 11
87.4510683567
 21
210.315812726
  0
LINE
  5
2B7
100
AcDbEntity
  8
KONSTRUKTIONSELEMENTE
100
AcDbLine
 62
7
  6
CONTINUOUS
 10
87.174472645
 20
213.7948233861
 11
87.7276640684
 21
213.6117182788
  0
LINE
  5
2B8
100
AcDbEntity
  8
KONSTRUKTIONSELEMENTE
100
AcDbLine
 62
7
  6
CONTINUOUS
 10
91.7383025662
 20
212.6046349497
 11
91.1851110459
 21
212.7877421525
  0
LINE
  5
2B9
100
AcDbEntity
  8
KONSTRUKTIONSELEMENTE
100
AcDbLine
 62
7
  6
CONTINUOUS
 10
91.0468131901
 20
212.238424735
 11
91.4617067576
 21
212.0553175322
  0
LINE
  5
2BA
100
AcDbEntity
  8
KONSTRUKTIONSELEMENTE
100
AcDbLine
 62
7
  6
CONTINUOUS
 10
87.8659623117
 20
214.1610356963
 11
87.4510683567
 21
214.3441408036
  0
LINE
  5
2BB
100
AcDbEntity
  8
KONSTRUKTIONSELEMENTE
100
AcDbLine
 62
7
  6
CONTINUOUS
 10
92.291494038
 20
216.632964075
 11
91.7383025662
 21
216.9991742897
  0
LINE
  5
2BC
100
AcDbEntity
  8
KONSTRUKTIONSELEMENTE
100
AcDbLine
 62
7
  6
CONTINUOUS
 10
91.7383025662
 20
205.3719559684
 11
92.291494038
 21
205.7381682786
  0
LINE
  5
2BD
100
AcDbEntity
  8
KONSTRUKTIONSELEMENTE
100
AcDbLine
 62
7
  6
CONTINUOUS
 10
91.4617067576
 20
205.9212733859
 11
91.0468131901
 21
205.7381682786
  0
LINE
  5
2BE
100
AcDbEntity
  8
KONSTRUKTIONSELEMENTE
100
AcDbLine
 62
7
  6
CONTINUOUS
 10
91.4617067576
 20
209.4918365997
 11
92.1531961822
 21
209.7664953085
  0
LINE
  5
2BF
100
AcDbEntity
  8
KONSTRUKTIONSELEMENTE
100
AcDbLine
 62
7
  6
CONTINUOUS
 10
137.7276640684
 20
215.5272940697
 11
137.3127705009
 21
215.4172236905
  0
LINE
  5
2C0
100
AcDbEntity
  8
KONSTRUKTIONSELEMENTE
100
AcDbLine
 62
7
  6
CONTINUOUS
 10
87.4510683567
 20
208.0269905023
 11
87.8659623117
 21
208.118543056
  0
LINE
  5
2C1
100
AcDbEntity
  8
KONSTRUKTIONSELEMENTE
100
AcDbLine
 62
7
  6
CONTINUOUS
 10
91.0468131901
 20
205.7381682786
 11
90.4936217667
 21
205.6466146772
  0
LINE
  5
2C2
100
AcDbEntity
  8
KONSTRUKTIONSELEMENTE
100
AcDbLine
 62
7
  6
CONTINUOUS
 10
90.9085153342
 20
209.4002840461
 11
91.4617067576
 21
209.4918365997
  0
LINE
  5
2C3
100
AcDbEntity
  8
KONSTRUKTIONSELEMENTE
100
AcDbLine
 62
7
  6
CONTINUOUS
 10
88.2808558793
 20
209.6749427548
 11
88.8340473027
 21
209.7664953085
  0
LINE
  5
2C4
100
AcDbEntity
  8
KONSTRUKTIONSELEMENTE
100
AcDbLine
 62
7
  6
CONTINUOUS
 10
87.8659623117
 20
208.6678604735
 11
87.174472645
 21
208.5763079198
  0
LINE
  5
2C5
100
AcDbEntity
  8
KONSTRUKTIONSELEMENTE
100
AcDbLine
 62
7
  6
CONTINUOUS
 10
91.1851110459
 20
208.6678604735
 11
89.1106430144
 21
208.6678604735
  0
LINE
  5
2C6
100
AcDbEntity
  8
KONSTRUKTIONSELEMENTE
100
AcDbLine
 62
7
  6
CONTINUOUS
 10
87.7276640684
 20
209.6749427548
 11
88.2808558793
 21
209.6749427548
  0
LINE
  5
2C7
100
AcDbEntity
  8
KONSTRUKTIONSELEMENTE
100
AcDbLine
 62
7
  6
CONTINUOUS
 10
136.206387654
 20
209.9136833174
 11
142.706387654
 21
209.9136833174
  0
LINE
  5
2C8
100
AcDbEntity
  8
KONSTRUKTIONSELEMENTE
100
AcDbLine
 62
7
  6
CONTINUOUS
 10
88.1425580234
 20
210.2242601723
 11
87.8659623117
 21
210.2242601723
  0
LINE
  5
2C9
100
AcDbEntity
  8
KONSTRUKTIONSELEMENTE
100
AcDbLine
 62
7
  6
CONTINUOUS
 10
142.706387654
 20
210.5741081118
 11
136.206387654
 21
210.5741081118
  0
LINE
  5
2CA
100
AcDbEntity
  8
KONSTRUKTIONSELEMENTE
100
AcDbLine
 62
7
  6
CONTINUOUS
 10
136.206387654
 20
211.4546749242
 11
142.706387654
 21
211.4546749242
  0
LINE
  5
2CB
100
AcDbEntity
  8
KONSTRUKTIONSELEMENTE
100
AcDbLine
 62
7
  6
CONTINUOUS
 10
142.706387654
 20
212.1150997186
 11
139.8021322937
 21
212.1150997186
  0
LINE
  5
2CC
100
AcDbEntity
  8
KONSTRUKTIONSELEMENTE
100
AcDbLine
 62
7
  6
CONTINUOUS
 10
138.9723451585
 20
212.1150997186
 11
136.8978769333
 21
212.1150997186
  0
LINE
  5
2CD
100
AcDbEntity
  8
KONSTRUKTIONSELEMENTE
100
AcDbLine
 62
7
  6
CONTINUOUS
 10
90.6319196225
 20
212.238424735
 11
91.0468131901
 21
212.238424735
  0
LINE
  5
2CE
100
AcDbEntity
  8
KONSTRUKTIONSELEMENTE
100
AcDbLine
 62
7
  6
CONTINUOUS
 10
91.1851110459
 20
212.7877421525
 11
90.4936217667
 21
212.7877421525
  0
LINE
  5
2CF
100
AcDbEntity
  8
KONSTRUKTIONSELEMENTE
100
AcDbLine
 62
7
  6
CONTINUOUS
 10
88.4191537351
 20
213.5201646773
 11
90.4936217667
 21
213.5201646773
  0
LINE
  5
2D0
100
AcDbEntity
  8
KONSTRUKTIONSELEMENTE
100
AcDbLine
 62
7
  6
CONTINUOUS
 10
87.7276640684
 20
213.6117182788
 11
88.4191537351
 21
213.5201646773
  0
LINE
  5
2D1
100
AcDbEntity
  8
KONSTRUKTIONSELEMENTE
100
AcDbLine
 62
7
  6
CONTINUOUS
 10
88.4191537351
 20
214.0694820949
 11
87.8659623117
 21
214.1610356963
  0
LINE
  5
2D2
100
AcDbEntity
  8
KONSTRUKTIONSELEMENTE
100
AcDbLine
 62
7
  6
CONTINUOUS
 10
91.0468131901
 20
216.5414104736
 11
91.4617067576
 21
216.4498568722
  0
LINE
  5
2D3
100
AcDbEntity
  8
KONSTRUKTIONSELEMENTE
100
AcDbLine
 62
7
  6
CONTINUOUS
 10
141.6000047103
 20
200.9979492231
 11
141.1851110459
 21
201.1080196023
  0
LINE
  5
2D4
100
AcDbEntity
  8
KONSTRUKTIONSELEMENTE
100
AcDbLine
 62
7
  6
CONTINUOUS
 10
138.0042601676
 20
200.4475948079
 11
138.557451591
 21
200.2274534197
  0
LINE
  5
2D5
100
AcDbEntity
  8
KONSTRUKTIONSELEMENTE
100
AcDbLine
 62
7
  6
CONTINUOUS
 10
141.1851110459
 20
200.5576658169
 11
141.4617067576
 21
200.4475948079
  0
LINE
  5
2D6
100
AcDbEntity
  8
KONSTRUKTIONSELEMENTE
100
AcDbLine
 62
7
  6
CONTINUOUS
 10
137.7276640684
 20
197.8058959453
 11
137.3127705009
 21
198.0260373335
  0
LINE
  5
2D7
100
AcDbEntity
  8
KONSTRUKTIONSELEMENTE
100
AcDbLine
 62
7
  6
CONTINUOUS
 10
136.206387654
 20
195.604479859
 11
137.174472645
 21
194.9440550646
  0
LINE
  5
2D8
100
AcDbEntity
  8
KONSTRUKTIONSELEMENTE
100
AcDbLine
 62
7
  6
CONTINUOUS
 10
138.2808558793
 20
194.9440550646
 11
137.3127705009
 21
195.604479859
  0
LINE
  5
2D9
100
AcDbEntity
  8
KONSTRUKTIONSELEMENTE
100
AcDbLine
 62
7
  6
CONTINUOUS
 10
91.1851110459
 20
205.1888508611
 11
91.7383025662
 21
205.3719559684
  0
LINE
  5
2DA
100
AcDbEntity
  8
KONSTRUKTIONSELEMENTE
100
AcDbLine
 62
7
  6
CONTINUOUS
 10
91.3234089018
 20
210.0411540172
 11
90.9085153342
 21
209.9496014636
  0
LINE
  5
2DB
100
AcDbEntity
  8
KONSTRUKTIONSELEMENTE
100
AcDbLine
 62
7
  6
CONTINUOUS
 10
88.557451591
 20
210.315812726
 11
88.1425580234
 21
210.2242601723
  0
LINE
  5
2DC
100
AcDbEntity
  8
KONSTRUKTIONSELEMENTE
100
AcDbLine
 62
7
  6
CONTINUOUS
 10
87.7276640684
 20
212.5130834437
 11
87.3127705009
 21
212.4215298423
  0
LINE
  5
2DD
100
AcDbEntity
  8
KONSTRUKTIONSELEMENTE
100
AcDbLine
 62
7
  6
CONTINUOUS
 10
91.0468131901
 20
214.1610356963
 11
90.4936217667
 21
214.0694820949
  0
LINE
  5
2DE
100
AcDbEntity
  8
KONSTRUKTIONSELEMENTE
100
AcDbLine
 62
7
  6
CONTINUOUS
 10
90.4936217667
 20
213.5201646773
 11
91.1851110459
 21
213.6117182788
  0
LINE
  5
2DF
100
AcDbEntity
  8
KONSTRUKTIONSELEMENTE
100
AcDbLine
 62
7
  6
CONTINUOUS
 10
90.4936217667
 20
214.0694820949
 11
88.4191537351
 21
214.0694820949
  0
LINE
  5
2E0
100
AcDbEntity
  8
KONSTRUKTIONSELEMENTE
100
AcDbLine
 62
7
  6
CONTINUOUS
 10
137.7276640684
 20
214.8668692753
 11
138.1425580234
 21
214.8668692753
  0
LINE
  5
2E1
100
AcDbEntity
  8
KONSTRUKTIONSELEMENTE
100
AcDbLine
 62
7
  6
CONTINUOUS
 10
138.2808558793
 20
215.5272940697
 11
137.7276640684
 21
215.5272940697
  0
LINE
  5
2E2
100
AcDbEntity
  8
KONSTRUKTIONSELEMENTE
100
AcDbLine
 62
7
  6
CONTINUOUS
 10
86.206387654
 20
217.823150416
 11
92.706387654
 21
217.823150416
  0
LINE
  5
2E3
100
AcDbEntity
  8
KONSTRUKTIONSELEMENTE
100
AcDbLine
 62
7
  6
CONTINUOUS
 10
103.581387654
 20
218.0440550646
 11
124.581387654
 21
218.0440550646
  0
LINE
  5
2E4
100
AcDbEntity
  8
KONSTRUKTIONSELEMENTE
100
AcDbLine
 62
7
  6
CONTINUOUS
 10
92.706387654
 20
218.3724678335
 11
89.6638344378
 21
218.3724678335
  0
LINE
  5
2E5
100
AcDbEntity
  8
KONSTRUKTIONSELEMENTE
100
AcDbLine
 62
7
  6
CONTINUOUS
 10
88.8340473027
 20
218.3724678335
 11
86.206387654
 21
218.3724678335
  0
LINE
  5
2E6
100
AcDbEntity
  8
KONSTRUKTIONSELEMENTE
100
AcDbLine
 62
7
  6
CONTINUOUS
 10
91.7383025662
 20
216.9991742897
 11
91.0468131901
 21
217.0907278911
  0
LINE
  5
2E7
100
AcDbEntity
  8
KONSTRUKTIONSELEMENTE
100
AcDbLine
 62
7
  6
CONTINUOUS
 10
142.706387654
 20
207.2719841399
 11
136.206387654
 21
209.0331177647
  0
LINE
  5
2E8
100
AcDbEntity
  8
KONSTRUKTIONSELEMENTE
100
AcDbLine
 62
7
  6
CONTINUOUS
 10
136.206387654
 20
208.3726929703
 11
141.876600422
 21
206.8317013635
  0
LINE
  5
2E9
100
AcDbEntity
  8
KONSTRUKTIONSELEMENTE
100
AcDbLine
 62
7
  6
CONTINUOUS
 10
137.5893662126
 20
203.4195063826
 11
141.0468131901
 21
201.9885864147
  0
LINE
  5
2EA
100
AcDbEntity
  8
KONSTRUKTIONSELEMENTE
100
AcDbLine
 62
7
  6
CONTINUOUS
 10
141.3234089018
 20
202.3187988119
 11
137.8659623117
 21
203.7497187798
  0
LINE
  5
2EB
100
AcDbEntity
  8
KONSTRUKTIONSELEMENTE
100
AcDbLine
 62
7
  6
CONTINUOUS
 10
138.9723451585
 20
200.6677368259
 11
138.557451591
 21
200.8878782141
  0
LINE
  5
2EC
100
AcDbEntity
  8
KONSTRUKTIONSELEMENTE
100
AcDbLine
 62
7
  6
CONTINUOUS
 10
142.0148982779
 20
200.7778072051
 11
141.6000047103
 21
200.9979492231
  0
LINE
  5
2ED
100
AcDbEntity
  8
KONSTRUKTIONSELEMENTE
100
AcDbLine
 62
7
  6
CONTINUOUS
 10
136.6212812216
 20
197.8058959453
 11
137.174472645
 21
197.3656126965
  0
LINE
  5
2EE
100
AcDbEntity
  8
KONSTRUKTIONSELEMENTE
100
AcDbLine
 62
7
  6
CONTINUOUS
 10
137.3127705009
 20
215.4172236905
 11
136.7595790774
 21
215.0870112933
  0
LINE
  5
2EF
100
AcDbEntity
  8
KONSTRUKTIONSELEMENTE
100
AcDbLine
 62
7
  6
CONTINUOUS
 10
87.4510683567
 20
216.4498568722
 11
87.8659623117
 21
216.5414104736
  0
LINE
  5
2F0
100
AcDbEntity
  8
KONSTRUKTIONSELEMENTE
100
AcDbLine
 62
7
  6
CONTINUOUS
 10
87.8659623117
 20
217.0907278911
 11
87.174472645
 21
216.9991742897
  0
LINE
  5
2F1
100
AcDbEntity
  8
KONSTRUKTIONSELEMENTE
100
AcDbLine
 62
7
  6
CONTINUOUS
 10
86.206387654
 20
220.9359498137
 11
88.8340473027
 21
220.9359498137
  0
LINE
  5
2F2
100
AcDbEntity
  8
KONSTRUKTIONSELEMENTE
100
AcDbLine
 62
7
  6
CONTINUOUS
 10
89.6638344378
 20
220.9359498137
 11
92.706387654
 21
220.9359498137
  0
LINE
  5
2F3
100
AcDbEntity
  8
KONSTRUKTIONSELEMENTE
100
AcDbLine
 62
7
  6
CONTINUOUS
 10
92.706387654
 20
221.4852672312
 11
86.206387654
 21
221.4852672312
  0
LINE
  5
2F4
100
AcDbEntity
  8
KONSTRUKTIONSELEMENTE
100
AcDbLine
 62
7
  6
CONTINUOUS
 10
138.1425580234
 20
214.8668692753
 11
138.557451591
 21
214.7567988961
  0
LINE
  5
2F5
100
AcDbEntity
  8
KONSTRUKTIONSELEMENTE
100
AcDbLine
 62
7
  6
CONTINUOUS
 10
138.6957494468
 20
215.4172236905
 11
138.2808558793
 21
215.5272940697
  0
LINE
  5
2F6
100
AcDbEntity
  8
KONSTRUKTIONSELEMENTE
100
AcDbLine
 62
7
  6
CONTINUOUS
 10
138.557451591
 20
200.2274534197
 11
138.8340473027
 21
200.0073117166
  0
LINE
  5
2F7
100
AcDbEntity
  8
KONSTRUKTIONSELEMENTE
100
AcDbLine
 62
7
  6
CONTINUOUS
 10
141.4617067576
 20
200.4475948079
 11
141.7383025662
 21
200.2274534197
  0
LINE
  5
2F8
100
AcDbEntity
  8
KONSTRUKTIONSELEMENTE
100
AcDbLine
 62
7
  6
CONTINUOUS
 10
137.3127705009
 20
198.0260373335
 11
137.0361747892
 21
198.3562497306
  0
LINE
  5
2F9
100
AcDbEntity
  8
KONSTRUKTIONSELEMENTE
100
AcDbLine
 62
7
  6
CONTINUOUS
 10
136.7595790774
 20
215.0870112933
 11
136.3446855099
 21
214.646728517
  0
LINE
  5
2FA
100
AcDbEntity
  8
KONSTRUKTIONSELEMENTE
100
AcDbLine
 62
7
  6
CONTINUOUS
 10
137.0361747892
 20
214.5366568781
 11
137.3127705009
 21
214.7567988961
  0
LINE
  5
2FB
100
AcDbEntity
  8
KONSTRUKTIONSELEMENTE
100
AcDbLine
 62
7
  6
CONTINUOUS
 10
139.2489408702
 20
215.0870112933
 11
138.6957494468
 21
215.4172236905
  0
LINE
  5
2FC
100
AcDbEntity
  8
KONSTRUKTIONSELEMENTE
100
AcDbLine
 62
7
  6
CONTINUOUS
 10
139.3872387261
 20
200.2274534197
 11
138.9723451585
 21
200.6677368259
  0
LINE
  5
2FD
100
AcDbEntity
  8
KONSTRUKTIONSELEMENTE
100
AcDbLine
 62
7
  6
CONTINUOUS
 10
142.291494038
 20
200.4475948079
 11
142.0148982779
 21
200.7778072051
  0
LINE
  5
2FE
100
AcDbEntity
  8
KONSTRUKTIONSELEMENTE
100
AcDbLine
 62
7
  6
CONTINUOUS
 10
136.3446855099
 20
198.2461790366
 11
136.6212812216
 21
197.8058959453
  0
LINE
  5
2FF
100
AcDbEntity
  8
RUNDUNGEN
100
AcDbLine
 62
7
  6
CONTINUOUS
 10
130.581387654
 20
194.5440550646
 11
130.581387654
 21
148.5440550646
  0
LINE
  5
300
100
AcDbEntity
  8
KONSTRUKTIONSELEMENTE
100
AcDbLine
 62
7
  6
CONTINUOUS
 10
130.581387654
 20
194.5440550624
 11
130.581387654
 21
212.0440550646
  0
LINE
  5
301
100
AcDbEntity
  8
RUNDUNGEN
100
AcDbLine
 62
7
  6
CONTINUOUS
 10
132.581387654
 20
265.7317901101
 11
132.581387654
 21
228.399418719
  0
LINE
  5
302
100
AcDbEntity
  8
KONSTRUKTIONSELEMENTE
100
AcDbLine
 62
7
  6
CONTINUOUS
 10
140.0787280054
 20
200.3375244287
 11
140.6319196225
 21
200.5576658169
  0
LINE
  5
303
100
AcDbEntity
  8
KONSTRUKTIONSELEMENTE
100
AcDbLine
 62
7
  6
CONTINUOUS
 10
138.557451591
 20
214.7567988961
 11
138.8340473027
 21
214.5366568781
  0
LINE
  5
304
100
AcDbEntity
  8
KONSTRUKTIONSELEMENTE
100
AcDbLine
 62
7
  6
CONTINUOUS
 10
139.6638344378
 20
214.646728517
 11
139.2489408702
 21
215.0870112933
  0
LINE
  5
305
100
AcDbEntity
  8
KONSTRUKTIONSELEMENTE
100
AcDbLine
 62
7
  6
CONTINUOUS
 10
141.7383025662
 20
200.2274534197
 11
141.876600422
 21
200.0073117166
  0
LINE
  5
306
100
AcDbEntity
  8
KONSTRUKTIONSELEMENTE
100
AcDbLine
 62
7
  6
CONTINUOUS
 10
142.5680897861
 20
200.0073117166
 11
142.291494038
 21
200.4475948079
  0
LINE
  5
307
100
AcDbEntity
  8
KONSTRUKTIONSELEMENTE
100
AcDbLine
 62
7
  6
CONTINUOUS
 10
138.8340473027
 20
200.0073117166
 11
139.1106430144
 21
199.3468869222
  0
LINE
  5
308
100
AcDbEntity
  8
KONSTRUKTIONSELEMENTE
100
AcDbLine
 62
7
  6
CONTINUOUS
 10
137.0361747892
 20
198.3562497306
 11
136.8978769333
 21
198.9066038309
  0
LINE
  5
309
100
AcDbEntity
  8
KONSTRUKTIONSELEMENTE
100
AcDbLine
 62
7
  6
CONTINUOUS
 10
136.206387654
 20
199.016674525
 11
136.3446855099
 21
198.2461790366
  0
LINE
  5
30A
100
AcDbEntity
  8
KONSTRUKTIONSELEMENTE
100
AcDbLine
 62
7
  6
CONTINUOUS
 10
136.206387654
 20
214.0963741018
 11
136.206387654
 21
211.4546749242
  0
LINE
  5
30B
100
AcDbEntity
  8
KONSTRUKTIONSELEMENTE
100
AcDbLine
 62
7
  6
CONTINUOUS
 10
136.206387654
 20
210.5741081118
 11
136.206387654
 21
209.9136833174
  0
LINE
  5
30C
100
AcDbEntity
  8
KONSTRUKTIONSELEMENTE
100
AcDbLine
 62
7
  6
CONTINUOUS
 10
136.206387654
 20
209.0331177647
 11
136.206387654
 21
208.3726929703
  0
LINE
  5
30D
100
AcDbEntity
  8
KONSTRUKTIONSELEMENTE
100
AcDbLine
 62
7
  6
CONTINUOUS
 10
136.206387654
 20
205.2907103866
 11
136.206387654
 21
204.6302855922
  0
LINE
  5
30E
100
AcDbEntity
  8
KONSTRUKTIONSELEMENTE
100
AcDbLine
 62
7
  6
CONTINUOUS
 10
136.206387654
 20
199.2368162281
 11
136.206387654
 21
199.016674525
  0
LINE
  5
30F
100
AcDbEntity
  8
KONSTRUKTIONSELEMENTE
100
AcDbLine
 62
7
  6
CONTINUOUS
 10
136.206387654
 20
196.2649046534
 11
136.206387654
 21
195.604479859
  0
LINE
  5
310
100
AcDbEntity
  8
KONSTRUKTIONSELEMENTE
100
AcDbLine
 62
7
  6
CONTINUOUS
 10
136.8978769333
 20
198.9066038309
 11
136.8978769333
 21
199.3468869222
  0
LINE
  5
311
100
AcDbEntity
  8
KONSTRUKTIONSELEMENTE
100
AcDbLine
 62
7
  6
CONTINUOUS
 10
136.8978769333
 20
212.1150997186
 11
136.8978769333
 21
214.2064444809
  0
LINE
  5
312
100
AcDbEntity
  8
KONSTRUKTIONSELEMENTE
100
AcDbLine
 62
7
  6
CONTINUOUS
 10
137.7276640684
 20
197.255541845
 11
137.7276640684
 21
197.8058959453
  0
LINE
  5
313
100
AcDbEntity
  8
KONSTRUKTIONSELEMENTE
100
AcDbLine
 62
7
  6
CONTINUOUS
 10
138.9723451585
 20
214.2064444809
 11
138.9723451585
 21
212.1150997186
  0
LINE
  5
314
100
AcDbEntity
  8
KONSTRUKTIONSELEMENTE
100
AcDbLine
 62
7
  6
CONTINUOUS
 10
139.1106430144
 20
199.3468869222
 11
139.1106430144
 21
198.9066038309
  0
LINE
  5
315
100
AcDbEntity
  8
KONSTRUKTIONSELEMENTE
100
AcDbLine
 62
7
  6
CONTINUOUS
 10
136.3446855099
 20
200.0073117166
 11
136.206387654
 21
199.2368162281
  0
LINE
  5
316
100
AcDbEntity
  8
KONSTRUKTIONSELEMENTE
100
AcDbLine
 62
7
  6
CONTINUOUS
 10
136.3446855099
 20
214.646728517
 11
136.206387654
 21
214.0963741018
  0
LINE
  5
317
100
AcDbEntity
  8
KONSTRUKTIONSELEMENTE
100
AcDbLine
 62
7
  6
CONTINUOUS
 10
136.8978769333
 20
199.3468869222
 11
137.0361747892
 21
199.8972410225
  0
LINE
  5
318
100
AcDbEntity
  8
KONSTRUKTIONSELEMENTE
100
AcDbLine
 62
7
  6
CONTINUOUS
 10
136.8978769333
 20
214.2064444809
 11
137.0361747892
 21
214.5366568781
  0
LINE
  5
319
100
AcDbEntity
  8
KONSTRUKTIONSELEMENTE
100
AcDbLine
 62
7
  6
CONTINUOUS
 10
136.6212812216
 20
200.4475948079
 11
136.3446855099
 21
200.0073117166
  0
LINE
  5
31A
100
AcDbEntity
  8
KONSTRUKTIONSELEMENTE
100
AcDbLine
 62
7
  6
CONTINUOUS
 10
137.8659623117
 20
203.7497187798
 11
137.5893662126
 21
203.4195063826
  0
LINE
  5
31B
100
AcDbEntity
  8
KONSTRUKTIONSELEMENTE
100
AcDbLine
 62
7
  6
CONTINUOUS
 10
137.0361747892
 20
199.8972410225
 11
137.3127705009
 21
200.2274534197
  0
LINE
  5
31C
100
AcDbEntity
  8
KONSTRUKTIONSELEMENTE
100
AcDbLine
 62
7
  6
CONTINUOUS
 10
137.174472645
 20
200.8878782141
 11
136.6212812216
 21
200.4475948079
  0
LINE
  5
31D
100
AcDbEntity
  8
KONSTRUKTIONSELEMENTE
100
AcDbLine
 62
7
  6
CONTINUOUS
 10
137.3127705009
 20
200.2274534197
 11
137.7276640684
 21
200.4475948079
  0
LINE
  5
31E
100
AcDbEntity
  8
KONSTRUKTIONSELEMENTE
100
AcDbLine
 62
7
  6
CONTINUOUS
 10
140.0787280054
 20
200.9979492231
 11
139.6638344378
 21
200.7778072051
  0
LINE
  5
31F
100
AcDbEntity
  8
KONSTRUKTIONSELEMENTE
100
AcDbLine
 62
7
  6
CONTINUOUS
 10
141.6000047103
 20
197.255541845
 11
142.0148982779
 21
197.4756833906
  0
LINE
  5
320
100
AcDbEntity
  8
KONSTRUKTIONSELEMENTE
100
AcDbLine
 62
7
  6
CONTINUOUS
 10
141.4617067576
 20
197.8058959453
 11
141.1851110459
 21
197.6958249363
  0
LINE
  5
321
100
AcDbEntity
  8
KONSTRUKTIONSELEMENTE
100
AcDbLine
 62
7
  6
CONTINUOUS
 10
138.8340473027
 20
214.5366568781
 11
138.9723451585
 21
214.2064444809
  0
LINE
  5
322
100
AcDbEntity
  8
KONSTRUKTIONSELEMENTE
100
AcDbLine
 62
7
  6
CONTINUOUS
 10
142.706387654
 20
199.5670286253
 11
142.5680897861
 21
200.0073117166
  0
LINE
  5
323
100
AcDbEntity
  8
KONSTRUKTIONSELEMENTE
100
AcDbLine
 62
7
  6
CONTINUOUS
 10
141.876600422
 20
200.0073117166
 11
142.0148982779
 21
199.4569579312
  0
LINE
  5
324
100
AcDbEntity
  8
KONSTRUKTIONSELEMENTE
100
AcDbLine
 62
7
  6
CONTINUOUS
 10
139.8021322937
 20
214.0963741018
 11
139.6638344378
 21
214.646728517
  0
LINE
  5
325
100
AcDbEntity
  8
KONSTRUKTIONSELEMENTE
100
AcDbLine
 62
7
  6
CONTINUOUS
 10
139.6638344378
 20
198.9066038309
 11
139.6638344378
 21
199.3468869222
  0
LINE
  5
326
100
AcDbEntity
  8
KONSTRUKTIONSELEMENTE
100
AcDbLine
 62
7
  6
CONTINUOUS
 10
139.8021322937
 20
212.1150997186
 11
139.8021322937
 21
214.0963741018
  0
LINE
  5
327
100
AcDbEntity
  8
KONSTRUKTIONSELEMENTE
100
AcDbLine
 62
7
  6
CONTINUOUS
 10
141.1851110459
 20
197.6958249363
 11
141.1851110459
 21
197.1454709934
  0
LINE
  5
328
100
AcDbEntity
  8
KONSTRUKTIONSELEMENTE
100
AcDbLine
 62
7
  6
CONTINUOUS
 10
142.0148982779
 20
199.4569579312
 11
142.0148982779
 21
198.7965331368
  0
LINE
  5
329
100
AcDbEntity
  8
KONSTRUKTIONSELEMENTE
100
AcDbLine
 62
7
  6
CONTINUOUS
 10
142.706387654
 20
195.604479859
 11
142.706387654
 21
196.2649046534
  0
LINE
  5
32A
100
AcDbEntity
  8
KONSTRUKTIONSELEMENTE
100
AcDbLine
 62
7
  6
CONTINUOUS
 10
142.706387654
 20
198.6864621278
 11
142.706387654
 21
199.5670286253
  0
LINE
  5
32B
100
AcDbEntity
  8
KONSTRUKTIONSELEMENTE
100
AcDbLine
 62
7
  6
CONTINUOUS
 10
142.706387654
 20
206.3914185872
 11
142.706387654
 21
207.2719841399
  0
LINE
  5
32C
100
AcDbEntity
  8
KONSTRUKTIONSELEMENTE
100
AcDbLine
 62
7
  6
CONTINUOUS
 10
142.706387654
 20
209.9136833174
 11
142.706387654
 21
210.5741081118
  0
LINE
  5
32D
100
AcDbEntity
  8
KONSTRUKTIONSELEMENTE
100
AcDbLine
 62
7
  6
CONTINUOUS
 10
142.706387654
 20
211.4546749242
 11
142.706387654
 21
212.1150997186
  0
LINE
  5
32E
100
AcDbEntity
  8
RUNDUNGEN
100
AcDbLine
 62
7
  6
CONTINUOUS
 10
144.581387654
 20
182.3011314368
 11
144.581387654
 21
156.4444048465
  0
LINE
  5
32F
100
AcDbEntity
  8
KONSTRUKTIONSELEMENTE
100
AcDbLine
 62
7
  6
CONTINUOUS
 10
139.6638344378
 20
199.3468869222
 11
139.8021322937
 21
200.0073117166
  0
LINE
  5
330
100
AcDbEntity
  8
KONSTRUKTIONSELEMENTE
100
AcDbLine
 62
7
  6
CONTINUOUS
 10
142.0148982779
 20
198.7965331368
 11
141.876600422
 21
198.2461790366
  0
LINE
  5
331
100
AcDbEntity
  8
KONSTRUKTIONSELEMENTE
100
AcDbLine
 62
7
  6
CONTINUOUS
 10
139.6638344378
 20
200.7778072051
 11
139.3872387261
 21
200.2274534197
  0
LINE
  5
332
100
AcDbEntity
  8
KONSTRUKTIONSELEMENTE
100
AcDbLine
 62
7
  6
CONTINUOUS
 10
141.876600422
 20
198.2461790366
 11
141.7383025662
 21
198.0260373335
  0
LINE
  5
333
100
AcDbEntity
  8
KONSTRUKTIONSELEMENTE
100
AcDbLine
 62
7
  6
CONTINUOUS
 10
141.0468131901
 20
201.9885864147
 11
141.3234089018
 21
202.3187988119
  0
LINE
  5
334
100
AcDbEntity
  8
KONSTRUKTIONSELEMENTE
100
AcDbLine
 62
7
  6
CONTINUOUS
 10
139.8021322937
 20
200.0073117166
 11
140.0787280054
 21
200.3375244287
  0
LINE
  5
335
100
AcDbEntity
  8
KONSTRUKTIONSELEMENTE
100
AcDbLine
 62
7
  6
CONTINUOUS
 10
142.0148982779
 20
197.4756833906
 11
142.291494038
 21
197.8058959453
  0
LINE
  5
336
100
AcDbEntity
  8
KONSTRUKTIONSELEMENTE
100
AcDbLine
 62
7
  6
CONTINUOUS
 10
141.7383025662
 20
198.0260373335
 11
141.4617067576
 21
197.8058959453
  0
LWPOLYLINE
  5
337
100
AcDbEntity
  8
KONSTRUKTIONSELEMENTE
100
AcDbPolyline
 62
7
  6
CONTINUOUS
 90
10
 70
0
 10
136.4523260932
 20
231.7437559242
 10
135.9800644694
 20
232.0515317306
 10
135.3078734234
 20
232.580022014
 10
134.6931742998
 20
233.180233679
 10
134.1454370789
 20
233.8441897517
 10
133.6722289643
 20
234.5631082808
 10
133.2796878961
 20
235.3271532221
 10
132.9723634229
 20
236.1256983949
 10
132.7531129205
 20
236.9476074583
 10
132.6509315643
 20
237.544073518
  0
LINE
  5
338
100
AcDbEntity
  8
KONSTRUKTIONSELEMENTE
100
AcDbLine
 62
7
  6
CONTINUOUS
 10
147.581387654
 20
194.5440550646
 11
147.581387654
 21
212.0440550646
  0
LINE
  5
339
100
AcDbEntity
  8
KONSTRUKTIONSELEMENTE
100
AcDbLine
 62
7
  6
CONTINUOUS
 10
142.5680897861
 20
198.2461790366
 11
142.706387654
 21
198.6864621278
  0
LINE
  5
33A
100
AcDbEntity
  8
KONSTRUKTIONSELEMENTE
100
AcDbLine
 62
7
  6
CONTINUOUS
 10
142.291494038
 20
197.8058959453
 11
142.5680897861
 21
198.2461790366
  0
LINE
  5
33B
100
AcDbEntity
  8
RUNDUNGEN
100
AcDbLine
 62
7
  6
CONTINUOUS
 10
161.581387654
 20
181.5440550646
 11
161.581387654
 21
148.5440550646
  0
LINE
  5
33C
100
AcDbEntity
  8
RUNDUNGEN
100
AcDbLine
 62
7
  6
CONTINUOUS
 10
130.4859413614
 20
270.1300144669
 11
132.1715803447
 21
267.2453626473
  0
LINE
  5
33D
100
AcDbEntity
  8
RUNDUNGEN
100
AcDbLine
 62
7
  6
CONTINUOUS
 10
296.3771299929
 20
146.5440550646
 11
294.3771299929
 21
146.5440550646
  0
LINE
  5
33E
100
AcDbEntity
  8
RUNDUNGEN
100
AcDbLine
 62
7
  6
CONTINUOUS
 10
292.0130283778
 20
151.5440550646
 11
298.741231608
 21
151.5440550646
  0
LINE
  5
33F
100
AcDbEntity
  8
RUNDUNGEN
100
AcDbLine
 62
7
  6
CONTINUOUS
 10
281.8771299929
 20
157.0866176489
 11
291.0130283778
 21
151.8120042571
  0
LINE
  5
340
100
AcDbEntity
  8
RUNDUNGEN
100
AcDbLine
 62
7
  6
CONTINUOUS
 10
265.8771299929
 20
276.5435759509
 11
265.8771299929
 21
241.8438371982
  0
LINE
  5
341
100
AcDbEntity
  8
RUNDUNGEN
100
AcDbLine
 62
7
  6
CONTINUOUS
 10
292.9130283778
 20
181.5440550646
 11
297.841231608
 21
181.5440550646
  0
LINE
  5
342
100
AcDbEntity
  8
RUNDUNGEN
100
AcDbLine
 62
7
  6
CONTINUOUS
 10
276.3771299929
 20
183.5440550646
 11
276.9923536821
 21
183.5440550646
  0
LINE
  5
343
100
AcDbEntity
  8
RUNDUNGEN
100
AcDbLine
 62
7
  6
CONTINUOUS
 10
313.7619063038
 20
183.5440550646
 11
314.3771299929
 21
183.5440550646
  0
LWPOLYLINE
  5
344
100
AcDbEntity
  8
RUNDUNGEN
100
AcDbPolyline
 62
7
  6
CONTINUOUS
 90
6
 70
0
 10
276.3002069273
 20
183.552177949
 10
275.940578106
 20
183.5054320129
 10
275.6178313633
 20
183.4039188866
 10
275.3168128176
 20
183.2494551199
 10
275.0461385789
 20
183.0464617676
 10
274.8135556807
 20
182.8007496873
  0
LINE
  5
345
100
AcDbEntity
  8
RUNDUNGEN
100
AcDbLine
 62
7
  6
CONTINUOUS
 10
298.8413413813
 20
181.2760424946
 11
308.8771299929
 21
175.4818772381
  0
LINE
  5
346
100
AcDbEntity
  8
RUNDUNGEN
100
AcDbLine
 62
7
  6
CONTINUOUS
 10
274.3771299929
 20
166.5440550646
 11
274.3771299929
 21
181.5440550646
  0
LINE
  5
347
100
AcDbEntity
  8
RUNDUNGEN
100
AcDbLine
 62
7
  6
CONTINUOUS
 10
274.3874401357
 20
181.7563502485
 11
274.3770960374
 21
181.5531963603
  0
LINE
  5
348
100
AcDbEntity
  8
RUNDUNGEN
100
AcDbLine
 62
7
  6
CONTINUOUS
 10
280.8771299929
 20
173.7498264306
 11
280.8771299929
 21
158.8186684564
  0
LINE
  5
349
100
AcDbEntity
  8
RUNDUNGEN
100
AcDbLine
 62
7
  6
CONTINUOUS
 10
274.4043508667
 20
181.8825186835
 11
274.3771278288
 21
181.5536551377
  0
LINE
  5
34A
100
AcDbEntity
  8
KONSTRUKTIONSELEMENTE
100
AcDbLine
 62
7
  6
CONTINUOUS
 10
303.37917253
 20
194.2940550646
 11
304.1521299929
 21
194.2940550646
  0
LINE
  5
34B
100
AcDbEntity
  8
KONSTRUKTIONSELEMENTE
100
AcDbLine
 62
7
  6
CONTINUOUS
 10
303.3761533708
 20
197.956171094
 11
304.1521299929
 21
197.956171094
  0
LINE
  5
34C
100
AcDbEntity
  8
KONSTRUKTIONSELEMENTE
100
AcDbLine
 62
7
  6
CONTINUOUS
 10
303.8771299929
 20
198.2461790366
 11
304.1521299929
 21
198.2461790366
  0
LINE
  5
34D
100
AcDbEntity
  8
KONSTRUKTIONSELEMENTE
100
AcDbLine
 62
7
  6
CONTINUOUS
 10
303.3761533708
 20
198.6885944047
 11
304.1521299929
 21
198.6885944047
  0
LINE
  5
34E
100
AcDbEntity
  8
RUNDUNGEN
100
AcDbLine
 62
7
  6
CONTINUOUS
 10
274.4880055958
 20
182.2103269663
 11
274.4043508667
 21
181.8825186835
  0
LINE
  5
34F
100
AcDbEntity
  8
KONSTRUKTIONSELEMENTE
100
AcDbLine
 62
7
  6
CONTINUOUS
 10
303.3761533708
 20
202.350710696
 11
304.1521299929
 21
202.350710696
  0
LINE
  5
350
100
AcDbEntity
  8
KONSTRUKTIONSELEMENTE
100
AcDbLine
 62
7
  6
CONTINUOUS
 10
303.8771299929
 20
203.0831337447
 11
304.1521299929
 21
203.0831337447
  0
LWPOLYLINE
  5
351
100
AcDbEntity
  8
RUNDUNGEN
100
AcDbPolyline
 62
7
  6
CONTINUOUS
 90
5
 70
0
 10
315.7183643921
 20
183.0372691244
 10
315.4511331219
 20
183.2408241897
 10
315.1535961416
 20
183.3967839896
 10
314.834168648
 20
183.5007402213
 10
314.5018987971
 20
183.5497658231
  0
LINE
  5
352
100
AcDbEntity
  8
KONSTRUKTIONSELEMENTE
100
AcDbLine
 62
7
  6
CONTINUOUS
 10
286.8771299929
 20
221.9784794803
 11
286.8771299929
 21
194.5440550646
  0
LINE
  5
353
100
AcDbEntity
  8
0
100
AcDbLine
 62
7
  6
CONTINUOUS
 10
288.2271299929
 20
244.6940550646
 11
288.2271299929
 21
277.6441742966
  0
LINE
  5
354
100
AcDbEntity
  8
RUNDUNGEN
100
AcDbLine
 62
7
  6
CONTINUOUS
 10
274.6257200118
 20
182.5193529222
 11
274.4880055958
 21
182.2103269663
  0
LINE
  5
355
100
AcDbEntity
  8
KONSTRUKTIONSELEMENTE
100
AcDbLine
 62
7
  6
CONTINUOUS
 10
303.8771299929
 20
204.6302855922
 11
304.1521299929
 21
204.6302855922
  0
LINE
  5
356
100
AcDbEntity
  8
RUNDUNGEN
100
AcDbLine
 62
7
  6
CONTINUOUS
 10
292.3771299929
 20
180.5082951084
 11
292.3771299929
 21
152.5798150209
  0
LINE
  5
357
100
AcDbEntity
  8
RUNDUNGEN
100
AcDbLine
 62
7
  6
CONTINUOUS
 10
274.8135556807
 20
182.8007496873
 11
274.6257200118
 21
182.5193529222
  0
LINE
  5
358
100
AcDbEntity
  8
RUNDUNGEN
100
AcDbLine
 62
7
  6
CONTINUOUS
 10
303.8771299929
 20
221.6365777765
 11
317.8771299929
 21
229.7194815452
  0
LINE
  5
359
100
AcDbEntity
  8
KONSTRUKTIONSELEMENTE
100
AcDbLine
 62
7
  6
CONTINUOUS
 10
303.8771299929
 20
209.0331177647
 11
304.1521299929
 21
209.0331177647
  0
LINE
  5
35A
100
AcDbEntity
  8
KONSTRUKTIONSELEMENTE
100
AcDbLine
 62
7
  6
CONTINUOUS
 10
303.8771299929
 20
212.7877421525
 11
304.1521299929
 21
212.7877421525
  0
LINE
  5
35B
100
AcDbEntity
  8
RUNDUNGEN
100
AcDbLine
 62
7
  6
CONTINUOUS
 10
298.3771299929
 20
180.5082951084
 11
298.3771299929
 21
152.5798150209
  0
LINE
  5
35C
100
AcDbEntity
  8
KONSTRUKTIONSELEMENTE
100
AcDbLine
 62
7
  6
CONTINUOUS
 10
302.9749680618
 20
217.823150416
 11
304.1521299929
 21
217.823150416
  0
LINE
  5
35D
100
AcDbEntity
  8
RUNDUNGEN
100
AcDbLine
 62
7
  6
CONTINUOUS
 10
272.8771299929
 20
229.7194815452
 11
286.8771299929
 21
221.6365777765
  0
LINE
  5
35E
100
AcDbEntity
  8
0
100
AcDbLine
 62
7
  6
CONTINUOUS
 10
302.5271299929
 20
244.6940550646
 11
302.5271299929
 21
277.6441742966
  0
LINE
  5
35F
100
AcDbEntity
  8
KONSTRUKTIONSELEMENTE
100
AcDbLine
 62
7
  6
CONTINUOUS
 10
303.3761533708
 20
211.3228950073
 11
303.3761533708
 21
210.8651301435
  0
LINE
  5
360
100
AcDbEntity
  8
KONSTRUKTIONSELEMENTE
100
AcDbLine
 62
7
  6
CONTINUOUS
 10
303.3761533708
 20
207.3861205311
 11
303.3761533708
 21
206.5621444049
  0
LINE
  5
361
100
AcDbEntity
  8
KONSTRUKTIONSELEMENTE
100
AcDbLine
 62
7
  6
CONTINUOUS
 10
303.3761533708
 20
202.350710696
 11
303.3761533708
 21
201.8013932785
  0
LINE
  5
362
100
AcDbEntity
  8
KONSTRUKTIONSELEMENTE
100
AcDbLine
 62
7
  6
CONTINUOUS
 10
303.3761533708
 20
199.2379118222
 11
303.3761533708
 21
198.6885944047
  0
LINE
  5
363
100
AcDbEntity
  8
KONSTRUKTIONSELEMENTE
100
AcDbLine
 62
7
  6
CONTINUOUS
 10
303.3761533708
 20
197.956171094
 11
303.3761533708
 21
197.4068536765
  0
LINE
  5
364
100
AcDbEntity
  8
KONSTRUKTIONSELEMENTE
100
AcDbLine
 62
7
  6
CONTINUOUS
 10
303.3761533708
 20
194.8433724821
 11
303.3761533708
 21
194.5440550646
  0
LINE
  5
365
100
AcDbEntity
  8
KONSTRUKTIONSELEMENTE
100
AcDbLine
 62
7
  6
CONTINUOUS
 10
303.8771299929
 20
222.0075841921
 11
303.8771299929
 21
221.4953936138
  0
LINE
  5
366
100
AcDbEntity
  8
KONSTRUKTIONSELEMENTE
100
AcDbLine
 62
7
  6
CONTINUOUS
 10
303.8771299929
 20
217.8258492143
 11
303.8771299929
 21
217.0907278911
  0
LINE
  5
367
100
AcDbEntity
  8
KONSTRUKTIONSELEMENTE
100
AcDbLine
 62
7
  6
CONTINUOUS
 10
303.8771299929
 20
213.5203788811
 11
303.8771299929
 21
212.5130834437
  0
LINE
  5
368
100
AcDbEntity
  8
KONSTRUKTIONSELEMENTE
100
AcDbLine
 62
7
  6
CONTINUOUS
 10
303.8771299929
 20
209.6749427548
 11
303.8771299929
 21
208.6678604735
  0
LINE
  5
369
100
AcDbEntity
  8
KONSTRUKTIONSELEMENTE
100
AcDbLine
 62
7
  6
CONTINUOUS
 10
303.8771299929
 20
205.0972972597
 11
303.8771299929
 21
202.350710696
  0
LINE
  5
36A
100
AcDbEntity
  8
KONSTRUKTIONSELEMENTE
100
AcDbLine
 62
7
  6
CONTINUOUS
 10
303.8771299929
 20
201.1515473303
 11
303.8771299929
 21
199.8877575048
  0
LINE
  5
36B
100
AcDbEntity
  8
KONSTRUKTIONSELEMENTE
100
AcDbLine
 62
7
  6
CONTINUOUS
 10
303.8771299929
 20
198.6885944047
 11
303.8771299929
 21
197.956171094
  0
LINE
  5
36C
100
AcDbEntity
  8
KONSTRUKTIONSELEMENTE
100
AcDbLine
 62
7
  6
CONTINUOUS
 10
303.8771299929
 20
196.7570079276
 11
303.8771299929
 21
195.4933029544
  0
LINE
  5
36D
100
AcDbEntity
  8
KONSTRUKTIONSELEMENTE
100
AcDbLine
 62
7
  6
CONTINUOUS
 10
304.1521299929
 20
221.4852672312
 11
304.1521299929
 21
217.823150416
  0
LINE
  5
36E
100
AcDbEntity
  8
KONSTRUKTIONSELEMENTE
100
AcDbLine
 62
7
  6
CONTINUOUS
 10
304.1521299929
 20
217.0907278911
 11
304.1521299929
 21
209.4002840461
  0
LINE
  5
36F
100
AcDbEntity
  8
KONSTRUKTIONSELEMENTE
100
AcDbLine
 62
7
  6
CONTINUOUS
 10
304.1521299929
 20
209.0331177647
 11
304.1521299929
 21
204.6302855922
  0
LINE
  5
370
100
AcDbEntity
  8
KONSTRUKTIONSELEMENTE
100
AcDbLine
 62
7
  6
CONTINUOUS
 10
304.1521299929
 20
204.3648747348
 11
304.1521299929
 21
194.2940550646
  0
LINE
  5
371
100
AcDbEntity
  8
KONSTRUKTIONSELEMENTE
100
AcDbLine
 62
7
  6
CONTINUOUS
 10
302.0427617566
 20
221.4852672312
 11
304.1521299929
 21
221.4852672312
  0
LWPOLYLINE
  5
372
100
AcDbEntity
  8
RUNDUNGEN
100
AcDbPolyline
 62
7
  6
CONTINUOUS
 90
3
 70
0
 10
316.2683016393
 20
182.2044102874
 10
316.1327852987
 20
182.5116163561
 10
315.9477384813
 20
182.7918824302
  0
LINE
  5
373
100
AcDbEntity
  8
RUNDUNGEN
100
AcDbLine
 62
7
  6
CONTINUOUS
 10
309.8771299929
 20
173.7498264306
 11
309.8771299929
 21
158.8186684564
  0
LINE
  5
374
100
AcDbEntity
  8
RUNDUNGEN
100
AcDbLine
 62
7
  6
CONTINUOUS
 10
316.350497221
 20
181.8789724673
 11
316.2683016393
 21
182.2044102874
  0
LWPOLYLINE
  5
375
100
AcDbEntity
  8
RUNDUNGEN
100
AcDbPolyline
 62
7
  6
CONTINUOUS
 90
5
 70
0
 10
316.3522641812
 20
181.8680699826
 10
316.2714971938
 20
182.1950571498
 10
316.1369335887
 20
182.5039846374
 10
315.9523531657
 20
182.7860175264
 10
315.7229779227
 20
183.0330967317
  0
LINE
  5
376
100
AcDbEntity
  8
RUNDUNGEN
100
AcDbLine
 62
7
  6
CONTINUOUS
 10
316.3771316878
 20
181.5536593828
 11
316.350497221
 21
181.8789724673
  0
LINE
  5
377
100
AcDbEntity
  8
RUNDUNGEN
100
AcDbLine
 62
7
  6
CONTINUOUS
 10
316.3771299929
 20
181.5440550646
 11
316.3771299929
 21
166.5440550646
  0
LINE
  5
378
100
AcDbEntity
  8
RUNDUNGEN
100
AcDbLine
 62
7
  6
CONTINUOUS
 10
324.8771299929
 20
241.8438371982
 11
324.8771299929
 21
276.5440550646
  0
LINE
  5
379
100
AcDbEntity
  8
RUNDUNGEN
100
AcDbLine
 62
7
  6
CONTINUOUS
 10
291.9129042932
 20
181.2760342319
 11
281.8771299929
 21
175.4818772381
  0
LINE
  5
37A
100
AcDbEntity
  8
BEZUGSACHSEN
100
AcDbLine
 62
7
  6
CONTINUOUS
 10
288.2271299929
 20
254.5440550646
 11
302.5271299929
 21
254.5440550646
  0
LINE
  5
37B
100
AcDbEntity
  8
RUNDUNGEN
100
AcDbLine
 62
7
  6
CONTINUOUS
 10
308.8771299929
 20
157.0866176489
 11
299.741231608
 21
151.8120042571
  0
LINE
  5
37C
100
AcDbEntity
  8
BEZUGSACHSEN
100
AcDbLine
 62
7
  6
CONTINUOUS
 10
288.2271299929
 20
270.0440550646
 11
302.5271299929
 21
270.0440550646
  0
LINE
  5
37D
100
AcDbEntity
  8
0
100
AcDbLine
 62
7
  6
CONTINUOUS
 10
268.8771299929
 20
279.5440550646
 11
281.6860755635
 21
279.5440550646
  0
LINE
  5
37E
100
AcDbEntity
  8
0
100
AcDbLine
 62
7
  6
CONTINUOUS
 10
309.0681844223
 20
279.5440550646
 11
321.8771299929
 21
279.5440550646
  0
LINE
  5
37F
100
AcDbEntity
  8
KONSTRUKTIONSELEMENTE
100
AcDbLine
 62
7
  6
CONTINUOUS
 10
60.381387654
 20
74.7410714286
 11
60.381387654
 21
70.7410714286
  0
LINE
  5
380
100
AcDbEntity
  8
RUNDUNGEN
100
AcDbLine
 62
7
  6
CONTINUOUS
 10
75.381387654
 20
68.7412224463
 11
75.381387654
 21
59.2410714286
  0
LINE
  5
381
100
AcDbEntity
  8
RUNDUNGEN
100
AcDbLine
 62
7
  6
CONTINUOUS
 10
75.381387654
 20
76.7408945957
 11
75.381387654
 21
86.2410714286
  0
LINE
  5
382
100
AcDbEntity
  8
RUNDUNGEN
100
AcDbLine
 62
7
  6
CONTINUOUS
 10
80.581387654
 20
91.7410714286
 11
80.581387654
 21
53.7410714286
  0
LINE
  5
383
100
AcDbEntity
  8
RUNDUNGEN
100
AcDbLine
 62
7
  6
CONTINUOUS
 10
98.581387654
 20
43.2410714286
 11
129.581387654
 21
43.2410714286
  0
LINE
  5
384
100
AcDbEntity
  8
KONSTRUKTIONSELEMENTE
100
AcDbLine
 62
7
  6
CONTINUOUS
 10
86.206387654
 20
66.0754396649
 11
86.206387654
 21
63.9660714286
  0
LINE
  5
385
100
AcDbEntity
  8
RUNDUNGEN
100
AcDbLine
 62
7
  6
CONTINUOUS
 10
75.0218984173
 20
75.9731222362
 11
74.8813876539
 21
75.8750460247
  0
LINE
  5
386
100
AcDbEntity
  8
RUNDUNGEN
100
AcDbLine
 62
7
  6
CONTINUOUS
 10
143.0813891487
 20
51.7410714286
 11
132.581387654
 21
51.7410714286
  0
LINE
  5
387
100
AcDbEntity
  8
RUNDUNGEN
100
AcDbLine
 62
7
  6
CONTINUOUS
 10
95.581387654
 20
51.7410714286
 11
82.581387654
 21
51.7410714286
  0
LINE
  5
388
100
AcDbEntity
  8
RUNDUNGEN
100
AcDbLine
 62
7
  6
CONTINUOUS
 10
95.581387654
 20
46.2410714286
 11
95.581387654
 21
57.8275310349
  0
LINE
  5
389
100
AcDbEntity
  8
0
100
AcDbLine
 62
7
  6
CONTINUOUS
 10
95.581387654
 20
57.8275310349
 11
95.581387654
 21
65.5910714286
  0
LINE
  5
38A
100
AcDbEntity
  8
KONSTRUKTIONSELEMENTE
100
AcDbLine
 62
7
  6
CONTINUOUS
 10
95.581387654
 20
65.5910714286
 11
95.581387654
 21
69.6409666993
  0
LINE
  5
38B
100
AcDbEntity
  8
KONSTRUKTIONSELEMENTE
100
AcDbLine
 62
7
  6
CONTINUOUS
 10
95.581387654
 20
75.8415478931
 11
95.581387654
 21
79.8910714286
  0
LINE
  5
38C
100
AcDbEntity
  8
0
100
AcDbLine
 62
7
  6
CONTINUOUS
 10
95.581387654
 20
79.8910714286
 11
95.581387654
 21
87.6546118222
  0
LINE
  5
38D
100
AcDbEntity
  8
RUNDUNGEN
100
AcDbLine
 62
7
  6
CONTINUOUS
 10
95.581387654
 20
87.6546118222
 11
95.581387654
 21
99.2410714286
  0
LWPOLYLINE
  5
38E
100
AcDbEntity
  8
RUNDUNGEN
100
AcDbPolyline
 62
7
  6
CONTINUOUS
 90
12
 70
0
 10
95.5813815633
 20
86.9551413465
 10
95.5542038348
 20
86.4139913512
 10
95.4291423943
 20
85.6786380927
 10
95.2073785572
 20
84.9659905368
 10
94.8939527376
 20
84.2815936176
 10
94.4940231388
 20
83.6314377662
 10
94.0140234481
 20
83.0227620009
 10
93.4607796682
 20
82.4619393992
 10
92.8424246616
 20
81.9554673528
 10
92.1675339905
 20
81.5088544777
 10
91.4452457844
 20
81.1268053058
 10
90.8457911844
 20
80.8725239334
  0
LWPOLYLINE
  5
38F
100
AcDbEntity
  8
RUNDUNGEN
100
AcDbPolyline
 62
7
  6
CONTINUOUS
 90
12
 70
0
 10
90.845811109
 20
64.6096174796
 10
91.427778582
 20
64.3635122225
 10
92.1518308382
 20
63.982573508
 10
92.8282097572
 20
63.5371210891
 10
93.4479294223
 20
63.0318749005
 10
94.0025599778
 20
62.4723152835
 10
94.4840894462
 20
61.8648655761
 10
94.8857445048
 20
61.2158447131
 10
95.2011176541
 20
60.532411892
 10
95.4250422818
 20
59.8204819372
 10
95.5524415824
 20
59.0854883882
 10
95.5813904025
 20
58.5270375492
  0
LINE
  5
390
100
AcDbEntity
  8
RUNDUNGEN
100
AcDbLine
 62
7
  6
CONTINUOUS
 10
76.381387654
 20
58.2410714286
 11
80.581387654
 21
58.2410714286
  0
LINE
  5
391
100
AcDbEntity
  8
RUNDUNGEN
100
AcDbLine
 62
7
  6
CONTINUOUS
 10
146.581387654
 20
58.2410714286
 11
159.581387654
 21
58.2410714286
  0
LINE
  5
392
100
AcDbEntity
  8
KONSTRUKTIONSELEMENTE
100
AcDbLine
 62
7
  6
CONTINUOUS
 10
142.706387654
 20
63.9660714286
 11
136.206387654
 21
63.9660714286
  0
LINE
  5
393
100
AcDbEntity
  8
KONSTRUKTIONSELEMENTE
100
AcDbLine
 62
7
  6
CONTINUOUS
 10
92.1768877425
 20
63.9660714286
 11
86.206387654
 21
63.9660714286
  0
LINE
  5
394
100
AcDbEntity
  8
KONSTRUKTIONSELEMENTE
100
AcDbLine
 62
7
  6
CONTINUOUS
 10
138.6957494468
 20
64.2410796736
 11
136.5015018254
 21
64.2410714286
  0
LINE
  5
395
100
AcDbEntity
  8
BEZUGSACHSEN
100
AcDbLine
 62
7
  6
CONTINUOUS
 10
106.331387654
 20
79.8910714286
 11
106.331387654
 21
65.5910714286
  0
LINE
  5
396
100
AcDbEntity
  8
0
100
AcDbLine
 62
7
  6
CONTINUOUS
 10
95.581387654
 20
65.5910714286
 11
132.581387654
 21
65.5910714286
  0
LINE
  5
397
100
AcDbEntity
  8
RUNDUNGEN
100
AcDbLine
 62
7
  6
CONTINUOUS
 10
74.3813876538
 20
69.7410714286
 11
61.381387654
 21
69.7410714286
  0
LINE
  5
398
100
AcDbEntity
  8
RUNDUNGEN
100
AcDbLine
 62
7
  6
CONTINUOUS
 10
74.381387654
 20
75.7410714286
 11
61.381387654
 21
75.7410714286
  0
LINE
  5
399
100
AcDbEntity
  8
0
100
AcDbLine
 62
7
  6
CONTINUOUS
 10
95.581387654
 20
79.8910714286
 11
132.581387654
 21
79.8910714286
  0
LINE
  5
39A
100
AcDbEntity
  8
BEZUGSACHSEN
100
AcDbLine
 62
7
  6
CONTINUOUS
 10
121.831387654
 20
79.8910714286
 11
121.831387654
 21
65.5910714286
  0
LINE
  5
39B
100
AcDbEntity
  8
KONSTRUKTIONSELEMENTE
100
AcDbLine
 62
7
  6
CONTINUOUS
 10
139.081387654
 20
81.2410714286
 11
136.5022793162
 21
81.2410714286
  0
LINE
  5
39C
100
AcDbEntity
  8
KONSTRUKTIONSELEMENTE
100
AcDbLine
 62
7
  6
CONTINUOUS
 10
91.6612731414
 20
81.2410714286
 11
89.081387654
 21
81.2410714286
  0
LINE
  5
39D
100
AcDbEntity
  8
RUNDUNGEN
100
AcDbLine
 62
7
  6
CONTINUOUS
 10
159.581387654
 20
87.2410714286
 11
146.5813842865
 21
87.2410714286
  0
LINE
  5
39E
100
AcDbEntity
  8
RUNDUNGEN
100
AcDbLine
 62
7
  6
CONTINUOUS
 10
76.381387654
 20
87.2410714286
 11
80.581387654
 21
87.2410714286
  0
LWPOLYLINE
  5
39F
100
AcDbEntity
  8
RUNDUNGEN
100
AcDbPolyline
 62
7
  6
CONTINUOUS
 90
12
 70
0
 10
137.3169762151
 20
80.872523967
 10
136.7350104625
 20
81.1186277246
 10
136.0109606939
 20
81.499562279
 10
135.3345799025
 20
81.9450113073
 10
134.7148588941
 20
82.4502536398
 10
134.1602262221
 20
83.0098119947
 10
133.6786961946
 20
83.617262126
 10
133.2770438669
 20
84.266282041
 10
132.961673357
 20
84.9497159673
 10
132.7377512753
 20
85.6616470353
 10
132.6103534378
 20
86.3966404199
 10
132.581404157
 20
86.9550871396
  0
LINE
  5
3A0
100
AcDbEntity
  8
RUNDUNGEN
100
AcDbLine
 62
7
  6
CONTINUOUS
 10
132.581387654
 20
99.2410714286
 11
132.581387654
 21
87.6546118222
  0
LINE
  5
3A1
100
AcDbEntity
  8
0
100
AcDbLine
 62
7
  6
CONTINUOUS
 10
132.581387654
 20
87.6546118222
 11
132.581387654
 21
79.8910714286
  0
LINE
  5
3A2
100
AcDbEntity
  8
0
100
AcDbLine
 62
7
  6
CONTINUOUS
 10
132.581387654
 20
65.5910714286
 11
132.581387654
 21
57.8275310349
  0
LINE
  5
3A3
100
AcDbEntity
  8
RUNDUNGEN
100
AcDbLine
 62
7
  6
CONTINUOUS
 10
132.581387654
 20
57.8275310349
 11
132.581387654
 21
46.2410714286
  0
LINE
  5
3A4
100
AcDbEntity
  8
KONSTRUKTIONSELEMENTE
100
AcDbLine
 62
7
  6
CONTINUOUS
 10
132.581387654
 20
65.5910714286
 11
132.581387654
 21
69.6408404478
  0
LINE
  5
3A5
100
AcDbEntity
  8
KONSTRUKTIONSELEMENTE
100
AcDbLine
 62
7
  6
CONTINUOUS
 10
132.581387654
 20
75.8416769766
 11
132.581387654
 21
79.8910714286
  0
LWPOLYLINE
  5
3A6
100
AcDbEntity
  8
RUNDUNGEN
100
AcDbPolyline
 62
7
  6
CONTINUOUS
 90
12
 70
0
 10
132.5813963684
 20
58.5270018964
 10
132.6085745623
 20
59.0681526286
 10
132.7336367733
 20
59.8035070727
 10
132.9554015867
 20
60.5161561061
 10
133.2688284748
 20
61.2005543794
 10
133.6687591371
 20
61.8507113441
 10
134.1487597424
 20
62.4593878028
 10
134.7020041476
 20
63.0202105386
 10
135.3203594859
 20
63.5266821957
 10
135.9952497543
 20
63.9732938869
 10
136.7175376317
 20
64.3553416517
 10
137.3169835372
 20
64.6096188693
  0
LINE
  5
3A7
100
AcDbEntity
  8
RUNDUNGEN
100
AcDbLine
 62
7
  6
CONTINUOUS
 10
143.0813940656
 20
93.7410714286
 11
132.581387654
 21
93.7410714286
  0
LINE
  5
3A8
100
AcDbEntity
  8
RUNDUNGEN
100
AcDbLine
 62
7
  6
CONTINUOUS
 10
95.581387654
 20
93.7410714286
 11
82.581387654
 21
93.7410714286
  0
LINE
  5
3A9
100
AcDbEntity
  8
KONSTRUKTIONSELEMENTE
100
AcDbLine
 62
7
  6
CONTINUOUS
 10
136.206387654
 20
64.0849734058
 11
136.206387654
 21
63.9660714286
  0
LINE
  5
3AA
100
AcDbEntity
  8
KONSTRUKTIONSELEMENTE
100
AcDbLine
 62
7
  6
CONTINUOUS
 10
136.3446855099
 20
64.1581248297
 11
136.3446855099
 21
63.9660714286
  0
LINE
  5
3AB
100
AcDbEntity
  8
KONSTRUKTIONSELEMENTE
100
AcDbLine
 62
7
  6
CONTINUOUS
 10
136.7595790774
 20
64.2410714286
 11
136.7595790774
 21
63.9660714286
  0
LINE
  5
3AC
100
AcDbEntity
  8
KONSTRUKTIONSELEMENTE
100
AcDbLine
 62
7
  6
CONTINUOUS
 10
137.3127705009
 20
64.2410714286
 11
137.3127705009
 21
63.9660714286
  0
LINE
  5
3AD
100
AcDbEntity
  8
KONSTRUKTIONSELEMENTE
100
AcDbLine
 62
7
  6
CONTINUOUS
 10
137.7276640684
 20
64.2410714286
 11
137.7276640684
 21
63.9660714286
  0
LINE
  5
3AE
100
AcDbEntity
  8
KONSTRUKTIONSELEMENTE
100
AcDbLine
 62
7
  6
CONTINUOUS
 10
138.2808558793
 20
64.2488963722
 11
138.2808558793
 21
63.9660714286
  0
LINE
  5
3AF
100
AcDbEntity
  8
KONSTRUKTIONSELEMENTE
100
AcDbLine
 62
7
  6
CONTINUOUS
 10
138.6957494468
 20
64.2410796736
 11
138.6957494468
 21
63.9660714286
  0
LINE
  5
3B0
100
AcDbEntity
  8
KONSTRUKTIONSELEMENTE
100
AcDbLine
 62
7
  6
CONTINUOUS
 10
139.2489408702
 20
64.2546282075
 11
139.2489408702
 21
63.9660714286
  0
LINE
  5
3B1
100
AcDbEntity
  8
KONSTRUKTIONSELEMENTE
100
AcDbLine
 62
7
  6
CONTINUOUS
 10
139.6638344378
 20
64.2793108652
 11
139.6638344378
 21
63.9660714286
  0
LINE
  5
3B2
100
AcDbEntity
  8
KONSTRUKTIONSELEMENTE
100
AcDbLine
 62
7
  6
CONTINUOUS
 10
139.8021322937
 20
64.2845353514
 11
139.8021322937
 21
63.9660714286
  0
LINE
  5
3B3
100
AcDbEntity
  8
KONSTRUKTIONSELEMENTE
100
AcDbLine
 62
7
  6
CONTINUOUS
 10
142.706387654
 20
65.0528749225
 11
142.706387654
 21
63.9660714286
  0
LINE
  5
3B4
100
AcDbEntity
  8
RUNDUNGEN
100
AcDbLine
 62
7
  6
CONTINUOUS
 10
129.581387654
 20
102.2410714286
 11
98.581387654
 21
102.2410714286
  0
LINE
  5
3B5
100
AcDbEntity
  8
RUNDUNGEN
100
AcDbLine
 62
7
  6
CONTINUOUS
 10
144.581387654
 20
92.2411064676
 11
144.581387654
 21
89.2408798114
  0
LINE
  5
3B6
100
AcDbEntity
  8
RUNDUNGEN
100
AcDbLine
 62
7
  6
CONTINUOUS
 10
144.581387654
 20
56.2410636333
 11
144.581387654
 21
53.2410709569
  0
LINE
  5
3B7
100
AcDbEntity
  8
RUNDUNGEN
100
AcDbLine
 62
7
  6
CONTINUOUS
 10
161.581387654
 20
85.2410714286
 11
161.581387654
 21
60.2410714286
  0
ARC
  5
3B8
100
AcDbEntity
  8
RUNDUNGEN
100
AcDbCircle
 62
7
  6
CONTINUOUS
 10
75.381387654
 20
166.5440550646
 40
15.0
100
AcDbArc
 50
90.0000000009
 51
270.0
  0
CIRCLE
  5
3B9
100
AcDbEntity
  8
BEZUGSACHSEN
100
AcDbCircle
 62
7
  6
CONTINUOUS
 10
89.081387654
 20
176.0440550646
 40
3.0
  0
ARC
  5
3BA
100
AcDbEntity
  8
RUNDUNGEN
100
AcDbCircle
 62
7
  6
CONTINUOUS
 10
95.581387654
 20
148.5440550646
 40
2.0
100
AcDbArc
 50
270.0
 51
360.0
  0
ARC
  5
3BB
100
AcDbEntity
  8
RUNDUNGEN
100
AcDbCircle
 62
7
  6
CONTINUOUS
 10
95.581387654
 20
181.5440550646
 40
2.0
100
AcDbArc
 50
0.0
 51
90.0
  0
ARC
  5
3BC
100
AcDbEntity
  8
RUNDUNGEN
100
AcDbCircle
 62
7
  6
CONTINUOUS
 10
82.581387654
 20
148.5440550646
 40
2.0
100
AcDbArc
 50
180.0
 51
270.0
  0
ARC
  5
3BD
100
AcDbEntity
  8
RUNDUNGEN
100
AcDbCircle
 62
7
  6
CONTINUOUS
 10
82.581387654
 20
181.5440942019
 40
2.0
100
AcDbArc
 50
90.0
 51
180.0011212011
  0
ARC
  5
3BE
100
AcDbEntity
  8
KONSTRUKTIONSELEMENTE
100
AcDbCircle
 62
7
  6
CONTINUOUS
 10
103.581387654
 20
212.0440550646
 40
23.0
100
AcDbArc
 50
121.0729509722
 51
180.0
  0
ARC
  5
3BF
100
AcDbEntity
  8
RUNDUNGEN
100
AcDbCircle
 62
7
  6
CONTINUOUS
 10
114.081387654
 20
260.5440550646
 40
19.0
100
AcDbArc
 50
30.2997714034
 51
149.7002285966
  0
CIRCLE
  5
3C0
100
AcDbEntity
  8
BEZUGSACHSEN
100
AcDbCircle
 62
7
  6
CONTINUOUS
 10
114.081387654
 20
262.2940550646
 40
7.865
  0
ARC
  5
3C1
100
AcDbEntity
  8
KONSTRUKTIONSELEMENTE
100
AcDbCircle
 62
7
  6
CONTINUOUS
 10
103.581387654
 20
212.0440550646
 40
6.0
100
AcDbArc
 50
90.0
 51
180.0
  0
ARC
  5
3C2
100
AcDbEntity
  8
RUNDUNGEN
100
AcDbCircle
 62
7
  6
CONTINUOUS
 10
98.581387654
 20
265.7317901101
 40
3.0
100
AcDbArc
 50
149.7002285966
 51
180.0
  0
ARC
  5
3C3
100
AcDbEntity
  8
KONSTRUKTIONSELEMENTE
100
AcDbCircle
 62
7
  6
CONTINUOUS
 10
158.581387654
 20
194.5440550646
 40
11.0
100
AcDbArc
 50
180.0
 51
270.0
  0
ARC
  5
3C4
100
AcDbEntity
  8
RUNDUNGEN
100
AcDbCircle
 62
7
  6
CONTINUOUS
 10
132.581387654
 20
148.5440550646
 40
2.0
100
AcDbArc
 50
180.0
 51
270.0
  0
ARC
  5
3C5
100
AcDbEntity
  8
RUNDUNGEN
100
AcDbCircle
 62
7
  6
CONTINUOUS
 10
159.581387654
 20
148.5440550646
 40
2.0
100
AcDbArc
 50
270.0
 51
360.0
  0
ARC
  5
3C6
100
AcDbEntity
  8
RUNDUNGEN
100
AcDbCircle
 62
7
  6
CONTINUOUS
 10
159.581387654
 20
181.5440550646
 40
2.0
100
AcDbArc
 50
0.0
 51
90.0
  0
ARC
  5
3C7
100
AcDbEntity
  8
RUNDUNGEN
100
AcDbCircle
 62
7
  6
CONTINUOUS
 10
132.581387654
 20
181.5440550646
 40
2.0
100
AcDbArc
 50
90.0
 51
180.0
  0
ARC
  5
3C8
100
AcDbEntity
  8
KONSTRUKTIONSELEMENTE
100
AcDbCircle
 62
7
  6
CONTINUOUS
 10
124.581387654
 20
212.0440550646
 40
23.0
100
AcDbArc
 50
0.0
 51
58.9270490278
  0
ARC
  5
3C9
100
AcDbEntity
  8
KONSTRUKTIONSELEMENTE
100
AcDbCircle
 62
7
  6
CONTINUOUS
 10
124.581387654
 20
212.0440550646
 40
6.0
100
AcDbArc
 50
0.0
 51
90.0
  0
ARC
  5
3CA
100
AcDbEntity
  8
RUNDUNGEN
100
AcDbCircle
 62
7
  6
CONTINUOUS
 10
129.581387654
 20
265.7317901101
 40
3.0
100
AcDbArc
 50
0.0
 51
30.2997714034
  0
ARC
  5
3CB
100
AcDbEntity
  8
KONSTRUKTIONSELEMENTE
100
AcDbCircle
 62
7
  6
CONTINUOUS
 10
264.9446305535
 20
217.1437651108
 40
38.2981659852
100
AcDbArc
 50
358.0027088244
 51
358.6878338752
  0
ARC
  5
3CC
100
AcDbEntity
  8
KONSTRUKTIONSELEMENTE
100
AcDbCircle
 62
7
  6
CONTINUOUS
 10
266.5996807215
 20
212.5752779927
 40
36.7623476277
100
AcDbArc
 50
3.7583737302
 51
5.0464050574
  0
ARC
  5
3CD
100
AcDbEntity
  8
KONSTRUKTIONSELEMENTE
100
AcDbCircle
 62
7
  6
CONTINUOUS
 10
279.1085283037
 20
214.0492100037
 40
24.1629793892
100
AcDbArc
 50
8.9856380021
 51
10.3069015012
  0
ARC
  5
3CE
100
AcDbEntity
  8
KONSTRUKTIONSELEMENTE
100
AcDbCircle
 62
7
  6
CONTINUOUS
 10
282.2212370999
 20
211.122635599
 40
21.4129483138
100
AcDbArc
 50
9.1487260575
 51
10.3916458824
  0
ARC
  5
3CF
100
AcDbEntity
  8
KONSTRUKTIONSELEMENTE
100
AcDbCircle
 62
7
  6
CONTINUOUS
 10
287.1783603893
 20
219.5526982088
 40
16.3872201723
100
AcDbArc
 50
348.4326987553
 51
349.7367322735
  0
ARC
  5
3D0
100
AcDbEntity
  8
KONSTRUKTIONSELEMENTE
100
AcDbCircle
 62
7
  6
CONTINUOUS
 10
288.2588379064
 20
216.2822380019
 40
14.7332301234
100
AcDbArc
 50
18.4130412682
 51
20.6800590041
  0
ARC
  5
3D1
100
AcDbEntity
  8
KONSTRUKTIONSELEMENTE
100
AcDbCircle
 62
7
  6
CONTINUOUS
 10
275.8771299929
 20
194.5440550646
 40
11.0
100
AcDbArc
 50
271.975694024
 51
360.0
  0
ARC
  5
3D2
100
AcDbEntity
  8
RUNDUNGEN
100
AcDbCircle
 62
7
  6
CONTINUOUS
 10
292.9130283778
 20
179.5440550646
 40
2.0
100
AcDbArc
 50
90.0
 51
120.004104692
  0
ARC
  5
3D3
100
AcDbEntity
  8
RUNDUNGEN
100
AcDbCircle
 62
7
  6
CONTINUOUS
 10
282.8771299929
 20
173.7498264306
 40
2.0
100
AcDbArc
 50
120.0
 51
180.0
  0
ARC
  5
3D4
100
AcDbEntity
  8
RUNDUNGEN
100
AcDbCircle
 62
7
  6
CONTINUOUS
 10
282.8771299929
 20
158.8186684564
 40
2.0
100
AcDbArc
 50
180.0
 51
240.0
  0
ARC
  5
3D5
100
AcDbEntity
  8
RUNDUNGEN
100
AcDbCircle
 62
7
  6
CONTINUOUS
 10
292.0130283778
 20
153.5440550646
 40
2.0
100
AcDbArc
 50
240.0
 51
270.0
  0
ARC
  5
3D6
100
AcDbEntity
  8
RUNDUNGEN
100
AcDbCircle
 62
7
  6
CONTINUOUS
 10
276.3771299929
 20
181.5440550646
 40
2.0
100
AcDbArc
 50
90.0
 51
180.0
  0
ARC
  5
3D7
100
AcDbEntity
  8
RUNDUNGEN
100
AcDbCircle
 62
7
  6
CONTINUOUS
 10
279.8771299929
 20
241.8438371982
 40
14.0
100
AcDbArc
 50
180.0
 51
240.0
  0
ARC
  5
3D8
100
AcDbEntity
  8
RUNDUNGEN
100
AcDbCircle
 62
7
  6
CONTINUOUS
 10
268.8771299929
 20
276.5440550646
 40
3.0
100
AcDbArc
 50
90.0
 51
180.0
  0
ARC
  5
3D9
100
AcDbEntity
  8
RUNDUNGEN
100
AcDbCircle
 62
7
  6
CONTINUOUS
 10
296.3771299929
 20
166.5440550646
 40
20.0
100
AcDbArc
 50
270.0
 51
360.0
  0
ARC
  5
3DA
100
AcDbEntity
  8
RUNDUNGEN
100
AcDbCircle
 62
7
  6
CONTINUOUS
 10
294.3771299929
 20
166.5440550646
 40
20.0
100
AcDbArc
 50
180.0
 51
270.0
  0
ARC
  5
3DB
100
AcDbEntity
  8
RUNDUNGEN
100
AcDbCircle
 62
7
  6
CONTINUOUS
 10
298.741231608
 20
153.5440550646
 40
2.0
100
AcDbArc
 50
270.0
 51
300.0
  0
ARC
  5
3DC
100
AcDbEntity
  8
RUNDUNGEN
100
AcDbCircle
 62
7
  6
CONTINUOUS
 10
297.841231608
 20
179.5440550646
 40
2.0
100
AcDbArc
 50
59.9963687255
 51
90.0
  0
ARC
  5
3DD
100
AcDbEntity
  8
KONSTRUKTIONSELEMENTE
100
AcDbCircle
 62
7
  6
CONTINUOUS
 10
294.601044679
 20
211.6819431692
 40
9.2112110633
100
AcDbArc
 50
15.61301547
 51
17.9926879626
  0
ARC
  5
3DE
100
AcDbEntity
  8
KONSTRUKTIONSELEMENTE
100
AcDbCircle
 62
7
  6
CONTINUOUS
 10
297.6134761978
 20
214.0477362272
 40
6.2370345035
100
AcDbArc
 50
341.261135409
 51
342.2556334748
  0
ARC
  5
3DF
100
AcDbEntity
  8
KONSTRUKTIONSELEMENTE
100
AcDbCircle
 62
7
  6
CONTINUOUS
 10
298.3534490907
 20
218.9266536017
 40
5.4555284667
100
AcDbArc
 50
335.1380107377
 51
339.3102473175
  0
ARC
  5
3E0
100
AcDbEntity
  8
KONSTRUKTIONSELEMENTE
100
AcDbCircle
 62
7
  6
CONTINUOUS
 10
300.1469079996
 20
212.4319999211
 40
3.7481059773
100
AcDbArc
 50
21.3216487595
 51
27.4716201893
  0
ARC
  5
3E1
100
AcDbEntity
  8
RUNDUNGEN
100
AcDbCircle
 62
7
  6
CONTINUOUS
 10
307.8771299929
 20
158.8186684564
 40
2.0
100
AcDbArc
 50
300.0
 51
360.0
  0
ARC
  5
3E2
100
AcDbEntity
  8
RUNDUNGEN
100
AcDbCircle
 62
7
  6
CONTINUOUS
 10
307.8771299929
 20
173.7498264306
 40
2.0
100
AcDbArc
 50
0.0
 51
60.0
  0
ARC
  5
3E3
100
AcDbEntity
  8
RUNDUNGEN
100
AcDbCircle
 62
7
  6
CONTINUOUS
 10
314.3771299929
 20
181.5440550646
 40
2.0
100
AcDbArc
 50
0.0
 51
90.0
  0
ARC
  5
3E4
100
AcDbEntity
  8
KONSTRUKTIONSELEMENTE
100
AcDbCircle
 62
7
  6
CONTINUOUS
 10
314.8771299929
 20
194.5440550646
 40
11.0
100
AcDbArc
 50
181.3714452737
 51
267.8003709143
  0
ARC
  5
3E5
100
AcDbEntity
  8
KONSTRUKTIONSELEMENTE
100
AcDbCircle
 62
7
  6
CONTINUOUS
 10
313.7289999998
 20
194.5440644029
 40
10.352846629
100
AcDbArc
 50
180.000051681
 51
181.3837616902
  0
ARC
  5
3E6
100
AcDbEntity
  8
0
100
AcDbCircle
 62
7
  6
CONTINUOUS
 10
295.3771299929
 20
314.3849200702
 40
37.43
100
AcDbArc
 50
281.0125055291
 51
291.4554434953
  0
ARC
  5
3E7
100
AcDbEntity
  8
0
100
AcDbCircle
 62
7
  6
CONTINUOUS
 10
295.3771299929
 20
314.3849200702
 40
37.43
100
AcDbArc
 50
248.5445565047
 51
258.9874944709
  0
ARC
  5
3E8
100
AcDbEntity
  8
RUNDUNGEN
100
AcDbCircle
 62
7
  6
CONTINUOUS
 10
310.8771299929
 20
241.8438371982
 40
14.0
100
AcDbArc
 50
300.0
 51
360.0
  0
ARC
  5
3E9
100
AcDbEntity
  8
KONSTRUKTIONSELEMENTE
100
AcDbCircle
 62
7
  6
CONTINUOUS
 10
295.3771299929
 20
244.6940550646
 40
7.15
100
AcDbArc
 50
180.0
 51
360.0
  0
CIRCLE
  5
3EA
100
AcDbEntity
  8
BEZUGSACHSEN
100
AcDbCircle
 62
7
  6
CONTINUOUS
 10
318.3771299929
 20
262.5440550646
 40
3.0
  0
ARC
  5
3EB
100
AcDbEntity
  8
RUNDUNGEN
100
AcDbCircle
 62
7
  6
CONTINUOUS
 10
321.8771299929
 20
276.5440550646
 40
3.0
100
AcDbArc
 50
0.0
 51
90.0
  0
ARC
  5
3EC
100
AcDbEntity
  8
RUNDUNGEN
100
AcDbCircle
 62
7
  6
CONTINUOUS
 10
92.7619590458
 20
69.6251892377
 40
5.3690670554
100
AcDbArc
 50
239.6820274724
 51
249.091722564
  0
ARC
  5
3ED
100
AcDbEntity
  8
RUNDUNGEN
100
AcDbCircle
 62
7
  6
CONTINUOUS
 10
98.581387654
 20
46.2410714286
 40
3.0
100
AcDbArc
 50
180.0
 51
270.0
  0
ARC
  5
3EE
100
AcDbEntity
  8
RUNDUNGEN
100
AcDbCircle
 62
7
  6
CONTINUOUS
 10
82.581387654
 20
53.7410714286
 40
2.0
100
AcDbArc
 50
180.0
 51
270.0
  0
ARC
  5
3EF
100
AcDbEntity
  8
RUNDUNGEN
100
AcDbCircle
 62
7
  6
CONTINUOUS
 10
61.381387654
 20
70.7410714286
 40
1.0
100
AcDbArc
 50
180.0
 51
270.0
  0
ARC
  5
3F0
100
AcDbEntity
  8
RUNDUNGEN
100
AcDbCircle
 62
7
  6
CONTINUOUS
 10
76.381387654
 20
59.2410714286
 40
1.0
100
AcDbArc
 50
180.0
 51
270.0
  0
ARC
  5
3F1
100
AcDbEntity
  8
RUNDUNGEN
100
AcDbCircle
 62
7
  6
CONTINUOUS
 10
74.381387654
 20
68.7410714286
 40
1.0
100
AcDbArc
 50
0.0086527079
 51
90.0009038913
  0
ARC
  5
3F2
100
AcDbEntity
  8
RUNDUNGEN
100
AcDbCircle
 62
7
  6
CONTINUOUS
 10
92.4938187049
 20
77.1138244768
 40
12.8701233635
100
AcDbArc
 50
262.4925445239
 51
265.8865418706
  0
ARC
  5
3F3
100
AcDbEntity
  8
KONSTRUKTIONSELEMENTE
100
AcDbCircle
 62
7
  6
CONTINUOUS
 10
89.081387654
 20
72.7410714286
 40
8.5
100
AcDbArc
 50
90.0
 51
250.1885279407
  0
ARC
  5
3F4
100
AcDbEntity
  8
RUNDUNGEN
100
AcDbCircle
 62
7
  6
CONTINUOUS
 10
92.7587531648
 20
75.8645724754
 40
5.3608784303
100
AcDbArc
 50
110.9061420167
 51
120.3322587685
  0
ARC
  5
3F5
100
AcDbEntity
  8
RUNDUNGEN
100
AcDbCircle
 62
7
  6
CONTINUOUS
 10
98.581387654
 20
99.2410714286
 40
3.0
100
AcDbArc
 50
90.0
 51
180.0
  0
ARC
  5
3F6
100
AcDbEntity
  8
RUNDUNGEN
100
AcDbCircle
 62
7
  6
CONTINUOUS
 10
82.581387654
 20
91.7410714286
 40
2.0
100
AcDbArc
 50
90.0
 51
180.0
  0
ARC
  5
3F7
100
AcDbEntity
  8
RUNDUNGEN
100
AcDbCircle
 62
7
  6
CONTINUOUS
 10
61.381387654
 20
74.7410714286
 40
1.0
100
AcDbArc
 50
90.0
 51
180.0
  0
ARC
  5
3F8
100
AcDbEntity
  8
RUNDUNGEN
100
AcDbCircle
 62
7
  6
CONTINUOUS
 10
76.381387654
 20
86.2410714286
 40
1.0
100
AcDbArc
 50
90.0
 51
180.0
  0
ARC
  5
3F9
100
AcDbEntity
  8
RUNDUNGEN
100
AcDbCircle
 62
7
  6
CONTINUOUS
 10
74.381387654
 20
76.7410714286
 40
1.0
100
AcDbArc
 50
270.0162862693
 51
359.9898681844
  0
ARC
  5
3FA
100
AcDbEntity
  8
KONSTRUKTIONSELEMENTE
100
AcDbCircle
 62
7
  6
CONTINUOUS
 10
139.0812919415
 20
72.7409341327
 40
8.4998572544
100
AcDbArc
 50
274.8648790705
 51
295.244949396
  0
ARC
  5
3FB
100
AcDbEntity
  8
KONSTRUKTIONSELEMENTE
100
AcDbCircle
 62
7
  6
CONTINUOUS
 10
139.4294904245
 20
72.3157128038
 40
8.0398179852
100
AcDbArc
 50
271.6702896662
 51
272.6565848127
  0
ARC
  5
3FC
100
AcDbEntity
  8
RUNDUNGEN
100
AcDbCircle
 62
7
  6
CONTINUOUS
 10
135.40261865
 20
69.6207142779
 40
5.364299754
100
AcDbArc
 50
290.9078648687
 51
300.3282079302
  0
ARC
  5
3FD
100
AcDbEntity
  8
RUNDUNGEN
100
AcDbCircle
 62
7
  6
CONTINUOUS
 10
129.581387654
 20
46.2410714286
 40
3.0
100
AcDbArc
 50
270.0
 51
360.0
  0
ARC
  5
3FE
100
AcDbEntity
  8
RUNDUNGEN
100
AcDbCircle
 62
7
  6
CONTINUOUS
 10
159.581387654
 20
60.2410714286
 40
2.0
100
AcDbArc
 50
270.0
 51
360.0
  0
ARC
  5
3FF
100
AcDbEntity
  8
RUNDUNGEN
100
AcDbCircle
 62
7
  6
CONTINUOUS
 10
146.581387654
 20
56.2411935555
 40
1.9999389359
100
AcDbArc
 50
90.0
 51
180.0002233169
  0
ARC
  5
400
100
AcDbEntity
  8
RUNDUNGEN
100
AcDbCircle
 62
7
  6
CONTINUOUS
 10
143.081387654
 20
53.2410714286
 40
1.5
100
AcDbArc
 50
270.0
 51
360.0
  0
ARC
  5
401
100
AcDbEntity
  8
KONSTRUKTIONSELEMENTE
100
AcDbCircle
 62
7
  6
CONTINUOUS
 10
138.7155156697
 20
76.7203699777
 40
12.4771495272
100
AcDbArc
 50
272.4502656253
 51
274.3589372446
  0
ARC
  5
402
100
AcDbEntity
  8
KONSTRUKTIONSELEMENTE
100
AcDbCircle
 62
7
  6
CONTINUOUS
 10
138.685988212
 20
75.9399091887
 40
11.6988335874
100
AcDbArc
 50
270.0478062721
 51
272.7581615034
  0
ARC
  5
403
100
AcDbEntity
  8
KONSTRUKTIONSELEMENTE
100
AcDbCircle
 62
7
  6
CONTINUOUS
 10
139.081387654
 20
72.7410714286
 40
8.5
100
AcDbArc
 50
295.2437824088
 51
90.0
  0
ARC
  5
404
100
AcDbEntity
  8
RUNDUNGEN
100
AcDbCircle
 62
7
  6
CONTINUOUS
 10
135.402876536
 20
75.8621387022
 40
5.3635569159
100
AcDbArc
 50
59.6729729437
 51
69.0918135671
  0
ARC
  5
405
100
AcDbEntity
  8
RUNDUNGEN
100
AcDbCircle
 62
7
  6
CONTINUOUS
 10
129.581387654
 20
99.2410714286
 40
3.0
100
AcDbArc
 50
0.0
 51
90.0
  0
ARC
  5
406
100
AcDbEntity
  8
RUNDUNGEN
100
AcDbCircle
 62
7
  6
CONTINUOUS
 10
159.581387654
 20
85.2410714286
 40
2.0
100
AcDbArc
 50
0.0
 51
90.0
  0
ARC
  5
407
100
AcDbEntity
  8
RUNDUNGEN
100
AcDbCircle
 62
7
  6
CONTINUOUS
 10
146.581387654
 20
89.2410553647
 40
1.9999917717
100
AcDbArc
 50
180.0054894373
 51
269.9999035276
  0
ARC
  5
408
100
AcDbEntity
  8
RUNDUNGEN
100
AcDbCircle
 62
7
  6
CONTINUOUS
 10
143.081387654
 20
92.2411149544
 40
1.5
100
AcDbArc
 50
359.9996758255
 51
89.999510224
  0
SPLINE
  5
409
100
AcDbEntity
  8
KONSTRUKTIONSELEMENTE
100
AcDbSpline
 62
7
  6
CONTINUOUS
 70
0
 71
3
 72
18
 73
14
 74
0
 42
0.0000001
 43
0.0000001
 44
0.0000000001
 40
0.0
 40
0.0
 40
0.0
 40
0.0
 40
0.0040389014
 40
0.016138773
 40
0.0362553694
 40
0.0643455406
 40
0.1003673111
 40
0.1442764498
 40
0.2554447246
 40
0.397209101
 40
0.5690127006
 40
0.7701619134
 40
1.0
 40
1.0
 40
1.0
 40
1.0
 10
132.6509106255
 20
237.5440550655
 30
0.0
 10
132.651870505
 20
237.5440570561
 30
0.0
 10
132.6482913547
 20
237.5500965808
 30
0.0
 10
132.6492609995
 20
237.5563345285
 30
0.0
 10
132.6449369558
 20
237.5716457508
 30
0.0
 10
132.6418403456
 20
237.5907529148
 30
0.0
 10
132.6369124093
 20
237.6162105975
 30
0.0
 10
132.6290710946
 20
237.6608223718
 30
0.0
 10
132.6177439045
 20
237.7305408144
 30
0.0
 10
132.6045397536
 20
237.8305987706
 30
0.0
 10
132.5924031371
 20
237.9523588525
 30
0.0
 10
132.5835200571
 20
238.0953733137
 30
0.0
 10
132.5813876619
 20
238.1978177641
 30
0.0
 10
132.581387654
 20
238.2524408697
 30
0.0
  0
SPLINE
  5
40A
100
AcDbEntity
  8
RUNDUNGEN
100
AcDbSpline
 62
7
  6
CONTINUOUS
 70
0
 71
3
 72
9
 73
5
 74
0
 42
0.0000001
 43
0.0000001
 44
0.0000000001
 40
0.0
 40
0.0
 40
0.0
 40
0.0
 40
0.5000122848
 40
1.0
 40
1.0
 40
1.0
 40
1.0
 10
143.0833702784
 20
183.5442827819
 30
0.0
 10
141.6850901296
 20
183.5458526435
 30
0.0
 10
138.8886026397
 20
183.5593753333
 30
0.0
 10
136.0921177816
 20
183.5440469467
 30
0.0
 10
134.6939054603
 20
183.5440550646
 30
0.0
  0
SPLINE
  5
40B
100
AcDbEntity
  8
KONSTRUKTIONSELEMENTE
100
AcDbSpline
 62
7
  6
CONTINUOUS
 70
0
 71
3
 72
18
 73
14
 74
0
 42
0.0000001
 43
0.0000001
 44
0.0000000001
 40
0.0
 40
0.0
 40
0.0
 40
0.0
 40
0.2298385658
 40
0.4309883211
 40
0.6027926476
 40
0.7445577087
 40
0.855726262
 40
0.8996352512
 40
0.9356566631
 40
0.9637463253
 40
0.9838623304
 40
0.9959616056
 40
1.0
 40
1.0
 40
1.0
 40
1.0
 10
95.581387654
 20
238.252287925
 30
0.0
 10
95.581387646
 20
238.1976764295
 30
0.0
 10
95.5792536169
 20
238.0952536994
 30
0.0
 10
95.5703649258
 20
237.9522699442
 30
0.0
 10
95.5582228514
 20
237.8305363292
 30
0.0
 10
95.5450156382
 20
237.7305002392
 30
0.0
 10
95.5336880697
 20
237.6607970326
 30
0.0
 10
95.5258481963
 20
237.6161949442
 30
0.0
 10
95.520922408
 20
237.5907427585
 30
0.0
 10
95.5178272954
 20
237.5716399129
 30
0.0
 10
95.5135073724
 20
237.5563317395
 30
0.0
 10
95.5144759268
 20
237.5500956631
 30
0.0
 10
95.5109017021
 20
237.5440570421
 30
0.0
 10
95.5118612551
 20
237.5440550655
 30
0.0
  0
SPLINE
  5
40C
100
AcDbEntity
  8
RUNDUNGEN
100
AcDbSpline
 62
7
  6
CONTINUOUS
 70
0
 71
3
 72
9
 73
5
 74
0
 42
0.0000001
 43
0.0000001
 44
0.0000000001
 40
0.0
 40
0.0
 40
0.0
 40
0.0
 40
0.2713999976
 40
1.0
 40
1.0
 40
1.0
 40
1.0
 10
133.4485819865
 20
221.5602981921
 30
0.0
 10
132.6174722162
 20
221.4971838662
 30
0.0
 10
129.5692861906
 20
221.1226449265
 30
0.0
 10
126.5765690389
 20
220.1958521923
 30
0.0
 10
124.581387654
 20
219.1828391325
 30
0.0
  0
SPLINE
  5
40D
100
AcDbEntity
  8
RUNDUNGEN
100
AcDbSpline
 62
7
  6
CONTINUOUS
 70
0
 71
3
 72
10
 73
6
 74
0
 42
0.0000001
 43
0.0000001
 44
0.0000000001
 40
0.0
 40
0.0
 40
0.0
 40
0.0
 40
0.2265754041
 40
0.5979751087
 40
1.0
 40
1.0
 40
1.0
 40
1.0
 10
103.581387654
 20
219.1828391325
 30
0.0
 10
102.9596811752
 20
219.4984980431
 30
0.0
 10
101.2737533599
 20
220.244901569
 30
0.0
 10
98.3122647364
 20
221.1220748028
 30
0.0
 10
95.9478116583
 20
221.4666176189
 30
0.0
 10
94.714193065
 20
221.5602983555
 30
0.0
  0
SPLINE
  5
40E
100
AcDbEntity
  8
RUNDUNGEN
100
AcDbSpline
 62
7
  6
CONTINUOUS
 70
0
 71
3
 72
10
 73
6
 74
0
 42
0.0000001
 43
0.0000001
 44
0.0000000001
 40
0.0
 40
0.0
 40
0.0
 40
0.0
 40
0.4910379865
 40
0.7460855927
 40
1.0
 40
1.0
 40
1.0
 40
1.0
 10
138.1113359224
 20
223.9005242894
 30
0.0
 10
137.4434406886
 20
223.3484932972
 30
0.0
 10
136.391721158
 20
222.5382261718
 30
0.0
 10
134.7835876976
 20
221.7902058454
 30
0.0
 10
133.8953592281
 20
221.5942266217
 30
0.0
 10
133.4485808861
 20
221.5602976559
 30
0.0
  0
SPLINE
  5
40F
100
AcDbEntity
  8
RUNDUNGEN
100
AcDbSpline
 62
7
  6
CONTINUOUS
 70
0
 71
3
 72
10
 73
6
 74
0
 42
0.0000001
 43
0.0000001
 44
0.0000000001
 40
0.0
 40
0.0
 40
0.0
 40
0.0
 40
0.2539183897
 40
0.5089451214
 40
1.0
 40
1.0
 40
1.0
 40
1.0
 10
94.7141936307
 20
221.5602977107
 30
0.0
 10
94.267430987
 20
221.5942256674
 30
0.0
 10
93.3792755169
 20
221.79015859
 30
0.0
 10
91.7711810929
 20
222.5380820909
 30
0.0
 10
90.7196432112
 20
223.3484552067
 30
0.0
 10
90.0516624325
 20
223.9003603862
 30
0.0
  0
SPLINE
  5
410
100
AcDbEntity
  8
RUNDUNGEN
100
AcDbSpline
 62
7
  6
CONTINUOUS
 70
0
 71
3
 72
15
 73
11
 74
0
 42
0.0000001
 43
0.0000001
 44
0.0000000001
 40
0.0
 40
0.0
 40
0.0
 40
0.0
 40
0.1252984077
 40
0.250446723
 40
0.3753655777
 40
0.5000391735
 40
0.6246078593
 40
0.7493399935
 40
0.8744842237
 40
1.0
 40
1.0
 40
1.0
 40
1.0
 10
276.9923113766
 20
183.5440551633
 30
0.0
 10
277.9090469398
 20
183.5441533767
 30
0.0
 10
279.7461685043
 20
183.7415105526
 30
0.0
 10
282.3828178836
 20
184.5577835178
 30
0.0
 10
284.844071618
 20
185.7882459928
 30
0.0
 10
287.1221446852
 20
187.3152383731
 30
0.0
 10
289.2583464979
 20
189.0278337167
 30
0.0
 10
291.3154547654
 20
190.8376430289
 30
0.0
 10
293.3470264594
 20
192.6859327534
 30
0.0
 10
294.6996692423
 20
193.9243470049
 30
0.0
 10
295.3773745104
 20
194.5440550646
 30
0.0
  0
SPLINE
  5
411
100
AcDbEntity
  8
RUNDUNGEN
100
AcDbSpline
 62
7
  6
CONTINUOUS
 70
0
 71
3
 72
15
 73
11
 74
0
 42
0.0000001
 43
0.0000001
 44
0.0000000001
 40
0.0
 40
0.0
 40
0.0
 40
0.0
 40
0.1255149694
 40
0.2506582683
 40
0.3753894644
 40
0.4999571061
 40
0.624629265
 40
0.7495467832
 40
0.8746983296
 40
1.0
 40
1.0
 40
1.0
 40
1.0
 10
295.3771818032
 20
194.5437832015
 30
0.0
 10
296.0548977192
 20
193.9240610655
 30
0.0
 10
297.4075694956
 20
192.6856285379
 30
0.0
 10
299.4391782186
 20
190.8373052016
 30
0.0
 10
301.4963334799
 20
189.0274763448
 30
0.0
 10
303.6325928953
 20
187.3148809069
 30
0.0
 10
305.9107391464
 20
185.7879218873
 30
0.0
 10
308.3720979262
 20
184.5575029767
 30
0.0
 10
311.0088957178
 20
183.7413314637
 30
0.0
 10
312.8461262791
 20
183.5440901411
 30
0.0
 10
313.7629089391
 20
183.544055102
 30
0.0
  0
SPLINE
  5
412
100
AcDbEntity
  8
RUNDUNGEN
100
AcDbSpline
 62
7
  6
CONTINUOUS
 70
0
 71
3
 72
11
 73
7
 74
0
 42
0.0000001
 43
0.0000001
 44
0.0000000001
 40
0.0
 40
0.0
 40
0.0
 40
0.0
 40
0.0872730477
 40
0.2751404383
 40
0.5796338807
 40
1.0
 40
1.0
 40
1.0
 40
1.0
 10
297.3771299929
 20
181.5057408258
 30
0.0
 10
297.3771332928
 20
181.5137970016
 30
0.0
 10
297.4043381689
 20
181.5305567426
 30
0.0
 10
297.4540499868
 20
181.5363445507
 30
0.0
 10
297.5399072572
 20
181.5439104936
 30
0.0
 10
297.6062751832
 20
181.5440646881
 30
0.0
 10
297.6450791853
 20
181.5440550646
 30
0.0
  0
SPLINE
  5
413
100
AcDbEntity
  8
KONSTRUKTIONSELEMENTE
100
AcDbSpline
 62
7
  6
CONTINUOUS
 70
0
 71
3
 72
9
 73
5
 74
0
 42
0.0000001
 43
0.0000001
 44
0.0000000001
 40
0.0
 40
0.0
 40
0.0
 40
0.0
 40
0.2294437959
 40
1.0
 40
1.0
 40
1.0
 40
1.0
 10
303.6370643276
 20
217.0907278911
 30
0.0
 10
303.6238082368
 20
217.0827999228
 30
0.0
 10
303.5653561709
 20
217.0493791816
 30
0.0
 10
303.504595883
 20
217.0201104237
 30
0.0
 10
303.4571354401
 20
216.9991742897
 30
0.0
  0
SPLINE
  5
414
100
AcDbEntity
  8
0
100
AcDbSpline
 62
7
  6
CONTINUOUS
 70
0
 71
3
 72
12
 73
8
 74
0
 42
0.0000001
 43
0.0000001
 44
0.0000000001
 40
0.0
 40
0.0
 40
0.0
 40
0.0
 40
0.4132609718
 40
0.5856507762
 40
0.7311349163
 40
0.9315322708
 40
1.0
 40
1.0
 40
1.0
 40
1.0
 10
280.4512375656
 20
270.1300144669
 30
0.0
 10
280.6124755881
 20
271.4281866033
 30
0.0
 10
280.8513591302
 20
273.3009271907
 30
0.0
 10
281.1437390213
 20
275.5180799983
 30
0.0
 10
281.3918836118
 20
277.3460864339
 30
0.0
 10
281.462633806
 20
277.8775148437
 30
0.0
 10
281.7284139279
 20
279.7585718407
 30
0.0
 10
281.6979672619
 20
279.5439915794
 30
0.0
  0
SPLINE
  5
415
100
AcDbEntity
  8
RUNDUNGEN
100
AcDbSpline
 62
7
  6
CONTINUOUS
 70
0
 71
3
 72
9
 73
5
 74
0
 42
0.0000001
 43
0.0000001
 44
0.0000000001
 40
0.0
 40
0.0
 40
0.0
 40
0.0
 40
0.4960744569
 40
1.0
 40
1.0
 40
1.0
 40
1.0
 10
310.3030224202
 20
270.1300144669
 30
0.0
 10
310.3655169309
 20
269.6268537902
 30
0.0
 10
310.6191187178
 20
268.6264872002
 30
0.0
 10
311.054749542
 20
267.697397769
 30
0.0
 10
311.3016140129
 20
267.2453626473
 30
0.0
  0
SPLINE
  5
416
100
AcDbEntity
  8
RUNDUNGEN
100
AcDbSpline
 62
7
  6
CONTINUOUS
 70
0
 71
3
 72
9
 73
5
 74
0
 42
0.0000001
 43
0.0000001
 44
0.0000000001
 40
0.0
 40
0.0
 40
0.0
 40
0.0
 40
0.5039255431
 40
1.0
 40
1.0
 40
1.0
 40
1.0
 10
279.4526459729
 20
267.2453626473
 30
0.0
 10
279.6995104438
 20
267.697397769
 30
0.0
 10
280.135141268
 20
268.6264872002
 30
0.0
 10
280.3887430549
 20
269.6268537902
 30
0.0
 10
280.4512375656
 20
270.1300144669
 30
0.0
  0
SPLINE
  5
417
100
AcDbEntity
  8
KONSTRUKTIONSELEMENTE
100
AcDbSpline
 62
7
  6
CONTINUOUS
 70
0
 71
3
 72
9
 73
5
 74
0
 42
0.0000001
 43
0.0000001
 44
0.0000000001
 40
0.0
 40
0.0
 40
0.0
 40
0.0
 40
0.2584510697
 40
1.0
 40
1.0
 40
1.0
 40
1.0
 10
303.6384707759
 20
213.7948233861
 30
0.0
 10
303.6497468834
 20
213.7798481002
 30
0.0
 10
303.6923359995
 20
213.7211362738
 30
0.0
 10
303.7306014166
 20
213.6592360256
 30
0.0
 10
303.7558003512
 20
213.6117182788
 30
0.0
  0
SPLINE
  5
418
100
AcDbEntity
  8
KONSTRUKTIONSELEMENTE
100
AcDbSpline
 62
7
  6
CONTINUOUS
 70
0
 71
3
 72
9
 73
5
 74
0
 42
0.0000001
 43
0.0000001
 44
0.0000000001
 40
0.0
 40
0.0
 40
0.0
 40
0.0
 40
0.2799795669
 40
1.0
 40
1.0
 40
1.0
 40
1.0
 10
303.7558003512
 20
213.6117182788
 30
0.0
 10
303.7652992906
 20
213.6044144371
 30
0.0
 10
303.7984144017
 20
213.5773799665
 30
0.0
 10
303.8284140538
 20
213.5458841975
 30
0.0
 10
303.8453863284
 20
213.5201646773
 30
0.0
  0
SPLINE
  5
419
100
AcDbEntity
  8
RUNDUNGEN
100
AcDbSpline
 62
7
  6
CONTINUOUS
 70
0
 71
3
 72
10
 73
6
 74
0
 42
0.0000001
 43
0.0000001
 44
0.0000000001
 40
0.0
 40
0.0
 40
0.0
 40
0.0
 40
0.1901860235
 40
0.4267824441
 40
1.0
 40
1.0
 40
1.0
 40
1.0
 10
303.8769166451
 20
221.9648985517
 30
0.0
 10
303.8781626183
 20
222.0980281777
 30
0.0
 10
303.8402548993
 20
222.3970264073
 30
0.0
 10
303.6380902268
 20
223.0688613923
 30
0.0
 10
303.359344911
 20
223.5726428368
 30
0.0
 10
303.1277908532
 20
223.9003603862
 30
0.0
  0
SPLINE
  5
41A
100
AcDbEntity
  8
KONSTRUKTIONSELEMENTE
100
AcDbSpline
 62
7
  6
CONTINUOUS
 70
0
 71
3
 72
8
 73
4
 74
0
 42
0.0000001
 43
0.0000001
 44
0.0000000001
 40
0.0
 40
0.0
 40
0.0
 40
0.0
 40
1.0
 40
1.0
 40
1.0
 40
1.0
 10
303.4299688186
 20
220.9359498137
 30
0.0
 10
303.5778515194
 20
220.0882294289
 30
0.0
 10
303.6723361409
 20
219.2307047801
 30
0.0
 10
303.7350137878
 20
218.3724678335
 30
0.0
  0
SPLINE
  5
41B
100
AcDbEntity
  8
RUNDUNGEN
100
AcDbSpline
 62
7
  6
CONTINUOUS
 70
0
 71
3
 72
10
 73
6
 74
0
 42
0.0000001
 43
0.0000001
 44
0.0000000001
 40
0.0
 40
0.0
 40
0.0
 40
0.0
 40
0.23738063
 40
0.4851151427
 40
1.0
 40
1.0
 40
1.0
 40
1.0
 10
279.4526459729
 20
267.2453626473
 30
0.0
 10
279.393308346
 20
267.1367091367
 30
0.0
 10
279.2980229056
 20
266.8990037431
 30
0.0
 10
279.2321874917
 20
266.376662874
 30
0.0
 10
279.336988827
 20
265.9748529936
 30
0.0
 10
279.4511239678
 20
265.7317901101
 30
0.0
  0
SPLINE
  5
41C
100
AcDbEntity
  8
RUNDUNGEN
100
AcDbSpline
 62
7
  6
CONTINUOUS
 70
0
 71
3
 72
10
 73
6
 74
0
 42
0.0000001
 43
0.0000001
 44
0.0000000001
 40
0.0
 40
0.0
 40
0.0
 40
0.0
 40
0.5150225539
 40
0.7627189999
 40
1.0
 40
1.0
 40
1.0
 40
1.0
 10
311.303136018
 20
265.7317901101
 30
0.0
 10
311.4173020344
 20
265.9749187465
 30
0.0
 10
311.5220628973
 20
266.3767919662
 30
0.0
 10
311.4562549067
 20
266.899143462
 30
0.0
 10
311.3609269185
 20
267.136754404
 30
0.0
 10
311.3016140129
 20
267.2453626473
 30
0.0
  0
SPLINE
  5
41D
100
AcDbEntity
  8
0
100
AcDbSpline
 62
7
  6
CONTINUOUS
 70
0
 71
3
 72
14
 73
10
 74
0
 42
0.0000001
 43
0.0000001
 44
0.0000000001
 40
0.0
 40
0.0
 40
0.0
 40
0.0
 40
0.1248540035
 40
0.2498330682
 40
0.3748737431
 40
0.4999288779
 40
0.6249831172
 40
0.750033386
 40
1.0
 40
1.0
 40
1.0
 40
1.0
 10
310.2906703866
 20
262.1599353702
 30
0.0
 10
310.2564455278
 20
261.7130905184
 30
0.0
 10
310.0262498424
 20
260.8267190737
 30
0.0
 10
309.3267822314
 20
259.6634227095
 30
0.0
 10
308.4140577497
 20
258.6650964393
 30
0.0
 10
307.3685999131
 20
257.8109630351
 30
0.0
 10
306.2358518855
 20
257.0785818045
 30
0.0
 10
304.6449118983
 20
256.2438386331
 30
0.0
 10
303.3830714869
 20
255.7585576622
 30
0.0
 10
302.5271299929
 20
255.4894932396
 30
0.0
  0
SPLINE
  5
41E
100
AcDbEntity
  8
RUNDUNGEN
100
AcDbSpline
 62
7
  6
CONTINUOUS
 70
0
 71
3
 72
10
 73
6
 74
0
 42
0.0000001
 43
0.0000001
 44
0.0000000001
 40
0.0
 40
0.0
 40
0.0
 40
0.0
 40
0.5719479471
 40
0.8087185544
 40
1.0
 40
1.0
 40
1.0
 40
1.0
 10
287.6265939068
 20
223.9005228784
 30
0.0
 10
287.3969464292
 20
223.5754658578
 30
0.0
 10
287.1197825654
 20
223.0758050432
 30
0.0
 10
286.9168080182
 20
222.4086298374
 30
0.0
 10
286.877110695
 20
222.1108791601
 30
0.0
 10
286.8771302807
 20
221.9777742839
 30
0.0
  0
SPLINE
  5
41F
100
AcDbEntity
  8
RUNDUNGEN
100
AcDbSpline
 62
7
  6
CONTINUOUS
 70
0
 71
3
 72
9
 73
5
 74
0
 42
0.0000001
 43
0.0000001
 44
0.0000000001
 40
0.0
 40
0.0
 40
0.0
 40
0.0
 40
0.5001637713
 40
1.0
 40
1.0
 40
1.0
 40
1.0
 10
311.303136018
 20
265.7317901101
 30
0.0
 10
311.0389520315
 20
265.1691823007
 30
0.0
 10
310.5786165049
 20
264.0096711538
 30
0.0
 10
310.338105972
 20
262.7792614366
 30
0.0
 10
310.2906703866
 20
262.1599353702
 30
0.0
  0
SPLINE
  5
420
100
AcDbEntity
  8
0
100
AcDbSpline
 62
7
  6
CONTINUOUS
 70
0
 71
3
 72
12
 73
8
 74
0
 42
0.0000001
 43
0.0000001
 44
0.0000000001
 40
0.0
 40
0.0
 40
0.0
 40
0.0
 40
0.0684677295
 40
0.2688650842
 40
0.4143492242
 40
0.5867390286
 40
1.0
 40
1.0
 40
1.0
 40
1.0
 10
309.056292724
 20
279.5439915794
 30
0.0
 10
309.0258460282
 20
279.7585718377
 30
0.0
 10
309.2916262222
 20
277.8775148468
 30
0.0
 10
309.3623763637
 20
277.3460864282
 30
0.0
 10
309.610520968
 20
275.518079995
 30
0.0
 10
309.9029008536
 20
273.3009271879
 30
0.0
 10
310.1417843978
 20
271.4281866023
 30
0.0
 10
310.3030224202
 20
270.1300144669
 30
0.0
  0
SPLINE
  5
421
100
AcDbEntity
  8
KONSTRUKTIONSELEMENTE
100
AcDbSpline
 62
7
  6
CONTINUOUS
 70
0
 71
3
 72
9
 73
5
 74
0
 42
0.0000001
 43
0.0000001
 44
0.0000000001
 40
0.0
 40
0.0
 40
0.0
 40
0.0
 40
0.2403376439
 40
1.0
 40
1.0
 40
1.0
 40
1.0
 10
303.767517592
 20
212.5130834437
 30
0.0
 10
303.7618546456
 20
212.5053236876
 30
0.0
 10
303.7376818772
 20
212.4734834888
 30
0.0
 10
303.7112040482
 20
212.443419726
 30
0.0
 10
303.690161089
 20
212.4215298423
 30
0.0
  0
SPLINE
  5
422
100
AcDbEntity
  8
KONSTRUKTIONSELEMENTE
100
AcDbSpline
 62
7
  6
CONTINUOUS
 70
0
 71
3
 72
9
 73
5
 74
0
 42
0.0000001
 43
0.0000001
 44
0.0000000001
 40
0.0
 40
0.0
 40
0.0
 40
0.0
 40
0.2459791996
 40
1.0
 40
1.0
 40
1.0
 40
1.0
 10
303.690161089
 20
212.4215298423
 30
0.0
 10
303.6803331067
 20
212.3983781348
 30
0.0
 10
303.6389615638
 20
212.3048635734
 30
0.0
 10
303.5919805465
 20
212.2138454965
 30
0.0
 10
303.553788588
 20
212.1468711336
 30
0.0
  0
SPLINE
  5
423
100
AcDbEntity
  8
RUNDUNGEN
100
AcDbSpline
 62
7
  6
CONTINUOUS
 70
0
 71
3
 72
9
 73
5
 74
0
 42
0.0000001
 43
0.0000001
 44
0.0000000001
 40
0.0
 40
0.0
 40
0.0
 40
0.0
 40
0.4998362287
 40
1.0
 40
1.0
 40
1.0
 40
1.0
 10
280.4635895993
 20
262.1599353702
 30
0.0
 10
280.4161540138
 20
262.7792614366
 30
0.0
 10
280.175643481
 20
264.0096711538
 30
0.0
 10
279.7153079543
 20
265.1691823007
 30
0.0
 10
279.4511239678
 20
265.7317901101
 30
0.0
  0
SPLINE
  5
424
100
AcDbEntity
  8
0
100
AcDbSpline
 62
7
  6
CONTINUOUS
 70
0
 71
3
 72
14
 73
10
 74
0
 42
0.0000001
 43
0.0000001
 44
0.0000000001
 40
0.0
 40
0.0
 40
0.0
 40
0.0
 40
0.2500541679
 40
0.3751471327
 40
0.5002263177
 40
0.6252827526
 40
0.7502941132
 40
0.8752188668
 40
1.0
 40
1.0
 40
1.0
 40
1.0
 10
288.2271299929
 20
255.4894932396
 30
0.0
 10
287.3708926136
 20
255.7586506735
 30
0.0
 10
286.1086665266
 20
256.2442213173
 30
0.0
 10
284.5172472532
 20
257.0792291562
 30
0.0
 10
283.3843689813
 20
257.8118705644
 30
0.0
 10
282.3391223061
 20
258.6662289814
 30
0.0
 10
281.4267445649
 20
259.6644765801
 30
0.0
 10
280.7279323135
 20
260.8274769733
 30
0.0
 10
280.4977943263
 20
261.7133533609
 30
0.0
 10
280.4635895993
 20
262.1599353702
 30
0.0
  0
SPLINE
  5
425
100
AcDbEntity
  8
RUNDUNGEN
100
AcDbSpline
 62
7
  6
CONTINUOUS
 70
0
 71
3
 72
13
 73
9
 74
0
 42
0.0000001
 43
0.0000001
 44
0.0000000001
 40
0.0
 40
0.0
 40
0.0
 40
0.0
 40
0.2679479595
 40
0.3904497308
 40
0.5086350691
 40
0.745443744
 40
0.8696296101
 40
1.0
 40
1.0
 40
1.0
 40
1.0
 10
146.1946196509
 20
59.5223260432
 30
0.0
 10
146.0968405809
 20
59.2566328151
 30
0.0
 10
145.9313928593
 20
58.8764987809
 30
0.0
 10
145.6552663403
 20
58.4147741287
 30
0.0
 10
145.3645405619
 20
58.0022159972
 30
0.0
 10
145.0499720927
 20
57.604461034
 30
0.0
 10
144.7866464532
 20
57.1554652578
 30
0.0
 10
144.6890658027
 20
56.9028038852
 30
0.0
 10
144.65264683
 20
56.7699558826
 30
0.0
  0
SPLINE
  5
426
100
AcDbEntity
  8
KONSTRUKTIONSELEMENTE
100
AcDbSpline
 62
7
  6
CONTINUOUS
 70
0
 71
3
 72
9
 73
5
 74
0
 42
0.0000001
 43
0.0000001
 44
0.0000000001
 40
0.0
 40
0.0
 40
0.0
 40
0.0
 40
0.512843327
 40
1.0
 40
1.0
 40
1.0
 40
1.0
 10
132.6509103977
 20
72.7427001758
 30
0.0
 10
132.650998154
 20
72.2118498004
 30
0.0
 10
132.624167907
 20
71.1769509496
 30
0.0
 10
132.581387689
 20
70.1424142032
 30
0.0
 10
132.581387654
 20
69.6381523894
 30
0.0
  0
SPLINE
  5
427
100
AcDbEntity
  8
0
100
AcDbSpline
 62
7
  6
CONTINUOUS
 70
0
 71
3
 72
17
 73
13
 74
0
 42
0.0000001
 43
0.0000001
 44
0.0000000001
 40
0.0
 40
0.0
 40
0.0
 40
0.0
 40
0.0425825625
 40
0.0927104376
 40
0.2122927892
 40
0.3511229851
 40
0.4999999819
 40
0.6488770918
 40
0.7877072543
 40
0.9072895085
 40
0.9574174182
 40
1.0
 40
1.0
 40
1.0
 40
1.0
 10
130.4859413614
 20
57.8151790013
 30
0.0
 10
130.0284834082
 20
57.9124123396
 30
0.0
 10
129.0263560395
 20
58.0951840353
 30
0.0
 10
126.7182080652
 20
58.4271864198
 30
0.0
 10
123.3439136987
 20
58.7565421627
 30
0.0
 10
118.8766586374
 20
59.0049862438
 30
0.0
 10
114.0813870073
 20
59.0913638215
 30
0.0
 10
109.2861157466
 20
59.0049861765
 30
0.0
 10
104.818860878
 20
58.7565421439
 30
0.0
 10
101.4445675736
 20
58.4271864274
 30
0.0
 10
99.1364200671
 20
58.0951841489
 30
0.0
 10
98.1342921078
 20
57.9124123838
 30
0.0
 10
97.6768339467
 20
57.8151790013
 30
0.0
  0
SPLINE
  5
428
100
AcDbEntity
  8
0
100
AcDbSpline
 62
7
  6
CONTINUOUS
 70
0
 71
3
 72
17
 73
13
 74
0
 42
0.0000001
 43
0.0000001
 44
0.0000000001
 40
0.0
 40
0.0
 40
0.0
 40
0.0
 40
0.0425825818
 40
0.0927104915
 40
0.2122927457
 40
0.3511229082
 40
0.5000000181
 40
0.6488770149
 40
0.7877072108
 40
0.9072895624
 40
0.9574174375
 40
1.0
 40
1.0
 40
1.0
 40
1.0
 10
97.6768339467
 20
87.6669638558
 30
0.0
 10
98.1342921078
 20
87.5697304733
 30
0.0
 10
99.1364200671
 20
87.3869587083
 30
0.0
 10
101.4445675736
 20
87.0549564298
 30
0.0
 10
104.818860878
 20
86.7256007132
 30
0.0
 10
109.2861157466
 20
86.4771566807
 30
0.0
 10
114.0813870073
 20
86.3907790357
 30
0.0
 10
118.8766586374
 20
86.4771566133
 30
0.0
 10
123.3439136987
 20
86.7256006945
 30
0.0
 10
126.7182080652
 20
87.0549564373
 30
0.0
 10
129.0263560395
 20
87.3869588219
 30
0.0
 10
130.0284834082
 20
87.5697305176
 30
0.0
 10
130.4859413614
 20
87.6669638558
 30
0.0
  0
SPLINE
  5
429
100
AcDbEntity
  8
RUNDUNGEN
100
AcDbSpline
 62
7
  6
CONTINUOUS
 70
0
 71
3
 72
9
 73
5
 74
0
 42
0.0000001
 43
0.0000001
 44
0.0000000001
 40
0.0
 40
0.0
 40
0.0
 40
0.0
 40
0.2712850644
 40
1.0
 40
1.0
 40
1.0
 40
1.0
 10
132.1715803447
 20
56.8165874086
 30
0.0
 10
132.0413953354
 20
56.9382553677
 30
0.0
 10
131.5481561275
 20
57.3676406019
 30
0.0
 10
130.954125724
 20
57.7156657495
 30
0.0
 10
130.4859413614
 20
57.8151790013
 30
0.0
  0
SPLINE
  5
42A
100
AcDbEntity
  8
RUNDUNGEN
100
AcDbSpline
 62
7
  6
CONTINUOUS
 70
0
 71
3
 72
10
 73
6
 74
0
 42
0.0000001
 43
0.0000001
 44
0.0000000001
 40
0.0
 40
0.0
 40
0.0
 40
0.0
 40
0.231050156
 40
0.6002112259
 40
1.0
 40
1.0
 40
1.0
 40
1.0
 10
130.4859413614
 20
87.6669638558
 30
0.0
 10
130.6351333581
 20
87.6986748268
 30
0.0
 10
131.0146266034
 20
87.8218799273
 30
0.0
 10
131.588998206
 20
88.1576845843
 30
0.0
 10
131.9787631694
 20
88.4853528865
 30
0.0
 10
132.1715803447
 20
88.6655554486
 30
0.0
  0
SPLINE
  5
42B
100
AcDbEntity
  8
RUNDUNGEN
100
AcDbSpline
 62
7
  6
CONTINUOUS
 70
0
 71
3
 72
10
 73
6
 74
0
 42
0.0000001
 43
0.0000001
 44
0.0000000001
 40
0.0
 40
0.0
 40
0.0
 40
0.0
 40
0.2310501559
 40
0.6002112204
 40
1.0
 40
1.0
 40
1.0
 40
1.0
 10
97.6768339467
 20
57.8151790013
 30
0.0
 10
97.5276419499
 20
57.7834680303
 30
0.0
 10
97.1481487078
 20
57.6602629317
 30
0.0
 10
96.5737771045
 20
57.3244582758
 30
0.0
 10
96.1840121414
 20
56.9967899731
 30
0.0
 10
95.9911949634
 20
56.8165874086
 30
0.0
  0
SPLINE
  5
42C
100
AcDbEntity
  8
RUNDUNGEN
100
AcDbSpline
 62
7
  6
CONTINUOUS
 70
0
 71
3
 72
9
 73
5
 74
0
 42
0.0000001
 43
0.0000001
 44
0.0000000001
 40
0.0
 40
0.0
 40
0.0
 40
0.0
 40
0.2712850694
 40
1.0
 40
1.0
 40
1.0
 40
1.0
 10
95.9911949634
 20
88.6655554486
 30
0.0
 10
96.1213799751
 20
88.5438874871
 30
0.0
 10
96.6146191832
 20
88.114502253
 30
0.0
 10
97.2086495872
 20
87.766477107
 30
0.0
 10
97.6768339467
 20
87.6669638558
 30
0.0
  0
SPLINE
  5
42D
100
AcDbEntity
  8
RUNDUNGEN
100
AcDbSpline
 62
7
  6
CONTINUOUS
 70
0
 71
3
 72
14
 73
10
 74
0
 42
0.0000001
 43
0.0000001
 44
0.0000000001
 40
0.0
 40
0.0
 40
0.0
 40
0.0
 40
0.1304458719
 40
0.2330058283
 40
0.3143240642
 40
0.3949354893
 40
0.4973101424
 40
0.6323633337
 40
1.0
 40
1.0
 40
1.0
 40
1.0
 10
132.581387654
 20
88.6670774537
 30
0.0
 10
132.581387654
 20
88.6931884341
 30
0.0
 10
132.5785894857
 20
88.7399476918
 30
0.0
 10
132.5622690269
 20
88.8014452169
 30
0.0
 10
132.5269522289
 20
88.8449155178
 30
0.0
 10
132.4719958388
 20
88.8564157817
 30
0.0
 10
132.4094070496
 20
88.8398134574
 30
0.0
 10
132.3023562031
 20
88.7821190821
 30
0.0
 10
132.2253444431
 20
88.7158021565
 30
0.0
 10
132.1715803447
 20
88.6655554486
 30
0.0
  0
SPLINE
  5
42E
100
AcDbEntity
  8
RUNDUNGEN
100
AcDbSpline
 62
7
  6
CONTINUOUS
 70
0
 71
3
 72
14
 73
10
 74
0
 42
0.0000001
 43
0.0000001
 44
0.0000000001
 40
0.0
 40
0.0
 40
0.0
 40
0.0
 40
0.3677052962
 40
0.5028552422
 40
0.60516257
 40
0.6857421151
 40
0.767018815
 40
0.8695495783
 40
1.0
 40
1.0
 40
1.0
 40
1.0
 10
95.9911949634
 20
88.6655554486
 30
0.0
 10
95.9374207066
 20
88.7158116502
 30
0.0
 10
95.8603445313
 20
88.7820927136
 30
0.0
 10
95.7533216628
 20
88.8398718938
 30
0.0
 10
95.6906982547
 20
88.8564299803
 30
0.0
 10
95.6358183586
 20
88.8448308126
 30
0.0
 10
95.600441774
 20
88.8014580448
 30
0.0
 10
95.5841746204
 20
88.7399346548
 30
0.0
 10
95.581387654
 20
88.693189404
 30
0.0
 10
95.581387654
 20
88.6670774537
 30
0.0
  0
SPLINE
  5
42F
100
AcDbEntity
  8
RUNDUNGEN
100
AcDbSpline
 62
7
  6
CONTINUOUS
 70
0
 71
3
 72
14
 73
10
 74
0
 42
0.0000001
 43
0.0000001
 44
0.0000000001
 40
0.0
 40
0.0
 40
0.0
 40
0.0
 40
0.3677052962
 40
0.5028552422
 40
0.60516257
 40
0.6857421151
 40
0.767018815
 40
0.8695495783
 40
1.0
 40
1.0
 40
1.0
 40
1.0
 10
132.1715803447
 20
56.8165874086
 30
0.0
 10
132.2253546015
 20
56.7663312069
 30
0.0
 10
132.3024307767
 20
56.7000501435
 30
0.0
 10
132.4094536452
 20
56.6422709634
 30
0.0
 10
132.4720770533
 20
56.6257128768
 30
0.0
 10
132.5269569494
 20
56.6373120445
 30
0.0
 10
132.5623335341
 20
56.6806848124
 30
0.0
 10
132.5786006876
 20
56.7422082023
 30
0.0
 10
132.581387654
 20
56.7889534532
 30
0.0
 10
132.581387654
 20
56.8150654035
 30
0.0
  0
SPLINE
  5
430
100
AcDbEntity
  8
RUNDUNGEN
100
AcDbSpline
 62
7
  6
CONTINUOUS
 70
0
 71
3
 72
14
 73
10
 74
0
 42
0.0000001
 43
0.0000001
 44
0.0000000001
 40
0.0
 40
0.0
 40
0.0
 40
0.0
 40
0.1304458719
 40
0.2330058283
 40
0.3143240642
 40
0.3949354893
 40
0.4973101424
 40
0.6323633337
 40
1.0
 40
1.0
 40
1.0
 40
1.0
 10
95.581387654
 20
56.8150654035
 30
0.0
 10
95.581387654
 20
56.788954423
 30
0.0
 10
95.5841858223
 20
56.7421951654
 30
0.0
 10
95.6005062812
 20
56.6806976402
 30
0.0
 10
95.6358230792
 20
56.6372273393
 30
0.0
 10
95.6907794692
 20
56.6257270755
 30
0.0
 10
95.7533682585
 20
56.6423293997
 30
0.0
 10
95.8604191049
 20
56.700023775
 30
0.0
 10
95.9374308649
 20
56.7663407007
 30
0.0
 10
95.9911949634
 20
56.8165874086
 30
0.0
  0
SPLINE
  5
431
100
AcDbEntity
  8
KONSTRUKTIONSELEMENTE
100
AcDbSpline
 62
7
  6
CONTINUOUS
 70
0
 71
3
 72
9
 73
5
 74
0
 42
0.0000001
 43
0.0000001
 44
0.0000000001
 40
0.0
 40
0.0
 40
0.0
 40
0.0
 40
0.4871594997
 40
1.0
 40
1.0
 40
1.0
 40
1.0
 10
95.581387654
 20
69.6384699203
 30
0.0
 10
95.5813876184
 20
70.1426908845
 30
0.0
 10
95.538579061
 20
71.177136985
 30
0.0
 10
95.5117688843
 20
72.211946545
 30
0.0
 10
95.5118615038
 20
72.7427479104
 30
0.0
  0
SPLINE
  5
432
100
AcDbEntity
  8
RUNDUNGEN
100
AcDbSpline
 62
7
  6
CONTINUOUS
 70
0
 71
3
 72
9
 73
5
 74
0
 42
0.0000001
 43
0.0000001
 44
0.0000000001
 40
0.0
 40
0.0
 40
0.0
 40
0.0
 40
0.5001386719
 40
1.0
 40
1.0
 40
1.0
 40
1.0
 10
90.8122701563
 20
64.3540255023
 30
0.0
 10
89.9937818762
 20
64.4621901034
 30
0.0
 10
88.3730530792
 20
64.8442385418
 30
0.0
 10
86.8838760927
 20
65.6044021872
 30
0.0
 10
86.206387654
 20
66.0754396649
 30
0.0
  0
SPLINE
  5
433
100
AcDbEntity
  8
KONSTRUKTIONSELEMENTE
100
AcDbSpline
 62
7
  6
CONTINUOUS
 70
0
 71
3
 72
9
 73
5
 74
0
 42
0.0000001
 43
0.0000001
 44
0.0000000001
 40
0.0
 40
0.0
 40
0.0
 40
0.0
 40
0.5128588036
 40
1.0
 40
1.0
 40
1.0
 40
1.0
 10
95.5118615038
 20
72.7427479104
 30
0.0
 10
95.5118119716
 20
73.2732958499
 30
0.0
 10
95.538778437
 20
74.3075695266
 30
0.0
 10
95.5813876146
 20
75.3414894777
 30
0.0
 10
95.581387654
 20
75.8454327801
 30
0.0
  0
SPLINE
  5
434
100
AcDbEntity
  8
KONSTRUKTIONSELEMENTE
100
AcDbSpline
 62
7
  6
CONTINUOUS
 70
0
 71
3
 72
9
 73
5
 74
0
 42
0.0000001
 43
0.0000001
 44
0.0000000001
 40
0.0
 40
0.0
 40
0.0
 40
0.0
 40
0.4871411616
 40
1.0
 40
1.0
 40
1.0
 40
1.0
 10
132.581387654
 20
75.8456609369
 30
0.0
 10
132.5813876893
 20
75.3416728996
 30
0.0
 10
132.623985511
 20
74.307660675
 30
0.0
 10
132.6509563506
 20
73.2732952861
 30
0.0
 10
132.6509103977
 20
72.7427001758
 30
0.0
  0
ELLIPSE
  5
435
100
AcDbEntity
  8
KONSTRUKTIONSELEMENTE
100
AcDbEllipse
 62
7
  6
CONTINUOUS
 10
295.3771299929
 20
195.4932606553
 30
0.0
 11
8.5
 21
0.0
 31
0.0
 40
0.2260480602
 41
-0.3450410351
 42
0.0000056133
  0
ELLIPSE
  5
436
100
AcDbEntity
  8
KONSTRUKTIONSELEMENTE
100
AcDbEllipse
 62
7
  6
CONTINUOUS
 10
295.3771299929
 20
196.7569655034
 30
0.0
 11
8.5
 21
0.0
 31
0.0
 40
0.2260480602
 41
6.2832074971
 42
6.6282263423
  0
ELLIPSE
  5
437
100
AcDbEntity
  8
KONSTRUKTIONSELEMENTE
100
AcDbEllipse
 62
7
  6
CONTINUOUS
 10
295.3771299929
 20
199.8877999289
 30
0.0
 11
8.5
 21
0.0
 31
0.0
 40
0.2260480371
 41
-0.3450410351
 42
-0.0000221899
  0
ELLIPSE
  5
438
100
AcDbEntity
  8
KONSTRUKTIONSELEMENTE
100
AcDbEllipse
 62
7
  6
CONTINUOUS
 10
295.3771299929
 20
201.1515049062
 30
0.0
 11
8.5
 21
0.0
 31
0.0
 40
0.2260481295
 41
6.2832074971
 42
6.6282263423
  0
ELLIPSE
  5
439
100
AcDbEntity
  8
KONSTRUKTIONSELEMENTE
100
AcDbEllipse
 62
7
  6
CONTINUOUS
 10
295.3771299929
 20
208.8287815967
 30
0.0
 11
8.5
 21
0.0
 31
0.0
 40
0.1323990192
 41
-0.2262687397
 42
-0.1434830335
  0
ELLIPSE
  5
43A
100
AcDbEntity
  8
KONSTRUKTIONSELEMENTE
100
AcDbEllipse
 62
7
  6
CONTINUOUS
 10
295.3771299929
 20
209.8386806234
 30
0.0
 11
8.5
 21
-0.0
 31
0.0
 40
0.661997361
 41
-0.2936253274
 42
-0.2262687397
  0
ELLIPSE
  5
43B
100
AcDbEntity
  8
KONSTRUKTIONSELEMENTE
100
AcDbEllipse
 62
7
  6
CONTINUOUS
 10
295.3771299929
 20
211.4672739083
 30
0.0
 11
-0.0
 21
11.2539873347
 31
0.0
 40
0.7552878591
 41
-1.8986005575
 42
-1.8644216542
  0
ELLIPSE
  5
43C
100
AcDbEntity
  8
KONSTRUKTIONSELEMENTE
100
AcDbEllipse
 62
7
  6
CONTINUOUS
 10
295.3771299929
 20
216.9023271501
 30
0.0
 11
0.0
 21
28.1348717432
 31
0.0
 40
0.3021161809
 41
-1.9158373619
 42
-1.8986005575
  0
ELLIPSE
  5
43D
100
AcDbEntity
  8
KONSTRUKTIONSELEMENTE
100
AcDbEllipse
 62
7
  6
CONTINUOUS
 10
295.3771299929
 20
197.0459160049
 30
0.0
 11
-0.0
 21
28.1349361389
 31
0.0
 40
0.3021154894
 41
-1.2429920961
 42
-1.2257552917
  0
ELLIPSE
  5
43E
100
AcDbEntity
  8
KONSTRUKTIONSELEMENTE
100
AcDbEllipse
 62
7
  6
CONTINUOUS
 10
295.3771299929
 20
202.4810003465
 30
0.0
 11
-0.0
 21
11.2539551368
 31
0.0
 40
0.75529002
 41
-1.2771709994
 42
-1.2429920961
  0
ELLIPSE
  5
43F
100
AcDbEntity
  8
KONSTRUKTIONSELEMENTE
100
AcDbEllipse
 62
7
  6
CONTINUOUS
 10
295.3771299929
 20
204.1095796531
 30
0.0
 11
8.5
 21
-0.0
 31
0.0
 40
0.661999255
 41
0.2262687397
 42
0.2936253274
  0
ELLIPSE
  5
440
100
AcDbEntity
  8
KONSTRUKTIONSELEMENTE
100
AcDbEllipse
 62
7
  6
CONTINUOUS
 10
295.3771299929
 20
204.7407714225
 30
0.0
 11
8.5
 21
-0.0
 31
0.0
 40
0.3309977335
 41
0.1599426596
 42
0.2262687397
  0
ELLIPSE
  5
441
100
AcDbEntity
  8
KONSTRUKTIONSELEMENTE
100
AcDbEllipse
 62
7
  6
CONTINUOUS
 10
295.3771299929
 20
205.0096171349
 30
0.0
 11
8.5
 21
-0.0
 31
0.0
 40
0.1324005344
 41
0.077988907
 42
0.1599426596
  0
ELLIPSE
  5
442
100
AcDbEntity
  8
KONSTRUKTIONSELEMENTE
100
AcDbEllipse
 62
7
  6
CONTINUOUS
 10
295.3771299929
 20
209.4509030355
 30
0.0
 11
8.5
 21
0.0
 31
0.0
 40
0.1654988667
 41
0.1599426596
 42
0.2262687397
  0
ELLIPSE
  5
443
100
AcDbEntity
  8
KONSTRUKTIONSELEMENTE
100
AcDbEllipse
 62
7
  6
CONTINUOUS
 10
295.3771299929
 20
208.5041189932
 30
0.0
 11
8.5
 21
-0.0
 31
0.0
 40
0.661999255
 41
0.2262687397
 42
0.2936253274
  0
ELLIPSE
  5
444
100
AcDbEntity
  8
KONSTRUKTIONSELEMENTE
100
AcDbEllipse
 62
7
  6
CONTINUOUS
 10
295.3771299929
 20
206.8755396866
 30
0.0
 11
0.0
 21
11.2539551368
 31
0.0
 40
0.75529002
 41
-1.2771709994
 42
-1.2429920961
  0
ELLIPSE
  5
445
100
AcDbEntity
  8
KONSTRUKTIONSELEMENTE
100
AcDbEllipse
 62
7
  6
CONTINUOUS
 10
295.3771299929
 20
203.2521604921
 30
0.0
 11
-0.0
 21
22.5079102737
 31
0.0
 40
0.37764501
 41
-1.2429920961
 42
-1.2257552917
  0
ELLIPSE
  5
446
100
AcDbEntity
  8
KONSTRUKTIONSELEMENTE
100
AcDbEllipse
 62
7
  6
CONTINUOUS
 10
295.3771299929
 20
220.8391234072
 30
0.0
 11
0.0
 21
28.1349361389
 31
0.0
 40
0.3021154894
 41
-1.9158373619
 42
-1.8986005575
  0
ELLIPSE
  5
447
100
AcDbEntity
  8
KONSTRUKTIONSELEMENTE
100
AcDbEllipse
 62
7
  6
CONTINUOUS
 10
295.3771299929
 20
214.1962460008
 30
0.0
 11
8.5
 21
-0.0
 31
0.0
 40
0.882663148
 41
-0.3278042307
 42
-0.2909453171
  0
ENDSEC
  0
SECTION
  2
OBJECTS
  0
DICTIONARY
  5
C
100
AcDbDictionary
280
0
281
1
  3
ACAD_GROUP
350
D
  3
ACAD_MLINESTYLE
350
17
  3
ACAD_LAYOUT
350
1A
  3
ACAD_PLOTSETTINGS
350
19
  3
ACAD_PLOTSTYLENAME
350
E
  0
DICTIONARY
  5
D
102
{ACAD_REACTORS
330
C
102
}
100
AcDbDictionary
280
0
281
1
  0
ACDBDICTIONARYWDFLT
  5
E
102
{ACAD_REACTORS
330
C
102
}
100
AcDbDictionary
281
1
  3
Normal
350
F
100
AcDbDictionaryWithDefault
340
F
  0
DICTIONARY
  5
17
102
{ACAD_REACTORS
330
C
102
}
100
AcDbDictionary
280
0
281
1
  3
Standard
350
18
  0
DICTIONARY
  5
19
102
{ACAD_REACTORS
330
C
102
}
100
AcDbDictionary
281
1
  0
DICTIONARY
  5
1A
102
{ACAD_REACTORS
330
C
102
}
100
AcDbDictionary
281
1
  3
Model
350
448
  3
Layout1
350
449
  0
ACDBPLACEHOLDER
  5
F
102
{ACAD_REACTORS
330
E
102
}
  0
MLINESTYLE
  5
18
102
{ACAD_REACTORS
330
17
102
}
100
AcDbMlineStyle
  2
STANDARD
 70
0
  3

 62
256
 51
90.0
 52
90.0
 71
2
 49
0.5
 62
256
  6
BYLAYER
 49
-0.5
 62
256
  6
BYLAYER
  0
LAYOUT
  5
448
102
{ACAD_REACTORS
330
1A
102
}
100
AcDbPlotSettings
  1

  2
none_device
  4
ISO_A3_(420.00_x_297.00_MM)
  6

 40
0.0
 41
0.0
 42
0.0
 43
0.0
 44
420.0
 45
297.0
 46
0.0
 47
0.0
 48
0.0
 49
0.0
140
0.0
141
0.0
142
1.0
143
1.0
 70
1024
 72
1
 73
0
 74
0
  7

 75
0
147
1.0
148
0.0
149
0.0
100
AcDbLayout
  1
Model
 70
0
 71
0
 10
0.0
 20
0.0
 11
420.0
 21
297.0
 12
0.0
 22
0.0
 32
0.0
 14
0.0
 24
0.0
 34
0.0
 15
0.0
 25
0.0
 35
0.0
146
0.0
 13
0.0
 23
0.0
 33
0.0
 16
1.0
 26
0.0
 36
0.0
 17
0.0
 27
1.0
 37
0.0
 76
0
330
208
345
0
346
0
  0
LAYOUT
  5
449
102
{ACAD_REACTORS
330
1A
102
}
100
AcDbPlotSettings
  1

  2
none_device
  4
ISO_A3_(420.00_x_297.00_MM)
  6

 40
0.0
 41
0.0
 42
0.0
 43
0.0
 44
420.0
 45
297.0
 46
0.0
 47
0.0
 48
0.0
 49
0.0
140
0.0
141
0.0
142
1.0
143
1.0
 70
0
 72
1
 73
0
 74
0
  7

 75
0
147
1.0
148
0.0
149
0.0
100
AcDbLayout
  1
Layout1
 70
0
 71
1
 10
0.0
 20
0.0
 11
420.0
 21
297.0
 12
0.0
 22
0.0
 32
0.0
 14
0.0
 24
0.0
 34
0.0
 15
0.0
 25
0.0
 35
0.0
146
0.0
 13
0.0
 23
0.0
 33
0.0
 16
1.0
 26
0.0
 36
0.0
 17
0.0
 27
1.0
 37
0.0
 76
0
330
209
345
0
346
0
  0
ENDSEC
  0
EOF
