999
DXF file: C:\Aktuell-Internet\CAD-Daten\2vv-gsch22.dxf
999
Pro/ENGINEER 2001400 by Parametric Technology Corporation
0
SECTION
2
HEADER
9
$ACADVER
1
AC1014
9
$EXTMAX
10
420.0000000000
20
297.0000000000
9
$EXTMIN
10
0.0000000000
20
0.0000000000
9
$LIMMIN
10
0.0000000000
20
0.0000000000
9
$LIMMAX
10
420.0000000000
20
297.0000000000
9
$VIEWCTR
10
210.0000000000
20
148.5000000000
9
$VIEWSIZE
40
297.0000000000
9
$CLAYER
8
0
9
$LTSCALE
40
23.1000000000
9
$CELTYPE
6
BYLAYER
9
$DIMSCALE
40
1
9
$DIMASZ
40
3.5000000000
9
$DIMEXO
40
2.6250000000
9
$DIMDLI
40
15.9600000000
9
$DIMEXE
40
7.5600000000
9
$DIMCEN
40
3.7800000000
9
$DIMLFAC
40
1.0000000000
9
$DIMTXT
40
3.5000000000
9
$DIMTOL
70
1
9
$DIMTFAC
40
0.6000000000
9
$DIMTP
40
0.0050000000
9
$DIMTM
40
0.0050000000
9
$HANDSEED
5
3E5
0
ENDSEC
0
SECTION
2
CLASSES
0
ENDSEC
0
SECTION
2
TABLES
0
TABLE
2
VPORT
5
8
100
AcDbSymbolTable
70
2
0
VPORT
5
1F4
100
AcDbSymbolTableRecord
100
AcDbViewportTableRecord
2
*ACTIVE
70
0
10
0.0
20
0.0
11
1.0
21
1.0
12
210.0000000000
22
148.5000000000
13
0.0
23
0.0
14
1.0
24
1.0
15
0.0
25
0.0
16
0.0
26
0.0
36
1.0
17
0.0
27
0.0
37
0.0
40
297.0000000000
41
1.4141414141
42
50.0
43
0.0
44
0.0
50
0.0
51
0.0
71
0
72
100
73
1
74
1
75
0
76
0
77
0
78
0
0
ENDTAB
0
TABLE
2
LTYPE
5
5
100
AcDbSymbolTable
70
6
0
LTYPE
5
14
100
AcDbSymbolTableRecord
100
AcDbLinetypeTableRecord
2
BYBLOCK
70
0
3

72
65
73
0
40
0.0
0
LTYPE
5
15
100
AcDbSymbolTableRecord
100
AcDbLinetypeTableRecord
2
BYLAYER
70
0
3

72
65
73
0
40
0.0
0
LTYPE
5
16
100
AcDbSymbolTableRecord
100
AcDbLinetypeTableRecord
2
CONTINUOUS
70
64
3
Solid line
72
65
73
0
40
0
0
LTYPE
5
1F5
100
AcDbSymbolTableRecord
100
AcDbLinetypeTableRecord
2
CENTER
70
64
3
____ _ ____ _ ____ _ ____ _ ____ _ ____ _ ____
72
65
73
4
40
0.6
49
0.375
74
0
49
-0.075
74
0
49
0.075
74
0
49
-0.075
74
0
0
LTYPE
5
1F6
100
AcDbSymbolTableRecord
100
AcDbLinetypeTableRecord
2
HIDDEN
70
64
3
- - - - - - - - - - - - - - - - - - - -
72
65
73
2
40
0.2
49
0.1
74
0
49
-0.1
74
0
0
LTYPE
5
1F7
100
AcDbSymbolTableRecord
100
AcDbLinetypeTableRecord
2
PHANTOM
70
64
3
_____ _ _ _____ _ _ _____ _ _ _____
72
65
73
6
40
0.8
49
0.45
74
0
49
-0.05
74
0
49
0.1
74
0
49
-0.05
74
0
49
0.1
74
0
49
-0.05
74
0
0
LTYPE
5
1F8
100
AcDbSymbolTableRecord
100
AcDbLinetypeTableRecord
2
DOT
70
64
3
. . . . . . . . . . . . . . . . . . . .
72
65
73
2
40
0.2
49
0.1
74
0
49
-0.1
74
0
0
LTYPE
5
1F9
100
AcDbSymbolTableRecord
100
AcDbLinetypeTableRecord
2
DASHED
70
64
3
- - - - - - - - - - - - - - - - - - - -
72
65
73
2
40
0.2
49
0.1
74
0
49
-0.1
74
0
0
ENDTAB
0
TABLE
2
LAYER
5
2
100
AcDbSymbolTable
70
36
0
LAYER
5
10
100
AcDbSymbolTableRecord
100
AcDbLayerTableRecord
2
0
70
0
62
7
6
CONTINUOUS
0
LAYER
5
1FA
100
AcDbSymbolTableRecord
100
AcDbLayerTableRecord
2
DEFAULT_1
70
0
62
7
6
CENTER
0
LAYER
5
1FB
100
AcDbSymbolTableRecord
100
AcDbLayerTableRecord
2
DEFAULT_2
70
0
62
8
6
HIDDEN
0
LAYER
5
1FC
100
AcDbSymbolTableRecord
100
AcDbLayerTableRecord
2
DEFAULT_3
70
0
62
7
6
PHANTOM
0
LAYER
5
1FD
100
AcDbSymbolTableRecord
100
AcDbLayerTableRecord
2
ZEICHNUNGSBEMASSUNGEN
70
0
62
7
6
CONTINUOUS
0
ENDTAB
0
TABLE
2
STYLE
5
3
100
AcDbSymbolTable
70
1
0
STYLE
5
11
100
AcDbSymbolTableRecord
100
AcDbTextStyleTableRecord
2
STANDARD
70
0
40
0.0
41
1.0
50
0.0
71
0
42
0.0
3
txt
4

0
STYLE
5
1FE
100
AcDbSymbolTableRecord
100
AcDbTextStyleTableRecord
2
TEXTSTYLE_0
70
0
40
0.0
41
0.80
50
0.0
71
0
42
0.2
3
txt
4

0
ENDTAB
0
TABLE
2
VIEW
5
6
100
AcDbSymbolTable
70
0
0
ENDTAB
0
TABLE
2
UCS
5
7
100
AcDbSymbolTable
70
0
0
ENDTAB
0
TABLE
2
APPID
5
9
100
AcDbSymbolTable
70
1
0
APPID
5
1FF
100
AcDbSymbolTableRecord
100
AcDbRegAppTableRecord
2
ACAD
70
0
0
ENDTAB
0
TABLE
2
DIMSTYLE
5
A
100
AcDbSymbolTable
70
1
0
DIMSTYLE
105
200
100
AcDbSymbolTableRecord
100
AcDbDimStyleTableRecord
2
STANDARD
70
0
3

4

5

6

7

40
1.0
41
0.18
42
0.0625
43
0.38
44
0.18
45
0.0
46
0.0
47
0.0050000000
48
0.0050000000
140
3.5000000000
141
0.09
142
0.0
143
25.4
144
1.0000000000
145
0.0
146
0.6000000000
147
0.09
71
1
72
0
73
1
74
1
75
0
76
0
77
0
78
0
170
0
171
2
172
0
173
0
174
0
175
0
176
0
177
0
178
0
270
2
271
3
272
4
273
2
274
2
340
11
275
0
280
0
281
0
282
0
283
1
284
0
285
0
286
0
287
3
288
0
0
ENDTAB
0
TABLE
2
BLOCK_RECORD
5
1
100
AcDbSymbolTable
70
0
0
BLOCK_RECORD
5
1B
100
AcDbSymbolTableRecord
100
AcDbBlockTableRecord
2
*MODEL_SPACE
0
BLOCK_RECORD
5
1C
100
AcDbSymbolTableRecord
100
AcDbBlockTableRecord
2
*PAPER_SPACE
0
ENDTAB
0
ENDSEC
0
SECTION
2
BLOCKS
0
BLOCK
5
1E
100
AcDbEntity
8
0
100
AcDbBlockBegin
2
*MODEL_SPACE
70
0
10
0.0
20
0.0
30
0.0
3
*MODEL_SPACE
1

0
ENDBLK
5
1F
100
AcDbEntity
8
0
100
AcDbBlockEnd
0
BLOCK
5
20
100
AcDbEntity
8
0
100
AcDbBlockBegin
2
*PAPER_SPACE
70
0
10
0.0
20
0.0
30
0.0
3
*PAPER_SPACE
1

0
ENDBLK
5
21
100
AcDbEntity
8
0
100
AcDbBlockEnd
0
ENDSEC
0
SECTION
2
ENTITIES
0
TEXT
5
201
100
AcDbEntity
8
0
100
AcDbText
62
2
6
CONTINUOUS
10
274.6890738311
20
188.1788877540
7
TEXTSTYLE_0
40
7.0000000000
1
VV-GSCH
50
90.0000000000
72
5
11
274.6890738311
21
227.1788877540
100
AcDbText
0
TEXT
5
202
100
AcDbEntity
8
0
100
AcDbText
62
2
6
CONTINUOUS
10
321.1455087884
20
192.0864383579
7
TEXTSTYLE_0
40
7.0000000000
1
22/VIP
50
90.0000000000
72
5
11
321.1455087884
21
224.2531050245
100
AcDbText
0
TEXT
5
203
100
AcDbEntity
8
0
100
AcDbText
62
2
6
CONTINUOUS
10
119.6895665437
20
-108.4266135627
7
TEXTSTYLE_0
40
8.0000000000
1
22/VIP
72
5
11
156.4514713056
21
-108.4266135627
100
AcDbText
0
TEXT
5
204
100
AcDbEntity
8
0
100
AcDbText
62
2
6
CONTINUOUS
10
113.1769822039
20
-35.9198412462
7
TEXTSTYLE_0
40
8.0000000000
1
VV-GSCH
72
5
11
157.7484107753
21
-35.9198412462
100
AcDbText
0
LINE
5
205
100
AcDbEntity
8
0
100
AcDbLine
62
7
6
CONTINUOUS
10
0.0000000000
20
0.0000000000
11
0.0000000000
21
297.0000000000
0
LINE
5
206
100
AcDbEntity
8
0
100
AcDbLine
62
7
6
CONTINUOUS
10
0.0000000000
20
0.0000000000
11
420.0000000000
21
0.0000000000
0
LINE
5
207
100
AcDbEntity
8
0
100
AcDbLine
62
7
6
CONTINUOUS
10
0.0000000000
20
297.0000000000
11
420.0000000000
21
297.0000000000
0
LINE
5
208
100
AcDbEntity
8
0
100
AcDbLine
62
7
6
CONTINUOUS
10
420.0000000000
20
0.0000000000
11
420.0000000000
21
297.0000000000
0
LINE
5
209
100
AcDbEntity
8
0
100
AcDbLine
62
7
6
CONTINUOUS
10
79.5002691374
20
30.9961359567
11
109.5002691374
21
30.9961359567
0
LINE
5
20A
100
AcDbEntity
8
0
100
AcDbLine
62
7
6
CONTINUOUS
10
162.5002691374
20
30.9961359567
11
209.5002691374
21
30.9961359567
0
LINE
5
20B
100
AcDbEntity
8
0
100
AcDbLine
62
7
6
CONTINUOUS
10
79.5002691374
20
37.9961359567
11
71.0002691374
21
37.9961359567
0
LINE
5
20C
100
AcDbEntity
8
0
100
AcDbLine
62
7
6
CONTINUOUS
10
183.5002691374
20
41.5845244375
11
209.5002691374
21
41.5845244375
0
LINE
5
20D
100
AcDbEntity
8
0
100
AcDbLine
62
7
6
CONTINUOUS
10
109.5002691374
20
48.9961359567
11
162.5002691374
21
48.9961359567
0
LINE
5
20E
100
AcDbEntity
8
0
100
AcDbLine
62
7
6
CONTINUOUS
10
79.5002691374
20
51.3329271750
11
71.0002691374
21
51.3329271750
0
LINE
5
20F
100
AcDbEntity
8
DEFAULT_1
100
AcDbLine
62
2
6
CENTER
10
182.6262193544
20
66.9961359567
11
74.8295488594
21
66.9961359567
0
LINE
5
210
100
AcDbEntity
8
0
100
AcDbLine
62
7
6
CONTINUOUS
10
79.5002691374
20
83.0057548999
11
71.0002691374
21
83.0057548999
0
LINE
5
211
100
AcDbEntity
8
0
100
AcDbLine
62
7
6
CONTINUOUS
10
109.5002691374
20
84.9961359567
11
162.5002691374
21
84.9961359567
0
LINE
5
212
100
AcDbEntity
8
0
100
AcDbLine
62
7
6
CONTINUOUS
10
71.0002691374
20
37.9961359567
11
71.0002691374
21
95.9961359567
0
LINE
5
213
100
AcDbEntity
8
0
100
AcDbLine
62
7
6
CONTINUOUS
10
79.5002691374
20
30.9961359567
11
79.5002691374
21
147.4961359567
0
LINE
5
214
100
AcDbEntity
8
0
100
AcDbLine
62
7
6
CONTINUOUS
10
209.5002691374
20
92.9961359567
11
194.4877569064
21
92.9961359567
0
LINE
5
215
100
AcDbEntity
8
0
100
AcDbLine
62
7
6
CONTINUOUS
10
79.5002691374
20
92.9961359567
11
109.5002691374
21
92.9961359567
0
LINE
5
216
100
AcDbEntity
8
0
100
AcDbLine
62
7
6
CONTINUOUS
10
162.5002691374
20
92.9961359567
11
183.5002691374
21
92.9961359567
0
LINE
5
217
100
AcDbEntity
8
0
100
AcDbLine
62
7
6
CONTINUOUS
10
188.1002691490
20
93.0264668647
11
183.5002691374
21
93.0264668647
0
LINE
5
218
100
AcDbEntity
8
0
100
AcDbLine
62
7
6
CONTINUOUS
10
79.5002691374
20
95.9961359567
11
71.0002691374
21
95.9961359567
0
LINE
5
219
100
AcDbEntity
8
0
100
AcDbLine
62
7
6
CONTINUOUS
10
84.7502691374
20
147.5080590911
11
84.7502691374
21
146.8108485228
0
LINE
5
21A
100
AcDbEntity
8
0
100
AcDbLine
62
7
6
CONTINUOUS
10
84.7502691374
20
143.5571983171
11
84.7502691374
21
142.8599877488
0
LINE
5
21B
100
AcDbEntity
8
0
100
AcDbLine
62
7
6
CONTINUOUS
10
84.7502691374
20
140.3035507712
11
84.7502691374
21
139.2577349186
0
LINE
5
21C
100
AcDbEntity
8
0
100
AcDbLine
62
7
6
CONTINUOUS
10
84.7502691374
20
134.6096635762
11
84.7502691374
21
134.0286543260
0
LINE
5
21D
100
AcDbEntity
8
0
100
AcDbLine
62
7
6
CONTINUOUS
10
84.7502691374
20
129.6129882795
11
84.7502691374
21
128.5671724269
0
LINE
5
21E
100
AcDbEntity
8
0
100
AcDbLine
62
7
6
CONTINUOUS
10
84.7502691374
20
123.2218911811
11
84.7502691374
21
122.5246806127
0
LINE
5
21F
100
AcDbEntity
8
0
100
AcDbLine
62
7
6
CONTINUOUS
10
84.7502691374
20
119.2710310720
11
84.7502691374
21
118.5738205037
0
LINE
5
220
100
AcDbEntity
8
0
100
AcDbLine
62
7
6
CONTINUOUS
10
84.7502691374
20
117.6442063017
11
84.7502691374
21
116.9469957333
0
LINE
5
221
100
AcDbEntity
8
0
100
AcDbLine
62
7
6
CONTINUOUS
10
84.7502691374
20
113.6933465250
11
84.7502691374
21
112.9961359567
0
LINE
5
222
100
AcDbEntity
8
0
100
AcDbLine
62
7
6
CONTINUOUS
10
85.8034605012
20
128.5671724269
11
85.8034605012
21
129.6129882795
0
LINE
5
223
100
AcDbEntity
8
0
100
AcDbLine
62
7
6
CONTINUOUS
10
85.8034605012
20
134.0286543260
11
85.8034605012
21
134.7258648944
0
LINE
5
224
100
AcDbEntity
8
0
100
AcDbLine
62
7
6
CONTINUOUS
10
85.8034605012
20
139.2577349186
11
85.8034605012
21
140.3035507712
0
LINE
5
225
100
AcDbEntity
8
0
100
AcDbLine
62
7
6
CONTINUOUS
10
86.6811199710
20
135.4230767925
11
86.6811199710
21
136.1202873609
0
LINE
5
226
100
AcDbEntity
8
0
100
AcDbLine
62
7
6
CONTINUOUS
10
86.8566523567
20
130.5426014841
11
86.8566523567
21
131.2398120525
0
LINE
5
227
100
AcDbEntity
8
0
100
AcDbLine
62
7
6
CONTINUOUS
10
86.8566523567
20
141.2331639758
11
86.8566523567
21
141.9303745441
0
LINE
5
228
100
AcDbEntity
8
0
100
AcDbLine
62
7
6
CONTINUOUS
10
88.0853756145
20
146.8108485228
11
88.0853756145
21
143.5571983171
0
LINE
5
229
100
AcDbEntity
8
0
100
AcDbLine
62
7
6
CONTINUOUS
10
88.2609075085
20
134.7258648944
11
88.2609075085
21
134.0286543260
0
LINE
5
22A
100
AcDbEntity
8
0
100
AcDbLine
62
7
6
CONTINUOUS
10
88.4364394024
20
131.2398120525
11
88.4364394024
21
129.4967856316
0
LINE
5
22B
100
AcDbEntity
8
0
100
AcDbLine
62
7
6
CONTINUOUS
10
89.1385669783
20
125.7783301534
11
89.1385669783
21
124.1515050506
0
LINE
5
22C
100
AcDbEntity
8
0
100
AcDbLine
62
7
6
CONTINUOUS
10
89.1385669783
20
143.5571983171
11
89.1385669783
21
146.8108485228
0
LINE
5
22D
100
AcDbEntity
8
0
100
AcDbLine
62
7
6
CONTINUOUS
10
84.9258010313
20
140.8845586916
11
84.7502691374
21
140.3035507712
0
LINE
5
22E
100
AcDbEntity
8
0
100
AcDbLine
62
7
6
CONTINUOUS
10
93.0002691374
20
115.7849782302
11
84.7502691374
21
117.6442063017
0
LINE
5
22F
100
AcDbEntity
8
0
100
AcDbLine
62
7
6
CONTINUOUS
10
84.7502691374
20
116.9469957333
11
91.9470776506
21
115.3201711292
0
LINE
5
230
100
AcDbEntity
8
0
100
AcDbLine
62
7
6
CONTINUOUS
10
85.2768648193
20
127.5213565744
11
85.9789923951
21
127.0565486423
0
LINE
5
231
100
AcDbEntity
8
0
100
AcDbLine
62
7
6
CONTINUOUS
10
86.3300561831
20
127.7537592106
11
85.9789923951
21
128.1023644948
0
LINE
5
232
100
AcDbEntity
8
0
100
AcDbLine
62
7
6
CONTINUOUS
10
86.3300561831
20
133.3314437576
11
85.9789923951
21
133.6800490418
0
LINE
5
233
100
AcDbEntity
8
0
100
AcDbLine
62
7
6
CONTINUOUS
10
84.9258010313
20
127.9861631767
11
85.2768648193
21
127.5213565744
0
LINE
5
234
100
AcDbEntity
8
0
100
AcDbLine
62
7
6
CONTINUOUS
10
84.9258010313
20
133.5638477237
11
85.2768648193
21
133.0990411214
0
LINE
5
235
100
AcDbEntity
8
0
100
AcDbLine
62
7
6
CONTINUOUS
10
84.9258010313
20
138.6767243385
11
85.2768648193
21
138.2119190660
0
LINE
5
236
100
AcDbEntity
8
0
100
AcDbLine
62
7
6
CONTINUOUS
10
85.9789923951
20
133.6800490418
11
85.8034605012
21
134.0286543260
0
LINE
5
237
100
AcDbEntity
8
0
100
AcDbLine
62
7
6
CONTINUOUS
10
85.9789923951
20
128.1023644948
11
85.8034605012
21
128.5671724269
0
LINE
5
238
100
AcDbEntity
8
0
100
AcDbLine
62
7
6
CONTINUOUS
10
84.7502691374
20
134.0286543260
11
84.9258010313
21
133.5638477237
0
LINE
5
239
100
AcDbEntity
8
0
100
AcDbLine
62
7
6
CONTINUOUS
10
85.9789923951
20
138.7929269865
11
85.8034605012
21
139.2577349186
0
LINE
5
23A
100
AcDbEntity
8
0
100
AcDbLine
62
7
6
CONTINUOUS
10
91.7715457566
20
130.0777948818
11
91.9470776506
21
129.6129882795
0
LINE
5
23B
100
AcDbEntity
8
0
100
AcDbLine
62
7
6
CONTINUOUS
10
84.7502691374
20
128.5671724269
11
84.9258010313
21
127.9861631767
0
LINE
5
23C
100
AcDbEntity
8
0
100
AcDbLine
62
7
6
CONTINUOUS
10
84.7502691374
20
139.2577349186
11
84.9258010313
21
138.6767243385
0
LINE
5
23D
100
AcDbEntity
8
0
100
AcDbLine
62
7
6
CONTINUOUS
10
89.3140988723
20
134.0286543260
11
89.3140988723
21
134.7258648944
0
LINE
5
23E
100
AcDbEntity
8
0
100
AcDbLine
62
7
6
CONTINUOUS
10
89.4896307663
20
129.4967856316
11
89.4896307663
21
130.5426014841
0
LINE
5
23F
100
AcDbEntity
8
0
100
AcDbLine
62
7
6
CONTINUOUS
10
90.0162266940
20
124.1515050506
11
90.0162266940
21
125.7783301534
0
LINE
5
240
100
AcDbEntity
8
0
100
AcDbLine
62
7
6
CONTINUOUS
10
90.7183542699
20
132.8666371553
11
90.7183542699
21
132.1694265869
0
LINE
5
241
100
AcDbEntity
8
0
100
AcDbLine
62
7
6
CONTINUOUS
10
90.8938861639
20
141.9303745441
11
90.8938861639
21
141.2331639758
0
LINE
5
242
100
AcDbEntity
8
0
100
AcDbLine
62
7
6
CONTINUOUS
10
91.9470776506
20
140.3035507712
11
91.9470776506
21
139.2577349186
0
LINE
5
243
100
AcDbEntity
8
0
100
AcDbLine
62
7
6
CONTINUOUS
10
91.9470776506
20
134.7258648944
11
91.9470776506
21
133.7962516897
0
LINE
5
244
100
AcDbEntity
8
0
100
AcDbLine
62
7
6
CONTINUOUS
10
91.9470776506
20
129.6129882795
11
91.9470776506
21
128.5671724269
0
LINE
5
245
100
AcDbEntity
8
0
100
AcDbLine
62
7
6
CONTINUOUS
10
93.0002691374
20
114.8553641944
11
93.0002691374
21
115.7849782302
0
LINE
5
246
100
AcDbEntity
8
0
100
AcDbLine
62
7
6
CONTINUOUS
10
93.0002691374
20
120.4330489076
11
93.0002691374
21
121.3626627771
0
LINE
5
247
100
AcDbEntity
8
0
100
AcDbLine
62
7
6
CONTINUOUS
10
93.0002691374
20
128.5671724269
11
93.0002691374
21
129.6129882795
0
LINE
5
248
100
AcDbEntity
8
0
100
AcDbLine
62
7
6
CONTINUOUS
10
93.0002691374
20
133.7962516897
11
93.0002691374
21
134.7258648944
0
LINE
5
249
100
AcDbEntity
8
0
100
AcDbLine
62
7
6
CONTINUOUS
10
93.0002691374
20
139.2577349186
11
93.0002691374
21
140.3035507712
0
LINE
5
24A
100
AcDbEntity
8
0
100
AcDbLine
62
7
6
CONTINUOUS
10
93.0002691374
20
142.8599877488
11
93.0002691374
21
143.5571983171
0
LINE
5
24B
100
AcDbEntity
8
0
100
AcDbLine
62
7
6
CONTINUOUS
10
93.0002691374
20
146.8108485228
11
93.0002691374
21
147.5080590911
0
LINE
5
24C
100
AcDbEntity
8
0
100
AcDbLine
62
7
6
CONTINUOUS
10
84.9258010313
20
135.1906728265
11
84.7502691374
21
134.6096635762
0
LINE
5
24D
100
AcDbEntity
8
0
100
AcDbLine
62
7
6
CONTINUOUS
10
84.9258010313
20
130.1939961999
11
84.7502691374
21
129.6129882795
0
LINE
5
24E
100
AcDbEntity
8
0
100
AcDbLine
62
7
6
CONTINUOUS
10
88.4364394024
20
135.3068741446
11
88.2609075085
21
134.7258648944
0
LINE
5
24F
100
AcDbEntity
8
0
100
AcDbLine
62
7
6
CONTINUOUS
10
92.8247372280
20
138.6767243385
11
93.0002691374
21
139.2577349186
0
LINE
5
250
100
AcDbEntity
8
0
100
AcDbLine
62
7
6
CONTINUOUS
10
92.8247372280
20
133.2152424395
11
93.0002691374
21
133.7962516897
0
LINE
5
251
100
AcDbEntity
8
0
100
AcDbLine
62
7
6
CONTINUOUS
10
85.8034605012
20
140.3035507712
11
85.9789923951
21
140.7683560436
0
LINE
5
252
100
AcDbEntity
8
0
100
AcDbLine
62
7
6
CONTINUOUS
10
85.8034605012
20
129.6129882795
11
85.9789923951
21
130.0777948818
0
LINE
5
253
100
AcDbEntity
8
0
100
AcDbLine
62
7
6
CONTINUOUS
10
89.3140988723
20
134.7258648944
11
89.4896307663
21
135.1906728265
0
LINE
5
254
100
AcDbEntity
8
0
100
AcDbLine
62
7
6
CONTINUOUS
10
89.1385669783
20
133.5638477237
11
89.3140988723
21
134.0286543260
0
LINE
5
255
100
AcDbEntity
8
0
100
AcDbLine
62
7
6
CONTINUOUS
10
91.9470776506
20
139.2577349186
11
91.7715457566
21
138.7929269865
0
LINE
5
256
100
AcDbEntity
8
0
100
AcDbLine
62
7
6
CONTINUOUS
10
91.9470776506
20
133.7962516897
11
91.7715457566
21
133.3314437576
0
LINE
5
257
100
AcDbEntity
8
0
100
AcDbLine
62
7
6
CONTINUOUS
10
85.8034605012
20
134.7258648944
11
85.9789923951
21
135.0744701785
0
LINE
5
258
100
AcDbEntity
8
0
100
AcDbLine
62
7
6
CONTINUOUS
10
88.2609075085
20
134.0286543260
11
88.0853756145
21
133.6800490418
0
LINE
5
259
100
AcDbEntity
8
0
100
AcDbLine
62
7
6
CONTINUOUS
10
85.2768648193
20
141.3493666237
11
84.9258010313
21
140.8845586916
0
LINE
5
25A
100
AcDbEntity
8
0
100
AcDbLine
62
7
6
CONTINUOUS
10
179.2502691374
20
131.6431228599
11
187.5002691374
21
133.8784078452
0
LINE
5
25B
100
AcDbEntity
8
0
100
AcDbLine
62
7
6
CONTINUOUS
10
181.1811199710
20
121.0255247754
11
180.4789923951
21
120.8858196637
0
LINE
5
25C
100
AcDbEntity
8
0
100
AcDbLine
62
7
6
CONTINUOUS
10
181.1811199710
20
127.1725552875
11
180.4789923951
21
127.0328505754
0
LINE
5
25D
100
AcDbEntity
8
0
100
AcDbLine
62
7
6
CONTINUOUS
10
186.6226095446
20
115.9961359567
11
187.5002691374
21
115.9961359567
0
LINE
5
25E
100
AcDbEntity
8
0
100
AcDbLine
62
7
6
CONTINUOUS
10
93.0002691374
20
121.3626627771
11
84.7502691374
21
123.2218911811
0
LINE
5
25F
100
AcDbEntity
8
0
100
AcDbLine
62
7
6
CONTINUOUS
10
84.7502691374
20
122.5246806127
11
91.9470776506
21
120.8978555099
0
LINE
5
260
100
AcDbEntity
8
0
100
AcDbLine
62
7
6
CONTINUOUS
10
85.9789923951
20
127.0565486423
11
86.6811199710
21
126.8241460060
0
LINE
5
261
100
AcDbEntity
8
0
100
AcDbLine
62
7
6
CONTINUOUS
10
86.8566523567
20
127.5213565744
11
86.3300561831
21
127.7537592106
0
LINE
5
262
100
AcDbEntity
8
0
100
AcDbLine
62
7
6
CONTINUOUS
10
85.2768648193
20
133.0990411214
11
85.9789923951
21
132.6342331892
0
LINE
5
263
100
AcDbEntity
8
0
100
AcDbLine
62
7
6
CONTINUOUS
10
92.4736733940
20
130.6588041321
11
91.7715457566
21
131.1236107344
0
LINE
5
264
100
AcDbEntity
8
0
100
AcDbLine
62
7
6
CONTINUOUS
10
85.2768648193
20
138.2119190660
11
85.9789923951
21
137.7471111339
0
LINE
5
265
100
AcDbEntity
8
0
100
AcDbLine
62
7
6
CONTINUOUS
10
91.4204818458
20
130.4264001660
11
91.7715457566
21
130.0777948818
0
LINE
5
266
100
AcDbEntity
8
0
100
AcDbLine
62
7
6
CONTINUOUS
10
86.3300561831
20
138.4443217023
11
85.9789923951
21
138.7929269865
0
LINE
5
267
100
AcDbEntity
8
0
100
AcDbLine
62
7
6
CONTINUOUS
10
91.4204818458
20
135.5392767808
11
91.7715457566
21
135.1906728265
0
LINE
5
268
100
AcDbEntity
8
0
100
AcDbLine
62
7
6
CONTINUOUS
10
91.4204818458
20
141.1169613278
11
91.7715457566
21
140.7683560436
0
LINE
5
269
100
AcDbEntity
8
0
100
AcDbLine
62
7
6
CONTINUOUS
10
92.8247372280
20
130.1939961999
11
92.4736733940
21
130.6588041321
0
LINE
5
26A
100
AcDbEntity
8
0
100
AcDbLine
62
7
6
CONTINUOUS
10
92.8247372280
20
135.3068741446
11
92.4736733940
21
135.7716820767
0
LINE
5
26B
100
AcDbEntity
8
0
100
AcDbLine
62
7
6
CONTINUOUS
10
92.8247372280
20
140.8845586916
11
92.4736733940
21
141.3493666237
0
LINE
5
26C
100
AcDbEntity
8
0
100
AcDbLine
62
7
6
CONTINUOUS
10
91.7715457566
20
135.1906728265
11
91.9470776506
21
134.7258648944
0
LINE
5
26D
100
AcDbEntity
8
0
100
AcDbLine
62
7
6
CONTINUOUS
10
91.7715457566
20
140.7683560436
11
91.9470776506
21
140.3035507712
0
LINE
5
26E
100
AcDbEntity
8
0
100
AcDbLine
62
7
6
CONTINUOUS
10
93.0002691374
20
129.6129882795
11
92.8247372280
21
130.1939961999
0
LINE
5
26F
100
AcDbEntity
8
0
100
AcDbLine
62
7
6
CONTINUOUS
10
93.0002691374
20
134.7258648944
11
92.8247372280
21
135.3068741446
0
LINE
5
270
100
AcDbEntity
8
0
100
AcDbLine
62
7
6
CONTINUOUS
10
93.0002691374
20
140.3035507712
11
92.8247372280
21
140.8845586916
0
LINE
5
271
100
AcDbEntity
8
0
100
AcDbLine
62
7
6
CONTINUOUS
10
105.0002691374
20
178.5150253538
11
105.0002691374
21
233.4961359567
0
LINE
5
272
100
AcDbEntity
8
0
100
AcDbLine
62
7
6
CONTINUOUS
10
92.8247372280
20
127.9861631767
11
93.0002691374
21
128.5671724269
0
LINE
5
273
100
AcDbEntity
8
0
100
AcDbLine
62
7
6
CONTINUOUS
10
91.9470776506
20
128.5671724269
11
91.7715457566
21
128.1023644948
0
LINE
5
274
100
AcDbEntity
8
0
100
AcDbLine
62
7
6
CONTINUOUS
10
88.7875031904
20
135.7716820767
11
88.4364394024
21
135.3068741446
0
LINE
5
275
100
AcDbEntity
8
0
100
AcDbLine
62
7
6
CONTINUOUS
10
85.2768648193
20
130.6588041321
11
84.9258010313
21
130.1939961999
0
LINE
5
276
100
AcDbEntity
8
0
100
AcDbLine
62
7
6
CONTINUOUS
10
92.4736733940
20
138.2119190660
11
92.8247372280
21
138.6767243385
0
LINE
5
277
100
AcDbEntity
8
0
100
AcDbLine
62
7
6
CONTINUOUS
10
88.7875031904
20
133.0990411214
11
89.1385669783
21
133.5638477237
0
LINE
5
278
100
AcDbEntity
8
0
100
AcDbLine
62
7
6
CONTINUOUS
10
85.9789923951
20
140.7683560436
11
86.3300561831
21
141.1169613278
0
LINE
5
279
100
AcDbEntity
8
0
100
AcDbLine
62
7
6
CONTINUOUS
10
91.7715457566
20
138.7929269865
11
91.4204818458
21
138.4443217023
0
LINE
5
27A
100
AcDbEntity
8
0
100
AcDbLine
62
7
6
CONTINUOUS
10
89.4896307663
20
135.1906728265
11
89.8406945542
21
135.5392767808
0
LINE
5
27B
100
AcDbEntity
8
0
100
AcDbLine
62
7
6
CONTINUOUS
10
88.0853756145
20
133.6800490418
11
87.7343118266
21
133.3314437576
0
LINE
5
27C
100
AcDbEntity
8
0
100
AcDbLine
62
7
6
CONTINUOUS
10
85.4523967132
20
135.6554794288
11
84.9258010313
21
135.1906728265
0
LINE
5
27D
100
AcDbEntity
8
0
100
AcDbLine
62
7
6
CONTINUOUS
10
85.9789923951
20
141.8141718962
11
85.2768648193
21
141.3493666237
0
LINE
5
27E
100
AcDbEntity
8
0
100
AcDbLine
62
7
6
CONTINUOUS
10
186.4470776506
20
134.4372282921
11
179.2502691374
21
132.4813543297
0
LINE
5
27F
100
AcDbEntity
8
0
100
AcDbLine
62
7
6
CONTINUOUS
10
91.9470776506
20
115.3201711292
11
84.7502691374
21
113.6933465250
0
LINE
5
280
100
AcDbEntity
8
0
100
AcDbLine
62
7
6
CONTINUOUS
10
84.7502691374
20
112.9961359567
11
93.0002691374
21
114.8553641944
0
LINE
5
281
100
AcDbEntity
8
0
100
AcDbLine
62
7
6
CONTINUOUS
10
84.7502691374
20
118.5738205037
11
93.0002691374
21
120.4330489076
0
LINE
5
282
100
AcDbEntity
8
0
100
AcDbLine
62
7
6
CONTINUOUS
10
181.1811199710
20
120.1872933056
11
181.5321842507
21
120.1872933056
0
LINE
5
283
100
AcDbEntity
8
0
100
AcDbLine
62
7
6
CONTINUOUS
10
187.5002691374
20
121.0255247754
11
186.6226095446
21
121.0255247754
0
LINE
5
284
100
AcDbEntity
8
0
100
AcDbLine
62
7
6
CONTINUOUS
10
181.5321842507
20
121.0255247754
11
181.1811199710
21
121.0255247754
0
LINE
5
285
100
AcDbEntity
8
0
100
AcDbLine
62
7
6
CONTINUOUS
10
186.6226095446
20
122.1431668684
11
187.5002691374
21
122.1431668684
0
LINE
5
286
100
AcDbEntity
8
0
100
AcDbLine
62
7
6
CONTINUOUS
10
89.1385669783
20
124.1515050506
11
90.0162266940
21
124.1515050506
0
LINE
5
287
100
AcDbEntity
8
0
100
AcDbLine
62
7
6
CONTINUOUS
10
90.0162266940
20
125.7783301534
11
89.1385669783
21
125.7783301534
0
LINE
5
288
100
AcDbEntity
8
0
100
AcDbLine
62
7
6
CONTINUOUS
10
181.1811199710
20
126.3343238177
11
181.5321842507
21
126.3343238177
0
LINE
5
289
100
AcDbEntity
8
0
100
AcDbLine
62
7
6
CONTINUOUS
10
87.5587799326
20
126.7079433581
11
90.1917585880
21
126.7079433581
0
LINE
5
28A
100
AcDbEntity
8
0
100
AcDbLine
62
7
6
CONTINUOUS
10
187.5002691374
20
127.1725552875
11
186.6226095446
21
127.1725552875
0
LINE
5
28B
100
AcDbEntity
8
0
100
AcDbLine
62
7
6
CONTINUOUS
10
181.5321842507
20
127.1725552875
11
181.1811199710
21
127.1725552875
0
LINE
5
28C
100
AcDbEntity
8
0
100
AcDbLine
62
7
6
CONTINUOUS
10
90.1917585880
20
127.4051539264
11
87.5587799326
21
127.4051539264
0
LINE
5
28D
100
AcDbEntity
8
0
100
AcDbLine
62
7
6
CONTINUOUS
10
86.6811199710
20
126.8241460060
11
87.5587799326
21
126.7079433581
0
LINE
5
28E
100
AcDbEntity
8
0
100
AcDbLine
62
7
6
CONTINUOUS
10
87.5587799326
20
127.4051539264
11
86.8566523567
21
127.5213565744
0
LINE
5
28F
100
AcDbEntity
8
0
100
AcDbLine
62
7
6
CONTINUOUS
10
91.7715457566
20
131.1236107344
11
91.0694180578
21
131.2398120525
0
LINE
5
290
100
AcDbEntity
8
0
100
AcDbLine
62
7
6
CONTINUOUS
10
85.9789923951
20
132.6342331892
11
86.6811199710
21
132.5180318711
0
LINE
5
291
100
AcDbEntity
8
0
100
AcDbLine
62
7
6
CONTINUOUS
10
180.4789923951
20
116.2755464549
11
181.1811199710
21
116.1358412058
0
LINE
5
292
100
AcDbEntity
8
0
100
AcDbLine
62
7
6
CONTINUOUS
10
90.8938861639
20
130.5426014841
11
91.4204818458
21
130.4264001660
0
LINE
5
293
100
AcDbEntity
8
0
100
AcDbLine
62
7
6
CONTINUOUS
10
86.8566523567
20
133.2152424395
11
86.3300561831
21
133.3314437576
0
LINE
5
294
100
AcDbEntity
8
0
100
AcDbLine
62
7
6
CONTINUOUS
10
85.9789923951
20
137.7471111339
11
86.6811199710
21
137.5147084977
0
LINE
5
295
100
AcDbEntity
8
0
100
AcDbLine
62
7
6
CONTINUOUS
10
91.7715457566
20
136.2364873492
11
91.0694180578
21
136.4688926451
0
LINE
5
296
100
AcDbEntity
8
0
100
AcDbLine
62
7
6
CONTINUOUS
10
90.8938861639
20
135.7716820767
11
91.4204818458
21
135.5392767808
0
LINE
5
297
100
AcDbEntity
8
0
100
AcDbLine
62
7
6
CONTINUOUS
10
86.8566523567
20
138.2119190660
11
86.3300561831
21
138.4443217023
0
LINE
5
298
100
AcDbEntity
8
0
100
AcDbLine
62
7
6
CONTINUOUS
10
92.4736733940
20
135.7716820767
11
91.7715457566
21
136.2364873492
0
LINE
5
299
100
AcDbEntity
8
0
100
AcDbLine
62
7
6
CONTINUOUS
10
92.4736733940
20
141.3493666237
11
91.7715457566
21
141.8141718962
0
LINE
5
29A
100
AcDbEntity
8
0
100
AcDbLine
62
7
6
CONTINUOUS
10
109.5002691374
20
30.9961359567
11
109.5002691374
21
147.4961359567
0
LINE
5
29B
100
AcDbEntity
8
0
100
AcDbLine
62
7
6
CONTINUOUS
10
92.4736733940
20
127.5213565744
11
92.8247372280
21
127.9861631767
0
LINE
5
29C
100
AcDbEntity
8
0
100
AcDbLine
62
7
6
CONTINUOUS
10
92.2981415000
20
132.6342331892
11
92.8247372280
21
133.2152424395
0
LINE
5
29D
100
AcDbEntity
8
0
100
AcDbLine
62
7
6
CONTINUOUS
10
85.9789923951
20
130.0777948818
11
86.3300561831
21
130.4264001660
0
LINE
5
29E
100
AcDbEntity
8
0
100
AcDbLine
62
7
6
CONTINUOUS
10
91.7715457566
20
128.1023644948
11
91.4204818458
21
127.7537592106
0
LINE
5
29F
100
AcDbEntity
8
0
100
AcDbLine
62
7
6
CONTINUOUS
10
85.9789923951
20
135.0744701785
11
86.3300561831
21
135.3068741446
0
LINE
5
2A0
100
AcDbEntity
8
0
100
AcDbLine
62
7
6
CONTINUOUS
10
91.7715457566
20
137.7471111339
11
92.4736733940
21
138.2119190660
0
LINE
5
2A1
100
AcDbEntity
8
0
100
AcDbLine
62
7
6
CONTINUOUS
10
89.4896307663
20
136.2364873492
11
88.7875031904
21
135.7716820767
0
LINE
5
2A2
100
AcDbEntity
8
0
100
AcDbLine
62
7
6
CONTINUOUS
10
88.0853756145
20
132.6342331892
11
88.7875031904
21
133.0990411214
0
LINE
5
2A3
100
AcDbEntity
8
0
100
AcDbLine
62
7
6
CONTINUOUS
10
85.9789923951
20
131.1236107344
11
85.2768648193
21
130.6588041321
0
LINE
5
2A4
100
AcDbEntity
8
0
100
AcDbLine
62
7
6
CONTINUOUS
10
91.7715457566
20
133.3314437576
11
91.2449499518
21
132.9828384734
0
LINE
5
2A5
100
AcDbEntity
8
0
100
AcDbLine
62
7
6
CONTINUOUS
10
86.1545242891
20
136.0040847130
11
85.4523967132
21
135.6554794288
0
LINE
5
2A6
100
AcDbEntity
8
0
100
AcDbLine
62
7
6
CONTINUOUS
10
180.6545242891
20
144.4960059297
11
181.1811199710
21
144.6357122405
0
LINE
5
2A7
100
AcDbEntity
8
0
100
AcDbLine
62
7
6
CONTINUOUS
10
181.1811199710
20
145.4739437103
11
180.6545242891
21
145.3342373995
0
LINE
5
2A8
100
AcDbEntity
8
0
100
AcDbLine
62
7
6
CONTINUOUS
10
91.9470776506
20
120.8978555099
11
84.7502691374
21
119.2710310720
0
LINE
5
2A9
100
AcDbEntity
8
0
100
AcDbLine
62
7
6
CONTINUOUS
10
90.8938861639
20
127.5213565744
11
90.1917585880
21
127.4051539264
0
LINE
5
2AA
100
AcDbEntity
8
0
100
AcDbLine
62
7
6
CONTINUOUS
10
90.1917585880
20
126.7079433581
11
91.0694180578
21
126.8241460060
0
LINE
5
2AB
100
AcDbEntity
8
0
100
AcDbLine
62
7
6
CONTINUOUS
10
86.8566523567
20
131.2398120525
11
85.9789923951
21
131.1236107344
0
LINE
5
2AC
100
AcDbEntity
8
0
100
AcDbLine
62
7
6
CONTINUOUS
10
88.4364394024
20
129.4967856316
11
89.4896307663
21
129.4967856316
0
LINE
5
2AD
100
AcDbEntity
8
0
100
AcDbLine
62
7
6
CONTINUOUS
10
89.4896307663
20
130.5426014841
11
90.8938861639
21
130.5426014841
0
LINE
5
2AE
100
AcDbEntity
8
0
100
AcDbLine
62
7
6
CONTINUOUS
10
91.0694180578
20
131.2398120525
11
88.4364394024
21
131.2398120525
0
LINE
5
2AF
100
AcDbEntity
8
0
100
AcDbLine
62
7
6
CONTINUOUS
10
86.6811199710
20
132.5180318711
11
87.3832480386
21
132.5180318711
0
LINE
5
2B0
100
AcDbEntity
8
0
100
AcDbLine
62
7
6
CONTINUOUS
10
87.2077161447
20
133.2152424395
11
86.8566523567
21
133.2152424395
0
LINE
5
2B1
100
AcDbEntity
8
0
100
AcDbLine
62
7
6
CONTINUOUS
10
90.3672904820
20
135.7716820767
11
90.8938861639
21
135.7716820767
0
LINE
5
2B2
100
AcDbEntity
8
0
100
AcDbLine
62
7
6
CONTINUOUS
10
91.0694180578
20
136.4688926451
11
90.1917585880
21
136.4688926451
0
LINE
5
2B3
100
AcDbEntity
8
0
100
AcDbLine
62
7
6
CONTINUOUS
10
87.5587799326
20
137.3985058497
11
90.1917585880
21
137.3985058497
0
LINE
5
2B4
100
AcDbEntity
8
0
100
AcDbLine
62
7
6
CONTINUOUS
10
86.6811199710
20
137.5147084977
11
87.5587799326
21
137.3985058497
0
LINE
5
2B5
100
AcDbEntity
8
0
100
AcDbLine
62
7
6
CONTINUOUS
10
91.7715457566
20
141.8141718962
11
90.8938861639
21
141.9303745441
0
LINE
5
2B6
100
AcDbEntity
8
0
100
AcDbLine
62
7
6
CONTINUOUS
10
87.5587799326
20
138.0957164181
11
86.8566523567
21
138.2119190660
0
LINE
5
2B7
100
AcDbEntity
8
0
100
AcDbLine
62
7
6
CONTINUOUS
10
182.2343118266
20
120.8858196637
11
181.5321842507
21
121.0255247754
0
LINE
5
2B8
100
AcDbEntity
8
0
100
AcDbLine
62
7
6
CONTINUOUS
10
180.4789923951
20
122.4225770919
11
181.1811199710
21
122.2828719801
0
LINE
5
2B9
100
AcDbEntity
8
0
100
AcDbLine
62
7
6
CONTINUOUS
10
90.8938861639
20
141.2331639758
11
91.4204818458
21
141.1169613278
0
LINE
5
2BA
100
AcDbEntity
8
0
100
AcDbLine
62
7
6
CONTINUOUS
10
91.7715457566
20
127.0565486423
11
92.4736733940
21
127.5213565744
0
LINE
5
2BB
100
AcDbEntity
8
0
100
AcDbLine
62
7
6
CONTINUOUS
10
91.4204818458
20
138.4443217023
11
90.8938861639
21
138.2119190660
0
LINE
5
2BC
100
AcDbEntity
8
0
100
AcDbLine
62
7
6
CONTINUOUS
10
89.8406945542
20
135.5392767808
11
90.3672904820
21
135.7716820767
0
LINE
5
2BD
100
AcDbEntity
8
0
100
AcDbLine
62
7
6
CONTINUOUS
10
91.4204818458
20
132.2856279050
11
92.2981415000
21
132.6342331892
0
LINE
5
2BE
100
AcDbEntity
8
0
100
AcDbLine
62
7
6
CONTINUOUS
10
91.0694180578
20
137.5147084977
11
91.7715457566
21
137.7471111339
0
LINE
5
2BF
100
AcDbEntity
8
0
100
AcDbLine
62
7
6
CONTINUOUS
10
86.3300561831
20
135.3068741446
11
86.6811199710
21
135.4230767925
0
LINE
5
2C0
100
AcDbEntity
8
0
100
AcDbLine
62
7
6
CONTINUOUS
10
90.1917585880
20
136.4688926451
11
89.4896307663
21
136.2364873492
0
LINE
5
2C1
100
AcDbEntity
8
0
100
AcDbLine
62
7
6
CONTINUOUS
10
86.3300561831
20
130.4264001660
11
86.8566523567
21
130.5426014841
0
LINE
5
2C2
100
AcDbEntity
8
0
100
AcDbLine
62
7
6
CONTINUOUS
10
91.2449499518
20
132.9828384734
11
90.7183542699
21
132.8666371553
0
LINE
5
2C3
100
AcDbEntity
8
0
100
AcDbLine
62
7
6
CONTINUOUS
10
87.7343118266
20
133.3314437576
11
87.2077161447
21
133.2152424395
0
LINE
5
2C4
100
AcDbEntity
8
0
100
AcDbLine
62
7
6
CONTINUOUS
10
86.6811199710
20
136.1202873609
11
86.1545242891
21
136.0040847130
0
LINE
5
2C5
100
AcDbEntity
8
0
100
AcDbLine
62
7
6
CONTINUOUS
10
90.7183542699
20
132.1694265869
11
91.4204818458
21
132.2856279050
0
LINE
5
2C6
100
AcDbEntity
8
0
100
AcDbLine
62
7
6
CONTINUOUS
10
87.3832480386
20
132.5180318711
11
88.0853756145
21
132.6342331892
0
LINE
5
2C7
100
AcDbEntity
8
0
100
AcDbLine
62
7
6
CONTINUOUS
10
90.8938861639
20
138.2119190660
11
90.1917585880
21
138.0957164181
0
LINE
5
2C8
100
AcDbEntity
8
0
100
AcDbLine
62
7
6
CONTINUOUS
10
90.1917585880
20
137.3985058497
11
91.0694180578
21
137.5147084977
0
LINE
5
2C9
100
AcDbEntity
8
0
100
AcDbLine
62
7
6
CONTINUOUS
10
86.8566523567
20
141.9303745441
11
85.9789923951
21
141.8141718962
0
LINE
5
2CA
100
AcDbEntity
8
0
100
AcDbLine
62
7
6
CONTINUOUS
10
90.1917585880
20
138.0957164181
11
87.5587799326
21
138.0957164181
0
LINE
5
2CB
100
AcDbEntity
8
0
100
AcDbLine
62
7
6
CONTINUOUS
10
179.2502691374
20
138.3489746182
11
187.5002691374
21
138.3489746182
0
LINE
5
2CC
100
AcDbEntity
8
0
100
AcDbLine
62
7
6
CONTINUOUS
10
187.5002691374
20
139.1872060880
11
179.2502691374
21
139.1872060880
0
LINE
5
2CD
100
AcDbEntity
8
0
100
AcDbLine
62
7
6
CONTINUOUS
10
179.2502691374
20
140.3048485807
11
187.5002691374
21
140.3048485807
0
LINE
5
2CE
100
AcDbEntity
8
0
100
AcDbLine
62
7
6
CONTINUOUS
10
187.5002691374
20
141.1430800505
11
183.8140988723
21
141.1430800505
0
LINE
5
2CF
100
AcDbEntity
8
0
100
AcDbLine
62
7
6
CONTINUOUS
10
182.7609075085
20
141.1430800505
11
180.1279286072
21
141.1430800505
0
LINE
5
2D0
100
AcDbEntity
8
0
100
AcDbLine
62
7
6
CONTINUOUS
10
84.7502691374
20
142.8599877488
11
93.0002691374
21
142.8599877488
0
LINE
5
2D1
100
AcDbEntity
8
0
100
AcDbLine
62
7
6
CONTINUOUS
10
93.0002691374
20
143.5571983171
11
89.1385669783
21
143.5571983171
0
LINE
5
2D2
100
AcDbEntity
8
0
100
AcDbLine
62
7
6
CONTINUOUS
10
88.0853756145
20
143.5571983171
11
84.7502691374
21
143.5571983171
0
LINE
5
2D3
100
AcDbEntity
8
0
100
AcDbLine
62
7
6
CONTINUOUS
10
181.1811199710
20
144.6357122405
11
181.7077161447
21
144.6357122405
0
LINE
5
2D4
100
AcDbEntity
8
0
100
AcDbLine
62
7
6
CONTINUOUS
10
181.8832480386
20
145.4739437103
11
181.1811199710
21
145.4739437103
0
LINE
5
2D5
100
AcDbEntity
8
0
100
AcDbLine
62
7
6
CONTINUOUS
10
84.7502691374
20
146.8108485228
11
88.0853756145
21
146.8108485228
0
LINE
5
2D6
100
AcDbEntity
8
0
100
AcDbLine
62
7
6
CONTINUOUS
10
89.1385669783
20
146.8108485228
11
93.0002691374
21
146.8108485228
0
LINE
5
2D7
100
AcDbEntity
8
0
100
AcDbLine
62
7
6
CONTINUOUS
10
182.2343118266
20
127.0328505754
11
181.5321842507
21
127.1725552875
0
LINE
5
2D8
100
AcDbEntity
8
0
100
AcDbLine
62
7
6
CONTINUOUS
10
181.5321842507
20
120.1872933056
11
182.2343118266
21
119.9078826825
0
LINE
5
2D9
100
AcDbEntity
8
0
100
AcDbLine
62
7
6
CONTINUOUS
10
181.1811199710
20
116.8343674265
11
180.6545242891
21
117.1137779497
0
LINE
5
2DA
100
AcDbEntity
8
DEFAULT_1
100
AcDbLine
62
2
6
CENTER
10
136.0002691374
20
230.9961359567
11
136.0002691374
21
76.7108913890
0
LINE
5
2DB
100
AcDbEntity
8
DEFAULT_1
100
AcDbLine
62
2
6
CENTER
10
136.0002691374
20
230.9961359567
11
136.0002691374
21
249.2923521251
0
LINE
5
2DC
100
AcDbEntity
8
0
100
AcDbLine
62
7
6
CONTINUOUS
10
91.4204818458
20
127.7537592106
11
90.8938861639
21
127.5213565744
0
LINE
5
2DD
100
AcDbEntity
8
0
100
AcDbLine
62
7
6
CONTINUOUS
10
91.0694180578
20
126.8241460060
11
91.7715457566
21
127.0565486423
0
LINE
5
2DE
100
AcDbEntity
8
0
100
AcDbLine
62
7
6
CONTINUOUS
10
86.3300561831
20
141.1169613278
11
86.8566523567
21
141.2331639758
0
LINE
5
2DF
100
AcDbEntity
8
0
100
AcDbLine
62
7
6
CONTINUOUS
10
93.0002691374
20
147.5080590911
11
84.7502691374
21
147.5080590911
0
LINE
5
2E0
100
AcDbEntity
8
0
100
AcDbLine
62
7
6
CONTINUOUS
10
187.5002691374
20
134.9960487391
11
179.2502691374
21
137.2313337244
0
LINE
5
2E1
100
AcDbEntity
8
0
100
AcDbLine
62
7
6
CONTINUOUS
10
179.2502691374
20
136.3931022546
11
186.4470776506
21
134.4372282921
0
LINE
5
2E2
100
AcDbEntity
8
0
100
AcDbLine
62
7
6
CONTINUOUS
10
181.5321842507
20
126.3343238177
11
182.2343118266
21
126.0549135942
0
LINE
5
2E3
100
AcDbEntity
8
0
100
AcDbLine
62
7
6
CONTINUOUS
10
181.0055880770
20
130.1063662311
11
185.3938861639
21
128.2901977801
0
LINE
5
2E4
100
AcDbEntity
8
0
100
AcDbLine
62
7
6
CONTINUOUS
10
185.7449499518
20
128.7093135150
11
181.3566523567
21
130.5254819660
0
LINE
5
2E5
100
AcDbEntity
8
0
100
AcDbLine
62
7
6
CONTINUOUS
10
182.7609075085
20
120.6064090405
11
182.2343118266
21
120.8858196637
0
LINE
5
2E6
100
AcDbEntity
8
0
100
AcDbLine
62
7
6
CONTINUOUS
10
181.1811199710
20
122.9813979385
11
180.6545242891
21
123.2608089614
0
LINE
5
2E7
100
AcDbEntity
8
0
100
AcDbLine
62
7
6
CONTINUOUS
10
182.7609075085
20
126.7534395526
11
182.2343118266
21
127.0328505754
0
LINE
5
2E8
100
AcDbEntity
8
0
100
AcDbLine
62
7
6
CONTINUOUS
10
119.5002691374
20
157.4961359567
11
152.5002691374
21
157.4961359567
0
LINE
5
2E9
100
AcDbEntity
8
0
100
AcDbLine
62
7
6
CONTINUOUS
10
181.7077161447
20
144.6357122405
11
182.2343118266
21
144.4960059297
0
LINE
5
2EA
100
AcDbEntity
8
0
100
AcDbLine
62
7
6
CONTINUOUS
10
182.4098437205
20
145.3342373995
11
181.8832480386
21
145.4739437103
0
LINE
5
2EB
100
AcDbEntity
8
0
100
AcDbLine
62
7
6
CONTINUOUS
10
179.7768648193
20
116.8343674265
11
180.4789923951
21
116.2755464549
0
LINE
5
2EC
100
AcDbEntity
8
0
100
AcDbLine
62
7
6
CONTINUOUS
10
179.7768648193
20
122.9813979385
11
180.4789923951
21
122.4225770919
0
LINE
5
2ED
100
AcDbEntity
8
0
100
AcDbLine
62
7
6
CONTINUOUS
10
182.2343118266
20
119.9078826825
11
186.6226095446
21
115.9961359567
0
LINE
5
2EE
100
AcDbEntity
8
0
100
AcDbLine
62
7
6
CONTINUOUS
10
186.6226095446
20
117.1137779497
11
182.7609075085
21
120.6064090405
0
LINE
5
2EF
100
AcDbEntity
8
0
100
AcDbLine
62
7
6
CONTINUOUS
10
180.6545242891
20
145.3342373995
11
179.9523967132
21
144.9151216646
0
LINE
5
2F0
100
AcDbEntity
8
0
100
AcDbLine
62
7
6
CONTINUOUS
10
183.1119712964
20
144.9151216646
11
182.4098437205
21
145.3342373995
0
LINE
5
2F1
100
AcDbEntity
8
0
100
AcDbLine
62
7
6
CONTINUOUS
10
182.2343118266
20
126.0549135942
11
186.6226095446
21
122.1431668684
0
LINE
5
2F2
100
AcDbEntity
8
0
100
AcDbLine
62
7
6
CONTINUOUS
10
186.6226095446
20
123.2608089614
11
182.7609075085
21
126.7534395526
0
LINE
5
2F3
100
AcDbEntity
8
0
100
AcDbLine
62
7
6
CONTINUOUS
10
180.6545242891
20
117.1137779497
11
180.3034605012
21
117.5328936846
0
LINE
5
2F4
100
AcDbEntity
8
0
100
AcDbLine
62
7
6
CONTINUOUS
10
180.6545242891
20
123.2608089614
11
180.3034605012
21
123.6799246963
0
LINE
5
2F5
100
AcDbEntity
8
0
100
AcDbLine
62
7
6
CONTINUOUS
10
162.5002691374
20
30.9961359567
11
162.5002691374
21
147.4961359567
0
LINE
5
2F6
100
AcDbEntity
8
0
100
AcDbLine
62
7
6
CONTINUOUS
10
180.3034605012
20
144.2165965056
11
180.6545242891
21
144.4960059297
0
LINE
5
2F7
100
AcDbEntity
8
0
100
AcDbLine
62
7
6
CONTINUOUS
10
182.2343118266
20
144.4960059297
11
182.5853756145
21
144.2165965056
0
LINE
5
2F8
100
AcDbEntity
8
0
100
AcDbLine
62
7
6
CONTINUOUS
10
179.4258010313
20
117.3931883730
11
179.7768648193
21
116.8343674265
0
LINE
5
2F9
100
AcDbEntity
8
0
100
AcDbLine
62
7
6
CONTINUOUS
10
179.4258010313
20
123.5402191848
11
179.7768648193
21
122.9813979385
0
LINE
5
2FA
100
AcDbEntity
8
0
100
AcDbLine
62
7
6
CONTINUOUS
10
167.0002691374
20
178.5150296681
11
167.0002691374
21
233.4961359567
0
LINE
5
2FB
100
AcDbEntity
8
0
100
AcDbLine
62
7
6
CONTINUOUS
10
179.9523967132
20
144.9151216646
11
179.4258010313
21
144.3562996188
0
LINE
5
2FC
100
AcDbEntity
8
0
100
AcDbLine
62
7
6
CONTINUOUS
10
180.6545242891
20
126.0549135942
11
181.1811199710
21
126.3343238177
0
LINE
5
2FD
100
AcDbEntity
8
0
100
AcDbLine
62
7
6
CONTINUOUS
10
183.6385669783
20
144.3562996188
11
183.1119712964
21
144.9151216646
0
LINE
5
2FE
100
AcDbEntity
8
0
100
AcDbLine
62
7
6
CONTINUOUS
10
180.3034605012
20
117.5328936846
11
180.1279286072
21
118.2314199427
0
LINE
5
2FF
100
AcDbEntity
8
0
100
AcDbLine
62
7
6
CONTINUOUS
10
180.3034605012
20
123.6799246963
11
180.1279286072
21
124.3784506546
0
LINE
5
300
100
AcDbEntity
8
0
100
AcDbLine
62
7
6
CONTINUOUS
10
179.2502691374
20
118.3711250545
11
179.4258010313
21
117.3931883730
0
LINE
5
301
100
AcDbEntity
8
0
100
AcDbLine
62
7
6
CONTINUOUS
10
179.2502691374
20
143.6577744599
11
179.2502691374
21
140.3048485807
0
LINE
5
302
100
AcDbEntity
8
0
100
AcDbLine
62
7
6
CONTINUOUS
10
179.2502691374
20
139.1872060880
11
179.2502691374
21
138.3489746182
0
LINE
5
303
100
AcDbEntity
8
0
100
AcDbLine
62
7
6
CONTINUOUS
10
179.2502691374
20
137.2313337244
11
179.2502691374
21
136.3931022546
0
LINE
5
304
100
AcDbEntity
8
0
100
AcDbLine
62
7
6
CONTINUOUS
10
179.2502691374
20
132.4813543297
11
179.2502691374
21
131.6431228599
0
LINE
5
305
100
AcDbEntity
8
0
100
AcDbLine
62
7
6
CONTINUOUS
10
179.2502691374
20
125.0769766130
11
179.2502691374
21
124.5181561660
0
LINE
5
306
100
AcDbEntity
8
0
100
AcDbLine
62
7
6
CONTINUOUS
10
179.2502691374
20
118.9299461009
11
179.2502691374
21
118.3711250545
0
LINE
5
307
100
AcDbEntity
8
0
100
AcDbLine
62
7
6
CONTINUOUS
10
180.1279286072
20
118.2314199427
11
180.1279286072
21
118.7902407894
0
LINE
5
308
100
AcDbEntity
8
0
100
AcDbLine
62
7
6
CONTINUOUS
10
180.1279286072
20
124.3784506546
11
180.1279286072
21
124.9372719009
0
LINE
5
309
100
AcDbEntity
8
0
100
AcDbLine
62
7
6
CONTINUOUS
10
180.1279286072
20
141.1430800505
11
180.1279286072
21
143.7974807707
0
LINE
5
30A
100
AcDbEntity
8
0
100
AcDbLine
62
7
6
CONTINUOUS
10
181.1811199710
20
116.1358412058
11
181.1811199710
21
116.8343674265
0
LINE
5
30B
100
AcDbEntity
8
0
100
AcDbLine
62
7
6
CONTINUOUS
10
181.1811199710
20
122.2828719801
11
181.1811199710
21
122.9813979385
0
LINE
5
30C
100
AcDbEntity
8
0
100
AcDbLine
62
7
6
CONTINUOUS
10
182.7609075085
20
143.7974807707
11
182.7609075085
21
141.1430800505
0
LINE
5
30D
100
AcDbEntity
8
0
100
AcDbLine
62
7
6
CONTINUOUS
10
183.5002691374
20
92.9961359567
11
183.5002691374
21
41.5845244375
0
LINE
5
30E
100
AcDbEntity
8
0
100
AcDbLine
62
7
6
CONTINUOUS
10
183.8140988723
20
141.1430800505
11
183.8140988723
21
143.6577744599
0
LINE
5
30F
100
AcDbEntity
8
0
100
AcDbLine
62
7
6
CONTINUOUS
10
179.4258010313
20
125.9152080828
11
179.2502691374
21
125.0769766130
0
LINE
5
310
100
AcDbEntity
8
0
100
AcDbLine
62
7
6
CONTINUOUS
10
179.4258010313
20
119.7681775707
11
179.2502691374
21
118.9299461009
0
LINE
5
311
100
AcDbEntity
8
0
100
AcDbLine
62
7
6
CONTINUOUS
10
179.4258010313
20
144.3562996188
11
179.2502691374
21
143.6577744599
0
LINE
5
312
100
AcDbEntity
8
0
100
AcDbLine
62
7
6
CONTINUOUS
10
180.1279286072
20
124.9372719009
11
180.3034605012
21
125.6357978593
0
LINE
5
313
100
AcDbEntity
8
0
100
AcDbLine
62
7
6
CONTINUOUS
10
180.1279286072
20
143.7974807707
11
180.3034605012
21
144.2165965056
0
LINE
5
314
100
AcDbEntity
8
0
100
AcDbLine
62
7
6
CONTINUOUS
10
179.7768648193
20
126.4740293291
11
179.4258010313
21
125.9152080828
0
LINE
5
315
100
AcDbEntity
8
0
100
AcDbLine
62
7
6
CONTINUOUS
10
181.3566523567
20
130.5254819660
11
181.0055880770
21
130.1063662311
0
LINE
5
316
100
AcDbEntity
8
0
100
AcDbLine
62
7
6
CONTINUOUS
10
180.3034605012
20
125.6357978593
11
180.6545242891
21
126.0549135942
0
LINE
5
317
100
AcDbEntity
8
0
100
AcDbLine
62
7
6
CONTINUOUS
10
185.3938861639
20
128.2901977801
11
185.7449499518
21
128.7093135150
0
LINE
5
318
100
AcDbEntity
8
0
100
AcDbLine
62
7
6
CONTINUOUS
10
180.4789923951
20
127.0328505754
11
179.7768648193
21
126.4740293291
0
LINE
5
319
100
AcDbEntity
8
0
100
AcDbLine
62
7
6
CONTINUOUS
10
180.4789923951
20
120.8858196637
11
179.7768648193
21
120.3269984174
0
LINE
5
31A
100
AcDbEntity
8
0
100
AcDbLine
62
7
6
CONTINUOUS
10
180.6545242891
20
119.9078826825
11
181.1811199710
21
120.1872933056
0
LINE
5
31B
100
AcDbEntity
8
0
100
AcDbLine
62
7
6
CONTINUOUS
10
182.5853756145
20
144.2165965056
11
182.7609075085
21
143.7974807707
0
LINE
5
31C
100
AcDbEntity
8
0
100
AcDbLine
62
7
6
CONTINUOUS
10
183.8140988723
20
143.6577744599
11
183.6385669783
21
144.3562996188
0
LINE
5
31D
100
AcDbEntity
8
0
100
AcDbLine
62
7
6
CONTINUOUS
10
179.2502691374
20
124.5181561660
11
179.4258010313
21
123.5402191848
0
LINE
5
31E
100
AcDbEntity
8
0
100
AcDbLine
62
7
6
CONTINUOUS
10
186.6226095446
20
127.1725552875
11
186.6226095446
21
123.2608089614
0
LINE
5
31F
100
AcDbEntity
8
0
100
AcDbLine
62
7
6
CONTINUOUS
10
186.6226095446
20
121.0255247754
11
186.6226095446
21
117.1137779497
0
LINE
5
320
100
AcDbEntity
8
0
100
AcDbLine
62
7
6
CONTINUOUS
10
187.5002691374
20
115.9961359567
11
187.5002691374
21
121.0255247754
0
LINE
5
321
100
AcDbEntity
8
0
100
AcDbLine
62
7
6
CONTINUOUS
10
187.5002691374
20
122.1431668684
11
187.5002691374
21
127.1725552875
0
LINE
5
322
100
AcDbEntity
8
0
100
AcDbLine
62
7
6
CONTINUOUS
10
187.5002691374
20
133.8784078452
11
187.5002691374
21
134.9960487391
0
LINE
5
323
100
AcDbEntity
8
0
100
AcDbLine
62
7
6
CONTINUOUS
10
187.5002691374
20
138.3489746182
11
187.5002691374
21
139.1872060880
0
LINE
5
324
100
AcDbEntity
8
0
100
AcDbLine
62
7
6
CONTINUOUS
10
187.5002691374
20
140.3048485807
11
187.5002691374
21
141.1430800505
0
LINE
5
325
100
AcDbEntity
8
0
100
AcDbLine
62
7
6
CONTINUOUS
10
192.5002691374
20
109.4961359567
11
192.5002691374
21
147.4961359567
0
LINE
5
326
100
AcDbEntity
8
0
100
AcDbLine
62
7
6
CONTINUOUS
10
180.1279286072
20
118.7902407894
11
180.3034605012
21
119.4887669476
0
LINE
5
327
100
AcDbEntity
8
0
100
AcDbLine
62
7
6
CONTINUOUS
10
179.7768648193
20
120.3269984174
11
179.4258010313
21
119.7681775707
0
LINE
5
328
100
AcDbEntity
8
0
100
AcDbLine
62
7
6
CONTINUOUS
10
180.3034605012
20
119.4887669476
11
180.6545242891
21
119.9078826825
0
LINE
5
329
100
AcDbEntity
8
0
100
AcDbLine
62
7
6
CONTINUOUS
10
209.5002691374
20
30.9961359567
11
209.5002691374
21
92.9961359567
0
LINE
5
32A
100
AcDbEntity
8
DEFAULT_1
100
AcDbLine
62
2
6
CENTER
10
136.0002691374
20
230.9961359567
11
118.1426584790
21
230.9961359567
0
LINE
5
32B
100
AcDbEntity
8
DEFAULT_1
100
AcDbLine
62
2
6
CENTER
10
136.0002691374
20
230.9961359567
11
154.0621175331
21
230.9961359567
0
LINE
5
32C
100
AcDbEntity
8
0
100
AcDbLine
62
7
6
CONTINUOUS
10
132.5002691374
20
260.9961359567
11
139.5002691374
21
260.9961359567
0
LINE
5
32D
100
AcDbEntity
8
0
100
AcDbLine
62
7
6
CONTINUOUS
10
296.9978375546
20
30.9961359567
11
292.9978375546
21
30.9961359567
0
LINE
5
32E
100
AcDbEntity
8
0
100
AcDbLine
62
7
6
CONTINUOUS
10
289.9978375546
20
37.9961359567
11
299.9978375546
21
37.9961359567
0
LINE
5
32F
100
AcDbEntity
8
0
100
AcDbLine
62
7
6
CONTINUOUS
10
267.4978375546
20
51.3329271750
11
289.9978375546
21
38.3425461182
0
LINE
5
330
100
AcDbEntity
8
DEFAULT_1
100
AcDbLine
62
2
6
CENTER
10
294.9978375546
20
66.9961359567
11
273.9978375546
21
66.9961359567
0
LINE
5
331
100
AcDbEntity
8
DEFAULT_1
100
AcDbLine
62
2
6
CENTER
10
294.9978375546
20
66.9961359567
11
315.9978375546
21
66.9961359567
0
LINE
5
332
100
AcDbEntity
8
0
100
AcDbLine
62
7
6
CONTINUOUS
10
256.9978375546
20
92.9961359567
11
266.9662443715
21
92.9961359567
0
LINE
5
333
100
AcDbEntity
8
0
100
AcDbLine
62
7
6
CONTINUOUS
10
323.0294307377
20
92.9961359567
11
332.9978375546
21
92.9961359567
0
LINE
5
334
100
AcDbEntity
8
0
100
AcDbLine
62
7
6
CONTINUOUS
10
289.9978375546
20
95.9961359567
11
299.9978375546
21
95.9961359567
0
LINE
5
335
100
AcDbEntity
8
0
100
AcDbLine
62
7
6
CONTINUOUS
10
247.4978375546
20
207.7529061936
11
247.4978375546
21
260.9961359567
0
LINE
5
336
100
AcDbEntity
8
0
100
AcDbLine
62
7
6
CONTINUOUS
10
322.4978375546
20
83.0057548999
11
299.9978375546
21
95.9961359567
0
LINE
5
337
100
AcDbEntity
8
0
100
AcDbLine
62
7
6
CONTINUOUS
10
256.9978375546
20
66.9961359567
11
256.9978375546
21
92.9961359567
0
LINE
5
338
100
AcDbEntity
8
0
100
AcDbLine
62
7
6
CONTINUOUS
10
267.4978375546
20
83.0057548999
11
267.4978375546
21
51.3329271750
0
LINE
5
339
100
AcDbEntity
8
0
100
AcDbLine
62
7
6
CONTINUOUS
10
279.9978375546
20
157.6019875852
11
279.9978375546
21
109.4961359567
0
LINE
5
33A
100
AcDbEntity
8
0
100
AcDbLine
62
7
6
CONTINUOUS
10
282.5478375546
20
260.9961359567
11
282.5478375546
21
200.4461359567
0
LINE
5
33B
100
AcDbEntity
8
0
100
AcDbLine
62
7
6
CONTINUOUS
10
282.9978375546
20
167.4237549815
11
282.9978375546
21
109.4961359567
0
LINE
5
33C
100
AcDbEntity
8
0
100
AcDbLine
62
7
6
CONTINUOUS
10
313.9261468889
20
163.8606018331
11
313.9055246367
21
163.8514402926
0
LINE
5
33D
100
AcDbEntity
8
0
100
AcDbLine
62
7
6
CONTINUOUS
10
289.9978375546
20
95.9961359567
11
289.9978375546
21
37.9961359567
0
LINE
5
33E
100
AcDbEntity
8
DEFAULT_1
100
AcDbLine
62
2
6
CENTER
10
294.9978375546
20
230.9961359567
11
294.9978375546
21
95.7268118141
0
LINE
5
33F
100
AcDbEntity
8
DEFAULT_1
100
AcDbLine
62
2
6
CENTER
10
294.9978375546
20
66.9961359567
11
294.9978375546
21
45.9961359567
0
LINE
5
340
100
AcDbEntity
8
DEFAULT_1
100
AcDbLine
62
2
6
CENTER
10
294.9978375546
20
66.9961359567
11
294.9978375546
21
87.9961359567
0
LINE
5
341
100
AcDbEntity
8
DEFAULT_1
100
AcDbLine
62
2
6
CENTER
10
294.9978375546
20
230.9961359567
11
294.9978375546
21
259.3032247115
0
LINE
5
342
100
AcDbEntity
8
0
100
AcDbLine
62
7
6
CONTINUOUS
10
299.9978375546
20
95.9961359567
11
299.9978375546
21
37.9961359567
0
LINE
5
343
100
AcDbEntity
8
0
100
AcDbLine
62
7
6
CONTINUOUS
10
276.0700398254
20
163.8602160904
11
276.0882938412
21
163.8521092029
0
LINE
5
344
100
AcDbEntity
8
0
100
AcDbLine
62
7
6
CONTINUOUS
10
306.9978375546
20
167.4237549815
11
306.9978375546
21
109.4961359567
0
LINE
5
345
100
AcDbEntity
8
0
100
AcDbLine
62
7
6
CONTINUOUS
10
307.4478375546
20
200.4461359567
11
307.4478375546
21
260.9961359567
0
LINE
5
346
100
AcDbEntity
8
0
100
AcDbLine
62
7
6
CONTINUOUS
10
309.9978375546
20
157.6111550305
11
309.9978375546
21
109.4961359567
0
LINE
5
347
100
AcDbEntity
8
0
100
AcDbLine
62
7
6
CONTINUOUS
10
322.4978375546
20
51.3329271750
11
322.4978375546
21
83.0057548999
0
LINE
5
348
100
AcDbEntity
8
0
100
AcDbLine
62
7
6
CONTINUOUS
10
332.9978375546
20
92.9961359567
11
332.9978375546
21
66.9961359567
0
LINE
5
349
100
AcDbEntity
8
0
100
AcDbLine
62
7
6
CONTINUOUS
10
289.9978375546
20
95.9961359567
11
267.4978375546
21
83.0057548999
0
LINE
5
34A
100
AcDbEntity
8
0
100
AcDbLine
62
7
6
CONTINUOUS
10
342.4978375546
20
207.7529061936
11
342.4978375546
21
260.9961359567
0
LINE
5
34B
100
AcDbEntity
8
0
100
AcDbLine
62
7
6
CONTINUOUS
10
282.5478375546
20
217.2461359567
11
307.4478375546
21
217.2461359567
0
LINE
5
34C
100
AcDbEntity
8
DEFAULT_1
100
AcDbLine
62
2
6
CENTER
10
294.9978375546
20
230.9961359567
11
248.1947438063
21
230.9961359567
0
LINE
5
34D
100
AcDbEntity
8
DEFAULT_1
100
AcDbLine
62
2
6
CENTER
10
294.9978375546
20
230.9961359567
11
344.5908124117
21
230.9961359567
0
LINE
5
34E
100
AcDbEntity
8
0
100
AcDbLine
62
7
6
CONTINUOUS
10
299.9978375546
20
38.3425461182
11
322.4978375546
21
51.3329271750
0
LINE
5
34F
100
AcDbEntity
8
0
100
AcDbLine
62
7
6
CONTINUOUS
10
282.5478375546
20
244.7461359567
11
307.4478375546
21
244.7461359567
0
LINE
5
350
100
AcDbEntity
8
0
100
AcDbLine
62
7
6
CONTINUOUS
10
342.4978375546
20
260.9961359567
11
307.4478375546
21
260.9961359567
0
LINE
5
351
100
AcDbEntity
8
0
100
AcDbLine
62
7
6
CONTINUOUS
10
282.5478375546
20
260.9961359567
11
247.4978375546
21
260.9961359567
0
LINE
5
352
100
AcDbEntity
8
0
100
AcDbLine
62
7
6
CONTINUOUS
10
42.0002691374
20
-61.8575992824
11
42.0002691374
21
-71.8575992824
0
LINE
5
353
100
AcDbEntity
8
0
100
AcDbLine
62
7
6
CONTINUOUS
10
71.0002691374
20
-94.3575992824
11
71.0002691374
21
-71.8575992824
0
LINE
5
354
100
AcDbEntity
8
0
100
AcDbLine
62
7
6
CONTINUOUS
10
71.0002691374
20
-61.8575992824
11
71.0002691374
21
-39.3575992824
0
LINE
5
355
100
AcDbEntity
8
0
100
AcDbLine
62
7
6
CONTINUOUS
10
79.5002691374
20
-28.8575992824
11
79.5002691374
21
-104.8575992824
0
LINE
5
356
100
AcDbEntity
8
0
100
AcDbLine
62
7
6
CONTINUOUS
10
113.8002691374
20
-114.3575992824
11
158.2002691374
21
-114.3575992824
0
LINE
5
357
100
AcDbEntity
8
0
100
AcDbLine
62
7
6
CONTINUOUS
10
84.7502691374
20
-78.8575992824
11
84.7502691374
21
-79.3575992824
0
LINE
5
358
100
AcDbEntity
8
0
100
AcDbLine
62
7
6
CONTINUOUS
10
79.5002691374
20
-104.8575992824
11
105.0002691374
21
-104.8575992824
0
LINE
5
359
100
AcDbEntity
8
0
100
AcDbLine
62
7
6
CONTINUOUS
10
167.0002691374
20
-104.8575992824
11
183.5002691374
21
-104.8575992824
0
LINE
5
35A
100
AcDbEntity
8
0
100
AcDbLine
62
7
6
CONTINUOUS
10
93.0002691374
20
-79.1629253582
11
93.0002691374
21
-79.3575992824
0
LINE
5
35B
100
AcDbEntity
8
0
100
AcDbLine
62
7
6
CONTINUOUS
10
102.2344435292
20
-48.6949902742
11
102.2351606362
21
-48.6940269243
0
LINE
5
35C
100
AcDbEntity
8
0
100
AcDbLine
62
7
6
CONTINUOUS
10
95.4534333788
20
-53.8322062457
11
97.4812481189
21
-52.6614468597
0
LINE
5
35D
100
AcDbEntity
8
0
100
AcDbLine
62
7
6
CONTINUOUS
10
79.5002691374
20
-94.3575992824
11
71.0002691374
21
-94.3575992824
0
LINE
5
35E
100
AcDbEntity
8
0
100
AcDbLine
62
7
6
CONTINUOUS
10
183.5002691374
20
-94.3575992824
11
209.5002691374
21
-94.3575992824
0
LINE
5
35F
100
AcDbEntity
8
0
100
AcDbLine
62
7
6
CONTINUOUS
10
97.4812481189
20
-81.0537517051
11
95.4545467248
21
-79.8836351096
0
LINE
5
360
100
AcDbEntity
8
0
100
AcDbLine
62
7
6
CONTINUOUS
10
102.2341325392
20
-85.0201125279
11
102.2349398488
21
-85.0211967183
0
LINE
5
361
100
AcDbEntity
8
0
100
AcDbLine
62
7
6
CONTINUOUS
10
105.0002691374
20
-102.9351002832
11
105.0002691374
21
-77.2994872720
0
LINE
5
362
100
AcDbEntity
8
0
100
AcDbLine
62
7
6
CONTINUOUS
10
105.0002691374
20
-56.4143249866
11
105.0002691374
21
-28.1575992824
0
LINE
5
363
100
AcDbEntity
8
0
100
AcDbLine
62
7
6
CONTINUOUS
10
187.5002691374
20
-79.3575992824
11
179.2502691374
21
-79.3575992824
0
LINE
5
364
100
AcDbEntity
8
0
100
AcDbLine
62
7
6
CONTINUOUS
10
93.0002691374
20
-79.3575992824
11
84.7502691374
21
-79.3575992824
0
LINE
5
365
100
AcDbEntity
8
0
100
AcDbLine
62
7
6
CONTINUOUS
10
105.0002691374
20
-79.3075992824
11
167.0002691374
21
-79.3075992824
0
LINE
5
366
100
AcDbEntity
8
0
100
AcDbLine
62
7
6
CONTINUOUS
10
188.1002691374
20
-78.8575992824
11
182.0002691374
21
-78.8575992824
0
LINE
5
367
100
AcDbEntity
8
0
100
AcDbLine
62
7
6
CONTINUOUS
10
90.0002691339
20
-78.8575992824
11
83.9002691374
21
-78.8575992824
0
LINE
5
368
100
AcDbEntity
8
0
100
AcDbLine
62
7
6
CONTINUOUS
10
91.4406897424
20
-78.9269241797
11
91.5020429190
21
-78.9329703436
0
LINE
5
369
100
AcDbEntity
8
0
100
AcDbLine
62
7
6
CONTINUOUS
10
182.0002691412
20
-78.8575992824
11
182.0192739264
21
-78.8576113218
0
LINE
5
36A
100
AcDbEntity
8
0
100
AcDbLine
62
7
6
CONTINUOUS
10
122.2502691374
20
-54.4075992824
11
122.2502691374
21
-79.3075992824
0
LINE
5
36B
100
AcDbEntity
8
0
100
AcDbLine
62
7
6
CONTINUOUS
10
79.5002691374
20
-71.8575992824
11
42.0015721725
21
-71.8575992824
0
LINE
5
36C
100
AcDbEntity
8
DEFAULT_1
100
AcDbLine
62
2
6
CENTER
10
38.9543035728
20
-66.8575992824
11
212.5002691374
21
-66.8575992824
0
LINE
5
36D
100
AcDbEntity
8
0
100
AcDbLine
62
7
6
CONTINUOUS
10
79.5002691374
20
-61.8575992824
11
42.0015721725
21
-61.8575992824
0
LINE
5
36E
100
AcDbEntity
8
DEFAULT_1
100
AcDbLine
62
2
6
CENTER
10
136.0002691374
20
-95.0977019295
11
136.0002691374
21
-46.6321254327
0
LINE
5
36F
100
AcDbEntity
8
0
100
AcDbLine
62
7
6
CONTINUOUS
10
188.1002691374
20
-54.8575992824
11
182.0002691374
21
-54.8575992824
0
LINE
5
370
100
AcDbEntity
8
0
100
AcDbLine
62
7
6
CONTINUOUS
10
90.0002691374
20
-54.8575992824
11
83.9002691374
21
-54.8575992824
0
LINE
5
371
100
AcDbEntity
8
0
100
AcDbLine
62
7
6
CONTINUOUS
10
105.0002691374
20
-54.4075992824
11
167.0002691374
21
-54.4075992824
0
LINE
5
372
100
AcDbEntity
8
0
100
AcDbLine
62
7
6
CONTINUOUS
10
91.4961838898
20
-54.7827868537
11
91.4367538523
21
-54.7886233852
0
LINE
5
373
100
AcDbEntity
8
0
100
AcDbLine
62
7
6
CONTINUOUS
10
149.7502691374
20
-54.4075992824
11
149.7502691374
21
-79.3075992824
0
LINE
5
374
100
AcDbEntity
8
0
100
AcDbLine
62
7
6
CONTINUOUS
10
79.5002691374
20
-39.3575992824
11
71.0002691374
21
-39.3575992824
0
LINE
5
375
100
AcDbEntity
8
0
100
AcDbLine
62
7
6
CONTINUOUS
10
183.5002691374
20
-39.3575992824
11
209.5002691374
21
-39.3575992824
0
LINE
5
376
100
AcDbEntity
8
0
100
AcDbLine
62
7
6
CONTINUOUS
10
176.4789715581
20
-79.9223291200
11
174.5192901559
21
-81.0537517051
0
LINE
5
377
100
AcDbEntity
8
0
100
AcDbLine
62
7
6
CONTINUOUS
10
79.5002691374
20
-28.8575992824
11
105.0002691374
21
-28.8575992824
0
LINE
5
378
100
AcDbEntity
8
0
100
AcDbLine
62
7
6
CONTINUOUS
10
167.0002691374
20
-28.8575992824
11
183.5002691374
21
-28.8575992824
0
LINE
5
379
100
AcDbEntity
8
0
100
AcDbLine
62
7
6
CONTINUOUS
10
176.4927490518
20
-53.8008238845
11
174.5192901559
21
-52.6614468597
0
LINE
5
37A
100
AcDbEntity
8
0
100
AcDbLine
62
7
6
CONTINUOUS
10
167.0002691374
20
-28.1575992824
11
167.0002691374
21
-56.4143257889
0
LINE
5
37B
100
AcDbEntity
8
0
100
AcDbLine
62
7
6
CONTINUOUS
10
167.0002691374
20
-77.2994689880
11
167.0002691374
21
-102.9351002832
0
LINE
5
37C
100
AcDbEntity
8
0
100
AcDbLine
62
7
6
CONTINUOUS
10
169.7664257914
20
-85.0200794242
11
169.7656180920
21
-85.0211643442
0
LINE
5
37D
100
AcDbEntity
8
0
100
AcDbLine
62
7
6
CONTINUOUS
10
113.8002691374
20
-19.3575992824
11
158.2002691374
21
-19.3575992824
0
LINE
5
37E
100
AcDbEntity
8
0
100
AcDbLine
62
7
6
CONTINUOUS
10
169.7662444321
20
-48.6952062758
11
169.7653356890
21
-48.6939850894
0
LINE
5
37F
100
AcDbEntity
8
0
100
AcDbLine
62
7
6
CONTINUOUS
10
179.2502691374
20
-79.1250073771
11
179.2502691374
21
-79.3575992824
0
LINE
5
380
100
AcDbEntity
8
0
100
AcDbLine
62
7
6
CONTINUOUS
10
179.4258010313
20
-79.0901525264
11
179.4258010313
21
-79.3575992824
0
LINE
5
381
100
AcDbEntity
8
0
100
AcDbLine
62
7
6
CONTINUOUS
10
179.9523967132
20
-79.0029163311
11
179.9523967132
21
-79.3575992824
0
LINE
5
382
100
AcDbEntity
8
0
100
AcDbLine
62
7
6
CONTINUOUS
10
180.6545242891
20
-78.9269499476
11
180.6545242891
21
-79.3575992824
0
LINE
5
383
100
AcDbEntity
8
0
100
AcDbLine
62
7
6
CONTINUOUS
10
181.1811199710
20
-78.8575992824
11
181.1811199710
21
-79.3575992824
0
LINE
5
384
100
AcDbEntity
8
0
100
AcDbLine
62
7
6
CONTINUOUS
10
181.8832480386
20
-78.8575992824
11
181.8832480386
21
-79.3575992824
0
LINE
5
385
100
AcDbEntity
8
0
100
AcDbLine
62
7
6
CONTINUOUS
10
182.4098437205
20
-78.8575992824
11
182.4098437205
21
-79.3575992824
0
LINE
5
386
100
AcDbEntity
8
0
100
AcDbLine
62
7
6
CONTINUOUS
10
183.1119712964
20
-78.8575992824
11
183.1119712964
21
-79.3575992824
0
LINE
5
387
100
AcDbEntity
8
0
100
AcDbLine
62
7
6
CONTINUOUS
10
183.5002691374
20
-28.8575992824
11
183.5002691374
21
-39.3575992824
0
LINE
5
388
100
AcDbEntity
8
0
100
AcDbLine
62
7
6
CONTINUOUS
10
183.5002691374
20
-94.3575992824
11
183.5002691374
21
-104.8575992824
0
LINE
5
389
100
AcDbEntity
8
0
100
AcDbLine
62
7
6
CONTINUOUS
10
183.6385669783
20
-78.8575992824
11
183.6385669783
21
-79.3575992824
0
LINE
5
38A
100
AcDbEntity
8
0
100
AcDbLine
62
7
6
CONTINUOUS
10
183.8140988723
20
-78.8575992824
11
183.8140988723
21
-79.3575992824
0
LINE
5
38B
100
AcDbEntity
8
0
100
AcDbLine
62
7
6
CONTINUOUS
10
187.5002691374
20
-78.8575992824
11
187.5002691374
21
-79.3575992824
0
LINE
5
38C
100
AcDbEntity
8
0
100
AcDbLine
62
7
6
CONTINUOUS
10
192.5002691374
20
-74.4575992824
11
192.5002691374
21
-59.2575992824
0
LINE
5
38D
100
AcDbEntity
8
0
100
AcDbLine
62
7
6
CONTINUOUS
10
209.5002691374
20
-39.3575992824
11
209.5002691374
21
-94.3575992824
0
CIRCLE
5
38E
100
AcDbEntity
8
0
100
AcDbCircle
62
7
6
CONTINUOUS
10
136.0002691374
20
230.9961359567
40
13.7500000000
0
ARC
5
38F
100
AcDbEntity
8
0
100
AcDbCircle
62
7
6
CONTINUOUS
10
119.5002691374
20
147.4961359567
40
10.0000000000
100
AcDbArc
50
90.0000000000
51
180.0000000000
0
ARC
5
390
100
AcDbEntity
8
0
100
AcDbCircle
62
7
6
CONTINUOUS
10
152.5002691374
20
147.4961359567
40
10.0000000000
100
AcDbArc
50
0.0000000000
51
90.0000000000
0
ARC
5
391
100
AcDbEntity
8
0
100
AcDbCircle
62
7
6
CONTINUOUS
10
152.5002691374
20
147.4961359567
40
40.0000000000
100
AcDbArc
50
0.0000000000
51
57.5635627878
0
ARC
5
392
100
AcDbEntity
8
0
100
AcDbCircle
62
7
6
CONTINUOUS
10
119.5002691374
20
147.4961359567
40
40.0000000000
100
AcDbArc
50
122.4364372122
51
180.0000000000
0
ARC
5
393
100
AcDbEntity
8
0
100
AcDbCircle
62
7
6
CONTINUOUS
10
132.5002691374
20
233.4961359567
40
27.5000000000
100
AcDbArc
50
90.0000000000
51
180.0000000000
0
ARC
5
394
100
AcDbEntity
8
0
100
AcDbCircle
62
7
6
CONTINUOUS
10
139.5002691374
20
233.4961359567
40
27.5000000000
100
AcDbArc
50
0.0000000000
51
90.0000000000
0
CIRCLE
5
395
100
AcDbEntity
8
0
100
AcDbCircle
62
7
6
CONTINUOUS
10
94.0002691374
20
84.9961359567
40
4.0000000000
0
ARC
5
396
100
AcDbEntity
8
0
100
AcDbCircle
62
7
6
CONTINUOUS
10
209.0002691374
20
109.4961359567
40
16.5000000000
100
AcDbArc
50
180.0000000000
51
270.0000000000
0
ARC
5
397
100
AcDbEntity
8
0
100
AcDbCircle
62
7
6
CONTINUOUS
10
90.0002691374
20
193.9154204730
40
14.9999998246
100
AcDbArc
50
302.4364377638
51
347.1717241113
0
ARC
5
398
100
AcDbEntity
8
0
100
AcDbCircle
62
7
6
CONTINUOUS
10
182.0002691374
20
193.9151715395
40
14.9998276509
100
AcDbArc
50
192.8273400962
51
237.5630522244
0
ARC
5
399
100
AcDbEntity
8
0
100
AcDbCircle
62
7
6
CONTINUOUS
10
71.0002691374
20
66.9961359567
40
29.0000000000
100
AcDbArc
50
90.0000000000
51
270.0000000000
0
ARC
5
39A
100
AcDbEntity
8
0
100
AcDbCircle
62
7
6
CONTINUOUS
10
323.4978375546
20
109.4961359567
40
16.5000000000
100
AcDbArc
50
180.0000000000
51
268.3751773779
0
ARC
5
39B
100
AcDbEntity
8
0
100
AcDbCircle
62
7
6
CONTINUOUS
10
326.4978375546
20
109.4961359567
40
16.5000000000
100
AcDbArc
50
180.0000000000
51
270.0000000000
0
ARC
5
39C
100
AcDbEntity
8
0
100
AcDbCircle
62
7
6
CONTINUOUS
10
263.4978375546
20
109.4961359567
40
16.5000000000
100
AcDbArc
50
270.0000000000
51
360.0000000000
0
ARC
5
39D
100
AcDbEntity
8
0
100
AcDbCircle
62
7
6
CONTINUOUS
10
266.4978375546
20
109.4961359567
40
16.5000000000
100
AcDbArc
50
271.6248226221
51
360.0000000000
0
ARC
5
39E
100
AcDbEntity
8
0
100
AcDbCircle
62
7
6
CONTINUOUS
10
296.9978375546
20
66.9961359567
40
36.0000000000
100
AcDbArc
50
270.0000000000
51
360.0000000000
0
ARC
5
39F
100
AcDbEntity
8
0
100
AcDbCircle
62
7
6
CONTINUOUS
10
292.9978375546
20
66.9961359567
40
36.0000000000
100
AcDbArc
50
180.0000000000
51
270.0000000000
0
ARC
5
3A0
100
AcDbEntity
8
0
100
AcDbCircle
62
7
6
CONTINUOUS
10
295.4978375546
20
207.7529061936
40
48.0000000000
100
AcDbArc
50
180.0000000000
51
246.1248202913
0
CIRCLE
5
3A1
100
AcDbEntity
8
0
100
AcDbCircle
62
7
6
CONTINUOUS
10
334.1978375546
20
230.9961359567
40
4.0000000000
0
ARC
5
3A2
100
AcDbEntity
8
0
100
AcDbCircle
62
7
6
CONTINUOUS
10
294.4978375546
20
207.7529061936
40
48.0000000000
100
AcDbArc
50
293.8753392226
51
360.0000000000
0
ARC
5
3A3
100
AcDbEntity
8
0
100
AcDbCircle
62
7
6
CONTINUOUS
10
294.9978375546
20
200.4461359567
40
12.4500000000
100
AcDbArc
50
180.0000000000
51
360.0000000000
0
ARC
5
3A4
100
AcDbEntity
8
0
100
AcDbCircle
62
7
6
CONTINUOUS
10
113.8002691374
20
-105.5575992824
40
8.8000000000
100
AcDbArc
50
180.0000000000
51
183.1605919062
0
ARC
5
3A5
100
AcDbEntity
8
0
100
AcDbCircle
62
7
6
CONTINUOUS
10
113.8002691374
20
-28.1575992824
40
8.8000000000
100
AcDbArc
50
90.0000000000
51
180.0000000000
0
ARC
5
3A6
100
AcDbEntity
8
0
100
AcDbCircle
62
7
6
CONTINUOUS
10
100.4812481189
20
-75.8575992824
40
6.0000000000
100
AcDbArc
50
240.0000000000
51
252.1843578676
0
ARC
5
3A7
100
AcDbEntity
8
0
100
AcDbCircle
62
7
6
CONTINUOUS
10
100.4812481189
20
-57.8575992824
40
6.0000000000
100
AcDbArc
50
107.8510196643
51
120.0000000000
0
ARC
5
3A8
100
AcDbEntity
8
0
100
AcDbCircle
62
7
6
CONTINUOUS
10
83.9002691374
20
-59.2575992824
40
4.4000000000
100
AcDbArc
50
90.0000000000
51
180.0000000000
0
ARC
5
3A9
100
AcDbEntity
8
0
100
AcDbCircle
62
7
6
CONTINUOUS
10
171.5192901559
20
-75.8575992824
40
6.0000000000
100
AcDbArc
50
288.2275601145
51
300.0000000000
0
ARC
5
3AA
100
AcDbEntity
8
0
100
AcDbCircle
62
7
6
CONTINUOUS
10
188.1002691374
20
-74.4575992824
40
4.4000000000
100
AcDbArc
50
270.0000000000
51
360.0000000000
0
ARC
5
3AB
100
AcDbEntity
8
0
100
AcDbCircle
62
7
6
CONTINUOUS
10
188.1002691374
20
-59.2575992824
40
4.4000000000
100
AcDbArc
50
0.0000000000
51
90.0000000000
0
ARC
5
3AC
100
AcDbEntity
8
0
100
AcDbCircle
62
7
6
CONTINUOUS
10
171.5192901559
20
-57.8575992824
40
6.0000000000
100
AcDbArc
50
60.0000000000
51
71.5656895440
0
ARC
5
3AD
100
AcDbEntity
8
0
100
AcDbCircle
62
7
6
CONTINUOUS
10
83.9002691374
20
-74.4575992824
40
4.4000000000
100
AcDbArc
50
180.0000000000
51
270.0000000000
0
ARC
5
3AE
100
AcDbEntity
8
0
100
AcDbCircle
62
7
6
CONTINUOUS
10
113.8002691374
20
-105.5575992824
40
8.8000000000
100
AcDbArc
50
185.4755265241
51
270.0000000000
0
ARC
5
3AF
100
AcDbEntity
8
0
100
AcDbCircle
62
7
6
CONTINUOUS
10
158.2002691374
20
-28.1575992824
40
8.8000000000
100
AcDbArc
50
0.0000000000
51
90.0000000000
0
ARC
5
3B0
100
AcDbEntity
8
0
100
AcDbCircle
62
7
6
CONTINUOUS
10
158.2002691374
20
-105.5575992824
40
8.8000000000
100
AcDbArc
50
270.0000000000
51
354.5244734759
0
ARC
5
3B1
100
AcDbEntity
8
0
100
AcDbCircle
62
7
6
CONTINUOUS
10
158.2002691374
20
-105.5575992824
40
8.8000000000
100
AcDbArc
50
356.8394080938
51
360.0000000000
0
ARC
5
3B2
100
AcDbEntity
8
0
100
AcDbCircle
62
7
6
CONTINUOUS
10
90.0002691374
20
-93.8576129463
40
15.0000105651
100
AcDbArc
50
84.4969479134
51
90.0725928935
0
ARC
5
3B3
100
AcDbEntity
8
0
100
AcDbCircle
62
7
6
CONTINUOUS
10
90.0002691374
20
-39.8575992824
40
15.0000000000
100
AcDbArc
50
270.0000000011
51
275.5032574537
0
ARC
5
3B4
100
AcDbEntity
8
0
100
AcDbCircle
62
7
6
CONTINUOUS
10
182.0002691374
20
-39.8574402057
40
15.0001230074
100
AcDbArc
50
264.4983768327
51
270.0000000000
0
ARC
5
3B5
100
AcDbEntity
8
0
100
AcDbCircle
62
7
6
CONTINUOUS
10
182.0002691374
20
-93.8575992824
40
15.0000000000
100
AcDbArc
50
89.9274070336
51
95.5032569292
0
SPLINE
5
3B6
100
AcDbEntity
8
0
100
AcDbSpline
62
7
6
CONTINUOUS
70
0
71
3
72
14
73
10
74
8
42
0.0000001000
43
0.0000001000
44
0.0000000001
40
0.0000000000
40
0.0000000000
40
0.0000000000
40
0.0000000000
40
0.1787801732
40
0.3377216808
40
0.4842317739
40
0.6221032071
40
0.7538933061
40
0.8801213615
40
1.0000000000
40
1.0000000000
40
1.0000000000
40
1.0000000000
10
105.0002691374
20
193.6762904711
30
0.0000000000
10
105.0002691038
20
193.4903131894
30
0.0000000000
10
104.9925853546
20
193.1389411804
30
0.0000000000
10
104.9602664782
20
192.6361275134
30
0.0000000000
10
104.9130266903
20
192.1772790141
30
0.0000000000
10
104.8537645204
20
191.7483512235
30
0.0000000000
10
104.7846957490
20
191.3422966317
30
0.0000000000
10
104.7082733132
20
190.9566502265
30
0.0000000000
10
104.6534293617
20
190.7065642988
30
0.0000000000
10
104.6257306981
20
190.5849747762
30
0.0000000000
11
105.0002691374
21
193.6762904711
31
0.0000000000
11
104.9879706479
21
193.1184941903
31
0.0000000000
11
104.9561438032
21
192.6234963916
31
0.0000000000
11
104.9094009539
21
192.1686676299
31
0.0000000000
11
104.8506381809
21
191.7424341680
31
0.0000000000
11
104.7818562693
21
191.3369397386
31
0.0000000000
11
104.7056545839
21
190.9504514844
31
0.0000000000
11
104.6257306981
21
190.5849747762
31
0.0000000000
0
SPLINE
5
3B7
100
AcDbEntity
8
0
100
AcDbSpline
62
7
6
CONTINUOUS
70
0
71
3
72
14
73
10
74
8
42
0.0000001000
43
0.0000001000
44
0.0000000001
40
0.0000000000
40
0.0000000000
40
0.0000000000
40
0.0000000000
40
0.1199523358
40
0.2462661031
40
0.3781308970
40
0.5160656440
40
0.6625681638
40
0.8214226360
40
1.0000000000
40
1.0000000000
40
1.0000000000
40
1.0000000000
10
167.3748093381
20
190.5849769892
30
0.0000000000
10
167.3470945683
20
190.7066388936
30
0.0000000000
10
167.2922206674
20
190.9568827613
30
0.0000000000
10
167.2157581161
20
191.3427614463
30
0.0000000000
10
167.1466655843
20
191.7490397747
30
0.0000000000
10
167.0874097644
20
192.1780967459
30
0.0000000000
10
167.0402061278
20
192.6369069078
30
0.0000000000
10
167.0079376841
20
193.1394034288
30
0.0000000000
10
167.0002691719
20
193.4904666718
30
0.0000000000
10
167.0002691374
20
193.6762292389
30
0.0000000000
11
167.3748093381
21
190.5849769892
31
0.0000000000
11
167.2948424248
21
190.9506719986
31
0.0000000000
11
167.2185977256
21
191.3374163175
31
0.0000000000
11
167.1497923622
21
191.7431347983
31
0.0000000000
11
167.0910275716
21
192.1695586874
31
0.0000000000
11
167.0443192370
21
192.6243579805
31
0.0000000000
11
167.0125398274
21
193.1190766457
31
0.0000000000
11
167.0002691374
21
193.6762292389
31
0.0000000000
0
SPLINE
5
3B8
100
AcDbEntity
8
0
100
AcDbSpline
62
7
6
CONTINUOUS
70
0
71
3
72
14
73
10
74
8
42
0.0000001000
43
0.0000001000
44
0.0000000001
40
0.0000000000
40
0.0000000000
40
0.0000000000
40
0.0000000000
40
0.0600131952
40
0.1441766399
40
0.2619317747
40
0.4124199726
40
0.5907725024
40
0.7896336614
40
1.0000000000
40
1.0000000000
40
1.0000000000
40
1.0000000000
10
89.2274540870
20
92.9961361934
30
0.0000000000
10
89.5839514695
20
92.9965247664
30
0.0000000000
10
90.4244075656
20
93.4074120814
30
0.0000000000
10
91.2909621366
20
94.7294823197
30
0.0000000000
10
92.0958791036
20
96.6663318257
30
0.0000000000
10
92.7641320577
20
99.2417888580
30
0.0000000000
10
93.2805569823
20
102.3361612876
30
0.0000000000
10
93.6041018098
20
105.8146706481
30
0.0000000000
10
93.6774005416
20
108.2463979073
30
0.0000000000
10
93.6774005416
20
109.4961359567
30
0.0000000000
11
89.2274540870
21
92.9961361934
31
0.0000000000
11
90.2206511272
21
93.3934807903
31
0.0000000000
11
91.1438978730
21
94.5756721919
31
0.0000000000
11
91.9803948762
21
96.5004273504
31
0.0000000000
11
92.6867851102
21
99.0877794365
31
0.0000000000
11
93.2243951001
21
102.2206403472
31
0.0000000000
11
93.5618642554
21
105.7487024222
31
0.0000000000
11
93.6774005416
21
109.4961359567
31
0.0000000000
0
SPLINE
5
3B9
100
AcDbEntity
8
0
100
AcDbSpline
62
7
6
CONTINUOUS
70
0
71
3
72
14
73
10
74
8
42
0.0000001000
43
0.0000001000
44
0.0000000001
40
0.0000000000
40
0.0000000000
40
0.0000000000
40
0.0000000000
40
0.0599128912
40
0.1440853168
40
0.2618530170
40
0.4123572732
40
0.5907288346
40
0.7896112136
40
1.0000000000
40
1.0000000000
40
1.0000000000
40
1.0000000000
10
182.7710318318
20
92.9961379423
30
0.0000000000
10
182.4151683897
20
92.9965072609
30
0.0000000000
10
181.5758919403
20
93.4083598435
30
0.0000000000
10
180.7095260974
20
94.7293030308
30
0.0000000000
10
179.9046790318
20
96.6664029833
30
0.0000000000
10
179.2363991712
20
99.2417636136
30
0.0000000000
10
178.7199835787
20
102.3361694785
30
0.0000000000
10
178.3964357393
20
105.8146680479
30
0.0000000000
10
178.3231377331
20
108.2463979072
30
0.0000000000
10
178.3231377331
20
109.4961359567
30
0.0000000000
11
182.7710318318
21
92.9961379423
31
0.0000000000
11
181.7798871477
21
93.3934807901
31
0.0000000000
11
180.8566404018
21
94.5756721917
31
0.0000000000
11
180.0201433986
21
96.5004273502
31
0.0000000000
11
179.3137531646
21
99.0877794363
31
0.0000000000
11
178.7761431747
21
102.2206403469
31
0.0000000000
11
178.4386740193
21
105.7487024220
31
0.0000000000
11
178.3231377331
21
109.4961359567
31
0.0000000000
0
SPLINE
5
3BA
100
AcDbEntity
8
0
100
AcDbSpline
62
7
6
CONTINUOUS
70
0
71
3
72
10
73
6
74
4
42
0.0000001000
43
0.0000001000
44
0.0000000001
40
0.0000000000
40
0.0000000000
40
0.0000000000
40
0.0000000000
40
0.3344145183
40
0.6677370902
40
1.0000000000
40
1.0000000000
40
1.0000000000
40
1.0000000000
10
188.1002691490
20
93.0264668647
30
0.0000000000
10
188.8123009675
20
93.0264668647
30
0.0000000000
10
190.2340426670
20
93.0215524389
30
0.0000000000
10
192.3631585940
20
93.0045167112
30
0.0000000000
10
193.7803062697
20
92.9961359567
30
0.0000000000
10
194.4877569064
20
92.9961359567
30
0.0000000000
11
188.1002691490
21
93.0264668647
31
0.0000000000
11
190.2363545835
21
93.0199238749
31
0.0000000000
11
192.3654245249
21
93.0052405102
31
0.0000000000
11
194.4877569064
21
92.9961359567
31
0.0000000000
0
SPLINE
5
3BB
100
AcDbEntity
8
0
100
AcDbSpline
62
7
6
CONTINUOUS
70
0
71
3
72
8
73
4
74
2
42
0.0000001000
43
0.0000001000
44
0.0000000001
40
0.0000000000
40
0.0000000000
40
0.0000000000
40
0.0000000000
40
1.0000000000
40
1.0000000000
40
1.0000000000
40
1.0000000000
10
310.3697874891
20
159.8316368956
30
0.0000000000
10
310.4241403001
20
159.9922155060
30
0.0000000000
10
310.4841963472
20
160.1508060722
30
0.0000000000
10
310.5497789788
20
160.3070448309
30
0.0000000000
11
310.3697874891
21
159.8316368956
31
0.0000000000
11
310.5497789788
21
160.3070448309
31
0.0000000000
0
SPLINE
5
3BC
100
AcDbEntity
8
0
100
AcDbSpline
62
7
6
CONTINUOUS
70
0
71
3
72
8
73
4
74
2
42
0.0000001000
43
0.0000001000
44
0.0000000001
40
0.0000000000
40
0.0000000000
40
0.0000000000
40
0.0000000000
40
1.0000000000
40
1.0000000000
40
1.0000000000
40
1.0000000000
10
311.0575168677
20
161.2945725274
30
0.0000000000
10
311.2342090185
20
161.5811644915
30
0.0000000000
10
311.4312021451
20
161.8553228809
30
0.0000000000
10
311.6471569410
20
162.1137531330
30
0.0000000000
11
311.0575168677
21
161.2945725274
31
0.0000000000
11
311.6471569410
21
162.1137531330
31
0.0000000000
0
SPLINE
5
3BD
100
AcDbEntity
8
0
100
AcDbSpline
62
7
6
CONTINUOUS
70
0
71
3
72
8
73
4
74
2
42
0.0000001000
43
0.0000001000
44
0.0000000001
40
0.0000000000
40
0.0000000000
40
0.0000000000
40
0.0000000000
40
1.0000000000
40
1.0000000000
40
1.0000000000
40
1.0000000000
10
311.6471569410
20
162.1137531330
30
0.0000000000
10
311.8998791696
20
162.4161824865
30
0.0000000000
10
312.1785693529
20
162.6970721985
30
0.0000000000
10
312.4810810356
20
162.9511422010
30
0.0000000000
11
311.6471569410
21
162.1137531330
31
0.0000000000
11
312.4810810356
21
162.9511422010
31
0.0000000000
0
SPLINE
5
3BE
100
AcDbEntity
8
0
100
AcDbSpline
62
7
6
CONTINUOUS
70
0
71
3
72
8
73
4
74
2
42
0.0000001000
43
0.0000001000
44
0.0000000001
40
0.0000000000
40
0.0000000000
40
0.0000000000
40
0.0000000000
40
1.0000000000
40
1.0000000000
40
1.0000000000
40
1.0000000000
10
312.8947740108
20
163.2709664419
30
0.0000000000
10
313.0371410393
20
163.3720011459
30
0.0000000000
10
313.1836671530
20
163.4671027249
30
0.0000000000
10
313.3338634227
20
163.5555631253
30
0.0000000000
11
312.8947740108
21
163.2709664419
31
0.0000000000
11
313.3338634227
21
163.5555631253
31
0.0000000000
0
SPLINE
5
3BF
100
AcDbEntity
8
0
100
AcDbSpline
62
7
6
CONTINUOUS
70
0
71
3
72
8
73
4
74
2
42
0.0000001000
43
0.0000001000
44
0.0000000001
40
0.0000000000
40
0.0000000000
40
0.0000000000
40
0.0000000000
40
1.0000000000
40
1.0000000000
40
1.0000000000
40
1.0000000000
10
313.3338634227
20
163.5555631253
30
0.0000000000
10
313.4753926277
20
163.6389189247
30
0.0000000000
10
313.6201806376
20
163.7163778888
30
0.0000000000
10
313.7678183740
20
163.7873476014
30
0.0000000000
11
313.3338634227
21
163.5555631253
31
0.0000000000
11
313.7678183740
21
163.7873476014
31
0.0000000000
0
SPLINE
5
3C0
100
AcDbEntity
8
0
100
AcDbSpline
62
7
6
CONTINUOUS
70
0
71
3
72
11
73
7
74
5
42
0.0000001000
43
0.0000001000
44
0.0000000001
40
0.0000000000
40
0.0000000000
40
0.0000000000
40
0.0000000000
40
0.2352647318
40
0.5460951164
40
0.8590558431
40
1.0000000000
40
1.0000000000
40
1.0000000000
40
1.0000000000
10
276.0879640617
20
163.8522299977
30
0.0000000000
10
276.5978128334
20
163.6241313898
30
0.0000000000
10
277.7076696230
20
162.9141959079
30
0.0000000000
10
279.0471177275
20
161.3379692565
30
0.0000000000
10
279.7556818969
20
159.6399171890
30
0.0000000000
10
279.9359256035
20
158.5698231649
30
0.0000000000
10
279.9674890885
20
158.2356957353
30
0.0000000000
11
276.0879640617
21
163.8522299977
31
0.0000000000
11
277.5061384783
21
162.9582267559
31
0.0000000000
11
278.9458066993
21
161.2821533766
31
0.0000000000
11
279.8008173314
21
159.2283835461
31
0.0000000000
11
279.9674890885
21
158.2356957353
31
0.0000000000
0
SPLINE
5
3C1
100
AcDbEntity
8
0
100
AcDbSpline
62
7
6
CONTINUOUS
70
0
71
3
72
8
73
4
74
2
42
0.0000001000
43
0.0000001000
44
0.0000000001
40
0.0000000000
40
0.0000000000
40
0.0000000000
40
0.0000000000
40
1.0000000000
40
1.0000000000
40
1.0000000000
40
1.0000000000
10
279.9674890885
20
158.2356957353
30
0.0000000000
10
279.9698631779
20
158.2105638981
30
0.0000000000
10
279.9720991969
20
158.1854216089
30
0.0000000000
10
279.9741966209
20
158.1602706345
30
0.0000000000
11
279.9674890885
21
158.2356957353
31
0.0000000000
11
279.9741966209
21
158.1602706345
31
0.0000000000
0
SPLINE
5
3C2
100
AcDbEntity
8
0
100
AcDbSpline
62
7
6
CONTINUOUS
70
0
71
3
72
8
73
4
74
2
42
0.0000001000
43
0.0000001000
44
0.0000000001
40
0.0000000000
40
0.0000000000
40
0.0000000000
40
0.0000000000
40
1.0000000000
40
1.0000000000
40
1.0000000000
40
1.0000000000
10
279.9741966209
20
158.1602706345
30
0.0000000000
10
279.9897307143
20
157.9739956659
30
0.0000000000
10
279.9976624702
20
157.7872442923
30
0.0000000000
10
279.9977786931
20
157.6007343118
30
0.0000000000
11
279.9741966209
21
158.1602706345
31
0.0000000000
11
279.9977786931
21
157.6007343118
31
0.0000000000
0
SPLINE
5
3C3
100
AcDbEntity
8
0
100
AcDbSpline
62
7
6
CONTINUOUS
70
0
71
3
72
8
73
4
74
2
42
0.0000001000
43
0.0000001000
44
0.0000000001
40
0.0000000000
40
0.0000000000
40
0.0000000000
40
0.0000000000
40
1.0000000000
40
1.0000000000
40
1.0000000000
40
1.0000000000
10
309.9979976231
20
157.6019368894
30
0.0000000000
10
309.9981510147
20
157.7987649898
30
0.0000000000
10
310.0070083515
20
157.9958703762
30
0.0000000000
10
310.0243185927
20
158.1924053503
30
0.0000000000
11
309.9979976231
21
157.6019368894
31
0.0000000000
11
310.0243185927
21
158.1924053503
31
0.0000000000
0
SPLINE
5
3C4
100
AcDbEntity
8
0
100
AcDbSpline
62
7
6
CONTINUOUS
70
0
71
3
72
8
73
4
74
2
42
0.0000001000
43
0.0000001000
44
0.0000000001
40
0.0000000000
40
0.0000000000
40
0.0000000000
40
0.0000000000
40
1.0000000000
40
1.0000000000
40
1.0000000000
40
1.0000000000
10
310.0243185927
20
158.1924053503
30
0.0000000000
10
310.0255476182
20
158.2063593150
30
0.0000000000
10
310.0268192547
20
158.2203104042
30
0.0000000000
10
310.0281334123
20
158.2342583146
30
0.0000000000
11
310.0243185927
21
158.1924053503
31
0.0000000000
11
310.0281334123
21
158.2342583146
31
0.0000000000
0
SPLINE
5
3C5
100
AcDbEntity
8
0
100
AcDbSpline
62
7
6
CONTINUOUS
70
0
71
3
72
11
73
7
74
5
42
0.0000001000
43
0.0000001000
44
0.0000000001
40
0.0000000000
40
0.0000000000
40
0.0000000000
40
0.0000000000
40
0.1480269072
40
0.4573522817
40
0.7627414522
40
1.0000000000
40
1.0000000000
40
1.0000000000
40
1.0000000000
10
310.0281334123
20
158.2342583146
30
0.0000000000
10
310.0612003318
20
158.5852165456
30
0.0000000000
10
310.2465435716
20
159.6633385943
30
0.0000000000
10
310.9614509087
20
161.3523685284
30
0.0000000000
10
312.2896078542
20
162.9136448698
30
0.0000000000
10
313.3915600084
20
163.6210394073
30
0.0000000000
10
313.9055894728
20
163.8512955510
30
0.0000000000
11
310.0281334123
21
158.2342583146
31
0.0000000000
11
310.2066669323
21
159.2762617464
31
0.0000000000
11
311.0618992158
21
161.3016444398
31
0.0000000000
11
312.4769001602
21
162.9475897859
31
0.0000000000
11
313.9055894728
21
163.8512955510
31
0.0000000000
0
SPLINE
5
3C6
100
AcDbEntity
8
0
100
AcDbSpline
62
7
6
CONTINUOUS
70
0
71
3
72
11
73
7
74
5
42
0.0000001000
43
0.0000001000
44
0.0000000001
40
0.0000000000
40
0.0000000000
40
0.0000000000
40
0.0000000000
40
0.1999405336
40
0.4433735065
40
0.7176249905
40
1.0000000000
40
1.0000000000
40
1.0000000000
40
1.0000000000
10
105.0002691374
20
-102.9351002832
30
0.0000000000
10
105.0002691374
20
-103.1658655346
30
0.0000000000
10
105.0089792004
20
-103.6775599346
30
0.0000000000
10
105.0269048909
20
-104.5056088649
30
0.0000000000
10
105.0405814071
20
-105.4289329480
30
0.0000000000
10
105.0419258776
20
-106.0713951380
30
0.0000000000
10
105.0404231204
20
-106.3973002767
30
0.0000000000
11
105.0002691374
21
-102.9351002832
31
0.0000000000
11
105.0086057448
21
-103.6273458409
31
0.0000000000
11
105.0252324905
21
-104.4700705217
31
0.0000000000
11
105.0384590502
21
-105.4195764395
31
0.0000000000
11
105.0404231204
21
-106.3973002767
31
0.0000000000
0
SPLINE
5
3C7
100
AcDbEntity
8
0
100
AcDbSpline
62
7
6
CONTINUOUS
70
0
71
3
72
8
73
4
74
2
42
0.0000001000
43
0.0000001000
44
0.0000000001
40
0.0000000000
40
0.0000000000
40
0.0000000000
40
0.0000000000
40
1.0000000000
40
1.0000000000
40
1.0000000000
40
1.0000000000
10
102.2344345541
20
-48.6949835887
30
0.0000000000
10
102.2054114257
20
-48.7339460859
30
0.0000000000
10
102.1761937773
20
-48.7727699799
30
0.0000000000
10
102.1467837115
20
-48.8114535042
30
0.0000000000
11
102.2344345541
21
-48.6949835887
31
0.0000000000
11
102.1467837115
21
-48.8114535042
31
0.0000000000
0
SPLINE
5
3C8
100
AcDbEntity
8
0
100
AcDbSpline
62
7
6
CONTINUOUS
70
0
71
3
72
12
73
8
74
6
42
0.0000001000
43
0.0000001000
44
0.0000000001
40
0.0000000000
40
0.0000000000
40
0.0000000000
40
0.0000000000
40
0.1776796947
40
0.4004627208
40
0.6195842557
40
0.8333269474
40
1.0000000000
40
1.0000000000
40
1.0000000000
40
1.0000000000
10
102.1467837115
20
-48.8114535042
30
0.0000000000
10
101.6969222106
20
-49.4031634477
30
0.0000000000
10
100.5815343818
20
-50.6627643500
30
0.0000000000
10
98.5611517348
20
-52.3037803198
30
0.0000000000
10
96.1485168374
20
-53.6341580695
30
0.0000000000
10
93.7640457736
20
-54.4438450201
30
0.0000000000
10
92.1898914927
20
-54.7131623377
30
0.0000000000
10
91.4962548860
20
-54.7827494873
30
0.0000000000
11
102.1467837115
21
-48.8114535042
31
0.0000000000
11
100.6696632508
21
-50.4817342105
31
0.0000000000
11
98.5021627171
21
-52.2439026121
31
0.0000000000
11
96.0957345499
21
-53.5698020475
31
0.0000000000
11
93.5575300354
21
-54.4302448631
31
0.0000000000
11
91.4962548860
21
-54.7827494873
31
0.0000000000
0
SPLINE
5
3C9
100
AcDbEntity
8
0
100
AcDbSpline
62
7
6
CONTINUOUS
70
0
71
3
72
11
73
7
74
5
42
0.0000001000
43
0.0000001000
44
0.0000000001
40
0.0000000000
40
0.0000000000
40
0.0000000000
40
0.0000000000
40
0.1749968481
40
0.4266634804
40
0.7191240289
40
1.0000000000
40
1.0000000000
40
1.0000000000
40
1.0000000000
10
105.0005646479
20
-41.2484438024
30
0.0000000000
10
105.0007202955
20
-41.7186347951
30
0.0000000000
10
104.8943211977
20
-42.8663724478
30
0.0000000000
10
104.4111611033
20
-44.7450763778
30
0.0000000000
10
103.5172942124
20
-46.7834552578
30
0.0000000000
10
102.6859868275
20
-48.0885550224
30
0.0000000000
10
102.2351606793
20
-48.6940268992
30
0.0000000000
11
105.0005646479
21
-41.2484438024
31
0.0000000000
11
104.8831157618
21
-42.6545629001
31
0.0000000000
11
104.3906596920
21
-44.6220046434
31
0.0000000000
11
103.4500699906
21
-46.7830720532
31
0.0000000000
11
102.2351606793
21
-48.6940268992
31
0.0000000000
0
SPLINE
5
3CA
100
AcDbEntity
8
0
100
AcDbSpline
62
7
6
CONTINUOUS
70
0
71
3
72
11
73
7
74
5
42
0.0000001000
43
0.0000001000
44
0.0000000001
40
0.0000000000
40
0.0000000000
40
0.0000000000
40
0.0000000000
40
0.2225546542
40
0.4891483098
40
0.7627398231
40
1.0000000000
40
1.0000000000
40
1.0000000000
40
1.0000000000
10
180.5641340146
20
-54.7886192833
30
0.0000000000
10
179.6337620952
20
-54.6989890206
30
0.0000000000
10
177.6025489428
20
-54.3100783349
30
0.0000000000
10
174.6222412477
20
-53.0756346551
30
0.0000000000
10
171.9308471530
20
-51.1865306230
30
0.0000000000
10
170.4567153333
20
-49.6045237874
30
0.0000000000
10
169.8535103260
20
-48.8111518009
30
0.0000000000
11
180.5641340146
21
-54.7886192833
31
0.0000000000
11
177.8102497014
21
-54.2617206699
31
0.0000000000
11
174.7082025844
21
-52.9801973151
31
0.0000000000
11
171.8895023557
21
-51.0005300284
31
0.0000000000
11
169.8535103260
21
-48.8111518009
31
0.0000000000
0
SPLINE
5
3CB
100
AcDbEntity
8
0
100
AcDbSpline
62
7
6
CONTINUOUS
70
0
71
3
72
8
73
4
74
2
42
0.0000001000
43
0.0000001000
44
0.0000000001
40
0.0000000000
40
0.0000000000
40
0.0000000000
40
0.0000000000
40
1.0000000000
40
1.0000000000
40
1.0000000000
40
1.0000000000
10
169.8535103260
20
-48.8111518009
30
0.0000000000
10
169.8242298434
20
-48.7726403258
30
0.0000000000
10
169.7951412594
20
-48.7339907161
30
0.0000000000
10
169.7662466268
20
-48.6952046721
30
0.0000000000
11
169.8535103260
21
-48.8111518009
31
0.0000000000
11
169.7662466268
21
-48.6952046721
31
0.0000000000
0
SPLINE
5
3CC
100
AcDbEntity
8
0
100
AcDbSpline
62
7
6
CONTINUOUS
70
0
71
3
72
11
73
7
74
5
42
0.0000001000
43
0.0000001000
44
0.0000000001
40
0.0000000000
40
0.0000000000
40
0.0000000000
40
0.0000000000
40
0.2778467764
40
0.5709800916
40
0.8233838035
40
1.0000000000
40
1.0000000000
40
1.0000000000
40
1.0000000000
10
169.7653262687
20
-48.6939921037
30
0.0000000000
10
169.3197856395
20
-48.0956217367
30
0.0000000000
10
168.4916830537
20
-46.7979586174
30
0.0000000000
10
167.5969672690
20
-44.7671290010
30
0.0000000000
10
167.1090006510
20
-42.8832286203
30
0.0000000000
10
167.0003390671
20
-41.7304472921
30
0.0000000000
10
166.9999799104
20
-41.2563815085
30
0.0000000000
11
169.7653262687
21
-48.6939921037
31
0.0000000000
11
168.5630250937
21
-46.8065045481
31
0.0000000000
11
167.6174331875
21
-44.6442608136
31
0.0000000000
11
167.1205195762
21
-42.6738947781
31
0.0000000000
11
166.9999799104
21
-41.2563815085
31
0.0000000000
0
SPLINE
5
3CD
100
AcDbEntity
8
0
100
AcDbSpline
62
7
6
CONTINUOUS
70
0
71
3
72
15
73
11
74
9
42
0.0000001000
43
0.0000001000
44
0.0000000001
40
0.0000000000
40
0.0000000000
40
0.0000000000
40
0.0000000000
40
0.0870114838
40
0.1848066097
40
0.2906306971
40
0.4064917732
40
0.5341520612
40
0.6750018032
40
0.8299930270
40
1.0000000000
40
1.0000000000
40
1.0000000000
40
1.0000000000
10
91.5020426432
20
-78.9329730830
30
0.0000000000
10
91.8641719262
20
-78.9694257147
30
0.0000000000
10
92.6307802262
20
-79.0747932447
30
0.0000000000
10
93.8200533271
20
-79.3326184450
30
0.0000000000
10
95.0992646796
20
-79.7248455139
30
0.0000000000
10
96.4537827833
20
-80.2786855553
30
0.0000000000
10
97.8773235059
20
-81.0319102066
30
0.0000000000
10
99.3479048494
20
-82.0263223551
30
0.0000000000
10
100.8245239292
20
-83.3049628127
30
0.0000000000
10
101.7282269321
20
-84.3278311204
30
0.0000000000
10
102.1592865025
20
-84.8933721693
30
0.0000000000
11
91.5020426432
21
-78.9329730830
31
0.0000000000
11
92.5837487147
21
-79.0816304203
31
0.0000000000
11
93.7830649829
21
-79.3414926498
31
0.0000000000
11
95.0526739640
21
-79.7305908393
31
0.0000000000
11
96.3984562210
21
-80.2806102849
31
0.0000000000
11
97.8144477479
21
-81.0296403449
31
0.0000000000
11
99.2785013764
21
-82.0197182534
31
0.0000000000
11
100.7481671143
21
-83.2935023765
31
0.0000000000
11
102.1592865025
21
-84.8933721693
31
0.0000000000
0
SPLINE
5
3CE
100
AcDbEntity
8
0
100
AcDbSpline
62
7
6
CONTINUOUS
70
0
71
3
72
12
73
8
74
6
42
0.0000001000
43
0.0000001000
44
0.0000000001
40
0.0000000000
40
0.0000000000
40
0.0000000000
40
0.0000000000
40
0.1637178666
40
0.3771730101
40
0.5958925133
40
0.8186268100
40
1.0000000000
40
1.0000000000
40
1.0000000000
40
1.0000000000
10
91.5021028909
20
-78.9330103409
30
0.0000000000
10
92.1831205780
20
-79.0016068493
30
0.0000000000
10
93.7431996956
20
-79.2671194859
30
0.0000000000
10
96.1137905011
20
-80.0661158892
30
0.0000000000
10
98.5260087079
20
-81.3879223478
30
0.0000000000
10
100.5606324863
20
-83.0309733439
30
0.0000000000
10
101.6875743256
20
-84.2999873173
30
0.0000000000
10
102.1465212571
20
-84.9036956535
30
0.0000000000
11
91.5021028909
21
-78.9330103409
31
0.0000000000
11
93.5262443859
21
-79.2773665216
31
0.0000000000
11
96.0617538971
21
-80.1304807713
31
0.0000000000
11
98.4660835043
21
-81.4469783621
31
0.0000000000
11
100.6370624353
21
-83.2017433766
31
0.0000000000
11
102.1465212571
21
-84.9036956535
31
0.0000000000
0
SPLINE
5
3CF
100
AcDbEntity
8
0
100
AcDbSpline
62
7
6
CONTINUOUS
70
0
71
3
72
8
73
4
74
2
42
0.0000001000
43
0.0000001000
44
0.0000000001
40
0.0000000000
40
0.0000000000
40
0.0000000000
40
0.0000000000
40
1.0000000000
40
1.0000000000
40
1.0000000000
40
1.0000000000
10
102.1465212571
20
-84.9036956535
30
0.0000000000
10
102.1759165443
20
-84.9423628254
30
0.0000000000
10
102.2051196301
20
-84.9811700682
30
0.0000000000
10
102.2341284291
20
-85.0201156111
30
0.0000000000
11
102.1465212571
21
-84.9036956535
31
0.0000000000
11
102.2341284291
21
-85.0201156111
31
0.0000000000
0
SPLINE
5
3D0
100
AcDbEntity
8
0
100
AcDbSpline
62
7
6
CONTINUOUS
70
0
71
3
72
11
73
7
74
5
42
0.0000001000
43
0.0000001000
44
0.0000000001
40
0.0000000000
40
0.0000000000
40
0.0000000000
40
0.0000000000
40
0.2738304739
40
0.5662130541
40
0.8203049061
40
1.0000000000
40
1.0000000000
40
1.0000000000
40
1.0000000000
10
102.2349490701
20
-85.0211898523
30
0.0000000000
10
102.6740947932
20
-85.6109792657
30
0.0000000000
10
103.4966061999
20
-86.8969174922
30
0.0000000000
10
104.3935855153
20
-88.9179470334
30
0.0000000000
10
104.8886045109
20
-90.8115103642
30
0.0000000000
10
104.9999876908
20
-91.9772672339
30
0.0000000000
10
105.0003383144
20
-92.4596576945
30
0.0000000000
11
102.2349490701
21
-85.0211898523
31
0.0000000000
11
103.4220901163
21
-86.8802936860
31
0.0000000000
11
104.3710377609
21
-89.0347892615
31
0.0000000000
11
104.8760773381
21
-91.0173832607
31
0.0000000000
11
105.0003383144
21
-92.4596576945
31
0.0000000000
0
SPLINE
5
3D1
100
AcDbEntity
8
0
100
AcDbSpline
62
7
6
CONTINUOUS
70
0
71
3
72
8
73
4
74
2
42
0.0000001000
43
0.0000001000
44
0.0000000001
40
0.0000000000
40
0.0000000000
40
0.0000000000
40
0.0000000000
40
1.0000000000
40
1.0000000000
40
1.0000000000
40
1.0000000000
10
169.7664348980
20
-85.0200862075
30
0.0000000000
10
169.7954436984
20
-84.9811413769
30
0.0000000000
10
169.8246466906
20
-84.9423348798
30
0.0000000000
10
169.8540417887
20
-84.9036684914
30
0.0000000000
11
169.7664348980
21
-85.0200862075
31
0.0000000000
11
169.8540417887
21
-84.9036684914
31
0.0000000000
0
SPLINE
5
3D2
100
AcDbEntity
8
0
100
AcDbSpline
62
7
6
CONTINUOUS
70
0
71
3
72
8
73
4
74
2
42
0.0000001000
43
0.0000001000
44
0.0000000001
40
0.0000000000
40
0.0000000000
40
0.0000000000
40
0.0000000000
40
1.0000000000
40
1.0000000000
40
1.0000000000
40
1.0000000000
10
169.8540417887
20
-84.9036684914
30
0.0000000000
10
170.0206088286
20
-84.6845657740
30
0.0000000000
10
170.1933442212
20
-84.4699618212
30
0.0000000000
10
170.3718684693
20
-84.2601796252
30
0.0000000000
11
169.8540417887
21
-84.9036684914
31
0.0000000000
11
170.3718684693
21
-84.2601796252
31
0.0000000000
0
SPLINE
5
3D3
100
AcDbEntity
8
0
100
AcDbSpline
62
7
6
CONTINUOUS
70
0
71
3
72
12
73
8
74
6
42
0.0000001000
43
0.0000001000
44
0.0000000001
40
0.0000000000
40
0.0000000000
40
0.0000000000
40
0.0000000000
40
0.1198024084
40
0.3568903018
40
0.5897314219
40
0.8170204068
40
1.0000000000
40
1.0000000000
40
1.0000000000
40
1.0000000000
10
170.3718684693
20
-84.2601796252
30
0.0000000000
10
170.6770015317
20
-83.9016205804
30
0.0000000000
10
171.6363687846
20
-82.8754386323
30
0.0000000000
10
173.4418463470
20
-81.4099689282
30
0.0000000000
10
175.8500362914
20
-80.0823289934
30
0.0000000000
10
178.2504485936
20
-79.2662377202
30
0.0000000000
10
179.8446246270
20
-78.9960383061
30
0.0000000000
10
180.5595916909
20
-78.9269770036
30
0.0000000000
11
170.3718684693
21
-84.2601796252
31
0.0000000000
11
171.3361066454
21
-83.2283734155
31
0.0000000000
11
173.5017937499
21
-81.4688861472
31
0.0000000000
11
175.9020288693
21
-80.1466015962
31
0.0000000000
11
178.4351219820
21
-79.2868687444
31
0.0000000000
11
180.5595916909
21
-78.9269770036
31
0.0000000000
0
SPLINE
5
3D4
100
AcDbEntity
8
0
100
AcDbSpline
62
7
6
CONTINUOUS
70
0
71
3
72
11
73
7
74
5
42
0.0000001000
43
0.0000001000
44
0.0000000001
40
0.0000000000
40
0.0000000000
40
0.0000000000
40
0.0000000000
40
0.1778454523
40
0.4311639552
40
0.7229345740
40
1.0000000000
40
1.0000000000
40
1.0000000000
40
1.0000000000
10
167.0001896316
20
-92.4666680883
30
0.0000000000
10
167.0000809309
20
-91.9888188551
30
0.0000000000
10
167.1090950152
20
-90.8289552760
30
0.0000000000
10
167.5988571788
20
-88.9412672302
30
0.0000000000
10
168.4949355809
20
-86.9122621698
30
0.0000000000
10
169.3209065001
20
-85.6184170790
30
0.0000000000
10
169.7656133908
20
-85.0211608356
30
0.0000000000
11
167.0001896316
21
-92.4666680883
31
0.0000000000
11
167.1211621491
21
-91.0377734942
31
0.0000000000
11
167.6213627536
21
-89.0585335209
31
0.0000000000
11
168.5651569659
21
-86.9049091998
31
0.0000000000
11
169.7656133908
21
-85.0211608356
31
0.0000000000
0
SPLINE
5
3D5
100
AcDbEntity
8
0
100
AcDbSpline
62
7
6
CONTINUOUS
70
0
71
3
72
11
73
7
74
5
42
0.0000001000
43
0.0000001000
44
0.0000000001
40
0.0000000000
40
0.0000000000
40
0.0000000000
40
0.0000000000
40
0.2823750095
40
0.5566264935
40
0.8000594664
40
1.0000000000
40
1.0000000000
40
1.0000000000
40
1.0000000000
10
166.9601151543
20
-106.3973002767
30
0.0000000000
10
166.9586123971
20
-106.0713951380
30
0.0000000000
10
166.9599568676
20
-105.4289329480
30
0.0000000000
10
166.9736333839
20
-104.5056088649
30
0.0000000000
10
166.9915590744
20
-103.6775599346
30
0.0000000000
10
167.0002691374
20
-103.1658655346
30
0.0000000000
10
167.0002691374
20
-102.9351002832
30
0.0000000000
11
166.9601151543
21
-106.3973002767
31
0.0000000000
11
166.9620792245
21
-105.4195764395
31
0.0000000000
11
166.9753057842
21
-104.4700705217
31
0.0000000000
11
166.9919325300
21
-103.6273458409
31
0.0000000000
11
167.0002691374
21
-102.9351002832
31
0.0000000000
0
SPLINE
5
3D6
100
AcDbEntity
8
0
100
AcDbSpline
62
7
6
CONTINUOUS
70
0
71
3
72
15
73
11
74
9
42
0.0000001000
43
0.0000001000
44
0.0000000001
40
0.0000000000
40
0.0000000000
40
0.0000000000
40
0.0000000000
40
0.1714772260
40
0.3272843572
40
0.4684494461
40
0.5960041587
40
0.7114351424
40
0.8166070208
40
0.9136287097
40
1.0000000000
40
1.0000000000
40
1.0000000000
40
1.0000000000
10
102.1595825804
20
-48.8217614609
30
0.0000000000
10
101.7246380479
20
-49.3925104873
30
0.0000000000
10
100.8133411885
20
-50.4225281593
30
0.0000000000
10
99.3254795839
20
-51.7063634854
30
0.0000000000
10
97.8485100506
20
-52.7005604387
30
0.0000000000
10
96.4234390772
20
-53.4505751758
30
0.0000000000
10
95.0717362869
20
-53.9999808813
30
0.0000000000
10
93.7986849438
20
-54.3879149765
30
0.0000000000
10
92.6170053948
20
-54.6426122761
30
0.0000000000
10
91.8558363302
20
-54.7467246265
30
0.0000000000
10
91.4961836018
20
-54.7827839810
30
0.0000000000
11
102.1595825804
21
-48.8217614609
31
0.0000000000
11
100.7345153189
21
-50.4353178055
31
0.0000000000
11
99.2542095681
21
-51.7138990008
31
0.0000000000
11
97.7840597216
21
-52.7035503802
31
0.0000000000
11
96.3668948451
21
-53.4491785909
31
0.0000000000
11
95.0243201234
21
-53.9946270098
31
0.0000000000
11
93.7612601513
21
-54.3793390789
31
0.0000000000
11
92.5705451930
21
-54.6358477481
31
0.0000000000
11
91.4961836018
21
-54.7827839810
31
0.0000000000
0
SPLINE
5
3D7
100
AcDbEntity
8
0
100
AcDbSpline
62
7
6
CONTINUOUS
70
0
71
3
72
13
73
9
74
7
42
0.0000001000
43
0.0000001000
44
0.0000000001
40
0.0000000000
40
0.0000000000
40
0.0000000000
40
0.0000000000
40
0.2239597592
40
0.4383530037
40
0.6326015157
40
0.7966370726
40
0.9214790507
40
1.0000000000
40
1.0000000000
40
1.0000000000
40
1.0000000000
10
182.7731562380
20
-95.3498671182
30
0.0000000000
10
182.4516751690
20
-94.1500833692
30
0.0000000000
10
181.7807791609
20
-91.8131086197
30
0.0000000000
10
180.8886023866
20
-88.4198489999
30
0.0000000000
10
180.0628578538
20
-85.3529438500
30
0.0000000000
10
179.3701352656
20
-82.7645586656
30
0.0000000000
10
178.8426170479
20
-80.7963915290
30
0.0000000000
10
178.5507167682
20
-79.7069437370
30
0.0000000000
10
178.4380065485
20
-79.2862954901
30
0.0000000000
11
182.7731562380
21
-95.3498671182
31
0.0000000000
11
181.7798871477
21
-91.7583637264
31
0.0000000000
11
180.8566404018
21
-88.3127599629
31
0.0000000000
11
180.0201433986
21
-85.1909106467
31
0.0000000000
11
179.3137531646
21
-82.5546264032
31
0.0000000000
11
178.7761431747
21
-80.5482386064
31
0.0000000000
11
178.4380065485
21
-79.2862954901
31
0.0000000000
0
SPLINE
5
3D8
100
AcDbEntity
8
0
100
AcDbSpline
62
7
6
CONTINUOUS
70
0
71
3
72
13
73
9
74
7
42
0.0000001000
43
0.0000001000
44
0.0000000001
40
0.0000000000
40
0.0000000000
40
0.0000000000
40
0.0000000000
40
0.2242421456
40
0.4389057142
40
0.6333991502
40
0.7976415364
40
0.9226409252
40
1.0000000000
40
1.0000000000
40
1.0000000000
40
1.0000000000
10
182.7731562436
20
-38.3653314481
30
0.0000000000
10
182.4516751746
20
-39.5651151971
30
0.0000000000
10
181.7807791584
20
-41.9020899443
30
0.0000000000
10
180.8886023872
20
-45.2953495650
30
0.0000000000
10
180.0628578537
20
-48.3622547147
30
0.0000000000
10
179.3701352656
20
-50.9506398992
30
0.0000000000
10
178.8444251652
20
-52.9120609615
30
0.0000000000
10
178.5543318627
20
-53.9947623689
30
0.0000000000
10
178.4434293696
20
-54.4086644352
30
0.0000000000
11
182.7731562436
21
-38.3653314481
31
0.0000000000
11
181.7798871477
21
-41.9568348383
31
0.0000000000
11
180.8566404018
21
-45.4024386019
31
0.0000000000
11
180.0201433986
21
-48.5242879180
31
0.0000000000
11
179.3137531646
21
-51.1605721615
31
0.0000000000
11
178.7761431747
21
-53.1669599584
31
0.0000000000
11
178.4434293696
21
-54.4086644352
31
0.0000000000
0
SPLINE
5
3D9
100
AcDbEntity
8
0
100
AcDbSpline
62
7
6
CONTINUOUS
70
0
71
3
72
13
73
9
74
7
42
0.0000001000
43
0.0000001000
44
0.0000000001
40
0.0000000000
40
0.0000000000
40
0.0000000000
40
0.0000000000
40
0.2239611864
40
0.4383557971
40
0.6326055469
40
0.7966421492
40
0.9214849228
40
1.0000000000
40
1.0000000000
40
1.0000000000
40
1.0000000000
10
89.2273820350
20
-38.3653314436
30
0.0000000000
10
89.5488631042
20
-39.5651151931
30
0.0000000000
10
90.2197591136
20
-41.9020899429
30
0.0000000000
10
91.1119358877
20
-45.2953495637
30
0.0000000000
10
91.9376804207
20
-48.3622547140
30
0.0000000000
10
92.6304030090
20
-50.9506398988
30
0.0000000000
10
93.1579120772
20
-52.9187728985
30
0.0000000000
10
93.4498032131
20
-54.0081865519
30
0.0000000000
10
93.5625042851
20
-54.4288006612
30
0.0000000000
11
89.2273820350
21
-38.3653314436
31
0.0000000000
11
90.2206511266
21
-41.9568348367
31
0.0000000000
11
91.1438978726
21
-45.4024386006
31
0.0000000000
11
91.9803948759
21
-48.5242879173
31
0.0000000000
11
92.6867851101
21
-51.1605721612
31
0.0000000000
11
93.2243951000
21
-53.1669599583
31
0.0000000000
11
93.5625042851
21
-54.4288006612
31
0.0000000000
0
SPLINE
5
3DA
100
AcDbEntity
8
0
100
AcDbSpline
62
7
6
CONTINUOUS
70
0
71
3
72
13
73
9
74
7
42
0.0000001000
43
0.0000001000
44
0.0000000001
40
0.0000000000
40
0.0000000000
40
0.0000000000
40
0.0000000000
40
0.2243702424
40
0.4386952792
40
0.6328819923
40
0.7968653625
40
0.9216676230
40
1.0000000000
40
1.0000000000
40
1.0000000000
40
1.0000000000
10
89.2252608703
20
-95.3575992824
30
0.0000000000
10
89.5474336608
20
-94.1552339934
30
0.0000000000
10
90.2190591956
20
-91.8156878969
30
0.0000000000
10
91.1119406979
20
-88.4198503161
30
0.0000000000
10
91.9376793874
20
-85.3529435668
30
0.0000000000
10
92.6304032019
20
-82.7645587181
30
0.0000000000
10
93.1576862371
20
-80.7972681656
30
0.0000000000
10
93.4493517266
20
-79.7086970648
30
0.0000000000
10
93.5618270369
20
-79.2889254765
30
0.0000000000
11
89.2252608703
21
-95.3575992824
31
0.0000000000
11
90.2206511272
21
-91.7583637258
31
0.0000000000
11
91.1438978730
21
-88.3127599625
31
0.0000000000
11
91.9803948762
21
-85.1909106464
31
0.0000000000
11
92.6867851102
21
-82.5546264030
31
0.0000000000
11
93.2243951001
21
-80.5482386062
31
0.0000000000
11
93.5618270369
21
-79.2889254765
31
0.0000000000
0
SPLINE
5
3DB
100
AcDbEntity
8
0
100
AcDbSpline
62
7
6
CONTINUOUS
70
0
71
3
72
14
73
10
74
8
42
0.0000001000
43
0.0000001000
44
0.0000000001
40
0.0000000000
40
0.0000000000
40
0.0000000000
40
0.0000000000
40
0.1333316687
40
0.2657960300
40
0.4008671855
40
0.5406088355
40
0.6869809462
40
0.8404312985
40
1.0000000000
40
1.0000000000
40
1.0000000000
40
1.0000000000
10
105.0002691374
20
-77.3061251163
30
0.0000000000
10
105.0002691018
20
-77.1782826868
30
0.0000000000
10
104.9912374265
20
-76.9233977806
30
0.0000000000
10
104.9582131838
20
-76.5403589364
30
0.0000000000
10
104.9104769990
20
-76.1527123820
30
0.0000000000
10
104.8508109450
20
-75.7532713702
30
0.0000000000
10
104.7813792576
20
-75.3375499244
30
0.0000000000
10
104.7046946699
20
-74.9037971923
30
0.0000000000
10
104.6521879809
20
-74.6082936684
30
0.0000000000
10
104.6257306981
20
-74.4575992938
30
0.0000000000
11
105.0002691374
21
-77.3061251163
31
0.0000000000
11
104.9879706479
21
-76.9227950650
31
0.0000000000
11
104.9561438032
21
-76.5430941193
31
0.0000000000
11
104.9094009539
21
-76.1573851993
31
0.0000000000
11
104.8506381809
21
-75.7597380801
31
0.0000000000
11
104.7818562693
21
-75.3443562755
31
0.0000000000
11
104.7056545839
21
-74.9095851494
31
0.0000000000
11
104.6257306981
21
-74.4575992938
31
0.0000000000
0
SPLINE
5
3DC
100
AcDbEntity
8
0
100
AcDbSpline
62
7
6
CONTINUOUS
70
0
71
3
72
15
73
11
74
9
42
0.0000001000
43
0.0000001000
44
0.0000000001
40
0.0000000000
40
0.0000000000
40
0.0000000000
40
0.0000000000
40
0.1145857581
40
0.2388866907
40
0.3695590529
40
0.5031842596
40
0.6362565344
40
0.7655738111
40
0.8878386800
40
1.0000000000
40
1.0000000000
40
1.0000000000
40
1.0000000000
10
104.6258675753
20
-74.4575992938
30
0.0000000000
10
104.5247574606
20
-73.8814695185
30
0.0000000000
10
104.3094233416
20
-72.6811570611
30
0.0000000000
10
104.0261580398
20
-70.8155526288
30
0.0000000000
10
103.8277631684
20
-68.8406011595
30
0.0000000000
10
103.7587110803
20
-66.8115983240
30
0.0000000000
10
103.8340302759
20
-64.7897726393
30
0.0000000000
10
104.0349397985
20
-62.8353735002
30
0.0000000000
10
104.3156303269
20
-60.9994457181
30
0.0000000000
10
104.5268971500
20
-59.8215391883
30
0.0000000000
10
104.6258675762
20
-59.2575992656
30
0.0000000000
11
104.6258675753
21
-74.4575992938
31
0.0000000000
11
104.3255957928
21
-72.7286759825
31
0.0000000000
11
104.0465519764
21
-70.8456533992
31
0.0000000000
11
103.8510279296
21
-68.8540680176
31
0.0000000000
11
103.7829829111
21
-66.8088186228
31
0.0000000000
11
103.8571585933
21
-64.7722557664
31
0.0000000000
11
104.0551985984
21
-62.8017746798
31
0.0000000000
11
104.3316871343
21
-60.9498960195
31
0.0000000000
11
104.6258675762
21
-59.2575992656
31
0.0000000000
0
SPLINE
5
3DD
100
AcDbEntity
8
0
100
AcDbSpline
62
7
6
CONTINUOUS
70
0
71
3
72
13
73
9
74
7
42
0.0000001000
43
0.0000001000
44
0.0000000001
40
0.0000000000
40
0.0000000000
40
0.0000000000
40
0.0000000000
40
0.1881011633
40
0.3675234059
40
0.5369506427
40
0.6966231881
40
0.8499766228
40
1.0000000000
40
1.0000000000
40
1.0000000000
40
1.0000000000
10
104.6258641799
20
-59.2576177325
30
0.0000000000
10
104.6570127360
20
-59.0802147621
30
0.0000000000
10
104.7188521920
20
-58.7337679346
30
0.0000000000
10
104.8073350130
20
-58.2272747889
30
0.0000000000
10
104.8844368172
20
-57.7464542381
30
0.0000000000
10
104.9461213337
20
-57.2885359696
30
0.0000000000
10
104.9885184874
20
-56.8470492780
30
0.0000000000
10
105.0002691493
20
-56.5565160346
30
0.0000000000
10
105.0002691374
20
-56.4128607598
30
0.0000000000
11
104.6258641799
21
-59.2576177325
31
0.0000000000
11
104.7199782240
21
-58.7255266077
31
0.0000000000
11
104.8077668832
21
-58.2176392264
31
0.0000000000
11
104.8838430613
21
-57.7369151827
31
0.0000000000
11
104.9439731012
21
-57.2821889741
31
0.0000000000
11
104.9847282595
21
-56.8435462866
31
0.0000000000
11
105.0002691374
21
-56.4128607598
31
0.0000000000
0
SPLINE
5
3DE
100
AcDbEntity
8
0
100
AcDbSpline
62
7
6
CONTINUOUS
70
0
71
3
72
13
73
9
74
7
42
0.0000001000
43
0.0000001000
44
0.0000000001
40
0.0000000000
40
0.0000000000
40
0.0000000000
40
0.0000000000
40
0.1503036164
40
0.3037884736
40
0.4634645171
40
0.6328159399
40
0.8120701785
40
1.0000000000
40
1.0000000000
40
1.0000000000
40
1.0000000000
10
167.0002691374
20
-56.4128694304
30
0.0000000000
10
167.0002691255
20
-56.5567925001
30
0.0000000000
10
167.0120574345
20
-56.8477188621
30
0.0000000000
10
167.0545398730
20
-57.2895949141
30
0.0000000000
10
167.1162685176
20
-57.7475624181
30
0.0000000000
10
167.1933535429
20
-58.2281505845
30
0.0000000000
10
167.2817725700
20
-58.7342492947
30
0.0000000000
10
167.3435537156
20
-59.0803750942
30
0.0000000000
10
167.3746737391
20
-59.2576157992
30
0.0000000000
11
167.0002691374
21
-56.4128694304
31
0.0000000000
11
167.0158647966
21
-56.8443568874
31
0.0000000000
11
167.0567007144
21
-57.2833695383
31
0.0000000000
11
167.1168692899
21
-57.7380990218
31
0.0000000000
11
167.1929325816
21
-58.2186027279
31
0.0000000000
11
167.2806456823
21
-58.7260114023
31
0.0000000000
11
167.3746737391
21
-59.2576157992
31
0.0000000000
0
SPLINE
5
3DF
100
AcDbEntity
8
0
100
AcDbSpline
62
7
6
CONTINUOUS
70
0
71
3
72
15
73
11
74
9
42
0.0000001000
43
0.0000001000
44
0.0000000001
40
0.0000000000
40
0.0000000000
40
0.0000000000
40
0.0000000000
40
0.1122697959
40
0.2348107932
40
0.3644103911
40
0.4975240834
40
0.6308893995
40
0.7611709765
40
0.8852561482
40
1.0000000000
40
1.0000000000
40
1.0000000000
40
1.0000000000
10
167.3746707014
20
-59.2575992824
30
0.0000000000
10
167.4737369164
20
-59.8220847842
30
0.0000000000
10
167.6853528270
20
-61.0019236976
30
0.0000000000
10
167.9664355531
20
-62.8412398913
30
0.0000000000
10
168.1672035332
20
-64.7987419713
30
0.0000000000
10
168.2418005595
20
-66.8209240910
30
0.0000000000
10
168.1722378974
20
-68.8467874601
30
0.0000000000
10
167.9740761352
20
-70.8173064670
30
0.0000000000
10
167.6912045272
20
-72.6806542836
30
0.0000000000
10
167.4759198339
20
-73.8806773232
30
0.0000000000
10
167.3746701957
20
-74.4576021651
30
0.0000000000
11
167.3746707014
21
-59.2575992824
31
0.0000000000
11
167.6691241725
21
-60.9515352681
31
0.0000000000
11
167.9460900068
21
-62.8076188504
31
0.0000000000
11
168.1440958214
21
-64.7824492837
31
0.0000000000
11
168.2175715961
21
-66.8196728413
31
0.0000000000
11
168.1490464910
21
-68.8609245587
31
0.0000000000
11
167.9538749932
21
-70.8465317772
31
0.0000000000
11
167.6753386491
21
-72.7262898470
31
0.0000000000
11
167.3746701957
21
-74.4576021651
31
0.0000000000
0
SPLINE
5
3E0
100
AcDbEntity
8
0
100
AcDbSpline
62
7
6
CONTINUOUS
70
0
71
3
72
14
73
10
74
8
42
0.0000001000
43
0.0000001000
44
0.0000000001
40
0.0000000000
40
0.0000000000
40
0.0000000000
40
0.0000000000
40
0.1596616661
40
0.3132029375
40
0.4596379992
40
0.5994189495
40
0.7344570732
40
0.8668278213
40
1.0000000000
40
1.0000000000
40
1.0000000000
40
1.0000000000
10
167.3748093381
20
-74.4576021651
30
0.0000000000
10
167.3483373653
20
-74.6083822022
30
0.0000000000
10
167.2958034368
20
-74.9040555257
30
0.0000000000
10
167.2190780595
20
-75.3380348868
30
0.0000000000
10
167.1496211052
20
-75.7539337157
30
0.0000000000
10
167.0899589061
20
-76.1534365648
30
0.0000000000
10
167.0422563319
20
-76.5409972110
30
0.0000000000
10
167.0092816472
20
-76.9237593201
30
0.0000000000
10
167.0002691740
20
-77.1783977924
30
0.0000000000
10
167.0002691374
20
-77.3060854422
30
0.0000000000
11
167.3748093381
21
-74.4576021651
31
0.0000000000
11
167.2948424248
21
-74.9098451940
31
0.0000000000
11
167.2185977256
21
-75.3448677790
31
0.0000000000
11
167.1497923622
21
-75.7604230388
31
0.0000000000
11
167.0910275716
21
-76.1581782270
31
0.0000000000
11
167.0443192370
21
-76.5437899315
31
0.0000000000
11
167.0125398274
21
-76.9232190771
31
0.0000000000
11
167.0002691374
21
-77.3060854422
31
0.0000000000
0
ENDSEC
0
SECTION
2
OBJECTS
0
DICTIONARY
5
3E1
100
AcDbDictionary
3
ACAD_GROUP
350
3E2
3
ACAD_MLINESTYLE
350
3E3
0
DICTIONARY
5
3E2
102
{ACAD_REACTORS
330
3E1
102
}
100
AcDbDictionary
0
DICTIONARY
5
3E3
102
{ACAD_REACTORS
330
3E1
102
}
100
AcDbDictionary
3
STANDARD
350
3E4
0
MLINESTYLE
5
3E4
102
{ACAD_REACTORS
330
3E3
102
}
100
AcDbMlineStyle
2
STANDARD
70
0
3

62
256
51
90.0
52
90.0
71
2
49
0.5
62
256
6
BYLAYER
49
-0.5
62
256
6
BYLAYER
0
ENDSEC
0
EOF
