999
DXF file: C:\Aktuell-Internet\CAD-Daten\2vv-gsch20.dxf
999
Pro/ENGINEER 2001400 by Parametric Technology Corporation
0
SECTION
2
HEADER
9
$ACADVER
1
AC1014
9
$EXTMAX
10
420.0000000000
20
297.0000000000
9
$EXTMIN
10
0.0000000000
20
0.0000000000
9
$LIMMIN
10
0.0000000000
20
0.0000000000
9
$LIMMAX
10
420.0000000000
20
297.0000000000
9
$VIEWCTR
10
210.0000000000
20
148.5000000000
9
$VIEWSIZE
40
297.0000000000
9
$CLAYER
8
0
9
$LTSCALE
40
23.1000000000
9
$CELTYPE
6
BYLAYER
9
$DIMSCALE
40
1
9
$DIMASZ
40
3.5000000000
9
$DIMEXO
40
2.6250000000
9
$DIMDLI
40
15.9600000000
9
$DIMEXE
40
7.5600000000
9
$DIMCEN
40
3.7800000000
9
$DIMLFAC
40
1.0000000000
9
$DIMTXT
40
3.5000000000
9
$DIMTOL
70
1
9
$DIMTFAC
40
0.6000000000
9
$DIMTP
40
0.0050000000
9
$DIMTM
40
0.0050000000
9
$HANDSEED
5
3EC
0
ENDSEC
0
SECTION
2
CLASSES
0
ENDSEC
0
SECTION
2
TABLES
0
TABLE
2
VPORT
5
8
100
AcDbSymbolTable
70
2
0
VPORT
5
1F4
100
AcDbSymbolTableRecord
100
AcDbViewportTableRecord
2
*ACTIVE
70
0
10
0.0
20
0.0
11
1.0
21
1.0
12
210.0000000000
22
148.5000000000
13
0.0
23
0.0
14
1.0
24
1.0
15
0.0
25
0.0
16
0.0
26
0.0
36
1.0
17
0.0
27
0.0
37
0.0
40
297.0000000000
41
1.4141414141
42
50.0
43
0.0
44
0.0
50
0.0
51
0.0
71
0
72
100
73
1
74
1
75
0
76
0
77
0
78
0
0
ENDTAB
0
TABLE
2
LTYPE
5
5
100
AcDbSymbolTable
70
6
0
LTYPE
5
14
100
AcDbSymbolTableRecord
100
AcDbLinetypeTableRecord
2
BYBLOCK
70
0
3

72
65
73
0
40
0.0
0
LTYPE
5
15
100
AcDbSymbolTableRecord
100
AcDbLinetypeTableRecord
2
BYLAYER
70
0
3

72
65
73
0
40
0.0
0
LTYPE
5
16
100
AcDbSymbolTableRecord
100
AcDbLinetypeTableRecord
2
CONTINUOUS
70
64
3
Solid line
72
65
73
0
40
0
0
LTYPE
5
1F5
100
AcDbSymbolTableRecord
100
AcDbLinetypeTableRecord
2
CENTER
70
64
3
____ _ ____ _ ____ _ ____ _ ____ _ ____ _ ____
72
65
73
4
40
0.6
49
0.375
74
0
49
-0.075
74
0
49
0.075
74
0
49
-0.075
74
0
0
LTYPE
5
1F6
100
AcDbSymbolTableRecord
100
AcDbLinetypeTableRecord
2
HIDDEN
70
64
3
- - - - - - - - - - - - - - - - - - - -
72
65
73
2
40
0.2
49
0.1
74
0
49
-0.1
74
0
0
LTYPE
5
1F7
100
AcDbSymbolTableRecord
100
AcDbLinetypeTableRecord
2
PHANTOM
70
64
3
_____ _ _ _____ _ _ _____ _ _ _____
72
65
73
6
40
0.8
49
0.45
74
0
49
-0.05
74
0
49
0.1
74
0
49
-0.05
74
0
49
0.1
74
0
49
-0.05
74
0
0
LTYPE
5
1F8
100
AcDbSymbolTableRecord
100
AcDbLinetypeTableRecord
2
DOT
70
64
3
. . . . . . . . . . . . . . . . . . . .
72
65
73
2
40
0.2
49
0.1
74
0
49
-0.1
74
0
0
LTYPE
5
1F9
100
AcDbSymbolTableRecord
100
AcDbLinetypeTableRecord
2
DASHED
70
64
3
- - - - - - - - - - - - - - - - - - - -
72
65
73
2
40
0.2
49
0.1
74
0
49
-0.1
74
0
0
ENDTAB
0
TABLE
2
LAYER
5
2
100
AcDbSymbolTable
70
36
0
LAYER
5
10
100
AcDbSymbolTableRecord
100
AcDbLayerTableRecord
2
0
70
0
62
7
6
CONTINUOUS
0
LAYER
5
1FA
100
AcDbSymbolTableRecord
100
AcDbLayerTableRecord
2
DEFAULT_1
70
0
62
7
6
CENTER
0
LAYER
5
1FB
100
AcDbSymbolTableRecord
100
AcDbLayerTableRecord
2
DEFAULT_2
70
0
62
8
6
HIDDEN
0
LAYER
5
1FC
100
AcDbSymbolTableRecord
100
AcDbLayerTableRecord
2
DEFAULT_3
70
0
62
7
6
PHANTOM
0
LAYER
5
1FD
100
AcDbSymbolTableRecord
100
AcDbLayerTableRecord
2
ZEICHNUNGSBEMASSUNGEN
70
0
62
7
6
CONTINUOUS
0
ENDTAB
0
TABLE
2
STYLE
5
3
100
AcDbSymbolTable
70
1
0
STYLE
5
11
100
AcDbSymbolTableRecord
100
AcDbTextStyleTableRecord
2
STANDARD
70
0
40
0.0
41
1.0
50
0.0
71
0
42
0.0
3
txt
4

0
STYLE
5
1FE
100
AcDbSymbolTableRecord
100
AcDbTextStyleTableRecord
2
TEXTSTYLE_0
70
0
40
0.0
41
0.80
50
0.0
71
0
42
0.2
3
txt
4

0
ENDTAB
0
TABLE
2
VIEW
5
6
100
AcDbSymbolTable
70
0
0
ENDTAB
0
TABLE
2
UCS
5
7
100
AcDbSymbolTable
70
0
0
ENDTAB
0
TABLE
2
APPID
5
9
100
AcDbSymbolTable
70
1
0
APPID
5
1FF
100
AcDbSymbolTableRecord
100
AcDbRegAppTableRecord
2
ACAD
70
0
0
ENDTAB
0
TABLE
2
DIMSTYLE
5
A
100
AcDbSymbolTable
70
1
0
DIMSTYLE
105
200
100
AcDbSymbolTableRecord
100
AcDbDimStyleTableRecord
2
STANDARD
70
0
3

4

5

6

7

40
1.0
41
0.18
42
0.0625
43
0.38
44
0.18
45
0.0
46
0.0
47
0.0050000000
48
0.0050000000
140
3.5000000000
141
0.09
142
0.0
143
25.4
144
1.0000000000
145
0.0
146
0.6000000000
147
0.09
71
1
72
0
73
1
74
1
75
0
76
0
77
0
78
0
170
0
171
2
172
0
173
0
174
0
175
0
176
0
177
0
178
0
270
2
271
3
272
4
273
2
274
2
340
11
275
0
280
0
281
0
282
0
283
1
284
0
285
0
286
0
287
3
288
0
0
ENDTAB
0
TABLE
2
BLOCK_RECORD
5
1
100
AcDbSymbolTable
70
0
0
BLOCK_RECORD
5
1B
100
AcDbSymbolTableRecord
100
AcDbBlockTableRecord
2
*MODEL_SPACE
0
BLOCK_RECORD
5
1C
100
AcDbSymbolTableRecord
100
AcDbBlockTableRecord
2
*PAPER_SPACE
0
ENDTAB
0
ENDSEC
0
SECTION
2
BLOCKS
0
BLOCK
5
1E
100
AcDbEntity
8
0
100
AcDbBlockBegin
2
*MODEL_SPACE
70
0
10
0.0
20
0.0
30
0.0
3
*MODEL_SPACE
1

0
ENDBLK
5
1F
100
AcDbEntity
8
0
100
AcDbBlockEnd
0
BLOCK
5
20
100
AcDbEntity
8
0
100
AcDbBlockBegin
2
*PAPER_SPACE
70
0
10
0.0
20
0.0
30
0.0
3
*PAPER_SPACE
1

0
ENDBLK
5
21
100
AcDbEntity
8
0
100
AcDbBlockEnd
0
ENDSEC
0
SECTION
2
ENTITIES
0
TEXT
5
201
100
AcDbEntity
8
0
100
AcDbText
62
2
6
CONTINUOUS
10
276.0896330005
20
219.9965751055
7
TEXTSTYLE_0
40
7.0000000000
1
VV-GSCH
50
90.0000000000
72
5
11
276.0896330005
21
258.9965751055
100
AcDbText
0
TEXT
5
202
100
AcDbEntity
8
0
100
AcDbText
62
2
6
CONTINUOUS
10
320.1798449525
20
226.0547721676
7
TEXTSTYLE_0
40
7.0000000000
1
20/VIP
50
90.0000000000
72
5
11
320.1798449525
21
258.2214388343
100
AcDbText
0
TEXT
5
203
100
AcDbEntity
8
0
100
AcDbText
62
2
6
CONTINUOUS
10
107.4698147719
20
7.6231114284
7
TEXTSTYLE_0
40
7.0000000000
1
20/VIP
72
5
11
139.6364814386
21
7.6231114284
100
AcDbText
0
TEXT
5
204
100
AcDbEntity
8
0
100
AcDbText
62
2
6
CONTINUOUS
10
102.0847507167
20
76.0549091941
7
TEXTSTYLE_0
40
7.0000000000
1
VV-GSCH
72
5
11
141.0847507167
21
76.0549091941
100
AcDbText
0
LINE
5
205
100
AcDbEntity
8
0
100
AcDbLine
62
7
6
CONTINUOUS
10
0.0000000000
20
0.0000000000
11
0.0000000000
21
297.0000000000
0
LINE
5
206
100
AcDbEntity
8
0
100
AcDbLine
62
7
6
CONTINUOUS
10
0.0000000000
20
0.0000000000
11
420.0000000000
21
0.0000000000
0
LINE
5
207
100
AcDbEntity
8
0
100
AcDbLine
62
7
6
CONTINUOUS
10
0.0000000000
20
297.0000000000
11
420.0000000000
21
297.0000000000
0
LINE
5
208
100
AcDbEntity
8
0
100
AcDbLine
62
7
6
CONTINUOUS
10
420.0000000000
20
0.0000000000
11
420.0000000000
21
297.0000000000
0
LINE
5
209
100
AcDbEntity
8
0
100
AcDbLine
62
7
6
CONTINUOUS
10
70.8264307353
20
96.5549091941
11
97.8264307353
21
96.5549091941
0
LINE
5
20A
100
AcDbEntity
8
0
100
AcDbLine
62
7
6
CONTINUOUS
10
144.8264307353
20
96.5549091941
11
189.8264307353
21
96.5549091941
0
LINE
5
20B
100
AcDbEntity
8
0
100
AcDbLine
62
7
6
CONTINUOUS
10
70.8264307353
20
102.4299091941
11
63.8264307353
21
102.4299091941
0
LINE
5
20C
100
AcDbEntity
8
0
100
AcDbLine
62
7
6
CONTINUOUS
10
164.8264307353
20
107.2140303435
11
189.8264307353
21
107.2140303435
0
LINE
5
20D
100
AcDbEntity
8
0
100
AcDbLine
62
7
6
CONTINUOUS
10
97.8264307353
20
111.4299091941
11
144.8264307353
21
111.4299091941
0
LINE
5
20E
100
AcDbEntity
8
0
100
AcDbLine
62
7
6
CONTINUOUS
10
70.8264307353
20
113.3995643087
11
63.8264307353
21
113.3995643087
0
LINE
5
20F
100
AcDbEntity
8
DEFAULT_1
100
AcDbLine
62
2
6
CENTER
10
170.9523809524
20
126.4299091941
11
63.1557104574
21
126.4299091941
0
LINE
5
210
100
AcDbEntity
8
0
100
AcDbLine
62
7
6
CONTINUOUS
10
63.8264307353
20
102.4299091941
11
63.8264307353
21
150.4299091941
0
LINE
5
211
100
AcDbEntity
8
0
100
AcDbLine
62
7
6
CONTINUOUS
10
70.8264307353
20
139.4602540795
11
63.8264307353
21
139.4602540795
0
LINE
5
212
100
AcDbEntity
8
0
100
AcDbLine
62
7
6
CONTINUOUS
10
97.8264307353
20
141.4299091941
11
144.8264307353
21
141.4299091941
0
LINE
5
213
100
AcDbEntity
8
0
100
AcDbLine
62
7
6
CONTINUOUS
10
70.8264307353
20
96.5549091941
11
70.8264307353
21
190.4299091941
0
LINE
5
214
100
AcDbEntity
8
0
100
AcDbLine
62
7
6
CONTINUOUS
10
70.8264307353
20
150.4299091941
11
63.8264307353
21
150.4299091941
0
LINE
5
215
100
AcDbEntity
8
0
100
AcDbLine
62
7
6
CONTINUOUS
10
189.8264307353
20
150.5549091941
11
176.3117121096
21
150.5549091941
0
LINE
5
216
100
AcDbEntity
8
0
100
AcDbLine
62
7
6
CONTINUOUS
10
70.8264307353
20
150.5549091941
11
97.8264307353
21
150.5549091941
0
LINE
5
217
100
AcDbEntity
8
0
100
AcDbLine
62
7
6
CONTINUOUS
10
144.8264307353
20
150.5549091941
11
164.8264307353
21
150.5549091941
0
LINE
5
218
100
AcDbEntity
8
0
100
AcDbLine
62
7
6
CONTINUOUS
10
167.8264307402
20
150.6888404468
11
164.8264307353
21
150.6888404468
0
LINE
5
219
100
AcDbEntity
8
0
100
AcDbLine
62
7
6
CONTINUOUS
10
75.9860051844
20
176.0572066668
11
76.3051540825
21
175.6346552102
0
LINE
5
21A
100
AcDbEntity
8
0
100
AcDbLine
62
7
6
CONTINUOUS
10
76.9434518788
20
176.1628442288
11
76.7838774297
21
176.5853968943
0
LINE
5
21B
100
AcDbEntity
8
0
100
AcDbLine
62
7
6
CONTINUOUS
10
75.8264307353
20
181.5503804389
11
75.9860051844
21
181.1278289823
0
LINE
5
21C
100
AcDbEntity
8
0
100
AcDbLine
62
7
6
CONTINUOUS
10
75.8264307353
20
176.5853968943
11
75.9860051844
21
176.0572066668
0
LINE
5
21D
100
AcDbEntity
8
0
100
AcDbLine
62
7
6
CONTINUOUS
10
75.8264307353
20
193.8043847709
11
75.8264307353
21
193.1705569815
0
LINE
5
21E
100
AcDbEntity
8
0
100
AcDbLine
62
7
6
CONTINUOUS
10
75.8264307353
20
190.2126931582
11
75.8264307353
21
189.5788653687
0
LINE
5
21F
100
AcDbEntity
8
0
100
AcDbLine
62
7
6
CONTINUOUS
10
75.8264307353
20
187.2548317527
11
75.8264307353
21
186.3040900686
0
LINE
5
220
100
AcDbEntity
8
0
100
AcDbLine
62
7
6
CONTINUOUS
10
75.8264307353
20
182.0785706664
11
75.8264307353
21
181.5503804389
0
LINE
5
221
100
AcDbEntity
8
0
100
AcDbLine
62
7
6
CONTINUOUS
10
75.8264307353
20
177.5361385785
11
75.8264307353
21
176.5853968943
0
LINE
5
222
100
AcDbEntity
8
0
100
AcDbLine
62
7
6
CONTINUOUS
10
75.8264307353
20
171.7260503072
11
75.8264307353
21
171.0922225178
0
LINE
5
223
100
AcDbEntity
8
0
100
AcDbLine
62
7
6
CONTINUOUS
10
75.8264307353
20
168.1343592990
11
75.8264307353
21
167.5005315095
0
LINE
5
224
100
AcDbEntity
8
0
100
AcDbLine
62
7
6
CONTINUOUS
10
75.8264307353
20
166.6554276896
11
75.8264307353
21
166.0215999001
0
LINE
5
225
100
AcDbEntity
8
0
100
AcDbLine
62
7
6
CONTINUOUS
10
75.8264307353
20
163.0637369835
11
75.8264307353
21
162.4299091941
0
LINE
5
226
100
AcDbEntity
8
0
100
AcDbLine
62
7
6
CONTINUOUS
10
76.7838774297
20
176.5853968943
11
76.7838774297
21
177.5361385785
0
LINE
5
227
100
AcDbEntity
8
0
100
AcDbLine
62
7
6
CONTINUOUS
10
76.7838774297
20
181.5503804389
11
76.7838774297
21
182.1842082284
0
LINE
5
228
100
AcDbEntity
8
0
100
AcDbLine
62
7
6
CONTINUOUS
10
76.7838774297
20
186.3040900686
11
76.7838774297
21
187.2548317527
0
LINE
5
229
100
AcDbEntity
8
0
100
AcDbLine
62
7
6
CONTINUOUS
10
77.5817496750
20
182.8180372267
11
77.5817496750
21
183.4518650161
0
LINE
5
22A
100
AcDbEntity
8
0
100
AcDbLine
62
7
6
CONTINUOUS
10
77.7413245711
20
178.3812414918
11
77.7413245711
21
179.0150692812
0
LINE
5
22B
100
AcDbEntity
8
0
100
AcDbLine
62
7
6
CONTINUOUS
10
77.7413245711
20
188.0999346660
11
77.7413245711
21
188.7337624554
0
LINE
5
22C
100
AcDbEntity
8
0
100
AcDbLine
62
7
6
CONTINUOUS
10
78.8583457146
20
193.1705569815
11
78.8583457146
21
190.2126931582
0
LINE
5
22D
100
AcDbEntity
8
0
100
AcDbLine
62
7
6
CONTINUOUS
10
79.0179201636
20
182.1842082284
11
79.0179201636
21
181.5503804389
0
LINE
5
22E
100
AcDbEntity
8
0
100
AcDbLine
62
7
6
CONTINUOUS
10
79.1774946127
20
179.0150692812
11
79.1774946127
21
177.4304998076
0
LINE
5
22F
100
AcDbEntity
8
0
100
AcDbLine
62
7
6
CONTINUOUS
10
79.8157924089
20
174.0500857366
11
79.8157924089
21
172.5711538250
0
LINE
5
230
100
AcDbEntity
8
0
100
AcDbLine
62
7
6
CONTINUOUS
10
79.8157924089
20
190.2126931582
11
79.8157924089
21
193.1705569815
0
LINE
5
231
100
AcDbEntity
8
0
100
AcDbLine
62
7
6
CONTINUOUS
10
79.9753668580
20
181.5503804389
11
79.9753668580
21
182.1842082284
0
LINE
5
232
100
AcDbEntity
8
0
100
AcDbLine
62
7
6
CONTINUOUS
10
80.1349413071
20
177.4304998076
11
80.1349413071
21
178.3812414918
0
LINE
5
233
100
AcDbEntity
8
0
100
AcDbLine
62
7
6
CONTINUOUS
10
80.6136648778
20
172.5711538250
11
80.6136648778
21
174.0500857366
0
LINE
5
234
100
AcDbEntity
8
0
100
AcDbLine
62
7
6
CONTINUOUS
10
81.2519626740
20
180.4940011929
11
81.2519626740
21
179.8601734034
0
LINE
5
235
100
AcDbEntity
8
0
100
AcDbLine
62
7
6
CONTINUOUS
10
81.4115371231
20
188.7337624554
11
81.4115371231
21
188.0999346660
0
LINE
5
236
100
AcDbEntity
8
0
100
AcDbLine
62
7
6
CONTINUOUS
10
82.3689839292
20
187.2548317527
11
82.3689839292
21
186.3040900686
0
LINE
5
237
100
AcDbEntity
8
0
100
AcDbLine
62
7
6
CONTINUOUS
10
82.3689839292
20
182.1842082284
11
82.3689839292
21
181.3391053151
0
LINE
5
238
100
AcDbEntity
8
0
100
AcDbLine
62
7
6
CONTINUOUS
10
82.3689839292
20
177.5361385785
11
82.3689839292
21
176.5853968943
0
LINE
5
239
100
AcDbEntity
8
0
100
AcDbLine
62
7
6
CONTINUOUS
10
83.3264307353
20
164.1201166829
11
83.3264307353
21
164.9652203518
0
LINE
5
23A
100
AcDbEntity
8
0
100
AcDbLine
62
7
6
CONTINUOUS
10
83.3264307353
20
169.1907391495
11
83.3264307353
21
170.0358426673
0
LINE
5
23B
100
AcDbEntity
8
0
100
AcDbLine
62
7
6
CONTINUOUS
10
83.3264307353
20
176.5853968943
11
83.3264307353
21
177.5361385785
0
LINE
5
23C
100
AcDbEntity
8
0
100
AcDbLine
62
7
6
CONTINUOUS
10
83.3264307353
20
181.3391053151
11
83.3264307353
21
182.1842082284
0
LINE
5
23D
100
AcDbEntity
8
0
100
AcDbLine
62
7
6
CONTINUOUS
10
83.3264307353
20
186.3040900686
11
83.3264307353
21
187.2548317527
0
LINE
5
23E
100
AcDbEntity
8
0
100
AcDbLine
62
7
6
CONTINUOUS
10
83.3264307353
20
189.5788653687
11
83.3264307353
21
190.2126931582
0
LINE
5
23F
100
AcDbEntity
8
0
100
AcDbLine
62
7
6
CONTINUOUS
10
83.3264307353
20
193.1705569815
11
83.3264307353
21
193.8043847709
0
LINE
5
240
100
AcDbEntity
8
0
100
AcDbLine
62
7
6
CONTINUOUS
10
75.9860051844
20
187.7830207713
11
75.8264307353
21
187.2548317527
0
LINE
5
241
100
AcDbEntity
8
0
100
AcDbLine
62
7
6
CONTINUOUS
10
75.9860051844
20
182.6067608939
11
75.8264307353
21
182.0785706664
0
LINE
5
242
100
AcDbEntity
8
0
100
AcDbLine
62
7
6
CONTINUOUS
10
75.9860051844
20
178.0643275971
11
75.8264307353
21
177.5361385785
0
LINE
5
243
100
AcDbEntity
8
0
100
AcDbLine
62
7
6
CONTINUOUS
10
76.7838774297
20
187.2548317527
11
76.9434518788
21
187.6773820004
0
LINE
5
244
100
AcDbEntity
8
0
100
AcDbLine
62
7
6
CONTINUOUS
10
165.0923882249
20
173.1451237609
11
165.5711115721
21
173.2721284079
0
LINE
5
245
100
AcDbEntity
8
0
100
AcDbLine
62
7
6
CONTINUOUS
10
83.3264307353
20
164.9652203518
11
75.8264307353
21
166.6554276896
0
LINE
5
246
100
AcDbEntity
8
0
100
AcDbLine
62
7
6
CONTINUOUS
10
75.8264307353
20
166.0215999001
11
82.3689839292
21
164.5426684418
0
LINE
5
247
100
AcDbEntity
8
0
100
AcDbLine
62
7
6
CONTINUOUS
10
76.3051540825
20
175.6346552102
11
76.9434518788
21
175.2121025446
0
LINE
5
248
100
AcDbEntity
8
0
100
AcDbLine
62
7
6
CONTINUOUS
10
76.3051540825
20
180.7052775256
11
76.9434518788
21
180.2827248601
0
LINE
5
249
100
AcDbEntity
8
0
100
AcDbLine
62
7
6
CONTINUOUS
10
77.2626007769
20
175.8459303341
11
76.9434518788
21
176.1628442288
0
LINE
5
24A
100
AcDbEntity
8
0
100
AcDbLine
62
7
6
CONTINUOUS
10
77.2626007769
20
180.9165526495
11
76.9434518788
21
181.2334665442
0
LINE
5
24B
100
AcDbEntity
8
0
100
AcDbLine
62
7
6
CONTINUOUS
10
81.8902604703
20
178.2756039298
11
82.2094094801
21
177.9586900351
0
LINE
5
24C
100
AcDbEntity
8
0
100
AcDbLine
62
7
6
CONTINUOUS
10
77.2626007769
20
185.5646235083
11
76.9434518788
21
185.8815374030
0
LINE
5
24D
100
AcDbEntity
8
0
100
AcDbLine
62
7
6
CONTINUOUS
10
75.9860051844
20
181.1278289823
11
76.3051540825
21
180.7052775256
0
LINE
5
24E
100
AcDbEntity
8
0
100
AcDbLine
62
7
6
CONTINUOUS
10
75.9860051844
20
185.7758986321
11
76.3051540825
21
185.3533483844
0
LINE
5
24F
100
AcDbEntity
8
0
100
AcDbLine
62
7
6
CONTINUOUS
10
83.1668562723
20
178.0643275971
11
82.8477073323
21
178.4868802626
0
LINE
5
250
100
AcDbEntity
8
0
100
AcDbLine
62
7
6
CONTINUOUS
10
83.1668562723
20
182.7123984559
11
82.8477073323
21
183.1349511214
0
LINE
5
251
100
AcDbEntity
8
0
100
AcDbLine
62
7
6
CONTINUOUS
10
76.9434518788
20
181.2334665442
11
76.7838774297
21
181.5503804389
0
LINE
5
252
100
AcDbEntity
8
0
100
AcDbLine
62
7
6
CONTINUOUS
10
76.9434518788
20
185.8815374030
11
76.7838774297
21
186.3040900686
0
LINE
5
253
100
AcDbEntity
8
0
100
AcDbLine
62
7
6
CONTINUOUS
10
82.2094094801
20
177.9586900351
11
82.3689839292
21
177.5361385785
0
LINE
5
254
100
AcDbEntity
8
0
100
AcDbLine
62
7
6
CONTINUOUS
10
82.2094094801
20
182.6067608939
11
82.3689839292
21
182.1842082284
0
LINE
5
255
100
AcDbEntity
8
0
100
AcDbLine
62
7
6
CONTINUOUS
10
82.2094094801
20
187.6773820004
11
82.3689839292
21
187.2548317527
0
LINE
5
256
100
AcDbEntity
8
0
100
AcDbLine
62
7
6
CONTINUOUS
10
75.8264307353
20
186.3040900686
11
75.9860051844
21
185.7758986321
0
LINE
5
257
100
AcDbEntity
8
0
100
AcDbLine
62
7
6
CONTINUOUS
10
83.3264307353
20
177.5361385785
11
83.1668562723
21
178.0643275971
0
LINE
5
258
100
AcDbEntity
8
0
100
AcDbLine
62
7
6
CONTINUOUS
10
83.3264307353
20
182.1842082284
11
83.1668562723
21
182.7123984559
0
LINE
5
259
100
AcDbEntity
8
0
100
AcDbLine
62
7
6
CONTINUOUS
10
83.3264307353
20
187.2548317527
11
83.1668562723
21
187.7830207713
0
LINE
5
25A
100
AcDbEntity
8
0
100
AcDbLine
62
7
6
CONTINUOUS
10
79.1774946127
20
182.7123984559
11
79.0179201636
21
182.1842082284
0
LINE
5
25B
100
AcDbEntity
8
0
100
AcDbLine
62
7
6
CONTINUOUS
10
83.1668562723
20
185.7758986321
11
83.3264307353
21
186.3040900686
0
LINE
5
25C
100
AcDbEntity
8
0
100
AcDbLine
62
7
6
CONTINUOUS
10
83.1668562723
20
180.8109150876
11
83.3264307353
21
181.3391053151
0
LINE
5
25D
100
AcDbEntity
8
0
100
AcDbLine
62
7
6
CONTINUOUS
10
83.1668562723
20
176.0572066668
11
83.3264307353
21
176.5853968943
0
LINE
5
25E
100
AcDbEntity
8
0
100
AcDbLine
62
7
6
CONTINUOUS
10
76.7838774297
20
177.5361385785
11
76.9434518788
21
177.9586900351
0
LINE
5
25F
100
AcDbEntity
8
0
100
AcDbLine
62
7
6
CONTINUOUS
10
79.9753668580
20
182.1842082284
11
80.1349413071
21
182.6067608939
0
LINE
5
260
100
AcDbEntity
8
0
100
AcDbLine
62
7
6
CONTINUOUS
10
79.8157924089
20
181.1278289823
11
79.9753668580
21
181.5503804389
0
LINE
5
261
100
AcDbEntity
8
0
100
AcDbLine
62
7
6
CONTINUOUS
10
82.3689839292
20
186.3040900686
11
82.2094094801
21
185.8815374030
0
LINE
5
262
100
AcDbEntity
8
0
100
AcDbLine
62
7
6
CONTINUOUS
10
82.3689839292
20
181.3391053151
11
82.2094094801
21
180.9165526495
0
LINE
5
263
100
AcDbEntity
8
0
100
AcDbLine
62
7
6
CONTINUOUS
10
82.3689839292
20
176.5853968943
11
82.2094094801
21
176.1628442288
0
LINE
5
264
100
AcDbEntity
8
0
100
AcDbLine
62
7
6
CONTINUOUS
10
76.7838774297
20
182.1842082284
11
76.9434518788
21
182.5011221231
0
LINE
5
265
100
AcDbEntity
8
0
100
AcDbLine
62
7
6
CONTINUOUS
10
79.0179201636
20
181.5503804389
11
78.8583457146
21
181.2334665442
0
LINE
5
266
100
AcDbEntity
8
0
100
AcDbLine
62
7
6
CONTINUOUS
10
76.3051540825
20
188.2055734369
11
75.9860051844
21
187.7830207713
0
LINE
5
267
100
AcDbEntity
8
0
100
AcDbLine
62
7
6
CONTINUOUS
10
162.0604734692
20
177.4632861202
11
161.5817496750
21
177.3362811098
0
LINE
5
268
100
AcDbEntity
8
0
100
AcDbLine
62
7
6
CONTINUOUS
10
161.5817496750
20
172.0020808475
11
160.9434518788
21
171.8750762005
0
LINE
5
269
100
AcDbEntity
8
0
100
AcDbLine
62
7
6
CONTINUOUS
10
164.2945157561
20
173.0181191138
11
165.0923882249
21
173.1451237609
0
LINE
5
26A
100
AcDbEntity
8
0
100
AcDbLine
62
7
6
CONTINUOUS
10
165.0923882249
20
173.7801473594
11
164.1349413071
21
173.6531430757
0
LINE
5
26B
100
AcDbEntity
8
0
100
AcDbLine
62
7
6
CONTINUOUS
10
166.5285583783
20
167.4299091941
11
167.3264307353
21
167.4299091941
0
LINE
5
26C
100
AcDbEntity
8
0
100
AcDbLine
62
7
6
CONTINUOUS
10
83.3264307353
20
170.0358426673
11
75.8264307353
21
171.7260503072
0
LINE
5
26D
100
AcDbEntity
8
0
100
AcDbLine
62
7
6
CONTINUOUS
10
75.8264307353
20
171.0922225178
11
82.3689839292
21
169.6132906061
0
LINE
5
26E
100
AcDbEntity
8
0
100
AcDbLine
62
7
6
CONTINUOUS
10
76.9434518788
20
175.2121025446
11
77.5817496750
21
175.0008274208
0
LINE
5
26F
100
AcDbEntity
8
0
100
AcDbLine
62
7
6
CONTINUOUS
10
77.7413245711
20
175.6346552102
11
77.2626007769
21
175.8459303341
0
LINE
5
270
100
AcDbEntity
8
0
100
AcDbLine
62
7
6
CONTINUOUS
10
82.8477073323
20
178.4868802626
11
82.2094094801
21
178.9094317193
0
LINE
5
271
100
AcDbEntity
8
0
100
AcDbLine
62
7
6
CONTINUOUS
10
76.3051540825
20
185.3533483844
11
76.9434518788
21
184.9307957189
0
LINE
5
272
100
AcDbEntity
8
0
100
AcDbLine
62
7
6
CONTINUOUS
10
82.8477073323
20
183.1349511214
11
82.2094094801
21
183.5575013691
0
LINE
5
273
100
AcDbEntity
8
0
100
AcDbLine
62
7
6
CONTINUOUS
10
81.8902604703
20
182.9236735797
11
82.2094094801
21
182.6067608939
0
LINE
5
274
100
AcDbEntity
8
0
100
AcDbLine
62
7
6
CONTINUOUS
10
81.8902604703
20
187.9942958952
11
82.2094094801
21
187.6773820004
0
LINE
5
275
100
AcDbEntity
8
0
100
AcDbLine
62
7
6
CONTINUOUS
10
83.1668562723
20
187.7830207713
11
82.8477073323
21
188.2055734369
0
LINE
5
276
100
AcDbEntity
8
0
100
AcDbLine
62
7
6
CONTINUOUS
10
94.3264307353
20
215.9872123016
11
94.3264307353
21
264.4299091941
0
LINE
5
277
100
AcDbEntity
8
0
100
AcDbLine
62
7
6
CONTINUOUS
10
97.8264307353
20
96.5549091941
11
97.8264307353
21
190.4299091941
0
LINE
5
278
100
AcDbEntity
8
0
100
AcDbLine
62
7
6
CONTINUOUS
10
79.4966435108
20
183.1349511214
11
79.1774946127
21
182.7123984559
0
LINE
5
279
100
AcDbEntity
8
0
100
AcDbLine
62
7
6
CONTINUOUS
10
76.3051540825
20
178.4868802626
11
75.9860051844
21
178.0643275971
0
LINE
5
27A
100
AcDbEntity
8
0
100
AcDbLine
62
7
6
CONTINUOUS
10
82.8477073323
20
185.3533483844
11
83.1668562723
21
185.7758986321
0
LINE
5
27B
100
AcDbEntity
8
0
100
AcDbLine
62
7
6
CONTINUOUS
10
79.4966435108
20
180.7052775256
11
79.8157924089
21
181.1278289823
0
LINE
5
27C
100
AcDbEntity
8
0
100
AcDbLine
62
7
6
CONTINUOUS
10
82.6881328832
20
180.2827248601
11
83.1668562723
21
180.8109150876
0
LINE
5
27D
100
AcDbEntity
8
0
100
AcDbLine
62
7
6
CONTINUOUS
10
76.9434518788
20
187.6773820004
11
77.2626007769
21
187.9942958952
0
LINE
5
27E
100
AcDbEntity
8
0
100
AcDbLine
62
7
6
CONTINUOUS
10
82.2094094801
20
185.8815374030
11
81.8902604703
21
185.5646235083
0
LINE
5
27F
100
AcDbEntity
8
0
100
AcDbLine
62
7
6
CONTINUOUS
10
80.1349413071
20
182.6067608939
11
80.4540902052
21
182.9236735797
0
LINE
5
280
100
AcDbEntity
8
0
100
AcDbLine
62
7
6
CONTINUOUS
10
78.8583457146
20
181.2334665442
11
78.5391968164
21
180.9165526495
0
LINE
5
281
100
AcDbEntity
8
0
100
AcDbLine
62
7
6
CONTINUOUS
10
76.9434518788
20
177.9586900351
11
77.2626007769
21
178.2756039298
0
LINE
5
282
100
AcDbEntity
8
0
100
AcDbLine
62
7
6
CONTINUOUS
10
76.4647285316
20
183.0293123506
11
75.9860051844
21
182.6067608939
0
LINE
5
283
100
AcDbEntity
8
0
100
AcDbLine
62
7
6
CONTINUOUS
10
76.9434518788
20
188.6281236846
11
76.3051540825
21
188.2055734369
0
LINE
5
284
100
AcDbEntity
8
0
100
AcDbLine
62
7
6
CONTINUOUS
10
166.3689839292
20
184.1945385900
11
159.8264307353
21
182.4164713514
0
LINE
5
285
100
AcDbEntity
8
0
100
AcDbLine
62
7
6
CONTINUOUS
10
159.8264307353
20
181.6544427425
11
167.3264307353
21
183.6865200019
0
LINE
5
286
100
AcDbEntity
8
0
100
AcDbLine
62
7
6
CONTINUOUS
10
82.3689839292
20
164.5426684418
11
75.8264307353
21
163.0637369835
0
LINE
5
287
100
AcDbEntity
8
0
100
AcDbLine
62
7
6
CONTINUOUS
10
82.3689839292
20
169.6132906061
11
75.8264307353
21
168.1343592990
0
LINE
5
288
100
AcDbEntity
8
0
100
AcDbLine
62
7
6
CONTINUOUS
10
75.8264307353
20
162.4299091941
11
83.3264307353
21
164.1201166829
0
LINE
5
289
100
AcDbEntity
8
0
100
AcDbLine
62
7
6
CONTINUOUS
10
75.8264307353
20
167.5005315095
11
83.3264307353
21
169.1907391495
0
LINE
5
28A
100
AcDbEntity
8
0
100
AcDbLine
62
7
6
CONTINUOUS
10
162.8583457146
20
177.5902904039
11
162.0604734692
21
177.4632861202
0
LINE
5
28B
100
AcDbEntity
8
0
100
AcDbLine
62
7
6
CONTINUOUS
10
162.0604734692
20
176.8282617950
11
163.0179201636
21
176.9552668054
0
LINE
5
28C
100
AcDbEntity
8
0
100
AcDbLine
62
7
6
CONTINUOUS
10
161.5817496750
20
171.2400522386
11
161.9008990202
21
171.2400522386
0
LINE
5
28D
100
AcDbEntity
8
0
100
AcDbLine
62
7
6
CONTINUOUS
10
167.3264307353
20
172.0020808475
11
166.5285583783
21
172.0020808475
0
LINE
5
28E
100
AcDbEntity
8
0
100
AcDbLine
62
7
6
CONTINUOUS
10
161.9008990202
20
172.0020808475
11
161.5817496750
21
172.0020808475
0
LINE
5
28F
100
AcDbEntity
8
0
100
AcDbLine
62
7
6
CONTINUOUS
10
79.8157924089
20
172.5711538250
11
80.6136648778
21
172.5711538250
0
LINE
5
290
100
AcDbEntity
8
0
100
AcDbLine
62
7
6
CONTINUOUS
10
162.8583457146
20
173.0181191138
11
164.2945157561
21
173.0181191138
0
LINE
5
291
100
AcDbEntity
8
0
100
AcDbLine
62
7
6
CONTINUOUS
10
164.1349413071
20
173.6531430757
11
163.0179201636
21
173.6531430757
0
LINE
5
292
100
AcDbEntity
8
0
100
AcDbLine
62
7
6
CONTINUOUS
10
80.6136648778
20
174.0500857366
11
79.8157924089
21
174.0500857366
0
LINE
5
293
100
AcDbEntity
8
0
100
AcDbLine
62
7
6
CONTINUOUS
10
78.3796223674
20
174.8951886499
11
80.7732393268
21
174.8951886499
0
LINE
5
294
100
AcDbEntity
8
0
100
AcDbLine
62
7
6
CONTINUOUS
10
80.7732393268
20
175.5290164393
11
78.3796223674
21
175.5290164393
0
LINE
5
295
100
AcDbEntity
8
0
100
AcDbLine
62
7
6
CONTINUOUS
10
163.0179201636
20
176.9552668054
11
164.1349413071
21
176.9552668054
0
LINE
5
296
100
AcDbEntity
8
0
100
AcDbLine
62
7
6
CONTINUOUS
10
79.1774946127
20
177.4304998076
11
80.1349413071
21
177.4304998076
0
LINE
5
297
100
AcDbEntity
8
0
100
AcDbLine
62
7
6
CONTINUOUS
10
164.2945157561
20
177.5902904039
11
162.8583457146
21
177.5902904039
0
LINE
5
298
100
AcDbEntity
8
0
100
AcDbLine
62
7
6
CONTINUOUS
10
77.5817496750
20
175.0008274208
11
78.3796223674
21
174.8951886499
0
LINE
5
299
100
AcDbEntity
8
0
100
AcDbLine
62
7
6
CONTINUOUS
10
78.3796223674
20
175.5290164393
11
77.7413245711
21
175.6346552102
0
LINE
5
29A
100
AcDbEntity
8
0
100
AcDbLine
62
7
6
CONTINUOUS
10
82.2094094801
20
178.9094317193
11
81.5711115721
21
179.0150692812
0
LINE
5
29B
100
AcDbEntity
8
0
100
AcDbLine
62
7
6
CONTINUOUS
10
76.9434518788
20
180.2827248601
11
77.5817496750
21
180.1770872981
0
LINE
5
29C
100
AcDbEntity
8
0
100
AcDbLine
62
7
6
CONTINUOUS
10
160.9434518788
20
167.6839187380
11
161.5817496750
21
167.5569139660
0
LINE
5
29D
100
AcDbEntity
8
0
100
AcDbLine
62
7
6
CONTINUOUS
10
81.4115371231
20
178.3812414918
11
81.8902604703
21
178.2756039298
0
LINE
5
29E
100
AcDbEntity
8
0
100
AcDbLine
62
7
6
CONTINUOUS
10
77.7413245711
20
180.8109150876
11
77.2626007769
21
180.9165526495
0
LINE
5
29F
100
AcDbEntity
8
0
100
AcDbLine
62
7
6
CONTINUOUS
10
76.9434518788
20
184.9307957189
11
77.5817496750
21
184.7195205950
0
LINE
5
2A0
100
AcDbEntity
8
0
100
AcDbLine
62
7
6
CONTINUOUS
10
82.2094094801
20
183.5575013691
11
81.5711115721
21
183.7687789109
0
LINE
5
2A1
100
AcDbEntity
8
0
100
AcDbLine
62
7
6
CONTINUOUS
10
81.4115371231
20
183.1349511214
11
81.8902604703
21
182.9236735797
0
LINE
5
2A2
100
AcDbEntity
8
0
100
AcDbLine
62
7
6
CONTINUOUS
10
77.7413245711
20
185.3533483844
11
77.2626007769
21
185.5646235083
0
LINE
5
2A3
100
AcDbEntity
8
0
100
AcDbLine
62
7
6
CONTINUOUS
10
82.8477073323
20
188.2055734369
11
82.2094094801
21
188.6281236846
0
LINE
5
2A4
100
AcDbEntity
8
0
100
AcDbLine
62
7
6
CONTINUOUS
10
82.8477073323
20
175.6346552102
11
83.1668562723
21
176.0572066668
0
LINE
5
2A5
100
AcDbEntity
8
0
100
AcDbLine
62
7
6
CONTINUOUS
10
82.2094094801
20
176.1628442288
11
81.8902604703
21
175.8459303341
0
LINE
5
2A6
100
AcDbEntity
8
0
100
AcDbLine
62
7
6
CONTINUOUS
10
76.9434518788
20
182.5011221231
11
77.2626007769
21
182.7123984559
0
LINE
5
2A7
100
AcDbEntity
8
0
100
AcDbLine
62
7
6
CONTINUOUS
10
82.2094094801
20
184.9307957189
11
82.8477073323
21
185.3533483844
0
LINE
5
2A8
100
AcDbEntity
8
0
100
AcDbLine
62
7
6
CONTINUOUS
10
80.1349413071
20
183.5575013691
11
79.4966435108
21
183.1349511214
0
LINE
5
2A9
100
AcDbEntity
8
0
100
AcDbLine
62
7
6
CONTINUOUS
10
78.8583457146
20
180.2827248601
11
79.4966435108
21
180.7052775256
0
LINE
5
2AA
100
AcDbEntity
8
0
100
AcDbLine
62
7
6
CONTINUOUS
10
76.9434518788
20
178.9094317193
11
76.3051540825
21
178.4868802626
0
LINE
5
2AB
100
AcDbEntity
8
0
100
AcDbLine
62
7
6
CONTINUOUS
10
82.2094094801
20
180.9165526495
11
81.7306860212
21
180.5996387548
0
LINE
5
2AC
100
AcDbEntity
8
0
100
AcDbLine
62
7
6
CONTINUOUS
10
77.1030263278
20
183.3462262453
11
76.4647285316
21
183.0293123506
0
LINE
5
2AD
100
AcDbEntity
8
0
100
AcDbLine
62
7
6
CONTINUOUS
10
161.1030263278
20
193.3388818968
11
161.5817496750
21
193.4658876339
0
LINE
5
2AE
100
AcDbEntity
8
0
100
AcDbLine
62
7
6
CONTINUOUS
10
161.5817496750
20
194.2279162429
11
161.1030263278
21
194.1009105057
0
LINE
5
2AF
100
AcDbEntity
8
0
100
AcDbLine
62
7
6
CONTINUOUS
10
81.4115371231
20
175.6346552102
11
80.7732393268
21
175.5290164393
0
LINE
5
2B0
100
AcDbEntity
8
0
100
AcDbLine
62
7
6
CONTINUOUS
10
81.2519626740
20
179.8601734034
11
81.8902604703
21
179.9658109654
0
LINE
5
2B1
100
AcDbEntity
8
0
100
AcDbLine
62
7
6
CONTINUOUS
10
80.7732393268
20
174.8951886499
11
81.5711115721
21
175.0008274208
0
LINE
5
2B2
100
AcDbEntity
8
0
100
AcDbLine
62
7
6
CONTINUOUS
10
77.7413245711
20
179.0150692812
11
76.9434518788
21
178.9094317193
0
LINE
5
2B3
100
AcDbEntity
8
0
100
AcDbLine
62
7
6
CONTINUOUS
10
80.1349413071
20
178.3812414918
11
81.4115371231
21
178.3812414918
0
LINE
5
2B4
100
AcDbEntity
8
0
100
AcDbLine
62
7
6
CONTINUOUS
10
81.5711115721
20
179.0150692812
11
79.1774946127
21
179.0150692812
0
LINE
5
2B5
100
AcDbEntity
8
0
100
AcDbLine
62
7
6
CONTINUOUS
10
77.5817496750
20
180.1770872981
11
78.2200479183
21
180.1770872981
0
LINE
5
2B6
100
AcDbEntity
8
0
100
AcDbLine
62
7
6
CONTINUOUS
10
78.0604734692
20
180.8109150876
11
77.7413245711
21
180.8109150876
0
LINE
5
2B7
100
AcDbEntity
8
0
100
AcDbLine
62
7
6
CONTINUOUS
10
80.9328137759
20
183.1349511214
11
81.4115371231
21
183.1349511214
0
LINE
5
2B8
100
AcDbEntity
8
0
100
AcDbLine
62
7
6
CONTINUOUS
10
81.5711115721
20
183.7687789109
11
80.7732393268
21
183.7687789109
0
LINE
5
2B9
100
AcDbEntity
8
0
100
AcDbLine
62
7
6
CONTINUOUS
10
78.3796223674
20
184.6138818241
11
80.7732393268
21
184.6138818241
0
LINE
5
2BA
100
AcDbEntity
8
0
100
AcDbLine
62
7
6
CONTINUOUS
10
80.7732393268
20
185.2477096136
11
78.3796223674
21
185.2477096136
0
LINE
5
2BB
100
AcDbEntity
8
0
100
AcDbLine
62
7
6
CONTINUOUS
10
77.5817496750
20
184.7195205950
11
78.3796223674
21
184.6138818241
0
LINE
5
2BC
100
AcDbEntity
8
0
100
AcDbLine
62
7
6
CONTINUOUS
10
82.2094094801
20
188.6281236846
11
81.4115371231
21
188.7337624554
0
LINE
5
2BD
100
AcDbEntity
8
0
100
AcDbLine
62
7
6
CONTINUOUS
10
163.0179201636
20
173.6531430757
11
162.0604734692
21
173.7801473594
0
LINE
5
2BE
100
AcDbEntity
8
0
100
AcDbLine
62
7
6
CONTINUOUS
10
164.1349413071
20
176.9552668054
11
165.0923882249
21
176.8282617950
0
LINE
5
2BF
100
AcDbEntity
8
0
100
AcDbLine
62
7
6
CONTINUOUS
10
162.0604734692
20
173.1451237609
11
162.8583457146
21
173.0181191138
0
LINE
5
2C0
100
AcDbEntity
8
0
100
AcDbLine
62
7
6
CONTINUOUS
10
165.0923882249
20
177.4632861202
11
164.2945157561
21
177.5902904039
0
LINE
5
2C1
100
AcDbEntity
8
0
100
AcDbLine
62
7
6
CONTINUOUS
10
78.3796223674
20
185.2477096136
11
77.7413245711
21
185.3533483844
0
LINE
5
2C2
100
AcDbEntity
8
0
100
AcDbLine
62
7
6
CONTINUOUS
10
162.5391968164
20
171.8750762005
11
161.9008990202
21
172.0020808475
0
LINE
5
2C3
100
AcDbEntity
8
0
100
AcDbLine
62
7
6
CONTINUOUS
10
81.4115371231
20
188.0999346660
11
81.8902604703
21
187.9942958952
0
LINE
5
2C4
100
AcDbEntity
8
0
100
AcDbLine
62
7
6
CONTINUOUS
10
161.5817496750
20
173.2721284079
11
162.0604734692
21
173.1451237609
0
LINE
5
2C5
100
AcDbEntity
8
0
100
AcDbLine
62
7
6
CONTINUOUS
10
82.2094094801
20
175.2121025446
11
82.8477073323
21
175.6346552102
0
LINE
5
2C6
100
AcDbEntity
8
0
100
AcDbLine
62
7
6
CONTINUOUS
10
81.8902604703
20
185.5646235083
11
81.4115371231
21
185.3533483844
0
LINE
5
2C7
100
AcDbEntity
8
0
100
AcDbLine
62
7
6
CONTINUOUS
10
80.4540902052
20
182.9236735797
11
80.9328137759
21
183.1349511214
0
LINE
5
2C8
100
AcDbEntity
8
0
100
AcDbLine
62
7
6
CONTINUOUS
10
81.8902604703
20
179.9658109654
11
82.6881328832
21
180.2827248601
0
LINE
5
2C9
100
AcDbEntity
8
0
100
AcDbLine
62
7
6
CONTINUOUS
10
81.5711115721
20
184.7195205950
11
82.2094094801
21
184.9307957189
0
LINE
5
2CA
100
AcDbEntity
8
0
100
AcDbLine
62
7
6
CONTINUOUS
10
77.2626007769
20
182.7123984559
11
77.5817496750
21
182.8180372267
0
LINE
5
2CB
100
AcDbEntity
8
0
100
AcDbLine
62
7
6
CONTINUOUS
10
80.7732393268
20
183.7687789109
11
80.1349413071
21
183.5575013691
0
LINE
5
2CC
100
AcDbEntity
8
0
100
AcDbLine
62
7
6
CONTINUOUS
10
77.2626007769
20
178.2756039298
11
77.7413245711
21
178.3812414918
0
LINE
5
2CD
100
AcDbEntity
8
0
100
AcDbLine
62
7
6
CONTINUOUS
10
81.7306860212
20
180.5996387548
11
81.2519626740
21
180.4940011929
0
LINE
5
2CE
100
AcDbEntity
8
0
100
AcDbLine
62
7
6
CONTINUOUS
10
78.5391968164
20
180.9165526495
11
78.0604734692
21
180.8109150876
0
LINE
5
2CF
100
AcDbEntity
8
0
100
AcDbLine
62
7
6
CONTINUOUS
10
77.5817496750
20
183.4518650161
11
77.1030263278
21
183.3462262453
0
LINE
5
2D0
100
AcDbEntity
8
0
100
AcDbLine
62
7
6
CONTINUOUS
10
78.2200479183
20
180.1770872981
11
78.8583457146
21
180.2827248601
0
LINE
5
2D1
100
AcDbEntity
8
0
100
AcDbLine
62
7
6
CONTINUOUS
10
81.4115371231
20
185.3533483844
11
80.7732393268
21
185.2477096136
0
LINE
5
2D2
100
AcDbEntity
8
0
100
AcDbLine
62
7
6
CONTINUOUS
10
80.7732393268
20
184.6138818241
11
81.5711115721
21
184.7195205950
0
LINE
5
2D3
100
AcDbEntity
8
0
100
AcDbLine
62
7
6
CONTINUOUS
10
77.7413245711
20
188.7337624554
11
76.9434518788
21
188.6281236846
0
LINE
5
2D4
100
AcDbEntity
8
0
100
AcDbLine
62
7
6
CONTINUOUS
10
159.8264307353
20
187.7506716137
11
167.3264307353
21
187.7506716137
0
LINE
5
2D5
100
AcDbEntity
8
0
100
AcDbLine
62
7
6
CONTINUOUS
10
167.3264307353
20
188.5127002226
11
159.8264307353
21
188.5127002226
0
LINE
5
2D6
100
AcDbEntity
8
0
100
AcDbLine
62
7
6
CONTINUOUS
10
159.8264307353
20
189.5287388523
11
167.3264307353
21
189.5287388523
0
LINE
5
2D7
100
AcDbEntity
8
0
100
AcDbLine
62
7
6
CONTINUOUS
10
75.8264307353
20
189.5788653687
11
83.3264307353
21
189.5788653687
0
LINE
5
2D8
100
AcDbEntity
8
0
100
AcDbLine
62
7
6
CONTINUOUS
10
83.3264307353
20
190.2126931582
11
79.8157924089
21
190.2126931582
0
LINE
5
2D9
100
AcDbEntity
8
0
100
AcDbLine
62
7
6
CONTINUOUS
10
78.8583457146
20
190.2126931582
11
75.8264307353
21
190.2126931582
0
LINE
5
2DA
100
AcDbEntity
8
0
100
AcDbLine
62
7
6
CONTINUOUS
10
167.3264307353
20
190.2907674612
11
163.9753668580
21
190.2907674612
0
LINE
5
2DB
100
AcDbEntity
8
0
100
AcDbLine
62
7
6
CONTINUOUS
10
163.0179201636
20
190.2907674612
11
160.6243029807
21
190.2907674612
0
LINE
5
2DC
100
AcDbEntity
8
0
100
AcDbLine
62
7
6
CONTINUOUS
10
75.8264307353
20
193.1705569815
11
78.8583457146
21
193.1705569815
0
LINE
5
2DD
100
AcDbEntity
8
0
100
AcDbLine
62
7
6
CONTINUOUS
10
79.8157924089
20
193.1705569815
11
83.3264307353
21
193.1705569815
0
LINE
5
2DE
100
AcDbEntity
8
0
100
AcDbLine
62
7
6
CONTINUOUS
10
161.5817496750
20
193.4658876339
11
162.0604734692
21
193.4658876339
0
LINE
5
2DF
100
AcDbEntity
8
0
100
AcDbLine
62
7
6
CONTINUOUS
10
83.3264307353
20
193.8043847709
11
75.8264307353
21
193.8043847709
0
LINE
5
2E0
100
AcDbEntity
8
0
100
AcDbLine
62
7
6
CONTINUOUS
10
165.5711115721
20
177.3362811098
11
165.0923882249
21
177.4632861202
0
LINE
5
2E1
100
AcDbEntity
8
0
100
AcDbLine
62
7
6
CONTINUOUS
10
161.9008990202
20
171.2400522386
11
162.5391968164
21
170.9860425812
0
LINE
5
2E2
100
AcDbEntity
8
0
100
AcDbLine
62
7
6
CONTINUOUS
10
160.9434518788
20
173.5261380653
11
161.5817496750
21
173.2721284079
0
LINE
5
2E3
100
AcDbEntity
8
0
100
AcDbLine
62
7
6
CONTINUOUS
10
161.5817496750
20
168.1919378030
11
161.1030263278
21
168.4459473696
0
LINE
5
2E4
100
AcDbEntity
8
DEFAULT_1
100
AcDbLine
62
2
6
CENTER
10
121.3264307353
20
262.4299091941
11
121.3264307353
21
108.1446646265
0
LINE
5
2E5
100
AcDbEntity
8
DEFAULT_1
100
AcDbLine
62
2
6
CENTER
10
121.3264307353
20
262.4299091941
11
121.3264307353
21
280.7261253625
0
LINE
5
2E6
100
AcDbEntity
8
0
100
AcDbLine
62
7
6
CONTINUOUS
10
81.8902604703
20
175.8459303341
11
81.4115371231
21
175.6346552102
0
LINE
5
2E7
100
AcDbEntity
8
0
100
AcDbLine
62
7
6
CONTINUOUS
10
81.5711115721
20
175.0008274208
11
82.2094094801
21
175.2121025446
0
LINE
5
2E8
100
AcDbEntity
8
0
100
AcDbLine
62
7
6
CONTINUOUS
10
77.2626007769
20
187.9942958952
11
77.7413245711
21
188.0999346660
0
LINE
5
2E9
100
AcDbEntity
8
0
100
AcDbLine
62
7
6
CONTINUOUS
10
162.2200479183
20
194.2279162429
11
161.5817496750
21
194.2279162429
0
LINE
5
2EA
100
AcDbEntity
8
0
100
AcDbLine
62
7
6
CONTINUOUS
10
105.8264307353
20
198.4299091941
11
136.8264307353
21
198.4299091941
0
LINE
5
2EB
100
AcDbEntity
8
0
100
AcDbLine
62
7
6
CONTINUOUS
10
167.3264307353
20
184.7025571781
11
159.8264307353
21
186.7346344375
0
LINE
5
2EC
100
AcDbEntity
8
0
100
AcDbLine
62
7
6
CONTINUOUS
10
159.8264307353
20
185.9726058286
11
166.3689839292
21
184.1945385900
0
LINE
5
2ED
100
AcDbEntity
8
0
100
AcDbLine
62
7
6
CONTINUOUS
10
166.2094094801
20
177.0822718158
11
165.5711115721
21
177.3362811098
0
LINE
5
2EE
100
AcDbEntity
8
0
100
AcDbLine
62
7
6
CONTINUOUS
10
161.4221752260
20
180.2573912618
11
165.4115371231
21
178.6063290336
0
LINE
5
2EF
100
AcDbEntity
8
0
100
AcDbLine
62
7
6
CONTINUOUS
10
165.7306860212
20
178.9873433380
11
161.7413245711
21
180.6384055662
0
LINE
5
2F0
100
AcDbEntity
8
0
100
AcDbLine
62
7
6
CONTINUOUS
10
163.0179201636
20
171.6210665431
11
162.5391968164
21
171.8750762005
0
LINE
5
2F1
100
AcDbEntity
8
0
100
AcDbLine
62
7
6
CONTINUOUS
10
162.0604734692
20
173.7801473594
11
161.1030263278
21
174.2881666742
0
LINE
5
2F2
100
AcDbEntity
8
0
100
AcDbLine
62
7
6
CONTINUOUS
10
160.3051540825
20
168.1919378030
11
160.9434518788
21
167.6839187380
0
LINE
5
2F3
100
AcDbEntity
8
0
100
AcDbLine
62
7
6
CONTINUOUS
10
162.0604734692
20
193.4658876339
11
162.5391968164
21
193.3388818968
0
LINE
5
2F4
100
AcDbEntity
8
0
100
AcDbLine
62
7
6
CONTINUOUS
10
162.6987712655
20
194.1009105057
11
162.2200479183
21
194.2279162429
0
LINE
5
2F5
100
AcDbEntity
8
0
100
AcDbLine
62
7
6
CONTINUOUS
10
165.0923882249
20
176.8282617950
11
166.0498350311
21
176.3202432069
0
LINE
5
2F6
100
AcDbEntity
8
0
100
AcDbLine
62
7
6
CONTINUOUS
10
160.4647285316
20
173.9071523698
11
160.9434518788
21
173.5261380653
0
LINE
5
2F7
100
AcDbEntity
8
0
100
AcDbLine
62
7
6
CONTINUOUS
10
162.5391968164
20
170.9860425812
11
166.5285583783
21
167.4299091941
0
LINE
5
2F8
100
AcDbEntity
8
0
100
AcDbLine
62
7
6
CONTINUOUS
10
166.5285583783
20
168.4459473696
11
163.0179201636
21
171.6210665431
0
LINE
5
2F9
100
AcDbEntity
8
0
100
AcDbLine
62
7
6
CONTINUOUS
10
161.1030263278
20
194.1009105057
11
160.4647285316
21
193.7198962013
0
LINE
5
2FA
100
AcDbEntity
8
0
100
AcDbLine
62
7
6
CONTINUOUS
10
163.3370690617
20
193.7198962013
11
162.6987712655
21
194.1009105057
0
LINE
5
2FB
100
AcDbEntity
8
0
100
AcDbLine
62
7
6
CONTINUOUS
10
166.6881328832
20
176.7012575113
11
166.2094094801
21
177.0822718158
0
LINE
5
2FC
100
AcDbEntity
8
0
100
AcDbLine
62
7
6
CONTINUOUS
10
161.1030263278
20
168.4459473696
11
160.7838774297
21
168.8269616740
0
LINE
5
2FD
100
AcDbEntity
8
0
100
AcDbLine
62
7
6
CONTINUOUS
10
161.1030263278
20
174.2881666742
11
160.7838774297
21
174.6691809787
0
LINE
5
2FE
100
AcDbEntity
8
0
100
AcDbLine
62
7
6
CONTINUOUS
10
159.9860051844
20
174.5421759683
11
160.4647285316
21
173.9071523698
0
LINE
5
2FF
100
AcDbEntity
8
0
100
AcDbLine
62
7
6
CONTINUOUS
10
159.9860051844
20
168.6999568453
11
160.3051540825
21
168.1919378030
0
LINE
5
300
100
AcDbEntity
8
0
100
AcDbLine
62
7
6
CONTINUOUS
10
144.8264307353
20
96.5549091941
11
144.8264307353
21
190.4299091941
0
LINE
5
301
100
AcDbEntity
8
0
100
AcDbLine
62
7
6
CONTINUOUS
10
148.3264307353
20
215.9872113039
11
148.3264307353
21
264.4299091941
0
LINE
5
302
100
AcDbEntity
8
0
100
AcDbLine
62
7
6
CONTINUOUS
10
160.4647285316
20
193.7198962013
11
159.9860051844
21
193.2118761597
0
LINE
5
303
100
AcDbEntity
8
0
100
AcDbLine
62
7
6
CONTINUOUS
10
160.7838774297
20
193.0848733295
11
161.1030263278
21
193.3388818968
0
LINE
5
304
100
AcDbEntity
8
0
100
AcDbLine
62
7
6
CONTINUOUS
10
161.5817496750
20
177.3362811098
11
160.9434518788
21
177.0822718158
0
LINE
5
305
100
AcDbEntity
8
0
100
AcDbLine
62
7
6
CONTINUOUS
10
162.5391968164
20
193.3388818968
11
162.8583457146
21
193.0848733295
0
LINE
5
306
100
AcDbEntity
8
0
100
AcDbLine
62
7
6
CONTINUOUS
10
166.0498350311
20
176.3202432069
11
166.3689839292
21
175.9392289024
0
LINE
5
307
100
AcDbEntity
8
0
100
AcDbLine
62
7
6
CONTINUOUS
10
167.1668562723
20
176.0662331861
11
166.6881328832
21
176.7012575113
0
LINE
5
308
100
AcDbEntity
8
0
100
AcDbLine
62
7
6
CONTINUOUS
10
160.9434518788
20
177.0822718158
11
160.4647285316
21
176.7012575113
0
LINE
5
309
100
AcDbEntity
8
0
100
AcDbLine
62
7
6
CONTINUOUS
10
161.1030263278
20
176.3202432069
11
162.0604734692
21
176.8282617950
0
LINE
5
30A
100
AcDbEntity
8
0
100
AcDbLine
62
7
6
CONTINUOUS
10
166.0498350311
20
174.2881666742
11
165.0923882249
21
173.7801473594
0
LINE
5
30B
100
AcDbEntity
8
0
100
AcDbLine
62
7
6
CONTINUOUS
10
161.1030263278
20
170.9860425812
11
161.5817496750
21
171.2400522386
0
LINE
5
30C
100
AcDbEntity
8
0
100
AcDbLine
62
7
6
CONTINUOUS
10
165.5711115721
20
173.2721284079
11
166.2094094801
21
173.5261380653
0
LINE
5
30D
100
AcDbEntity
8
0
100
AcDbLine
62
7
6
CONTINUOUS
10
163.8157924089
20
193.2118761597
11
163.3370690617
21
193.7198962013
0
LINE
5
30E
100
AcDbEntity
8
0
100
AcDbLine
62
7
6
CONTINUOUS
10
160.7838774297
20
168.8269616740
11
160.6243029807
21
169.4619855451
0
LINE
5
30F
100
AcDbEntity
8
0
100
AcDbLine
62
7
6
CONTINUOUS
10
160.7838774297
20
174.6691809787
11
160.6243029807
21
175.3042045772
0
LINE
5
310
100
AcDbEntity
8
0
100
AcDbLine
62
7
6
CONTINUOUS
10
159.8264307353
20
175.3042045772
11
159.9860051844
21
174.5421759683
0
LINE
5
311
100
AcDbEntity
8
0
100
AcDbLine
62
7
6
CONTINUOUS
10
159.8264307353
20
169.5889901921
11
159.9860051844
21
168.6999568453
0
LINE
5
312
100
AcDbEntity
8
0
100
AcDbLine
62
7
6
CONTINUOUS
10
159.8264307353
20
192.5768532879
11
159.8264307353
21
189.5287388523
0
LINE
5
313
100
AcDbEntity
8
0
100
AcDbLine
62
7
6
CONTINUOUS
10
159.8264307353
20
188.5127002226
11
159.8264307353
21
187.7506716137
0
LINE
5
314
100
AcDbEntity
8
0
100
AcDbLine
62
7
6
CONTINUOUS
10
159.8264307353
20
186.7346344375
11
159.8264307353
21
185.9726058286
0
LINE
5
315
100
AcDbEntity
8
0
100
AcDbLine
62
7
6
CONTINUOUS
10
159.8264307353
20
182.4164713514
11
159.8264307353
21
181.6544427425
0
LINE
5
316
100
AcDbEntity
8
0
100
AcDbLine
62
7
6
CONTINUOUS
10
159.8264307353
20
170.0970093253
11
159.8264307353
21
169.5889901921
0
LINE
5
317
100
AcDbEntity
8
0
100
AcDbLine
62
7
6
CONTINUOUS
10
160.6243029807
20
169.4619855451
11
160.6243029807
21
169.9700044965
0
LINE
5
318
100
AcDbEntity
8
0
100
AcDbLine
62
7
6
CONTINUOUS
10
160.6243029807
20
190.2907674612
11
160.6243029807
21
192.7038590250
0
LINE
5
319
100
AcDbEntity
8
0
100
AcDbLine
62
7
6
CONTINUOUS
10
161.5817496750
20
167.5569139660
11
161.5817496750
21
168.1919378030
0
LINE
5
31A
100
AcDbEntity
8
0
100
AcDbLine
62
7
6
CONTINUOUS
10
163.0179201636
20
192.7038590250
11
163.0179201636
21
190.2907674612
0
LINE
5
31B
100
AcDbEntity
8
0
100
AcDbLine
62
7
6
CONTINUOUS
10
163.9753668580
20
190.2907674612
11
163.9753668580
21
192.5768532879
0
LINE
5
31C
100
AcDbEntity
8
0
100
AcDbLine
62
7
6
CONTINUOUS
10
164.8264307353
20
150.6888404468
11
164.8264307353
21
107.2140303435
0
LINE
5
31D
100
AcDbEntity
8
0
100
AcDbLine
62
7
6
CONTINUOUS
10
159.9860051844
20
176.0662331861
11
159.8264307353
21
175.3042045772
0
LINE
5
31E
100
AcDbEntity
8
0
100
AcDbLine
62
7
6
CONTINUOUS
10
159.9860051844
20
170.8590379342
11
159.8264307353
21
170.0970093253
0
LINE
5
31F
100
AcDbEntity
8
0
100
AcDbLine
62
7
6
CONTINUOUS
10
159.9860051844
20
193.2118761597
11
159.8264307353
21
192.5768532879
0
LINE
5
320
100
AcDbEntity
8
0
100
AcDbLine
62
7
6
CONTINUOUS
10
160.6243029807
20
175.3042045772
11
160.7838774297
21
175.9392289024
0
LINE
5
321
100
AcDbEntity
8
0
100
AcDbLine
62
7
6
CONTINUOUS
10
160.6243029807
20
192.7038590250
11
160.7838774297
21
193.0848733295
0
LINE
5
322
100
AcDbEntity
8
0
100
AcDbLine
62
7
6
CONTINUOUS
10
160.4647285316
20
176.7012575113
11
159.9860051844
21
176.0662331861
0
LINE
5
323
100
AcDbEntity
8
0
100
AcDbLine
62
7
6
CONTINUOUS
10
161.7413245711
20
180.6384055662
11
161.4221752260
21
180.2573912618
0
LINE
5
324
100
AcDbEntity
8
0
100
AcDbLine
62
7
6
CONTINUOUS
10
160.7838774297
20
175.9392289024
11
161.1030263278
21
176.3202432069
0
LINE
5
325
100
AcDbEntity
8
0
100
AcDbLine
62
7
6
CONTINUOUS
10
165.4115371231
20
178.6063290336
11
165.7306860212
21
178.9873433380
0
LINE
5
326
100
AcDbEntity
8
0
100
AcDbLine
62
7
6
CONTINUOUS
10
160.7838774297
20
170.6050282767
11
161.1030263278
21
170.9860425812
0
LINE
5
327
100
AcDbEntity
8
0
100
AcDbLine
62
7
6
CONTINUOUS
10
160.9434518788
20
171.8750762005
11
160.3051540825
21
171.3670568856
0
LINE
5
328
100
AcDbEntity
8
0
100
AcDbLine
62
7
6
CONTINUOUS
10
166.2094094801
20
173.5261380653
11
166.6881328832
21
173.9071523698
0
LINE
5
329
100
AcDbEntity
8
0
100
AcDbLine
62
7
6
CONTINUOUS
10
162.8583457146
20
193.0848733295
11
163.0179201636
21
192.7038590250
0
LINE
5
32A
100
AcDbEntity
8
0
100
AcDbLine
62
7
6
CONTINUOUS
10
166.3689839292
20
175.9392289024
11
166.5285583783
21
175.3042045772
0
LINE
5
32B
100
AcDbEntity
8
0
100
AcDbLine
62
7
6
CONTINUOUS
10
163.9753668580
20
192.5768532879
11
163.8157924089
21
193.2118761597
0
LINE
5
32C
100
AcDbEntity
8
0
100
AcDbLine
62
7
6
CONTINUOUS
10
167.3264307353
20
175.3042045772
11
167.1668562723
21
176.0662331861
0
LINE
5
32D
100
AcDbEntity
8
0
100
AcDbLine
62
7
6
CONTINUOUS
10
166.5285583783
20
172.0020808475
11
166.5285583783
21
168.4459473696
0
LINE
5
32E
100
AcDbEntity
8
0
100
AcDbLine
62
7
6
CONTINUOUS
10
167.3264307353
20
167.4299091941
11
167.3264307353
21
172.0020808475
0
LINE
5
32F
100
AcDbEntity
8
0
100
AcDbLine
62
7
6
CONTINUOUS
10
167.3264307353
20
183.6865200019
11
167.3264307353
21
184.7025571781
0
LINE
5
330
100
AcDbEntity
8
0
100
AcDbLine
62
7
6
CONTINUOUS
10
167.3264307353
20
187.7506716137
11
167.3264307353
21
188.5127002226
0
LINE
5
331
100
AcDbEntity
8
0
100
AcDbLine
62
7
6
CONTINUOUS
10
167.3264307353
20
189.5287388523
11
167.3264307353
21
190.2907674612
0
LINE
5
332
100
AcDbEntity
8
0
100
AcDbLine
62
7
6
CONTINUOUS
10
171.8264307353
20
165.5549091941
11
171.8264307353
21
190.4299091941
0
LINE
5
333
100
AcDbEntity
8
0
100
AcDbLine
62
7
6
CONTINUOUS
10
167.1668562723
20
174.5421759683
11
167.3264307353
21
175.3042045772
0
LINE
5
334
100
AcDbEntity
8
0
100
AcDbLine
62
7
6
CONTINUOUS
10
160.6243029807
20
169.9700044965
11
160.7838774297
21
170.6050282767
0
LINE
5
335
100
AcDbEntity
8
0
100
AcDbLine
62
7
6
CONTINUOUS
10
166.5285583783
20
175.3042045772
11
166.3689839292
21
174.6691809787
0
LINE
5
336
100
AcDbEntity
8
0
100
AcDbLine
62
7
6
CONTINUOUS
10
160.3051540825
20
171.3670568856
11
159.9860051844
21
170.8590379342
0
LINE
5
337
100
AcDbEntity
8
0
100
AcDbLine
62
7
6
CONTINUOUS
10
166.6881328832
20
173.9071523698
11
167.1668562723
21
174.5421759683
0
LINE
5
338
100
AcDbEntity
8
0
100
AcDbLine
62
7
6
CONTINUOUS
10
166.3689839292
20
174.6691809787
11
166.0498350311
21
174.2881666742
0
LINE
5
339
100
AcDbEntity
8
DEFAULT_1
100
AcDbLine
62
2
6
CENTER
10
121.3264307353
20
262.4299091941
11
103.4688200770
21
262.4299091941
0
LINE
5
33A
100
AcDbEntity
8
DEFAULT_1
100
AcDbLine
62
2
6
CENTER
10
121.3264307353
20
262.4299091941
11
139.3882791311
21
262.4299091941
0
LINE
5
33B
100
AcDbEntity
8
0
100
AcDbLine
62
7
6
CONTINUOUS
10
189.8264307353
20
96.5549091941
11
189.8264307353
21
150.5549091941
0
LINE
5
33C
100
AcDbEntity
8
0
100
AcDbLine
62
7
6
CONTINUOUS
10
119.3264307353
20
289.4299091941
11
123.3264307353
21
289.4299091941
0
LINE
5
33D
100
AcDbEntity
8
0
100
AcDbLine
62
7
6
CONTINUOUS
10
295.1228375546
20
96.5549091941
11
294.8728375546
21
96.5549091941
0
LINE
5
33E
100
AcDbEntity
8
0
100
AcDbLine
62
7
6
CONTINUOUS
10
290.9978375546
20
102.4299091941
11
298.9978375546
21
102.4299091941
0
LINE
5
33F
100
AcDbEntity
8
0
100
AcDbLine
62
7
6
CONTINUOUS
10
271.9978375546
20
113.3995643087
11
290.9978375546
21
102.4299091941
0
LINE
5
340
100
AcDbEntity
8
DEFAULT_1
100
AcDbLine
62
2
6
CENTER
10
294.9978375546
20
126.4299091941
11
276.9978375546
21
126.4299091941
0
LINE
5
341
100
AcDbEntity
8
DEFAULT_1
100
AcDbLine
62
2
6
CENTER
10
294.9978375546
20
126.4299091941
11
312.9978375546
21
126.4299091941
0
LINE
5
342
100
AcDbEntity
8
0
100
AcDbLine
62
7
6
CONTINUOUS
10
250.9978375546
20
245.3121609965
11
250.9978375546
21
289.4299091941
0
LINE
5
343
100
AcDbEntity
8
0
100
AcDbLine
62
7
6
CONTINUOUS
10
290.9978375546
20
150.4299091941
11
298.9978375546
21
150.4299091941
0
LINE
5
344
100
AcDbEntity
8
0
100
AcDbLine
62
7
6
CONTINUOUS
10
264.9978375546
20
150.5549091941
11
270.4236619336
21
150.5549091941
0
LINE
5
345
100
AcDbEntity
8
0
100
AcDbLine
62
7
6
CONTINUOUS
10
319.5720131756
20
150.5549091941
11
324.9978375546
21
150.5549091941
0
LINE
5
346
100
AcDbEntity
8
0
100
AcDbLine
62
7
6
CONTINUOUS
10
317.9978375546
20
139.4602540795
11
298.9978375546
21
150.4299091941
0
LINE
5
347
100
AcDbEntity
8
0
100
AcDbLine
62
7
6
CONTINUOUS
10
264.9978375546
20
126.4299091941
11
264.9978375546
21
150.5549091941
0
LINE
5
348
100
AcDbEntity
8
0
100
AcDbLine
62
7
6
CONTINUOUS
10
271.9978375546
20
139.4602540795
11
271.9978375546
21
113.3995643087
0
LINE
5
349
100
AcDbEntity
8
0
100
AcDbLine
62
7
6
CONTINUOUS
10
281.4978375546
20
199.2251599788
11
281.4978375546
21
165.5549091941
0
LINE
5
34A
100
AcDbEntity
8
0
100
AcDbLine
62
7
6
CONTINUOUS
10
283.7478375546
20
289.4299091941
11
283.7478375546
21
236.1799091941
0
LINE
5
34B
100
AcDbEntity
8
0
100
AcDbLine
62
7
6
CONTINUOUS
10
284.9978375546
20
210.6474821973
11
284.9978375546
21
165.5549091941
0
LINE
5
34C
100
AcDbEntity
8
0
100
AcDbLine
62
7
6
CONTINUOUS
10
290.9978375546
20
150.4299091941
11
290.9978375546
21
102.4299091941
0
LINE
5
34D
100
AcDbEntity
8
DEFAULT_1
100
AcDbLine
62
2
6
CENTER
10
294.9978375546
20
262.4299091941
11
294.9978375546
21
163.2451878546
0
LINE
5
34E
100
AcDbEntity
8
DEFAULT_1
100
AcDbLine
62
2
6
CENTER
10
294.9978375546
20
126.4299091941
11
294.9978375546
21
108.4299091941
0
LINE
5
34F
100
AcDbEntity
8
DEFAULT_1
100
AcDbLine
62
2
6
CENTER
10
294.9978375546
20
126.4299091941
11
294.9978375546
21
144.4299091941
0
LINE
5
350
100
AcDbEntity
8
DEFAULT_1
100
AcDbLine
62
2
6
CENTER
10
294.9978375546
20
262.4299091941
11
294.9978375546
21
290.7369979489
0
LINE
5
351
100
AcDbEntity
8
0
100
AcDbLine
62
7
6
CONTINUOUS
10
311.2159047094
20
203.7365040249
11
311.2085064952
21
203.7334341760
0
LINE
5
352
100
AcDbEntity
8
0
100
AcDbLine
62
7
6
CONTINUOUS
10
298.9978375546
20
150.4299091941
11
298.9978375546
21
102.4299091941
0
LINE
5
353
100
AcDbEntity
8
0
100
AcDbLine
62
7
6
CONTINUOUS
10
278.7797981153
20
203.7364346670
11
278.7856887197
21
203.7339913680
0
LINE
5
354
100
AcDbEntity
8
0
100
AcDbLine
62
7
6
CONTINUOUS
10
304.9978375546
20
210.6474926018
11
304.9978375546
21
165.5549091941
0
LINE
5
355
100
AcDbEntity
8
0
100
AcDbLine
62
7
6
CONTINUOUS
10
306.2478375546
20
236.1799091941
11
306.2478375546
21
289.4299091941
0
LINE
5
356
100
AcDbEntity
8
0
100
AcDbLine
62
7
6
CONTINUOUS
10
308.4978346253
20
199.2231167613
11
308.4978375546
21
165.5549091941
0
LINE
5
357
100
AcDbEntity
8
0
100
AcDbLine
62
7
6
CONTINUOUS
10
317.9978375546
20
113.3995643087
11
317.9978375546
21
139.4602540795
0
LINE
5
358
100
AcDbEntity
8
0
100
AcDbLine
62
7
6
CONTINUOUS
10
324.9978375546
20
150.5549091941
11
324.9978375546
21
126.4299091941
0
LINE
5
359
100
AcDbEntity
8
0
100
AcDbLine
62
7
6
CONTINUOUS
10
290.9978375546
20
150.4299091941
11
271.9978375546
21
139.4602540795
0
LINE
5
35A
100
AcDbEntity
8
0
100
AcDbLine
62
7
6
CONTINUOUS
10
338.9978375546
20
245.3121609965
11
338.9978375546
21
289.4299091941
0
LINE
5
35B
100
AcDbEntity
8
0
100
AcDbLine
62
7
6
CONTINUOUS
10
283.7478375546
20
250.1799091941
11
306.2478375546
21
250.1799091941
0
LINE
5
35C
100
AcDbEntity
8
DEFAULT_1
100
AcDbLine
62
2
6
CENTER
10
294.9978375546
20
262.4299091941
11
248.1947438063
21
262.4299091941
0
LINE
5
35D
100
AcDbEntity
8
DEFAULT_1
100
AcDbLine
62
2
6
CENTER
10
294.9978375546
20
262.4299091941
11
339.5568571728
21
262.4299091941
0
LINE
5
35E
100
AcDbEntity
8
0
100
AcDbLine
62
7
6
CONTINUOUS
10
298.9978375546
20
102.4299091941
11
317.9978375546
21
113.3995643087
0
LINE
5
35F
100
AcDbEntity
8
0
100
AcDbLine
62
7
6
CONTINUOUS
10
283.7478375546
20
274.6799091941
11
306.2478375546
21
274.6799091941
0
LINE
5
360
100
AcDbEntity
8
0
100
AcDbLine
62
7
6
CONTINUOUS
10
338.9978375546
20
289.4299091941
11
306.2478375546
21
289.4299091941
0
LINE
5
361
100
AcDbEntity
8
0
100
AcDbLine
62
7
6
CONTINUOUS
10
283.7478375546
20
289.4299091941
11
250.9978375546
21
289.4299091941
0
LINE
5
362
100
AcDbEntity
8
0
100
AcDbLine
62
7
6
CONTINUOUS
10
39.8264307353
20
48.6139431652
11
39.8264307353
21
40.6139431652
0
LINE
5
363
100
AcDbEntity
8
0
100
AcDbLine
62
7
6
CONTINUOUS
10
63.8264307353
20
21.6139431652
11
63.8264307353
21
40.6139431652
0
LINE
5
364
100
AcDbEntity
8
0
100
AcDbLine
62
7
6
CONTINUOUS
10
63.8264307353
20
48.6139431652
11
63.8264307353
21
67.6139431652
0
LINE
5
365
100
AcDbEntity
8
0
100
AcDbLine
62
7
6
CONTINUOUS
10
70.8264307353
20
14.6139431652
11
70.8264307353
21
74.6139431652
0
LINE
5
366
100
AcDbEntity
8
0
100
AcDbLine
62
7
6
CONTINUOUS
10
102.3264307353
20
0.6139431652
11
140.3264307353
21
0.6139431652
0
LINE
5
367
100
AcDbEntity
8
0
100
AcDbLine
62
7
6
CONTINUOUS
10
75.8264307353
20
34.6139431652
11
75.8264307353
21
34.1139431652
0
LINE
5
368
100
AcDbEntity
8
0
100
AcDbLine
62
7
6
CONTINUOUS
10
83.3264307353
20
34.5705592712
11
83.3264307353
21
34.1139431652
0
LINE
5
369
100
AcDbEntity
8
0
100
AcDbLine
62
7
6
CONTINUOUS
10
70.8264307353
20
14.6139431652
11
94.3264307353
21
14.6139431652
0
LINE
5
36A
100
AcDbEntity
8
0
100
AcDbLine
62
7
6
CONTINUOUS
10
148.3264307353
20
14.6139431652
11
164.8264307353
21
14.6139431652
0
LINE
5
36B
100
AcDbEntity
8
0
100
AcDbLine
62
7
6
CONTINUOUS
10
83.7714529619
20
54.7014968402
11
88.7537801447
21
57.5780447804
0
LINE
5
36C
100
AcDbEntity
8
0
100
AcDbLine
62
7
6
CONTINUOUS
10
70.8264307353
20
21.6139431652
11
63.8264307353
21
21.6139431652
0
LINE
5
36D
100
AcDbEntity
8
0
100
AcDbLine
62
7
6
CONTINUOUS
10
164.8264307353
20
21.6139431652
11
189.8264307353
21
21.6139431652
0
LINE
5
36E
100
AcDbEntity
8
0
100
AcDbLine
62
7
6
CONTINUOUS
10
88.7537801447
20
31.6498415501
11
83.7777885077
21
34.5227316612
0
LINE
5
36F
100
AcDbEntity
8
0
100
AcDbLine
62
7
6
CONTINUOUS
10
94.3264307353
20
11.1500111427
11
94.3264307353
21
34.8388930072
0
LINE
5
370
100
AcDbEntity
8
0
100
AcDbLine
62
7
6
CONTINUOUS
10
94.3264307353
20
54.3882760628
11
94.3264307353
21
80.6139431652
0
LINE
5
371
100
AcDbEntity
8
0
100
AcDbLine
62
7
6
CONTINUOUS
10
151.8990813260
20
31.1139431652
11
151.8587111195
21
31.1139431652
0
LINE
5
372
100
AcDbEntity
8
0
100
AcDbLine
62
7
6
CONTINUOUS
10
90.7960299284
20
31.1139431652
11
90.7537801447
21
31.1139431652
0
LINE
5
373
100
AcDbEntity
8
0
100
AcDbLine
62
7
6
CONTINUOUS
10
94.3264307353
20
33.3639431652
11
148.3264307353
21
33.3639431652
0
LINE
5
374
100
AcDbEntity
8
0
100
AcDbLine
62
7
6
CONTINUOUS
10
109.0764307353
20
55.8639431652
11
109.0764307353
21
33.3639431652
0
LINE
5
375
100
AcDbEntity
8
0
100
AcDbLine
62
7
6
CONTINUOUS
10
167.3264307353
20
34.1139431652
11
159.8264307353
21
34.1139431652
0
LINE
5
376
100
AcDbEntity
8
0
100
AcDbLine
62
7
6
CONTINUOUS
10
83.3264307353
20
34.1139431652
11
75.8264307353
21
34.1139431652
0
LINE
5
377
100
AcDbEntity
8
0
100
AcDbLine
62
7
6
CONTINUOUS
10
167.8264307353
20
34.6139431652
11
160.3264307353
21
34.6139431652
0
LINE
5
378
100
AcDbEntity
8
0
100
AcDbLine
62
7
6
CONTINUOUS
10
82.3264307353
20
34.6139431652
11
74.8264307353
21
34.6139431652
0
LINE
5
379
100
AcDbEntity
8
0
100
AcDbLine
62
7
6
CONTINUOUS
10
70.8264307353
20
40.6139431652
11
39.8275091093
21
40.6139431652
0
LINE
5
37A
100
AcDbEntity
8
DEFAULT_1
100
AcDbLine
62
2
6
CENTER
10
36.7883902681
20
44.6139431652
11
192.8264307353
21
44.6139431652
0
LINE
5
37B
100
AcDbEntity
8
DEFAULT_1
100
AcDbLine
62
2
6
CENTER
10
121.3264307353
20
19.8738405181
11
121.3264307353
21
68.3394170149
0
LINE
5
37C
100
AcDbEntity
8
0
100
AcDbLine
62
7
6
CONTINUOUS
10
70.8264307353
20
48.6139431652
11
39.8275091093
21
48.6139431652
0
LINE
5
37D
100
AcDbEntity
8
0
100
AcDbLine
62
7
6
CONTINUOUS
10
167.8264307353
20
54.6139431652
11
160.3264307353
21
54.6139431652
0
LINE
5
37E
100
AcDbEntity
8
0
100
AcDbLine
62
7
6
CONTINUOUS
10
82.3264307353
20
54.6139431652
11
74.8264307353
21
54.6139431652
0
LINE
5
37F
100
AcDbEntity
8
0
100
AcDbLine
62
7
6
CONTINUOUS
10
94.3264307353
20
55.8639431652
11
148.3264307353
21
55.8639431652
0
LINE
5
380
100
AcDbEntity
8
0
100
AcDbLine
62
7
6
CONTINUOUS
10
151.8990813260
20
58.1139431652
11
151.8587893653
21
58.1139431652
0
LINE
5
381
100
AcDbEntity
8
0
100
AcDbLine
62
7
6
CONTINUOUS
10
90.7959827458
20
58.1139431652
11
90.7537801447
21
58.1139431652
0
LINE
5
382
100
AcDbEntity
8
0
100
AcDbLine
62
7
6
CONTINUOUS
10
133.5764307353
20
55.8639431652
11
133.5764307353
21
33.3639431652
0
LINE
5
383
100
AcDbEntity
8
0
100
AcDbLine
62
7
6
CONTINUOUS
10
70.8264307353
20
67.6139431652
11
63.8264307353
21
67.6139431652
0
LINE
5
384
100
AcDbEntity
8
0
100
AcDbLine
62
7
6
CONTINUOUS
10
164.8264307353
20
67.6139431652
11
189.8264307353
21
67.6139431652
0
LINE
5
385
100
AcDbEntity
8
0
100
AcDbLine
62
7
6
CONTINUOUS
10
148.3264307353
20
11.1500111427
11
148.3264307353
21
34.8388950790
0
LINE
5
386
100
AcDbEntity
8
0
100
AcDbLine
62
7
6
CONTINUOUS
10
148.3264307353
20
54.3882770039
11
148.3264307353
21
80.6139431652
0
LINE
5
387
100
AcDbEntity
8
0
100
AcDbLine
62
7
6
CONTINUOUS
10
158.8817377888
20
34.5265796001
11
153.8990813260
21
31.6498415501
0
LINE
5
388
100
AcDbEntity
8
0
100
AcDbLine
62
7
6
CONTINUOUS
10
70.8264307353
20
74.6139431652
11
94.3264307353
21
74.6139431652
0
LINE
5
389
100
AcDbEntity
8
0
100
AcDbLine
62
7
6
CONTINUOUS
10
148.3264307353
20
74.6139431652
11
164.8264307353
21
74.6139431652
0
LINE
5
38A
100
AcDbEntity
8
0
100
AcDbLine
62
7
6
CONTINUOUS
10
158.8818560942
20
54.7012384266
11
153.8990813260
21
57.5780447804
0
LINE
5
38B
100
AcDbEntity
8
0
100
AcDbLine
62
7
6
CONTINUOUS
10
149.9555101985
20
60.5769529975
11
149.9550289354
21
60.5777780979
0
LINE
5
38C
100
AcDbEntity
8
0
100
AcDbLine
62
7
6
CONTINUOUS
10
159.8264307353
20
34.6139431652
11
159.8264307353
21
34.1139431652
0
LINE
5
38D
100
AcDbEntity
8
0
100
AcDbLine
62
7
6
CONTINUOUS
10
159.9860051844
20
34.6139431652
11
159.9860051844
21
34.1139431652
0
LINE
5
38E
100
AcDbEntity
8
0
100
AcDbLine
62
7
6
CONTINUOUS
10
160.4647285316
20
34.6139431652
11
160.4647285316
21
34.1139431652
0
LINE
5
38F
100
AcDbEntity
8
0
100
AcDbLine
62
7
6
CONTINUOUS
10
161.1030263278
20
34.6139431652
11
161.1030263278
21
34.1139431652
0
LINE
5
390
100
AcDbEntity
8
0
100
AcDbLine
62
7
6
CONTINUOUS
10
161.5817496750
20
34.6139431652
11
161.5817496750
21
34.1139431652
0
LINE
5
391
100
AcDbEntity
8
0
100
AcDbLine
62
7
6
CONTINUOUS
10
102.3264307353
20
88.6139431652
11
140.3264307353
21
88.6139431652
0
LINE
5
392
100
AcDbEntity
8
0
100
AcDbLine
62
7
6
CONTINUOUS
10
162.2200479183
20
34.6139431652
11
162.2200479183
21
34.1139431652
0
LINE
5
393
100
AcDbEntity
8
0
100
AcDbLine
62
7
6
CONTINUOUS
10
162.6987712655
20
34.6139431652
11
162.6987712655
21
34.1139431652
0
LINE
5
394
100
AcDbEntity
8
0
100
AcDbLine
62
7
6
CONTINUOUS
10
163.3370690617
20
34.6139431652
11
163.3370690617
21
34.1139431652
0
LINE
5
395
100
AcDbEntity
8
0
100
AcDbLine
62
7
6
CONTINUOUS
10
163.8157924089
20
34.6139431652
11
163.8157924089
21
34.1139431652
0
LINE
5
396
100
AcDbEntity
8
0
100
AcDbLine
62
7
6
CONTINUOUS
10
163.9753668580
20
34.6139431652
11
163.9753668580
21
34.1139431652
0
LINE
5
397
100
AcDbEntity
8
0
100
AcDbLine
62
7
6
CONTINUOUS
10
164.8264307353
20
14.6139431652
11
164.8264307353
21
21.6139431652
0
LINE
5
398
100
AcDbEntity
8
0
100
AcDbLine
62
7
6
CONTINUOUS
10
164.8264307353
20
67.6139431652
11
164.8264307353
21
74.6139431652
0
LINE
5
399
100
AcDbEntity
8
0
100
AcDbLine
62
7
6
CONTINUOUS
10
167.3264307353
20
34.6139431652
11
167.3264307353
21
34.1139431652
0
LINE
5
39A
100
AcDbEntity
8
0
100
AcDbLine
62
7
6
CONTINUOUS
10
171.8264307353
20
50.6139431652
11
171.8264307353
21
38.6139431652
0
LINE
5
39B
100
AcDbEntity
8
0
100
AcDbLine
62
7
6
CONTINUOUS
10
189.8264307353
20
67.6139431652
11
189.8264307353
21
21.6139431652
0
ARC
5
39C
100
AcDbEntity
8
0
100
AcDbCircle
62
7
6
CONTINUOUS
10
123.3264307353
20
264.4299091941
40
25.0000000000
100
AcDbArc
50
0.0000000000
51
1.6709455291
0
CIRCLE
5
39D
100
AcDbEntity
8
0
100
AcDbCircle
62
7
6
CONTINUOUS
10
121.3264307353
20
262.4299091941
40
12.2500000000
0
ARC
5
39E
100
AcDbEntity
8
0
100
AcDbCircle
62
7
6
CONTINUOUS
10
105.8264307353
20
190.4299091941
40
8.0000000000
100
AcDbArc
50
90.0000000000
51
180.0000000000
0
ARC
5
39F
100
AcDbEntity
8
0
100
AcDbCircle
62
7
6
CONTINUOUS
10
136.8264307353
20
190.4299091941
40
8.0000000000
100
AcDbArc
50
0.0000000000
51
90.0000000000
0
ARC
5
3A0
100
AcDbEntity
8
0
100
AcDbCircle
62
7
6
CONTINUOUS
10
136.8264307353
20
190.4299091941
40
35.0000000000
100
AcDbArc
50
0.0000000000
51
60.0000000000
0
ARC
5
3A1
100
AcDbEntity
8
0
100
AcDbCircle
62
7
6
CONTINUOUS
10
105.8264307353
20
190.4299091941
40
35.0000000000
100
AcDbArc
50
120.0000000000
51
180.0000000000
0
ARC
5
3A2
100
AcDbEntity
8
0
100
AcDbCircle
62
7
6
CONTINUOUS
10
119.3264307353
20
264.4299091941
40
25.0000000000
100
AcDbArc
50
90.0000000000
51
180.0000000000
0
ARC
5
3A3
100
AcDbEntity
8
0
100
AcDbCircle
62
7
6
CONTINUOUS
10
123.3264307353
20
264.4299091941
40
25.0000000000
100
AcDbArc
50
2.0410607231
51
90.0000000000
0
CIRCLE
5
3A4
100
AcDbEntity
8
0
100
AcDbCircle
62
7
6
CONTINUOUS
10
83.8264307353
20
141.9299091941
40
3.0000000000
0
ARC
5
3A5
100
AcDbEntity
8
0
100
AcDbCircle
62
7
6
CONTINUOUS
10
186.8264307353
20
165.5549091941
40
15.0000000000
100
AcDbArc
50
180.0000000000
51
270.0000000000
0
ARC
5
3A6
100
AcDbEntity
8
0
100
AcDbCircle
62
7
6
CONTINUOUS
10
82.3264307353
20
231.1330954045
40
11.9999948906
100
AcDbArc
50
300.0000185434
51
338.1320711441
0
ARC
5
3A7
100
AcDbEntity
8
0
100
AcDbCircle
62
7
6
CONTINUOUS
10
160.3264307353
20
231.1328135004
40
11.9998018384
100
AcDbArc
50
201.8666708185
51
239.9993084455
0
ARC
5
3A8
100
AcDbEntity
8
0
100
AcDbCircle
62
7
6
CONTINUOUS
10
63.8264307353
20
126.4299091941
40
24.0000000000
100
AcDbArc
50
90.0000000000
51
270.0000000000
0
ARC
5
3A9
100
AcDbEntity
8
0
100
AcDbCircle
62
7
6
CONTINUOUS
10
319.9978375546
20
165.5549091941
40
15.0000000000
100
AcDbArc
50
180.0000000000
51
268.3751773779
0
ARC
5
3AA
100
AcDbEntity
8
0
100
AcDbCircle
62
7
6
CONTINUOUS
10
323.4978375546
20
165.5549091941
40
15.0000000000
100
AcDbArc
50
180.0000000000
51
270.0000000000
0
ARC
5
3AB
100
AcDbEntity
8
0
100
AcDbCircle
62
7
6
CONTINUOUS
10
266.4978375546
20
165.5549091941
40
15.0000000000
100
AcDbArc
50
270.0000000000
51
360.0000000000
0
ARC
5
3AC
100
AcDbEntity
8
0
100
AcDbCircle
62
7
6
CONTINUOUS
10
295.1228375546
20
126.4299091941
40
29.8750000000
100
AcDbArc
50
270.0000000000
51
360.0000000000
0
ARC
5
3AD
100
AcDbEntity
8
0
100
AcDbCircle
62
7
6
CONTINUOUS
10
294.8728375546
20
126.4299091941
40
29.8750000000
100
AcDbArc
50
180.0000000000
51
270.0000000000
0
ARC
5
3AE
100
AcDbEntity
8
0
100
AcDbCircle
62
7
6
CONTINUOUS
10
295.9978375546
20
245.3121609965
40
45.0000000000
100
AcDbArc
50
180.0000000000
51
247.5037404222
0
ARC
5
3AF
100
AcDbEntity
8
0
100
AcDbCircle
62
7
6
CONTINUOUS
10
269.9978375546
20
165.5549091941
40
15.0000000000
100
AcDbArc
50
271.6248226221
51
360.0000000000
0
CIRCLE
5
3B0
100
AcDbEntity
8
0
100
AcDbCircle
62
7
6
CONTINUOUS
10
330.6978375546
20
262.4299091941
40
3.0000000000
0
ARC
5
3B1
100
AcDbEntity
8
0
100
AcDbCircle
62
7
6
CONTINUOUS
10
293.9978375546
20
245.3121609965
40
45.0000000000
100
AcDbArc
50
292.4961957903
51
360.0000000000
0
ARC
5
3B2
100
AcDbEntity
8
0
100
AcDbCircle
62
7
6
CONTINUOUS
10
294.9978375546
20
236.1799091941
40
11.2500000000
100
AcDbArc
50
180.0000000000
51
360.0000000000
0
ARC
5
3B3
100
AcDbEntity
8
0
100
AcDbCircle
62
7
6
CONTINUOUS
10
102.3264307353
20
80.6139431652
40
8.0000000000
100
AcDbArc
50
90.0000000000
51
180.0000000000
0
ARC
5
3B4
100
AcDbEntity
8
0
100
AcDbCircle
62
7
6
CONTINUOUS
10
90.7537801447
20
35.1139431652
40
4.0000000000
100
AcDbArc
50
240.0000000000
51
270.4578691555
0
ARC
5
3B5
100
AcDbEntity
8
0
100
AcDbCircle
62
7
6
CONTINUOUS
10
90.7537801447
20
54.1139431652
40
4.0000000000
100
AcDbArc
50
89.4926534553
51
120.0000000000
0
ARC
5
3B6
100
AcDbEntity
8
0
100
AcDbCircle
62
7
6
CONTINUOUS
10
167.8264307353
20
38.6139431652
40
4.0000000000
100
AcDbArc
50
270.0000000000
51
360.0000000000
0
ARC
5
3B7
100
AcDbEntity
8
0
100
AcDbCircle
62
7
6
CONTINUOUS
10
167.8264307353
20
50.6139431652
40
4.0000000000
100
AcDbArc
50
0.0000000000
51
90.0000000000
0
ARC
5
3B8
100
AcDbEntity
8
0
100
AcDbCircle
62
7
6
CONTINUOUS
10
151.8990813260
20
54.1139431652
40
4.0000000000
100
AcDbArc
50
60.0000000000
51
90.5409233636
0
ARC
5
3B9
100
AcDbEntity
8
0
100
AcDbCircle
62
7
6
CONTINUOUS
10
151.8990813260
20
35.1139431652
40
4.0000000000
100
AcDbArc
50
269.4580366806
51
300.0000000000
0
ARC
5
3BA
100
AcDbEntity
8
0
100
AcDbCircle
62
7
6
CONTINUOUS
10
74.8264307353
20
38.6139431652
40
4.0000000000
100
AcDbArc
50
180.0000000000
51
270.0000000000
0
ARC
5
3BB
100
AcDbEntity
8
0
100
AcDbCircle
62
7
6
CONTINUOUS
10
74.8264307353
20
50.6139431652
40
4.0000000000
100
AcDbArc
50
90.0000000000
51
180.0000000000
0
ARC
5
3BC
100
AcDbEntity
8
0
100
AcDbCircle
62
7
6
CONTINUOUS
10
102.3264307353
20
8.6139431652
40
8.0000000000
100
AcDbArc
50
183.6085252806
51
270.0000000000
0
ARC
5
3BD
100
AcDbEntity
8
0
100
AcDbCircle
62
7
6
CONTINUOUS
10
140.3264307353
20
80.6139431652
40
8.0000000000
100
AcDbArc
50
0.0000000000
51
90.0000000000
0
ARC
5
3BE
100
AcDbEntity
8
0
100
AcDbCircle
62
7
6
CONTINUOUS
10
140.3264307353
20
8.6139431652
40
8.0000000000
100
AcDbArc
50
270.0000000000
51
356.3914747194
0
ARC
5
3BF
100
AcDbEntity
8
0
100
AcDbCircle
62
7
6
CONTINUOUS
10
82.3264307353
20
22.6139176927
40
12.0000191048
100
AcDbArc
50
30.2096009651
51
90.0000000000
0
ARC
5
3C0
100
AcDbEntity
8
0
100
AcDbCircle
62
7
6
CONTINUOUS
10
160.3264307353
20
22.6139431652
40
12.0000000000
100
AcDbArc
50
90.0000000000
51
149.7905622362
0
ARC
5
3C1
100
AcDbEntity
8
0
100
AcDbCircle
62
7
6
CONTINUOUS
10
160.3264307353
20
66.6139599926
40
12.0000126208
100
AcDbArc
50
210.2095551796
51
270.0000000000
0
ARC
5
3C2
100
AcDbEntity
8
0
100
AcDbCircle
62
7
6
CONTINUOUS
10
82.3264307353
20
66.6139431652
40
12.0000000000
100
AcDbArc
50
270.0000000000
51
329.7905621092
0
SPLINE
5
3C3
100
AcDbEntity
8
0
100
AcDbSpline
62
7
6
CONTINUOUS
70
0
71
3
72
12
73
8
74
6
42
0.0000001000
43
0.0000001000
44
0.0000000001
40
0.0000000000
40
0.0000000000
40
0.0000000000
40
0.0000000000
40
0.0718427337
40
0.2267557410
40
0.4480810898
40
0.7149243417
40
1.0000000000
40
1.0000000000
40
1.0000000000
40
1.0000000000
10
148.3264307353
20
259.4449468828
30
0.0000000000
10
148.3264307353
20
259.5175133976
30
0.0000000000
10
148.2519150022
20
259.7391876466
30
0.0000000000
10
148.1484606161
20
260.1765841288
30
0.0000000000
10
147.9997761834
20
260.8106417301
30
0.0000000000
10
147.8866558968
20
261.5840717432
30
0.0000000000
10
147.8570349608
20
262.1419615349
30
0.0000000000
10
147.8570349608
20
262.4299091941
30
0.0000000000
11
148.3264307353
21
259.4449468828
31
0.0000000000
11
148.2814378810
21
259.6579462602
31
0.0000000000
11
148.1637735071
21
260.1123813082
31
0.0000000000
11
148.0188207424
21
260.7671947348
31
0.0000000000
11
147.9012729844
21
261.5671996908
31
0.0000000000
11
147.8570349608
21
262.4299091941
31
0.0000000000
0
SPLINE
5
3C4
100
AcDbEntity
8
0
100
AcDbSpline
62
7
6
CONTINUOUS
70
0
71
3
72
12
73
8
74
6
42
0.0000001000
43
0.0000001000
44
0.0000000001
40
0.0000000000
40
0.0000000000
40
0.0000000000
40
0.0000000000
40
0.2850756583
40
0.5519189102
40
0.7732442590
40
0.9281572663
40
1.0000000000
40
1.0000000000
40
1.0000000000
40
1.0000000000
10
94.7958265099
20
262.4299091941
30
0.0000000000
10
94.7958265099
20
262.1419615349
30
0.0000000000
10
94.7662055739
20
261.5840717432
30
0.0000000000
10
94.6530852873
20
260.8106417301
30
0.0000000000
10
94.5044008546
20
260.1765841288
30
0.0000000000
10
94.4009464685
20
259.7391876466
30
0.0000000000
10
94.3264307353
20
259.5175133976
30
0.0000000000
10
94.3264307353
20
259.4449468828
30
0.0000000000
11
94.7958265099
21
262.4299091941
31
0.0000000000
11
94.7515884863
21
261.5671996908
31
0.0000000000
11
94.6340407282
21
260.7671947348
31
0.0000000000
11
94.4890879636
21
260.1123813082
31
0.0000000000
11
94.3714235897
21
259.6579462602
31
0.0000000000
11
94.3264307353
21
259.4449468828
31
0.0000000000
0
SPLINE
5
3C5
100
AcDbEntity
8
0
100
AcDbSpline
62
7
6
CONTINUOUS
70
0
71
3
72
12
73
8
74
6
42
0.0000001000
43
0.0000001000
44
0.0000000001
40
0.0000000000
40
0.0000000000
40
0.0000000000
40
0.0000000000
40
0.1085456307
40
0.2765328496
40
0.4921676783
40
0.7395334410
40
1.0000000000
40
1.0000000000
40
1.0000000000
40
1.0000000000
10
94.3422917392
20
265.3203015924
30
0.0000000000
10
94.3657823453
20
265.2167520948
30
0.0000000000
10
94.4375085377
20
264.9558186353
30
0.0000000000
10
94.5551237946
20
264.4889489887
30
0.0000000000
10
94.6795960735
20
263.8840049662
30
0.0000000000
10
94.7729330225
20
263.1817550047
30
0.0000000000
10
94.7958265099
20
262.6847004707
30
0.0000000000
10
94.7958265099
20
262.4299091941
30
0.0000000000
11
94.3422917392
21
265.3203015924
31
0.0000000000
11
94.4212214756
21
265.0116936534
31
0.0000000000
11
94.5406691498
21
264.5334025257
31
0.0000000000
11
94.6664821769
21
263.9132263466
31
0.0000000000
11
94.7611296243
21
263.1934951276
31
0.0000000000
11
94.7958265099
21
262.4299091941
31
0.0000000000
0
SPLINE
5
3C6
100
AcDbEntity
8
0
100
AcDbSpline
62
7
6
CONTINUOUS
70
0
71
3
72
12
73
8
74
6
42
0.0000001000
43
0.0000001000
44
0.0000000001
40
0.0000000000
40
0.0000000000
40
0.0000000000
40
0.0000000000
40
0.2604665590
40
0.5078323217
40
0.7234671504
40
0.8914543693
40
1.0000000000
40
1.0000000000
40
1.0000000000
40
1.0000000000
10
147.8570349608
20
262.4299091941
30
0.0000000000
10
147.8570349608
20
262.6847004707
30
0.0000000000
10
147.8799284482
20
263.1817550047
30
0.0000000000
10
147.9732653971
20
263.8840049662
30
0.0000000000
10
148.0977376761
20
264.4889489887
30
0.0000000000
10
148.2153529330
20
264.9558186353
30
0.0000000000
10
148.2870791254
20
265.2167520948
30
0.0000000000
10
148.3105697315
20
265.3203015924
30
0.0000000000
11
147.8570349608
21
262.4299091941
31
0.0000000000
11
147.8917318464
21
263.1934951276
31
0.0000000000
11
147.9863792938
21
263.9132263466
31
0.0000000000
11
148.1121923209
21
264.5334025257
31
0.0000000000
11
148.2316399951
21
265.0116936534
31
0.0000000000
11
148.3105697315
21
265.3203015924
31
0.0000000000
0
SPLINE
5
3C7
100
AcDbEntity
8
0
100
AcDbSpline
62
7
6
CONTINUOUS
70
0
71
3
72
12
73
8
74
6
42
0.0000001000
43
0.0000001000
44
0.0000000001
40
0.0000000000
40
0.0000000000
40
0.0000000000
40
0.0000000000
40
0.1935963623
40
0.3919039344
40
0.6003095760
40
0.8115994578
40
1.0000000000
40
1.0000000000
40
1.0000000000
40
1.0000000000
10
94.3264307353
20
230.6150709786
30
0.0000000000
10
94.3264307637
20
230.3526503054
30
0.0000000000
10
94.3047900615
20
229.8211302923
30
0.0000000000
10
94.2004639054
20
229.0130444869
30
0.0000000000
10
94.0156849582
20
228.1946497383
30
0.0000000000
10
93.7610546236
20
227.4096525601
30
0.0000000000
10
93.5603019854
20
226.9063138435
30
0.0000000000
10
93.4651898787
20
226.6693086416
30
0.0000000000
11
94.3264307353
21
230.6150709786
31
0.0000000000
11
94.2937110298
21
229.8284891912
31
0.0000000000
11
94.1901123798
21
229.0287511843
31
0.0000000000
11
94.0041558106
21
228.2019201742
31
0.0000000000
11
93.7421394670
21
227.3836327506
31
0.0000000000
11
93.4651898787
21
226.6693086416
31
0.0000000000
0
SPLINE
5
3C8
100
AcDbEntity
8
0
100
AcDbSpline
62
7
6
CONTINUOUS
70
0
71
3
72
12
73
8
74
6
42
0.0000001000
43
0.0000001000
44
0.0000000001
40
0.0000000000
40
0.0000000000
40
0.0000000000
40
0.0000000000
40
0.1900223796
40
0.4010719534
40
0.6087406319
40
0.8066991913
40
1.0000000000
40
1.0000000000
40
1.0000000000
40
1.0000000000
10
149.1876591316
20
226.6693409717
30
0.0000000000
10
149.0917286120
20
226.9083866234
30
0.0000000000
10
148.8903144963
20
227.4134839862
30
0.0000000000
10
148.6359072063
20
228.1994767713
30
0.0000000000
10
148.4519098748
20
229.0161919395
30
0.0000000000
10
148.3480011500
20
229.8224376594
30
0.0000000000
10
148.3264307069
20
230.3530825248
30
0.0000000000
10
148.3264307353
20
230.6151026294
30
0.0000000000
11
149.1876591316
21
226.6693409717
31
0.0000000000
11
148.9084605569
21
227.3898668557
31
0.0000000000
11
148.6472121114
21
228.2073741127
31
0.0000000000
11
148.4622896990
21
229.0313660728
31
0.0000000000
11
148.3590477588
21
229.8297193175
31
0.0000000000
11
148.3264307353
21
230.6151026294
31
0.0000000000
0
SPLINE
5
3C9
100
AcDbEntity
8
0
100
AcDbSpline
62
7
6
CONTINUOUS
70
0
71
3
72
11
73
7
74
5
42
0.0000001000
43
0.0000001000
44
0.0000000001
40
0.0000000000
40
0.0000000000
40
0.0000000000
40
0.0000000000
40
0.2439068034
40
0.5007407974
40
0.7570870089
40
1.0000000000
40
1.0000000000
40
1.0000000000
40
1.0000000000
10
167.8264307402
20
150.6888404468
30
0.0000000000
10
168.5164030033
20
150.6888404468
30
0.0000000000
10
169.9329363584
20
150.6768281045
30
0.0000000000
10
172.0741059370
20
150.6290417578
30
0.0000000000
10
174.2122468203
20
150.5742410788
30
0.0000000000
10
175.6245511781
20
150.5549091941
30
0.0000000000
10
176.3117121096
20
150.5549091941
30
0.0000000000
11
167.8264307402
21
150.6888404468
31
0.0000000000
11
169.8962829472
21
150.6724894283
31
0.0000000000
11
172.0754484023
21
150.6278078392
31
0.0000000000
11
174.2503554196
21
150.5777106907
31
0.0000000000
11
176.3117121096
21
150.5549091941
31
0.0000000000
0
SPLINE
5
3CA
100
AcDbEntity
8
0
100
AcDbSpline
62
7
6
CONTINUOUS
70
0
71
3
72
9
73
5
74
3
42
0.0000001000
43
0.0000001000
44
0.0000000001
40
0.0000000000
40
0.0000000000
40
0.0000000000
40
0.0000000000
40
0.3624206027
40
1.0000000000
40
1.0000000000
40
1.0000000000
40
1.0000000000
10
278.8177863848
20
203.7203049636
30
0.0000000000
10
278.9972958309
20
203.6428322243
30
0.0000000000
10
279.4730936253
20
203.3803253653
30
0.0000000000
10
279.8828544914
20
203.0237798103
30
0.0000000000
10
280.1170838476
20
202.7715415828
30
0.0000000000
11
278.8177863848
21
203.7203049636
31
0.0000000000
11
279.3334998135
21
203.4402045763
31
0.0000000000
11
280.1170838476
21
202.7715415828
31
0.0000000000
0
SPLINE
5
3CB
100
AcDbEntity
8
0
100
AcDbSpline
62
7
6
CONTINUOUS
70
0
71
3
72
10
73
6
74
4
42
0.0000001000
43
0.0000001000
44
0.0000000001
40
0.0000000000
40
0.0000000000
40
0.0000000000
40
0.0000000000
40
0.3149506750
40
0.7160100117
40
1.0000000000
40
1.0000000000
40
1.0000000000
40
1.0000000000
10
280.1930181006
20
202.6878341507
30
0.0000000000
10
280.4560659808
20
202.3910030771
30
0.0000000000
10
280.9717645135
20
201.6433603237
30
0.0000000000
10
281.4059257140
20
200.4471836419
30
0.0000000000
10
281.4976147058
20
199.5823535640
30
0.0000000000
10
281.4977865912
20
199.2248439277
30
0.0000000000
11
280.1930181006
21
202.6878341507
31
0.0000000000
11
280.8701132555
21
201.7122159092
31
0.0000000000
11
281.3862383810
21
200.2915907171
31
0.0000000000
11
281.4977865912
21
199.2248439277
31
0.0000000000
0
SPLINE
5
3CC
100
AcDbEntity
8
0
100
AcDbSpline
62
7
6
CONTINUOUS
70
0
71
3
72
9
73
5
74
3
42
0.0000001000
43
0.0000001000
44
0.0000000001
40
0.0000000000
40
0.0000000000
40
0.0000000000
40
0.0000000000
40
0.3736253957
40
1.0000000000
40
1.0000000000
40
1.0000000000
40
1.0000000000
10
278.7855778381
20
203.7339810370
30
0.0000000000
10
278.9755300282
20
203.6546238102
30
0.0000000000
10
279.4632209318
20
203.3888417324
30
0.0000000000
10
279.8820320793
20
203.0246734627
30
0.0000000000
10
280.1171339701
20
202.7714815300
30
0.0000000000
11
278.7855778381
21
203.7339810370
31
0.0000000000
11
279.3303421078
21
203.4422836297
31
0.0000000000
11
280.1171339701
21
202.7714815300
31
0.0000000000
0
SPLINE
5
3CD
100
AcDbEntity
8
0
100
AcDbSpline
62
7
6
CONTINUOUS
70
0
71
3
72
8
73
4
74
2
42
0.0000001000
43
0.0000001000
44
0.0000000001
40
0.0000000000
40
0.0000000000
40
0.0000000000
40
0.0000000000
40
1.0000000000
40
1.0000000000
40
1.0000000000
40
1.0000000000
10
280.1171339701
20
202.7714815300
30
0.0000000000
10
280.1427314884
20
202.7439143969
30
0.0000000000
10
280.1680061992
20
202.7160498796
30
0.0000000000
10
280.1929551826
20
202.6878973345
30
0.0000000000
11
280.1171339701
21
202.7714815300
31
0.0000000000
11
280.1929551826
21
202.6878973345
31
0.0000000000
0
SPLINE
5
3CE
100
AcDbEntity
8
0
100
AcDbSpline
62
7
6
CONTINUOUS
70
0
71
3
72
9
73
5
74
3
42
0.0000001000
43
0.0000001000
44
0.0000000001
40
0.0000000000
40
0.0000000000
40
0.0000000000
40
0.0000000000
40
0.4410694939
40
1.0000000000
40
1.0000000000
40
1.0000000000
40
1.0000000000
10
280.1930142217
20
202.6878307133
30
0.0000000000
10
280.4565133809
20
202.3904861539
30
0.0000000000
10
280.9715431416
20
201.6434988650
30
0.0000000000
10
281.2821159588
20
200.7880251792
30
0.0000000000
10
281.3856577040
20
200.2943586275
30
0.0000000000
11
280.1930142217
21
202.6878307133
31
0.0000000000
11
280.8710656889
21
201.7104343500
31
0.0000000000
11
281.3856577040
21
200.2943586275
31
0.0000000000
0
SPLINE
5
3CF
100
AcDbEntity
8
0
100
AcDbSpline
62
7
6
CONTINUOUS
70
0
71
3
72
8
73
4
74
2
42
0.0000001000
43
0.0000001000
44
0.0000000001
40
0.0000000000
40
0.0000000000
40
0.0000000000
40
0.0000000000
40
1.0000000000
40
1.0000000000
40
1.0000000000
40
1.0000000000
10
281.3856577040
20
200.2943586275
30
0.0000000000
10
281.4594023721
20
199.9427586431
30
0.0000000000
10
281.4976150884
20
199.5832879112
30
0.0000000000
10
281.4977885290
20
199.2248354427
30
0.0000000000
11
281.3856577040
21
200.2943586275
31
0.0000000000
11
281.4977885290
21
199.2248354427
31
0.0000000000
0
SPLINE
5
3D0
100
AcDbEntity
8
0
100
AcDbSpline
62
7
6
CONTINUOUS
70
0
71
3
72
8
73
4
74
2
42
0.0000001000
43
0.0000001000
44
0.0000000001
40
0.0000000000
40
0.0000000000
40
0.0000000000
40
0.0000000000
40
1.0000000000
40
1.0000000000
40
1.0000000000
40
1.0000000000
10
308.4978721000
20
199.2245184635
30
0.0000000000
10
308.4980300708
20
199.5798872381
30
0.0000000000
10
308.5355740557
20
199.9362465835
30
0.0000000000
10
308.6080599331
20
200.2849603042
30
0.0000000000
11
308.4978721000
21
199.2245184635
31
0.0000000000
11
308.6080599331
21
200.2849603042
31
0.0000000000
0
SPLINE
5
3D1
100
AcDbEntity
8
0
100
AcDbSpline
62
7
6
CONTINUOUS
70
0
71
3
72
9
73
5
74
3
42
0.0000001000
43
0.0000001000
44
0.0000000001
40
0.0000000000
40
0.0000000000
40
0.0000000000
40
0.0000000000
40
0.5594576109
40
1.0000000000
40
1.0000000000
40
1.0000000000
40
1.0000000000
10
308.6080599331
20
200.2849603042
30
0.0000000000
10
308.7111937686
20
200.7811146555
30
0.0000000000
10
309.0219770529
20
201.6402978490
30
0.0000000000
10
309.5388700309
20
202.3901545479
30
0.0000000000
10
309.8030682719
20
202.6881904327
30
0.0000000000
11
308.6080599331
21
200.2849603042
31
0.0000000000
11
309.1234447700
21
201.7082494014
31
0.0000000000
11
309.8030682719
21
202.6881904327
31
0.0000000000
0
SPLINE
5
3D2
100
AcDbEntity
8
0
100
AcDbSpline
62
7
6
CONTINUOUS
70
0
71
3
72
8
73
4
74
2
42
0.0000001000
43
0.0000001000
44
0.0000000001
40
0.0000000000
40
0.0000000000
40
0.0000000000
40
0.0000000000
40
1.0000000000
40
1.0000000000
40
1.0000000000
40
1.0000000000
10
309.8030682719
20
202.6881904327
30
0.0000000000
10
309.8266559600
20
202.7147991545
30
0.0000000000
10
309.8505344686
20
202.7411503521
30
0.0000000000
10
309.8747012952
20
202.7672361334
30
0.0000000000
11
309.8030682719
21
202.6881904327
31
0.0000000000
11
309.8747012952
21
202.7672361334
31
0.0000000000
0
SPLINE
5
3D3
100
AcDbEntity
8
0
100
AcDbSpline
62
7
6
CONTINUOUS
70
0
71
3
72
9
73
5
74
3
42
0.0000001000
43
0.0000001000
44
0.0000000001
40
0.0000000000
40
0.0000000000
40
0.0000000000
40
0.0000000000
40
0.6206626376
40
1.0000000000
40
1.0000000000
40
1.0000000000
40
1.0000000000
10
309.8747012952
20
202.7672361334
30
0.0000000000
10
310.1079144644
20
203.0189674766
30
0.0000000000
10
310.5269228138
20
203.3847288414
30
0.0000000000
10
311.0153148544
20
203.6523458479
30
0.0000000000
10
311.2085895050
20
203.7332358364
30
0.0000000000
11
309.8747012952
21
202.7672361334
31
0.0000000000
11
310.6547682509
21
203.4351889267
31
0.0000000000
11
311.2085895050
21
203.7332358364
31
0.0000000000
0
SPLINE
5
3D4
100
AcDbEntity
8
0
100
AcDbSpline
62
7
6
CONTINUOUS
70
0
71
3
72
11
73
7
74
5
42
0.0000001000
43
0.0000001000
44
0.0000000001
40
0.0000000000
40
0.0000000000
40
0.0000000000
40
0.0000000000
40
0.2059658821
40
0.4544995126
40
0.7276074545
40
1.0000000000
40
1.0000000000
40
1.0000000000
40
1.0000000000
10
94.3264307353
20
11.1500111427
30
0.0000000000
10
94.3264307353
20
10.9413202454
30
0.0000000000
10
94.3325553267
20
10.4808285542
30
0.0000000000
10
94.3431143379
20
9.7436781512
30
0.0000000000
10
94.3480296152
20
8.9391349743
30
0.0000000000
10
94.3450259679
20
8.3864138792
30
0.0000000000
10
94.3422917392
20
8.1104310097
30
0.0000000000
11
94.3264307353
21
11.1500111427
31
0.0000000000
11
94.3320784509
21
10.5239639248
31
0.0000000000
11
94.3417723216
21
9.7685606165
31
0.0000000000
11
94.3464347479
21
8.9384098849
31
0.0000000000
11
94.3422917392
21
8.1104310097
31
0.0000000000
0
SPLINE
5
3D5
100
AcDbEntity
8
0
100
AcDbSpline
62
7
6
CONTINUOUS
70
0
71
3
72
10
73
6
74
4
42
0.0000001000
43
0.0000001000
44
0.0000000001
40
0.0000000000
40
0.0000000000
40
0.0000000000
40
0.0000000000
40
0.2752806421
40
0.6445857340
40
1.0000000000
40
1.0000000000
40
1.0000000000
40
1.0000000000
10
94.3265455231
20
66.1490893549
30
0.0000000000
10
94.3250850260
20
65.6112320974
30
0.0000000000
10
94.1962746744
20
64.3501313345
30
0.0000000000
10
93.6610529650
20
62.4620570031
30
0.0000000000
10
93.0469136926
20
61.1775215548
30
0.0000000000
10
92.6975095132
20
60.5772182836
30
0.0000000000
11
94.3265455231
21
66.1490893549
31
0.0000000000
11
94.1756348391
21
64.5421242475
31
0.0000000000
11
93.5948657553
21
62.4575879242
31
0.0000000000
11
92.6975095132
21
60.5772182836
31
0.0000000000
0
SPLINE
5
3D6
100
AcDbEntity
8
0
100
AcDbSpline
62
7
6
CONTINUOUS
70
0
71
3
72
10
73
6
74
4
42
0.0000001000
43
0.0000001000
44
0.0000000001
40
0.0000000000
40
0.0000000000
40
0.0000000000
40
0.0000000000
40
0.3515503810
40
0.7212418515
40
1.0000000000
40
1.0000000000
40
1.0000000000
40
1.0000000000
10
149.9550241640
20
60.5777753211
30
0.0000000000
10
149.6093837029
20
61.1716797027
30
0.0000000000
10
148.9971372781
20
62.4496423598
30
0.0000000000
10
148.4586091459
20
64.3370596467
30
0.0000000000
10
148.3277097791
20
65.6058425197
30
0.0000000000
10
148.3263185952
20
66.1505520446
30
0.0000000000
11
149.9550241640
21
60.5777753211
31
0.0000000000
11
149.0657165607
21
62.4372940301
31
0.0000000000
11
148.4805964460
21
64.5232787679
31
0.0000000000
11
148.3263185952
21
66.1505520446
31
0.0000000000
0
SPLINE
5
3D7
100
AcDbEntity
8
0
100
AcDbSpline
62
7
6
CONTINUOUS
70
0
71
3
72
10
73
6
74
4
42
0.0000001000
43
0.0000001000
44
0.0000000001
40
0.0000000000
40
0.0000000000
40
0.0000000000
40
0.0000000000
40
0.3493360486
40
0.7193043775
40
1.0000000000
40
1.0000000000
40
1.0000000000
40
1.0000000000
10
92.6988141168
20
28.6484385564
30
0.0000000000
10
93.0420508367
20
28.0583497419
30
0.0000000000
10
93.6529620635
20
26.7845139576
30
0.0000000000
10
94.1933290264
20
24.8981168313
30
0.0000000000
10
94.3251043259
20
23.6252876415
30
0.0000000000
10
94.3264971412
20
23.0769294454
30
0.0000000000
11
92.6988141168
21
28.6484385564
31
0.0000000000
11
93.5830245431
21
26.8014618639
31
0.0000000000
11
94.1704989740
21
24.7150288921
31
0.0000000000
11
94.3264971412
21
23.0769294454
31
0.0000000000
0
SPLINE
5
3D8
100
AcDbEntity
8
0
100
AcDbSpline
62
7
6
CONTINUOUS
70
0
71
3
72
10
73
6
74
4
42
0.0000001000
43
0.0000001000
44
0.0000000001
40
0.0000000000
40
0.0000000000
40
0.0000000000
40
0.0000000000
40
0.2770419392
40
0.6465784664
40
1.0000000000
40
1.0000000000
40
1.0000000000
40
1.0000000000
10
148.3263594729
20
23.0784949740
30
0.0000000000
10
148.3278250345
20
23.6198443378
30
0.0000000000
10
148.4574956909
20
24.8849914200
30
0.0000000000
10
148.9947236212
20
26.7727066256
30
0.0000000000
10
149.6080063261
20
28.0538251392
30
0.0000000000
10
149.9554413587
20
28.6508347035
30
0.0000000000
11
148.3263594729
21
23.0784949740
31
0.0000000000
11
148.4789115415
21
24.6958226523
31
0.0000000000
11
149.0621377741
21
26.7812796899
31
0.0000000000
11
149.9554413587
21
28.6508347035
31
0.0000000000
0
SPLINE
5
3D9
100
AcDbEntity
8
0
100
AcDbSpline
62
7
6
CONTINUOUS
70
0
71
3
72
11
73
7
74
5
42
0.0000001000
43
0.0000001000
44
0.0000000001
40
0.0000000000
40
0.0000000000
40
0.0000000000
40
0.0000000000
40
0.2723925455
40
0.5455004874
40
0.7940341179
40
1.0000000000
40
1.0000000000
40
1.0000000000
40
1.0000000000
10
148.3105697315
20
8.1104310097
30
0.0000000000
10
148.3078355028
20
8.3864138792
30
0.0000000000
10
148.3048318555
20
8.9391349743
30
0.0000000000
10
148.3097471328
20
9.7436781512
30
0.0000000000
10
148.3203061440
20
10.4808285542
30
0.0000000000
10
148.3264307353
20
10.9413202454
30
0.0000000000
10
148.3264307353
20
11.1500111427
30
0.0000000000
11
148.3105697315
21
8.1104310097
31
0.0000000000
11
148.3064267228
21
8.9384098849
31
0.0000000000
11
148.3110891491
21
9.7685606165
31
0.0000000000
11
148.3207830197
21
10.5239639248
31
0.0000000000
11
148.3264307353
21
11.1500111427
31
0.0000000000
0
SPLINE
5
3DA
100
AcDbEntity
8
0
100
AcDbSpline
62
7
6
CONTINUOUS
70
0
71
3
72
14
73
10
74
8
42
0.0000001000
43
0.0000001000
44
0.0000000001
40
0.0000000000
40
0.0000000000
40
0.0000000000
40
0.0000000000
40
0.0207031752
40
0.0974589576
40
0.2197359200
40
0.3804010878
40
0.5706579920
40
0.7806448521
40
1.0000000000
40
1.0000000000
40
1.0000000000
40
1.0000000000
10
83.5975221614
20
54.6971058977
30
0.0000000000
10
83.5699389451
20
54.8000478626
30
0.0000000000
10
83.4400926053
20
55.2846409997
30
0.0000000000
10
83.1473344472
20
56.3772293200
30
0.0000000000
10
82.6681023837
20
58.1657477297
30
0.0000000000
10
82.0376507139
20
60.5186253933
30
0.0000000000
10
81.2903415540
20
63.3076211469
30
0.0000000000
10
80.4648386674
20
66.3884398615
30
0.0000000000
10
79.8928185105
20
68.5232481501
30
0.0000000000
10
79.6005676620
20
69.6139431652
30
0.0000000000
11
83.5975221614
21
54.6971058977
31
0.0000000000
11
83.5147725124
21
55.0059317924
31
0.0000000000
11
83.2079831422
21
56.1508853089
31
0.0000000000
11
82.7192476871
21
57.9748708589
31
0.0000000000
11
82.0770763218
21
60.3714870213
31
0.0000000000
11
81.3166281327
21
63.2095182997
31
0.0000000000
11
80.4773202075
21
66.3418581197
31
0.0000000000
11
79.6005676620
21
69.6139431652
31
0.0000000000
0
SPLINE
5
3DB
100
AcDbEntity
8
0
100
AcDbSpline
62
7
6
CONTINUOUS
70
0
71
3
72
13
73
9
74
7
42
0.0000001000
43
0.0000001000
44
0.0000000001
40
0.0000000000
40
0.0000000000
40
0.0000000000
40
0.0000000000
40
0.2281754364
40
0.4466058853
40
0.6445130351
40
0.8116385625
40
0.9388322916
40
1.0000000000
40
1.0000000000
40
1.0000000000
40
1.0000000000
10
79.6005676620
20
19.6139431652
30
0.0000000000
10
79.8928185105
20
20.7046381804
30
0.0000000000
10
80.4648386674
20
22.8394464689
30
0.0000000000
10
81.2903415540
20
25.9202651836
30
0.0000000000
10
82.0376507139
20
28.7092609372
30
0.0000000000
10
82.6681023837
20
31.0621386008
30
0.0000000000
10
83.1234159300
20
32.7613918889
30
0.0000000000
10
83.3646723545
20
33.6617731228
30
0.0000000000
10
83.4430169607
20
33.9541591734
30
0.0000000000
11
79.6005676620
21
19.6139431652
31
0.0000000000
11
80.4773202075
21
22.8860282107
31
0.0000000000
11
81.3166281327
21
26.0183680308
31
0.0000000000
11
82.0770763218
21
28.8563993092
31
0.0000000000
11
82.7192476871
21
31.2530154716
31
0.0000000000
11
83.2079831422
21
33.0770010216
31
0.0000000000
11
83.4430169607
21
33.9541591734
31
0.0000000000
0
SPLINE
5
3DC
100
AcDbEntity
8
0
100
AcDbSpline
62
7
6
CONTINUOUS
70
0
71
3
72
8
73
4
74
2
42
0.0000001000
43
0.0000001000
44
0.0000000001
40
0.0000000000
40
0.0000000000
40
0.0000000000
40
0.0000000000
40
1.0000000000
40
1.0000000000
40
1.0000000000
40
1.0000000000
10
83.4430169607
20
33.9541591734
30
0.0000000000
10
83.4501545754
20
33.9807971143
30
0.0000000000
10
83.4572921902
20
34.0074350552
30
0.0000000000
10
83.4644298049
20
34.0340729962
30
0.0000000000
11
83.4430169607
21
33.9541591734
31
0.0000000000
11
83.4644298049
21
34.0340729962
31
0.0000000000
0
SPLINE
5
3DD
100
AcDbEntity
8
0
100
AcDbSpline
62
7
6
CONTINUOUS
70
0
71
3
72
8
73
4
74
2
42
0.0000001000
43
0.0000001000
44
0.0000000001
40
0.0000000000
40
0.0000000000
40
0.0000000000
40
0.0000000000
40
1.0000000000
40
1.0000000000
40
1.0000000000
40
1.0000000000
10
83.4644298049
20
34.0340729962
30
0.0000000000
10
83.4812107074
20
34.0967001768
30
0.0000000000
10
83.4979916099
20
34.1593273574
30
0.0000000000
10
83.5147725124
20
34.2219545381
30
0.0000000000
11
83.4644298049
21
34.0340729962
31
0.0000000000
11
83.5147725124
21
34.2219545381
31
0.0000000000
0
SPLINE
5
3DE
100
AcDbEntity
8
0
100
AcDbSpline
62
7
6
CONTINUOUS
70
0
71
3
72
8
73
4
74
2
42
0.0000001000
43
0.0000001000
44
0.0000000001
40
0.0000000000
40
0.0000000000
40
0.0000000000
40
0.0000000000
40
1.0000000000
40
1.0000000000
40
1.0000000000
40
1.0000000000
10
83.5147725124
20
34.2219545381
30
0.0000000000
10
83.5409523255
20
34.3196589310
30
0.0000000000
10
83.5671321387
20
34.4173633239
30
0.0000000000
10
83.5933119519
20
34.5150677167
30
0.0000000000
11
83.5147725124
21
34.2219545381
31
0.0000000000
11
83.5933119519
21
34.5150677167
31
0.0000000000
0
SPLINE
5
3DF
100
AcDbEntity
8
0
100
AcDbSpline
62
7
6
CONTINUOUS
70
0
71
3
72
8
73
4
74
2
42
0.0000001000
43
0.0000001000
44
0.0000000001
40
0.0000000000
40
0.0000000000
40
0.0000000000
40
0.0000000000
40
1.0000000000
40
1.0000000000
40
1.0000000000
40
1.0000000000
10
83.5933119519
20
34.5150677167
30
0.0000000000
10
83.5947149086
20
34.5203036225
30
0.0000000000
10
83.5961178653
20
34.5255395282
30
0.0000000000
10
83.5975208220
20
34.5307754339
30
0.0000000000
11
83.5933119519
21
34.5150677167
31
0.0000000000
11
83.5975208220
21
34.5307754339
31
0.0000000000
0
SPLINE
5
3E0
100
AcDbEntity
8
0
100
AcDbSpline
62
7
6
CONTINUOUS
70
0
71
3
72
14
73
10
74
8
42
0.0000001000
43
0.0000001000
44
0.0000000001
40
0.0000000000
40
0.0000000000
40
0.0000000000
40
0.0000000000
40
0.0207028589
40
0.0974586661
40
0.2197356681
40
0.3804008877
40
0.5706578533
40
0.7806447812
40
1.0000000000
40
1.0000000000
40
1.0000000000
40
1.0000000000
10
159.0553406001
20
34.5307756153
30
0.0000000000
10
159.0829233862
20
34.4278352562
30
0.0000000000
10
159.2127692956
20
33.9432437250
30
0.0000000000
10
159.5055270234
20
32.8506570104
30
0.0000000000
10
159.9847590869
20
31.0621386008
30
0.0000000000
10
160.6152107568
20
28.7092609372
30
0.0000000000
10
161.3625199167
20
25.9202651836
30
0.0000000000
10
162.1880228033
20
22.8394464689
30
0.0000000000
10
162.7600429602
20
20.7046381804
30
0.0000000000
10
163.0522938087
20
19.6139431652
30
0.0000000000
11
159.0553406001
21
34.5307756153
31
0.0000000000
11
159.1380889583
21
34.2219545381
31
0.0000000000
11
159.4448783284
21
33.0770010216
31
0.0000000000
11
159.9336137836
21
31.2530154716
31
0.0000000000
11
160.5757851489
21
28.8563993092
31
0.0000000000
11
161.3362333380
21
26.0183680308
31
0.0000000000
11
162.1755412632
21
22.8860282107
31
0.0000000000
11
163.0522938087
21
19.6139431652
31
0.0000000000
0
SPLINE
5
3E1
100
AcDbEntity
8
0
100
AcDbSpline
62
7
6
CONTINUOUS
70
0
71
3
72
14
73
10
74
8
42
0.0000001000
43
0.0000001000
44
0.0000000001
40
0.0000000000
40
0.0000000000
40
0.0000000000
40
0.0000000000
40
0.0207031533
40
0.0974589375
40
0.2197359026
40
0.3804010740
40
0.5706579824
40
0.7806448472
40
1.0000000000
40
1.0000000000
40
1.0000000000
40
1.0000000000
10
159.0553393984
20
54.6971062305
30
0.0000000000
10
159.0829225850
20
54.8000480845
30
0.0000000000
10
159.2127688951
20
55.2846411106
30
0.0000000000
10
159.5055270234
20
56.3772293200
30
0.0000000000
10
159.9847590869
20
58.1657477297
30
0.0000000000
10
160.6152107568
20
60.5186253933
30
0.0000000000
10
161.3625199167
20
63.3076211469
30
0.0000000000
10
162.1880228033
20
66.3884398615
30
0.0000000000
10
162.7600429602
20
68.5232481501
30
0.0000000000
10
163.0522938087
20
69.6139431652
30
0.0000000000
11
159.0553393984
21
54.6971062305
31
0.0000000000
11
159.1380889583
21
55.0059317924
31
0.0000000000
11
159.4448783284
21
56.1508853089
31
0.0000000000
11
159.9336137836
21
57.9748708589
31
0.0000000000
11
160.5757851489
21
60.3714870213
31
0.0000000000
11
161.3362333380
21
63.2095182997
31
0.0000000000
11
162.1755412632
21
66.3418581197
31
0.0000000000
11
163.0522938087
21
69.6139431652
31
0.0000000000
0
SPLINE
5
3E2
100
AcDbEntity
8
0
100
AcDbSpline
62
7
6
CONTINUOUS
70
0
71
3
72
12
73
8
74
6
42
0.0000001000
43
0.0000001000
44
0.0000000001
40
0.0000000000
40
0.0000000000
40
0.0000000000
40
0.0000000000
40
0.1271780146
40
0.2845499294
40
0.4846783816
40
0.7311650445
40
1.0000000000
40
1.0000000000
40
1.0000000000
40
1.0000000000
10
94.3264307353
20
34.8366697398
30
0.0000000000
10
94.3264307665
20
35.0009306088
30
0.0000000000
10
94.2981716982
20
35.3684750436
30
0.0000000000
10
94.1864336009
20
35.9850577322
30
0.0000000000
10
93.9933231388
20
36.7413100818
30
0.0000000000
10
93.7327486205
20
37.6278035713
30
0.0000000000
10
93.5505325717
20
38.2681311499
30
0.0000000000
10
93.4651898787
20
38.6047021873
30
0.0000000000
11
94.3264307353
21
34.8366697398
31
0.0000000000
11
94.2937110298
21
35.3283648878
31
0.0000000000
11
94.1901123798
21
35.9292762679
31
0.0000000000
11
94.0041558106
21
36.6820965203
31
0.0000000000
11
93.7421394670
21
37.6005259718
31
0.0000000000
11
93.4651898787
21
38.6047021873
31
0.0000000000
0
SPLINE
5
3E3
100
AcDbEntity
8
0
100
AcDbSpline
62
7
6
CONTINUOUS
70
0
71
3
72
13
73
9
74
7
42
0.0000001000
43
0.0000001000
44
0.0000000001
40
0.0000000000
40
0.0000000000
40
0.0000000000
40
0.0000000000
40
0.1659172582
40
0.3332825107
40
0.5001847146
40
0.6668782625
40
0.8340951434
40
1.0000000000
40
1.0000000000
40
1.0000000000
40
1.0000000000
10
93.4629666986
20
38.6139431718
30
0.0000000000
10
93.2977444295
20
39.2654751441
30
0.0000000000
10
92.9891508088
20
40.5806614079
30
0.0000000000
10
92.6734588133
20
42.5849641299
30
0.0000000000
10
92.5613515605
20
44.6153536991
30
0.0000000000
10
92.6738099296
20
46.6450930208
30
0.0000000000
10
92.9891583266
20
48.6479476331
30
0.0000000000
10
93.2980837373
20
49.9623775272
30
0.0000000000
10
93.4629668095
20
50.6139435984
30
0.0000000000
11
93.4629666986
21
38.6139431718
31
0.0000000000
11
93.0148391110
21
40.5799829596
31
0.0000000000
11
92.7073032759
21
42.5906629741
31
0.0000000000
11
92.5987424158
21
44.6161912266
31
0.0000000000
11
92.7075096330
21
46.6391688623
31
0.0000000000
11
93.0148682083
21
48.6480517913
31
0.0000000000
11
93.4629668095
21
50.6139435984
31
0.0000000000
0
SPLINE
5
3E4
100
AcDbEntity
8
0
100
AcDbSpline
62
7
6
CONTINUOUS
70
0
71
3
72
12
73
8
74
6
42
0.0000001000
43
0.0000001000
44
0.0000000001
40
0.0000000000
40
0.0000000000
40
0.0000000000
40
0.0000000000
40
0.2709223640
40
0.5167785435
40
0.7160105205
40
0.8730346638
40
1.0000000000
40
1.0000000000
40
1.0000000000
40
1.0000000000
10
149.1876591316
20
38.6046510200
30
0.0000000000
10
149.1016539229
20
38.2654696792
30
0.0000000000
10
148.9187749645
20
37.6233788580
30
0.0000000000
10
148.6581121738
20
36.7361635633
30
0.0000000000
10
148.4658413247
20
35.9822044286
30
0.0000000000
10
148.3545868247
20
35.3674545465
30
0.0000000000
10
148.3264307041
20
35.0006365003
30
0.0000000000
10
148.3264307353
20
34.8366517255
30
0.0000000000
11
149.1876591316
21
38.6046510200
31
0.0000000000
11
148.9084605569
21
37.5927142351
31
0.0000000000
11
148.6472121114
21
36.6766146238
31
0.0000000000
11
148.4622896990
21
35.9271237678
31
0.0000000000
11
148.3590477588
21
35.3275235898
31
0.0000000000
11
148.3264307353
21
34.8366517255
31
0.0000000000
0
SPLINE
5
3E5
100
AcDbEntity
8
0
100
AcDbSpline
62
7
6
CONTINUOUS
70
0
71
3
72
13
73
9
74
7
42
0.0000001000
43
0.0000001000
44
0.0000000001
40
0.0000000000
40
0.0000000000
40
0.0000000000
40
0.0000000000
40
0.1659923588
40
0.3332214649
40
0.4999190169
40
0.6668165361
40
0.8341688725
40
1.0000000000
40
1.0000000000
40
1.0000000000
40
1.0000000000
10
149.1898947709
20
50.6139431644
30
0.0000000000
10
149.3548648748
20
49.9620333225
30
0.0000000000
10
149.6638700607
20
48.6472053412
30
0.0000000000
10
149.9791836078
20
46.6439174788
30
0.0000000000
10
150.0915097626
20
44.6141228578
30
0.0000000000
10
149.9792714500
20
42.5837960485
30
0.0000000000
10
149.6635444084
20
40.5799259103
30
0.0000000000
10
149.3550323896
20
39.2651338576
30
0.0000000000
10
149.1898940791
20
38.6139404309
30
0.0000000000
11
149.1898947709
21
50.6139431644
31
0.0000000000
11
149.6381980944
21
48.6470068857
31
0.0000000000
11
149.9454799225
21
46.6379615064
31
0.0000000000
11
150.0541191645
21
44.6149278619
31
0.0000000000
11
149.9454309435
21
42.5894630566
31
0.0000000000
11
149.6378203966
21
40.5789528685
31
0.0000000000
11
149.1898940791
21
38.6139404309
31
0.0000000000
0
SPLINE
5
3E6
100
AcDbEntity
8
0
100
AcDbSpline
62
7
6
CONTINUOUS
70
0
71
3
72
11
73
7
74
5
42
0.0000001000
43
0.0000001000
44
0.0000000001
40
0.0000000000
40
0.0000000000
40
0.0000000000
40
0.0000000000
40
0.2302769830
40
0.4866863796
40
0.7445125261
40
1.0000000000
40
1.0000000000
40
1.0000000000
40
1.0000000000
10
148.3264307353
20
54.3897669413
30
0.0000000000
10
148.3264307736
20
54.0918115750
30
0.0000000000
10
148.4107834079
20
53.4632047025
30
0.0000000000
10
148.6462356982
20
52.5292518645
30
0.0000000000
10
148.9283574043
20
51.5739334804
30
0.0000000000
10
149.1087158847
20
50.9346003261
30
0.0000000000
10
149.1898484324
20
50.6141358438
30
0.0000000000
11
148.3264307353
21
54.3897669413
31
0.0000000000
11
148.4218272328
21
53.5010059435
31
0.0000000000
11
148.6522151793
21
52.5327332515
31
0.0000000000
11
148.9272510347
21
51.5704633921
31
0.0000000000
11
149.1898484324
21
50.6141358438
31
0.0000000000
0
SPLINE
5
3E7
100
AcDbEntity
8
0
100
AcDbSpline
62
7
6
CONTINUOUS
70
0
71
3
72
11
73
7
74
5
42
0.0000001000
43
0.0000001000
44
0.0000000001
40
0.0000000000
40
0.0000000000
40
0.0000000000
40
0.0000000000
40
0.2584307598
40
0.5151784700
40
0.7704661512
40
1.0000000000
40
1.0000000000
40
1.0000000000
40
1.0000000000
10
93.4630128798
20
50.6141351525
30
0.0000000000
10
93.5450803306
20
50.9382926855
30
0.0000000000
10
93.7263009544
20
51.5798940834
30
0.0000000000
10
94.0085401902
20
52.5361830976
30
0.0000000000
10
94.2426442512
20
53.4665630550
30
0.0000000000
10
94.3264306970
20
54.0927772508
30
0.0000000000
10
94.3264307353
20
54.3897721701
30
0.0000000000
11
93.4630128798
21
50.6141351525
31
0.0000000000
11
93.7287804964
21
51.5814438563
31
0.0000000000
11
94.0025562484
21
52.5397238905
31
0.0000000000
11
94.2315694464
21
53.5038516461
31
0.0000000000
11
94.3264307353
21
54.3897721701
31
0.0000000000
0
ENDSEC
0
SECTION
2
OBJECTS
0
DICTIONARY
5
3E8
100
AcDbDictionary
3
ACAD_GROUP
350
3E9
3
ACAD_MLINESTYLE
350
3EA
0
DICTIONARY
5
3E9
102
{ACAD_REACTORS
330
3E8
102
}
100
AcDbDictionary
0
DICTIONARY
5
3EA
102
{ACAD_REACTORS
330
3E8
102
}
100
AcDbDictionary
3
STANDARD
350
3EB
0
MLINESTYLE
5
3EB
102
{ACAD_REACTORS
330
3EA
102
}
100
AcDbMlineStyle
2
STANDARD
70
0
3

62
256
51
90.0
52
90.0
71
2
49
0.5
62
256
6
BYLAYER
49
-0.5
62
256
6
BYLAYER
0
ENDSEC
0
EOF
