999
DXF file: C:\Aktuell-Internet\CAD-Daten\2vv-gsch16.dxf
999
Pro/ENGINEER 2001400 by Parametric Technology Corporation
0
SECTION
2
HEADER
9
$ACADVER
1
AC1014
9
$EXTMAX
10
420.0000000000
20
297.0000000000
9
$EXTMIN
10
0.0000000000
20
0.0000000000
9
$LIMMIN
10
0.0000000000
20
0.0000000000
9
$LIMMAX
10
420.0000000000
20
297.0000000000
9
$VIEWCTR
10
210.0000000000
20
148.5000000000
9
$VIEWSIZE
40
297.0000000000
9
$CLAYER
8
0
9
$LTSCALE
40
23.1000000000
9
$CELTYPE
6
BYLAYER
9
$DIMSCALE
40
1
9
$DIMASZ
40
3.5000000000
9
$DIMEXO
40
2.6250000000
9
$DIMDLI
40
15.9600000000
9
$DIMEXE
40
7.5600000000
9
$DIMCEN
40
3.7800000000
9
$DIMLFAC
40
1.0000000000
9
$DIMTXT
40
3.5000000000
9
$DIMTOL
70
1
9
$DIMTFAC
40
0.6000000000
9
$DIMTP
40
0.0050000000
9
$DIMTM
40
0.0050000000
9
$HANDSEED
5
41F
0
ENDSEC
0
SECTION
2
CLASSES
0
ENDSEC
0
SECTION
2
TABLES
0
TABLE
2
VPORT
5
8
100
AcDbSymbolTable
70
2
0
VPORT
5
1F4
100
AcDbSymbolTableRecord
100
AcDbViewportTableRecord
2
*ACTIVE
70
0
10
0.0
20
0.0
11
1.0
21
1.0
12
210.0000000000
22
148.5000000000
13
0.0
23
0.0
14
1.0
24
1.0
15
0.0
25
0.0
16
0.0
26
0.0
36
1.0
17
0.0
27
0.0
37
0.0
40
297.0000000000
41
1.4141414141
42
50.0
43
0.0
44
0.0
50
0.0
51
0.0
71
0
72
100
73
1
74
1
75
0
76
0
77
0
78
0
0
ENDTAB
0
TABLE
2
LTYPE
5
5
100
AcDbSymbolTable
70
6
0
LTYPE
5
14
100
AcDbSymbolTableRecord
100
AcDbLinetypeTableRecord
2
BYBLOCK
70
0
3

72
65
73
0
40
0.0
0
LTYPE
5
15
100
AcDbSymbolTableRecord
100
AcDbLinetypeTableRecord
2
BYLAYER
70
0
3

72
65
73
0
40
0.0
0
LTYPE
5
16
100
AcDbSymbolTableRecord
100
AcDbLinetypeTableRecord
2
CONTINUOUS
70
64
3
Solid line
72
65
73
0
40
0
0
LTYPE
5
1F5
100
AcDbSymbolTableRecord
100
AcDbLinetypeTableRecord
2
CENTER
70
64
3
____ _ ____ _ ____ _ ____ _ ____ _ ____ _ ____
72
65
73
4
40
0.6
49
0.375
74
0
49
-0.075
74
0
49
0.075
74
0
49
-0.075
74
0
0
LTYPE
5
1F6
100
AcDbSymbolTableRecord
100
AcDbLinetypeTableRecord
2
HIDDEN
70
64
3
- - - - - - - - - - - - - - - - - - - -
72
65
73
2
40
0.2
49
0.1
74
0
49
-0.1
74
0
0
LTYPE
5
1F7
100
AcDbSymbolTableRecord
100
AcDbLinetypeTableRecord
2
PHANTOM
70
64
3
_____ _ _ _____ _ _ _____ _ _ _____
72
65
73
6
40
0.8
49
0.45
74
0
49
-0.05
74
0
49
0.1
74
0
49
-0.05
74
0
49
0.1
74
0
49
-0.05
74
0
0
LTYPE
5
1F8
100
AcDbSymbolTableRecord
100
AcDbLinetypeTableRecord
2
DOT
70
64
3
. . . . . . . . . . . . . . . . . . . .
72
65
73
2
40
0.2
49
0.1
74
0
49
-0.1
74
0
0
LTYPE
5
1F9
100
AcDbSymbolTableRecord
100
AcDbLinetypeTableRecord
2
DASHED
70
64
3
- - - - - - - - - - - - - - - - - - - -
72
65
73
2
40
0.2
49
0.1
74
0
49
-0.1
74
0
0
ENDTAB
0
TABLE
2
LAYER
5
2
100
AcDbSymbolTable
70
36
0
LAYER
5
10
100
AcDbSymbolTableRecord
100
AcDbLayerTableRecord
2
0
70
0
62
7
6
CONTINUOUS
0
LAYER
5
1FA
100
AcDbSymbolTableRecord
100
AcDbLayerTableRecord
2
DEFAULT_1
70
0
62
7
6
CENTER
0
LAYER
5
1FB
100
AcDbSymbolTableRecord
100
AcDbLayerTableRecord
2
DEFAULT_2
70
0
62
8
6
HIDDEN
0
LAYER
5
1FC
100
AcDbSymbolTableRecord
100
AcDbLayerTableRecord
2
DEFAULT_3
70
0
62
7
6
PHANTOM
0
LAYER
5
1FD
100
AcDbSymbolTableRecord
100
AcDbLayerTableRecord
2
ZEICHNUNGSBEMASSUNGEN
70
0
62
7
6
CONTINUOUS
0
ENDTAB
0
TABLE
2
STYLE
5
3
100
AcDbSymbolTable
70
1
0
STYLE
5
11
100
AcDbSymbolTableRecord
100
AcDbTextStyleTableRecord
2
STANDARD
70
0
40
0.0
41
1.0
50
0.0
71
0
42
0.0
3
txt
4

0
STYLE
5
1FE
100
AcDbSymbolTableRecord
100
AcDbTextStyleTableRecord
2
TEXTSTYLE_0
70
0
40
0.0
41
0.80
50
0.0
71
0
42
0.2
3
txt
4

0
ENDTAB
0
TABLE
2
VIEW
5
6
100
AcDbSymbolTable
70
0
0
ENDTAB
0
TABLE
2
UCS
5
7
100
AcDbSymbolTable
70
0
0
ENDTAB
0
TABLE
2
APPID
5
9
100
AcDbSymbolTable
70
1
0
APPID
5
1FF
100
AcDbSymbolTableRecord
100
AcDbRegAppTableRecord
2
ACAD
70
0
0
ENDTAB
0
TABLE
2
DIMSTYLE
5
A
100
AcDbSymbolTable
70
1
0
DIMSTYLE
105
200
100
AcDbSymbolTableRecord
100
AcDbDimStyleTableRecord
2
STANDARD
70
0
3

4

5

6

7

40
1.0
41
0.18
42
0.0625
43
0.38
44
0.18
45
0.0
46
0.0
47
0.0050000000
48
0.0050000000
140
3.5000000000
141
0.09
142
0.0
143
25.4
144
1.0000000000
145
0.0
146
0.6000000000
147
0.09
71
1
72
0
73
1
74
1
75
0
76
0
77
0
78
0
170
0
171
2
172
0
173
0
174
0
175
0
176
0
177
0
178
0
270
2
271
3
272
4
273
2
274
2
340
11
275
0
280
0
281
0
282
0
283
1
284
0
285
0
286
0
287
3
288
0
0
ENDTAB
0
TABLE
2
BLOCK_RECORD
5
1
100
AcDbSymbolTable
70
0
0
BLOCK_RECORD
5
1B
100
AcDbSymbolTableRecord
100
AcDbBlockTableRecord
2
*MODEL_SPACE
0
BLOCK_RECORD
5
1C
100
AcDbSymbolTableRecord
100
AcDbBlockTableRecord
2
*PAPER_SPACE
0
ENDTAB
0
ENDSEC
0
SECTION
2
BLOCKS
0
BLOCK
5
1E
100
AcDbEntity
8
0
100
AcDbBlockBegin
2
*MODEL_SPACE
70
0
10
0.0
20
0.0
30
0.0
3
*MODEL_SPACE
1

0
ENDBLK
5
1F
100
AcDbEntity
8
0
100
AcDbBlockEnd
0
BLOCK
5
20
100
AcDbEntity
8
0
100
AcDbBlockBegin
2
*PAPER_SPACE
70
0
10
0.0
20
0.0
30
0.0
3
*PAPER_SPACE
1

0
ENDBLK
5
21
100
AcDbEntity
8
0
100
AcDbBlockEnd
0
ENDSEC
0
SECTION
2
ENTITIES
0
TEXT
5
201
100
AcDbEntity
8
0
100
AcDbText
62
2
6
CONTINUOUS
10
282.6172137984
20
212.8339033760
7
TEXTSTYLE_0
40
7.0000000000
1
VV-GSCH
50
90.0000000000
72
5
11
282.6172137984
21
251.8339033760
100
AcDbText
0
TEXT
5
202
100
AcDbEntity
8
0
100
AcDbText
62
2
6
CONTINUOUS
10
314.7556771626
20
219.5856813937
7
TEXTSTYLE_0
40
7.0000000000
1
16/VIP
50
90.0000000000
72
5
11
314.7556771626
21
250.2523480604
100
AcDbText
0
TEXT
5
203
100
AcDbEntity
8
0
100
AcDbText
62
2
6
CONTINUOUS
10
101.1294206827
20
65.6451425903
7
TEXTSTYLE_0
40
7.0000000000
1
VV-GSCH
72
5
11
140.1294206827
21
65.6451425903
100
AcDbText
0
TEXT
5
204
100
AcDbEntity
8
0
100
AcDbText
62
2
6
CONTINUOUS
10
104.9104163726
20
15.4119141386
7
TEXTSTYLE_0
40
7.0000000000
1
16/VIP
72
5
11
135.5770830393
21
15.4119141386
100
AcDbText
0
LINE
5
205
100
AcDbEntity
8
0
100
AcDbLine
62
7
6
CONTINUOUS
10
0.0000000000
20
0.0000000000
11
0.0000000000
21
297.0000000000
0
LINE
5
206
100
AcDbEntity
8
0
100
AcDbLine
62
7
6
CONTINUOUS
10
0.0000000000
20
0.0000000000
11
420.0000000000
21
0.0000000000
0
LINE
5
207
100
AcDbEntity
8
0
100
AcDbLine
62
7
6
CONTINUOUS
10
0.0000000000
20
297.0000000000
11
420.0000000000
21
297.0000000000
0
LINE
5
208
100
AcDbEntity
8
0
100
AcDbLine
62
7
6
CONTINUOUS
10
420.0000000000
20
0.0000000000
11
420.0000000000
21
297.0000000000
0
LINE
5
209
100
AcDbEntity
8
0
100
AcDbLine
62
7
6
CONTINUOUS
10
80.3373869446
20
112.0424091941
11
101.3373869446
21
112.0424091941
0
LINE
5
20A
100
AcDbEntity
8
0
100
AcDbLine
62
7
6
CONTINUOUS
10
139.3373869446
20
112.0424091941
11
175.3373869446
21
112.0424091941
0
LINE
5
20B
100
AcDbEntity
8
0
100
AcDbLine
62
7
6
CONTINUOUS
10
80.3373869446
20
115.9424091941
11
74.3373869446
21
115.9424091941
0
LINE
5
20C
100
AcDbEntity
8
0
100
AcDbLine
62
7
6
CONTINUOUS
10
157.3373869446
20
120.1057428782
11
175.3373869446
21
120.1057428782
0
LINE
5
20D
100
AcDbEntity
8
0
100
AcDbLine
62
7
6
CONTINUOUS
10
101.3373869446
20
123.9424091941
11
139.3373869446
21
123.9424091941
0
LINE
5
20E
100
AcDbEntity
8
0
100
AcDbLine
62
7
6
CONTINUOUS
10
80.3373869446
20
124.3139880973
11
74.3373869446
21
124.3139880973
0
LINE
5
20F
100
AcDbEntity
8
DEFAULT_1
100
AcDbLine
62
2
6
CENTER
10
161.4285714286
20
135.9424091941
11
66.6666666667
21
135.9424091941
0
LINE
5
210
100
AcDbEntity
8
0
100
AcDbLine
62
7
6
CONTINUOUS
10
74.3373869446
20
115.9424091941
11
74.3373869446
21
155.9424091941
0
LINE
5
211
100
AcDbEntity
8
0
100
AcDbLine
62
7
6
CONTINUOUS
10
80.3373869446
20
147.5708302908
11
74.3373869446
21
147.5708302908
0
LINE
5
212
100
AcDbEntity
8
0
100
AcDbLine
62
7
6
CONTINUOUS
10
101.3373869446
20
147.9424091941
11
139.3373869446
21
147.9424091941
0
LINE
5
213
100
AcDbEntity
8
0
100
AcDbLine
62
7
6
CONTINUOUS
10
80.3373869446
20
190.4424091941
11
80.3373869446
21
112.0424091941
0
LINE
5
214
100
AcDbEntity
8
0
100
AcDbLine
62
7
6
CONTINUOUS
10
175.3373869446
20
155.0424091941
11
166.4581570832
21
155.0424091941
0
LINE
5
215
100
AcDbEntity
8
0
100
AcDbLine
62
7
6
CONTINUOUS
10
80.3373869446
20
155.0424091941
11
85.9129580437
21
155.0424091941
0
LINE
5
216
100
AcDbEntity
8
0
100
AcDbLine
62
7
6
CONTINUOUS
10
95.7618158455
20
155.0424091941
11
101.3373869446
21
155.0424091941
0
LINE
5
217
100
AcDbEntity
8
0
100
AcDbLine
62
7
6
CONTINUOUS
10
139.3373869446
20
155.0424091941
11
144.9129580437
21
155.0424091941
0
LINE
5
218
100
AcDbEntity
8
0
100
AcDbLine
62
7
6
CONTINUOUS
10
154.7618158455
20
155.0424091941
11
157.3373869446
21
155.0424091941
0
LINE
5
219
100
AcDbEntity
8
0
100
AcDbLine
62
7
6
CONTINUOUS
10
80.3373869446
20
155.9424091941
11
74.3373869446
21
155.9424091941
0
LINE
5
21A
100
AcDbEntity
8
0
100
AcDbLine
62
7
6
CONTINUOUS
10
87.3461369446
20
200.3876001589
11
87.3461369446
21
199.7119397354
0
LINE
5
21B
100
AcDbEntity
8
0
100
AcDbLine
62
7
6
CONTINUOUS
10
87.3461369446
20
196.5588568998
11
87.3461369446
21
195.8831964763
0
LINE
5
21C
100
AcDbEntity
8
0
100
AcDbLine
62
7
6
CONTINUOUS
10
87.3461369446
20
193.4057766416
11
87.3461369446
21
192.3922860063
0
LINE
5
21D
100
AcDbEntity
8
0
100
AcDbLine
62
7
6
CONTINUOUS
10
87.3461369446
20
187.8878823236
11
87.3461369446
21
187.3248315411
0
LINE
5
21E
100
AcDbEntity
8
0
100
AcDbLine
62
7
6
CONTINUOUS
10
87.3461369446
20
183.0456497179
11
87.3461369446
21
182.0321590826
0
LINE
5
21F
100
AcDbEntity
8
0
100
AcDbLine
62
7
6
CONTINUOUS
10
87.3461369446
20
176.8520956207
11
87.3461369446
21
176.1764351972
0
LINE
5
220
100
AcDbEntity
8
0
100
AcDbLine
62
7
6
CONTINUOUS
10
87.3461369446
20
173.0233530059
11
87.3461369446
21
172.3476925824
0
LINE
5
221
100
AcDbEntity
8
0
100
AcDbLine
62
7
6
CONTINUOUS
10
87.3461369446
20
171.4468119103
11
87.3461369446
21
170.7711514867
0
LINE
5
222
100
AcDbEntity
8
0
100
AcDbLine
62
7
6
CONTINUOUS
10
87.3461369446
20
167.6180696176
11
87.3461369446
21
166.9424091941
0
LINE
5
223
100
AcDbEntity
8
0
100
AcDbLine
62
7
6
CONTINUOUS
10
88.3667751208
20
182.0321590826
11
88.3667751208
21
183.0456497179
0
LINE
5
224
100
AcDbEntity
8
0
100
AcDbLine
62
7
6
CONTINUOUS
10
88.3667751208
20
187.3248315411
11
88.3667751208
21
188.0004919646
0
LINE
5
225
100
AcDbEntity
8
0
100
AcDbLine
62
7
6
CONTINUOUS
10
88.3667751208
20
192.3922860063
11
88.3667751208
21
193.4057766416
0
LINE
5
226
100
AcDbEntity
8
0
100
AcDbLine
62
7
6
CONTINUOUS
10
87.5162433073
20
193.9688261354
11
87.3461369446
21
193.4057766416
0
LINE
5
227
100
AcDbEntity
8
0
100
AcDbLine
62
7
6
CONTINUOUS
10
152.4699667166
20
174.4498604310
11
151.9596476285
21
174.3144734773
0
LINE
5
228
100
AcDbEntity
8
0
100
AcDbLine
62
7
6
CONTINUOUS
10
95.3411369446
20
169.6450508882
11
87.3461369446
21
171.4468119103
0
LINE
5
229
100
AcDbEntity
8
0
100
AcDbLine
62
7
6
CONTINUOUS
10
87.3461369446
20
170.7711514867
11
94.3204986493
21
169.1946105522
0
LINE
5
22A
100
AcDbEntity
8
0
100
AcDbLine
62
7
6
CONTINUOUS
10
88.8770942089
20
181.2438877293
11
88.5368814835
21
181.5817179411
0
LINE
5
22B
100
AcDbEntity
8
0
100
AcDbLine
62
7
6
CONTINUOUS
10
87.5162433073
20
181.4691083000
11
87.8564560327
21
181.0186684473
0
LINE
5
22C
100
AcDbEntity
8
0
100
AcDbLine
62
7
6
CONTINUOUS
10
88.5368814835
20
186.9870013293
11
88.3667751208
21
187.3248315411
0
LINE
5
22D
100
AcDbEntity
8
0
100
AcDbLine
62
7
6
CONTINUOUS
10
88.5368814835
20
181.5817179411
11
88.3667751208
21
182.0321590826
0
LINE
5
22E
100
AcDbEntity
8
0
100
AcDbLine
62
7
6
CONTINUOUS
10
87.3461369446
20
187.3248315411
11
87.5162433073
21
186.8743916883
0
LINE
5
22F
100
AcDbEntity
8
0
100
AcDbLine
62
7
6
CONTINUOUS
10
87.3461369446
20
182.0321590826
11
87.5162433073
21
181.4691083000
0
LINE
5
230
100
AcDbEntity
8
0
100
AcDbLine
62
7
6
CONTINUOUS
10
87.3461369446
20
192.3922860063
11
87.5162433073
21
191.8292339351
0
LINE
5
231
100
AcDbEntity
8
0
100
AcDbLine
62
7
6
CONTINUOUS
10
89.2173069343
20
188.6761536769
11
89.2173069343
21
189.3518141004
0
LINE
5
232
100
AcDbEntity
8
0
100
AcDbLine
62
7
6
CONTINUOUS
10
89.3874137735
20
183.9465294234
11
89.3874137735
21
184.6221898470
0
LINE
5
233
100
AcDbEntity
8
0
100
AcDbLine
62
7
6
CONTINUOUS
10
89.3874137735
20
194.3066563472
11
89.3874137735
21
194.9823167707
0
LINE
5
234
100
AcDbEntity
8
0
100
AcDbLine
62
7
6
CONTINUOUS
10
90.5781583125
20
199.7119397354
11
90.5781583125
21
196.5588568998
0
LINE
5
235
100
AcDbEntity
8
0
100
AcDbLine
62
7
6
CONTINUOUS
10
90.7482646752
20
188.0004919646
11
90.7482646752
21
187.3248315411
0
LINE
5
236
100
AcDbEntity
8
0
100
AcDbLine
62
7
6
CONTINUOUS
10
90.9183710379
20
184.6221898470
11
90.9183710379
21
182.9330387881
0
LINE
5
237
100
AcDbEntity
8
0
100
AcDbLine
62
7
6
CONTINUOUS
10
91.5987964887
20
179.3295173884
11
91.5987964887
21
177.7529759706
0
LINE
5
238
100
AcDbEntity
8
0
100
AcDbLine
62
7
6
CONTINUOUS
10
91.5987964887
20
196.5588568998
11
91.5987964887
21
199.7119397354
0
LINE
5
239
100
AcDbEntity
8
0
100
AcDbLine
62
7
6
CONTINUOUS
10
91.7689028514
20
187.3248315411
11
91.7689028514
21
188.0004919646
0
LINE
5
23A
100
AcDbEntity
8
0
100
AcDbLine
62
7
6
CONTINUOUS
10
91.9390092141
20
182.9330387881
11
91.9390092141
21
183.9465294234
0
LINE
5
23B
100
AcDbEntity
8
0
100
AcDbLine
62
7
6
CONTINUOUS
10
92.4493285404
20
177.7529759706
11
92.4493285404
21
179.3295173884
0
LINE
5
23C
100
AcDbEntity
8
0
100
AcDbLine
62
7
6
CONTINUOUS
10
93.1297539912
20
186.1987312648
11
93.1297539912
21
185.5230708412
0
LINE
5
23D
100
AcDbEntity
8
0
100
AcDbLine
62
7
6
CONTINUOUS
10
93.2998603539
20
194.9823167707
11
93.2998603539
21
194.3066563472
0
LINE
5
23E
100
AcDbEntity
8
0
100
AcDbLine
62
7
6
CONTINUOUS
10
94.3204986493
20
193.4057766416
11
94.3204986493
21
192.3922860063
0
LINE
5
23F
100
AcDbEntity
8
0
100
AcDbLine
62
7
6
CONTINUOUS
10
94.3204986493
20
188.0004919646
11
94.3204986493
21
187.0996122591
0
LINE
5
240
100
AcDbEntity
8
0
100
AcDbLine
62
7
6
CONTINUOUS
10
94.3204986493
20
183.0456497179
11
94.3204986493
21
182.0321590826
0
LINE
5
241
100
AcDbEntity
8
0
100
AcDbLine
62
7
6
CONTINUOUS
10
95.3411369446
20
168.7441703772
11
95.3411369446
21
169.6450508882
0
LINE
5
242
100
AcDbEntity
8
0
100
AcDbLine
62
7
6
CONTINUOUS
10
95.3411369446
20
174.1494539266
11
95.3411369446
21
175.0503342765
0
LINE
5
243
100
AcDbEntity
8
0
100
AcDbLine
62
7
6
CONTINUOUS
10
95.3411369446
20
182.0321590826
11
95.3411369446
21
183.0456497179
0
LINE
5
244
100
AcDbEntity
8
0
100
AcDbLine
62
7
6
CONTINUOUS
10
95.3411369446
20
187.0996122591
11
95.3411369446
21
188.0004919646
0
LINE
5
245
100
AcDbEntity
8
0
100
AcDbLine
62
7
6
CONTINUOUS
10
95.3411369446
20
192.3922860063
11
95.3411369446
21
193.4057766416
0
LINE
5
246
100
AcDbEntity
8
0
100
AcDbLine
62
7
6
CONTINUOUS
10
95.3411369446
20
195.8831964763
11
95.3411369446
21
196.5588568998
0
LINE
5
247
100
AcDbEntity
8
0
100
AcDbLine
62
7
6
CONTINUOUS
10
95.3411369446
20
199.7119397354
11
95.3411369446
21
200.3876001589
0
LINE
5
248
100
AcDbEntity
8
0
100
AcDbLine
62
7
6
CONTINUOUS
10
87.5162433073
20
188.4509331061
11
87.3461369446
21
187.8878823236
0
LINE
5
249
100
AcDbEntity
8
0
100
AcDbLine
62
7
6
CONTINUOUS
10
87.5162433073
20
183.6086992117
11
87.3461369446
21
183.0456497179
0
LINE
5
24A
100
AcDbEntity
8
0
100
AcDbLine
62
7
6
CONTINUOUS
10
90.9183710379
20
188.5635427471
11
90.7482646752
21
188.0004919646
0
LINE
5
24B
100
AcDbEntity
8
0
100
AcDbLine
62
7
6
CONTINUOUS
10
88.3667751208
20
193.4057766416
11
88.5368814835
21
193.8562152057
0
LINE
5
24C
100
AcDbEntity
8
0
100
AcDbLine
62
7
6
CONTINUOUS
10
88.3667751208
20
183.0456497179
11
88.5368814835
21
183.4960895706
0
LINE
5
24D
100
AcDbEntity
8
0
100
AcDbLine
62
7
6
CONTINUOUS
10
91.7689028514
20
188.0004919646
11
91.9390092141
21
188.4509331061
0
LINE
5
24E
100
AcDbEntity
8
0
100
AcDbLine
62
7
6
CONTINUOUS
10
91.5987964887
20
186.8743916883
11
91.7689028514
21
187.3248315411
0
LINE
5
24F
100
AcDbEntity
8
0
100
AcDbLine
62
7
6
CONTINUOUS
10
88.3667751208
20
188.0004919646
11
88.5368814835
21
188.3383221764
0
LINE
5
250
100
AcDbEntity
8
0
100
AcDbLine
62
7
6
CONTINUOUS
10
87.8564560327
20
194.4192672769
11
87.5162433073
21
193.9688261354
0
LINE
5
251
100
AcDbEntity
8
0
100
AcDbLine
62
7
6
CONTINUOUS
10
150.9390092141
20
177.5637630783
11
151.4493285404
21
177.6991504194
0
LINE
5
252
100
AcDbEntity
8
0
100
AcDbLine
62
7
6
CONTINUOUS
10
148.2173069343
20
178.1053116679
11
147.7069878462
21
177.9699243268
0
LINE
5
253
100
AcDbEntity
8
0
100
AcDbLine
62
7
6
CONTINUOUS
10
87.3461369446
20
166.9424091941
11
95.3411369446
21
168.7441703772
0
LINE
5
254
100
AcDbEntity
8
0
100
AcDbLine
62
7
6
CONTINUOUS
10
150.9390092141
20
173.5021507865
11
152.1297539912
21
173.6375379339
0
LINE
5
255
100
AcDbEntity
8
0
100
AcDbLine
62
7
6
CONTINUOUS
10
147.5368814835
20
170.7944091941
11
148.8977328616
21
170.7944091941
0
LINE
5
256
100
AcDbEntity
8
0
100
AcDbLine
62
7
6
CONTINUOUS
10
147.7069878462
20
171.6067316912
11
154.3411369446
21
171.6067316912
0
LINE
5
257
100
AcDbEntity
8
0
100
AcDbLine
62
7
6
CONTINUOUS
10
154.3411369446
20
172.4190541883
11
146.3461369446
21
172.4190541883
0
LINE
5
258
100
AcDbEntity
8
0
100
AcDbLine
62
7
6
CONTINUOUS
10
149.7482646752
20
173.5021507865
11
150.9390092141
21
173.5021507865
0
LINE
5
259
100
AcDbEntity
8
0
100
AcDbLine
62
7
6
CONTINUOUS
10
95.3411369446
20
175.0503342765
11
87.3461369446
21
176.8520956207
0
LINE
5
25A
100
AcDbEntity
8
0
100
AcDbLine
62
7
6
CONTINUOUS
10
87.3461369446
20
176.1764351972
11
94.3204986493
21
174.5998937793
0
LINE
5
25B
100
AcDbEntity
8
0
100
AcDbLine
62
7
6
CONTINUOUS
10
88.5368814835
20
180.5682273058
11
89.2173069343
21
180.3430080237
0
LINE
5
25C
100
AcDbEntity
8
0
100
AcDbLine
62
7
6
CONTINUOUS
10
89.3874137735
20
181.0186684473
11
88.8770942089
21
181.2438877293
0
LINE
5
25D
100
AcDbEntity
8
0
100
AcDbLine
62
7
6
CONTINUOUS
10
87.8564560327
20
181.0186684473
11
88.5368814835
21
180.5682273058
0
LINE
5
25E
100
AcDbEntity
8
0
100
AcDbLine
62
7
6
CONTINUOUS
10
87.8564560327
20
186.4239518355
11
88.5368814835
21
185.9735106940
0
LINE
5
25F
100
AcDbEntity
8
0
100
AcDbLine
62
7
6
CONTINUOUS
10
88.8770942089
20
186.6491711176
11
88.5368814835
21
186.9870013293
0
LINE
5
260
100
AcDbEntity
8
0
100
AcDbLine
62
7
6
CONTINUOUS
10
93.8101794420
20
183.8339197824
11
94.1503922866
21
183.4960895706
0
LINE
5
261
100
AcDbEntity
8
0
100
AcDbLine
62
7
6
CONTINUOUS
10
88.8770942089
20
191.6040146530
11
88.5368814835
21
191.9418448648
0
LINE
5
262
100
AcDbEntity
8
0
100
AcDbLine
62
7
6
CONTINUOUS
10
87.5162433073
20
186.8743916883
11
87.8564560327
21
186.4239518355
0
LINE
5
263
100
AcDbEntity
8
0
100
AcDbLine
62
7
6
CONTINUOUS
10
87.5162433073
20
191.8292339351
11
87.8564560327
21
191.3787953710
0
LINE
5
264
100
AcDbEntity
8
0
100
AcDbLine
62
7
6
CONTINUOUS
10
95.1710305670
20
183.6086992117
11
94.8308177969
21
184.0591403532
0
LINE
5
265
100
AcDbEntity
8
0
100
AcDbLine
62
7
6
CONTINUOUS
10
88.5368814835
20
191.9418448648
11
88.3667751208
21
192.3922860063
0
LINE
5
266
100
AcDbEntity
8
0
100
AcDbLine
62
7
6
CONTINUOUS
10
94.1503922866
20
183.4960895706
11
94.3204986493
21
183.0456497179
0
LINE
5
267
100
AcDbEntity
8
0
100
AcDbLine
62
7
6
CONTINUOUS
10
94.1503922866
20
188.4509331061
11
94.3204986493
21
188.0004919646
0
LINE
5
268
100
AcDbEntity
8
0
100
AcDbLine
62
7
6
CONTINUOUS
10
95.3411369446
20
183.0456497179
11
95.1710305670
21
183.6086992117
0
LINE
5
269
100
AcDbEntity
8
0
100
AcDbLine
62
7
6
CONTINUOUS
10
95.3411369446
20
188.0004919646
11
95.1710305670
21
188.5635427471
0
LINE
5
26A
100
AcDbEntity
8
0
100
AcDbLine
62
7
6
CONTINUOUS
10
98.3373869446
20
206.6441394989
11
98.3373869446
21
255.9424091941
0
LINE
5
26B
100
AcDbEntity
8
0
100
AcDbLine
62
7
6
CONTINUOUS
10
101.3373869446
20
112.0424091941
11
101.3373869446
21
190.4424091941
0
LINE
5
26C
100
AcDbEntity
8
0
100
AcDbLine
62
7
6
CONTINUOUS
10
95.1710305670
20
191.8292339351
11
95.3411369446
21
192.3922860063
0
LINE
5
26D
100
AcDbEntity
8
0
100
AcDbLine
62
7
6
CONTINUOUS
10
95.1710305670
20
186.5365614765
11
95.3411369446
21
187.0996122591
0
LINE
5
26E
100
AcDbEntity
8
0
100
AcDbLine
62
7
6
CONTINUOUS
10
95.1710305670
20
181.4691083000
11
95.3411369446
21
182.0321590826
0
LINE
5
26F
100
AcDbEntity
8
0
100
AcDbLine
62
7
6
CONTINUOUS
10
94.3204986493
20
192.3922860063
11
94.1503922866
21
191.9418448648
0
LINE
5
270
100
AcDbEntity
8
0
100
AcDbLine
62
7
6
CONTINUOUS
10
94.3204986493
20
187.0996122591
11
94.1503922866
21
186.6491711176
0
LINE
5
271
100
AcDbEntity
8
0
100
AcDbLine
62
7
6
CONTINUOUS
10
94.3204986493
20
182.0321590826
11
94.1503922866
21
181.5817179411
0
LINE
5
272
100
AcDbEntity
8
0
100
AcDbLine
62
7
6
CONTINUOUS
10
90.7482646752
20
187.3248315411
11
90.5781583125
21
186.9870013293
0
LINE
5
273
100
AcDbEntity
8
0
100
AcDbLine
62
7
6
CONTINUOUS
10
91.2585837633
20
189.0139838886
11
90.9183710379
21
188.5635427471
0
LINE
5
274
100
AcDbEntity
8
0
100
AcDbLine
62
7
6
CONTINUOUS
10
87.8564560327
20
184.0591403532
11
87.5162433073
21
183.6086992117
0
LINE
5
275
100
AcDbEntity
8
0
100
AcDbLine
62
7
6
CONTINUOUS
10
94.8308177969
20
191.3787953710
11
95.1710305670
21
191.8292339351
0
LINE
5
276
100
AcDbEntity
8
0
100
AcDbLine
62
7
6
CONTINUOUS
10
91.2585837633
20
186.4239518355
11
91.5987964887
21
186.8743916883
0
LINE
5
277
100
AcDbEntity
8
0
100
AcDbLine
62
7
6
CONTINUOUS
10
88.5368814835
20
193.8562152057
11
88.8770942089
21
194.1940454174
0
LINE
5
278
100
AcDbEntity
8
0
100
AcDbLine
62
7
6
CONTINUOUS
10
94.1503922866
20
191.9418448648
11
93.8101794420
21
191.6040146530
0
LINE
5
279
100
AcDbEntity
8
0
100
AcDbLine
62
7
6
CONTINUOUS
10
91.9390092141
20
188.4509331061
11
92.2792219395
21
188.7887620292
0
LINE
5
27A
100
AcDbEntity
8
0
100
AcDbLine
62
7
6
CONTINUOUS
10
90.5781583125
20
186.9870013293
11
90.2379455870
21
186.6491711176
0
LINE
5
27B
100
AcDbEntity
8
0
100
AcDbLine
62
7
6
CONTINUOUS
10
88.0265623954
20
188.9013729589
11
87.5162433073
21
188.4509331061
0
LINE
5
27C
100
AcDbEntity
8
0
100
AcDbLine
62
7
6
CONTINUOUS
10
88.5368814835
20
194.8697058410
11
87.8564560327
21
194.4192672769
0
LINE
5
27D
100
AcDbEntity
8
0
100
AcDbLine
62
7
6
CONTINUOUS
10
153.3204986493
20
185.4162141417
11
146.3461369446
21
183.5207952401
0
LINE
5
27E
100
AcDbEntity
8
0
100
AcDbLine
62
7
6
CONTINUOUS
10
146.3461369446
20
182.7084727430
11
154.3411369446
21
184.8746663268
0
LINE
5
27F
100
AcDbEntity
8
0
100
AcDbLine
62
7
6
CONTINUOUS
10
94.3204986493
20
169.1946105522
11
87.3461369446
21
167.6180696176
0
LINE
5
280
100
AcDbEntity
8
0
100
AcDbLine
62
7
6
CONTINUOUS
10
94.3204986493
20
174.5998937793
11
87.3461369446
21
173.0233530059
0
LINE
5
281
100
AcDbEntity
8
0
100
AcDbLine
62
7
6
CONTINUOUS
10
87.3461369446
20
172.3476925824
11
95.3411369446
21
174.1494539266
0
LINE
5
282
100
AcDbEntity
8
0
100
AcDbLine
62
7
6
CONTINUOUS
10
150.0884774006
20
174.1790861362
11
149.7482646752
21
174.1790861362
0
LINE
5
283
100
AcDbEntity
8
0
100
AcDbLine
62
7
6
CONTINUOUS
10
151.9596476285
20
174.3144734773
11
151.4493285404
21
174.3144734773
0
LINE
5
284
100
AcDbEntity
8
0
100
AcDbLine
62
7
6
CONTINUOUS
10
151.4493285404
20
177.6991504194
11
151.9596476285
21
177.6991504194
0
LINE
5
285
100
AcDbEntity
8
0
100
AcDbLine
62
7
6
CONTINUOUS
10
91.5987964887
20
177.7529759706
11
92.4493285404
21
177.7529759706
0
LINE
5
286
100
AcDbEntity
8
0
100
AcDbLine
62
7
6
CONTINUOUS
10
152.1297539912
20
178.3760855754
11
151.2792219395
21
178.3760855754
0
LINE
5
287
100
AcDbEntity
8
0
100
AcDbLine
62
7
6
CONTINUOUS
10
92.4493285404
20
179.3295173884
11
91.5987964887
21
179.3295173884
0
LINE
5
288
100
AcDbEntity
8
0
100
AcDbLine
62
7
6
CONTINUOUS
10
90.0678392243
20
180.2303970940
11
92.6194349031
21
180.2303970940
0
LINE
5
289
100
AcDbEntity
8
0
100
AcDbLine
62
7
6
CONTINUOUS
10
148.5575201362
20
173.6375379339
11
149.7482646752
21
173.5021507865
0
LINE
5
28A
100
AcDbEntity
8
0
100
AcDbLine
62
7
6
CONTINUOUS
10
89.2173069343
20
180.3430080237
11
90.0678392243
21
180.2303970940
0
LINE
5
28B
100
AcDbEntity
8
0
100
AcDbLine
62
7
6
CONTINUOUS
10
149.7482646752
20
174.1790861362
11
148.7276264989
21
174.3144734773
0
LINE
5
28C
100
AcDbEntity
8
0
100
AcDbLine
62
7
6
CONTINUOUS
10
90.0678392243
20
180.9060575175
11
89.3874137735
21
181.0186684473
0
LINE
5
28D
100
AcDbEntity
8
0
100
AcDbLine
62
7
6
CONTINUOUS
10
93.2998603539
20
183.9465294234
11
93.8101794420
21
183.8339197824
0
LINE
5
28E
100
AcDbEntity
8
0
100
AcDbLine
62
7
6
CONTINUOUS
10
94.8308177969
20
184.0591403532
11
94.1503922866
21
184.5095802059
0
LINE
5
28F
100
AcDbEntity
8
0
100
AcDbLine
62
7
6
CONTINUOUS
10
87.8564560327
20
191.3787953710
11
88.5368814835
21
190.9283542295
0
LINE
5
290
100
AcDbEntity
8
0
100
AcDbLine
62
7
6
CONTINUOUS
10
94.8308177969
20
189.0139838886
11
94.1503922866
21
189.4644224527
0
LINE
5
291
100
AcDbEntity
8
0
100
AcDbLine
62
7
6
CONTINUOUS
10
93.8101794420
20
188.7887620292
11
94.1503922866
21
188.4509331061
0
LINE
5
292
100
AcDbEntity
8
0
100
AcDbLine
62
7
6
CONTINUOUS
10
93.8101794420
20
194.1940454174
11
94.1503922866
21
193.8562152057
0
LINE
5
293
100
AcDbEntity
8
0
100
AcDbLine
62
7
6
CONTINUOUS
10
95.1710305670
20
188.5635427471
11
94.8308177969
21
189.0139838886
0
LINE
5
294
100
AcDbEntity
8
0
100
AcDbLine
62
7
6
CONTINUOUS
10
95.1710305670
20
193.9688261354
11
94.8308177969
21
194.4192672769
0
LINE
5
295
100
AcDbEntity
8
0
100
AcDbLine
62
7
6
CONTINUOUS
10
94.1503922866
20
193.8562152057
11
94.3204986493
21
193.4057766416
0
LINE
5
296
100
AcDbEntity
8
0
100
AcDbLine
62
7
6
CONTINUOUS
10
95.3411369446
20
193.4057766416
11
95.1710305670
21
193.9688261354
0
LINE
5
297
100
AcDbEntity
8
0
100
AcDbLine
62
7
6
CONTINUOUS
10
94.8308177969
20
181.0186684473
11
95.1710305670
21
181.4691083000
0
LINE
5
298
100
AcDbEntity
8
0
100
AcDbLine
62
7
6
CONTINUOUS
10
94.6607114342
20
185.9735106940
11
95.1710305670
21
186.5365614765
0
LINE
5
299
100
AcDbEntity
8
0
100
AcDbLine
62
7
6
CONTINUOUS
10
88.5368814835
20
183.4960895706
11
88.8770942089
21
183.8339197824
0
LINE
5
29A
100
AcDbEntity
8
0
100
AcDbLine
62
7
6
CONTINUOUS
10
94.1503922866
20
181.5817179411
11
93.8101794420
21
181.2438877293
0
LINE
5
29B
100
AcDbEntity
8
0
100
AcDbLine
62
7
6
CONTINUOUS
10
88.5368814835
20
188.3383221764
11
88.8770942089
21
188.5635427471
0
LINE
5
29C
100
AcDbEntity
8
0
100
AcDbLine
62
7
6
CONTINUOUS
10
94.1503922866
20
190.9283542295
11
94.8308177969
21
191.3787953710
0
LINE
5
29D
100
AcDbEntity
8
0
100
AcDbLine
62
7
6
CONTINUOUS
10
91.9390092141
20
189.4644224527
11
91.2585837633
21
189.0139838886
0
LINE
5
29E
100
AcDbEntity
8
0
100
AcDbLine
62
7
6
CONTINUOUS
10
90.5781583125
20
185.9735106940
11
91.2585837633
21
186.4239518355
0
LINE
5
29F
100
AcDbEntity
8
0
100
AcDbLine
62
7
6
CONTINUOUS
10
88.5368814835
20
184.5095802059
11
87.8564560327
21
184.0591403532
0
LINE
5
2A0
100
AcDbEntity
8
0
100
AcDbLine
62
7
6
CONTINUOUS
10
94.1503922866
20
186.6491711176
11
93.6400730793
21
186.3113409058
0
LINE
5
2A1
100
AcDbEntity
8
0
100
AcDbLine
62
7
6
CONTINUOUS
10
88.7069878462
20
189.2392031707
11
88.0265623954
21
188.9013729589
0
LINE
5
2A2
100
AcDbEntity
8
0
100
AcDbLine
62
7
6
CONTINUOUS
10
93.8101794420
20
191.6040146530
11
93.2998603539
21
191.3787953710
0
LINE
5
2A3
100
AcDbEntity
8
0
100
AcDbLine
62
7
6
CONTINUOUS
10
147.7069878462
20
195.1640841068
11
148.2173069343
21
195.2994706732
0
LINE
5
2A4
100
AcDbEntity
8
0
100
AcDbLine
62
7
6
CONTINUOUS
10
93.2998603539
20
181.0186684473
11
92.6194349031
21
180.9060575175
0
LINE
5
2A5
100
AcDbEntity
8
0
100
AcDbLine
62
7
6
CONTINUOUS
10
92.6194349031
20
180.2303970940
11
93.4699667166
21
180.3430080237
0
LINE
5
2A6
100
AcDbEntity
8
0
100
AcDbLine
62
7
6
CONTINUOUS
10
92.6194349031
20
180.9060575175
11
90.0678392243
21
180.9060575175
0
LINE
5
2A7
100
AcDbEntity
8
0
100
AcDbLine
62
7
6
CONTINUOUS
10
90.9183710379
20
182.9330387881
11
91.9390092141
21
182.9330387881
0
LINE
5
2A8
100
AcDbEntity
8
0
100
AcDbLine
62
7
6
CONTINUOUS
10
91.9390092141
20
183.9465294234
11
93.2998603539
21
183.9465294234
0
LINE
5
2A9
100
AcDbEntity
8
0
100
AcDbLine
62
7
6
CONTINUOUS
10
93.4699667166
20
184.6221898470
11
90.9183710379
21
184.6221898470
0
LINE
5
2AA
100
AcDbEntity
8
0
100
AcDbLine
62
7
6
CONTINUOUS
10
89.2173069343
20
185.8609010530
11
89.8977328616
21
185.8609010530
0
LINE
5
2AB
100
AcDbEntity
8
0
100
AcDbLine
62
7
6
CONTINUOUS
10
89.7276264989
20
186.5365614765
11
89.3874137735
21
186.5365614765
0
LINE
5
2AC
100
AcDbEntity
8
0
100
AcDbLine
62
7
6
CONTINUOUS
10
94.1503922866
20
184.5095802059
11
93.4699667166
21
184.6221898470
0
LINE
5
2AD
100
AcDbEntity
8
0
100
AcDbLine
62
7
6
CONTINUOUS
10
88.5368814835
20
185.9735106940
11
89.2173069343
21
185.8609010530
0
LINE
5
2AE
100
AcDbEntity
8
0
100
AcDbLine
62
7
6
CONTINUOUS
10
89.3874137735
20
186.5365614765
11
88.8770942089
21
186.6491711176
0
LINE
5
2AF
100
AcDbEntity
8
0
100
AcDbLine
62
7
6
CONTINUOUS
10
148.7276264989
20
174.3144734773
11
148.2173069343
21
174.4498604310
0
LINE
5
2B0
100
AcDbEntity
8
0
100
AcDbLine
62
7
6
CONTINUOUS
10
151.4493285404
20
174.3144734773
11
150.9390092141
21
174.4498604310
0
LINE
5
2B1
100
AcDbEntity
8
0
100
AcDbLine
62
7
6
CONTINUOUS
10
147.7069878462
20
173.9083120351
11
148.5575201362
21
173.6375379339
0
LINE
5
2B2
100
AcDbEntity
8
0
100
AcDbLine
62
7
6
CONTINUOUS
10
88.5368814835
20
190.9283542295
11
89.2173069343
21
190.7031349475
0
LINE
5
2B3
100
AcDbEntity
8
0
100
AcDbLine
62
7
6
CONTINUOUS
10
94.1503922866
20
189.4644224527
11
93.4699667166
21
189.6896443122
0
LINE
5
2B4
100
AcDbEntity
8
0
100
AcDbLine
62
7
6
CONTINUOUS
10
93.2998603539
20
189.0139838886
11
93.8101794420
21
188.7887620292
0
LINE
5
2B5
100
AcDbEntity
8
0
100
AcDbLine
62
7
6
CONTINUOUS
10
89.3874137735
20
191.3787953710
11
88.8770942089
21
191.6040146530
0
LINE
5
2B6
100
AcDbEntity
8
0
100
AcDbLine
62
7
6
CONTINUOUS
10
94.8308177969
20
194.4192672769
11
94.1503922866
21
194.8697058410
0
LINE
5
2B7
100
AcDbEntity
8
0
100
AcDbLine
62
7
6
CONTINUOUS
10
94.1503922866
20
180.5682273058
11
94.8308177969
21
181.0186684473
0
LINE
5
2B8
100
AcDbEntity
8
0
100
AcDbLine
62
7
6
CONTINUOUS
10
92.2792219395
20
188.7887620292
11
92.7895412658
21
189.0139838886
0
LINE
5
2B9
100
AcDbEntity
8
0
100
AcDbLine
62
7
6
CONTINUOUS
10
93.8101794420
20
185.6356804823
11
94.6607114342
21
185.9735106940
0
LINE
5
2BA
100
AcDbEntity
8
0
100
AcDbLine
62
7
6
CONTINUOUS
10
93.4699667166
20
190.7031349475
11
94.1503922866
21
190.9283542295
0
LINE
5
2BB
100
AcDbEntity
8
0
100
AcDbLine
62
7
6
CONTINUOUS
10
88.8770942089
20
188.5635427471
11
89.2173069343
21
188.6761536769
0
LINE
5
2BC
100
AcDbEntity
8
0
100
AcDbLine
62
7
6
CONTINUOUS
10
92.6194349031
20
189.6896443122
11
91.9390092141
21
189.4644224527
0
LINE
5
2BD
100
AcDbEntity
8
0
100
AcDbLine
62
7
6
CONTINUOUS
10
148.2173069343
20
196.1117931703
11
147.7069878462
21
195.9764066039
0
LINE
5
2BE
100
AcDbEntity
8
0
100
AcDbLine
62
7
6
CONTINUOUS
10
88.8770942089
20
183.8339197824
11
89.3874137735
21
183.9465294234
0
LINE
5
2BF
100
AcDbEntity
8
0
100
AcDbLine
62
7
6
CONTINUOUS
10
93.6400730793
20
186.3113409058
11
93.1297539912
21
186.1987312648
0
LINE
5
2C0
100
AcDbEntity
8
0
100
AcDbLine
62
7
6
CONTINUOUS
10
90.2379455870
20
186.6491711176
11
89.7276264989
21
186.5365614765
0
LINE
5
2C1
100
AcDbEntity
8
0
100
AcDbLine
62
7
6
CONTINUOUS
10
93.1297539912
20
185.5230708412
11
93.8101794420
21
185.6356804823
0
LINE
5
2C2
100
AcDbEntity
8
0
100
AcDbLine
62
7
6
CONTINUOUS
10
89.8977328616
20
185.8609010530
11
90.5781583125
21
185.9735106940
0
LINE
5
2C3
100
AcDbEntity
8
0
100
AcDbLine
62
7
6
CONTINUOUS
10
89.3874137735
20
184.6221898470
11
88.5368814835
21
184.5095802059
0
LINE
5
2C4
100
AcDbEntity
8
0
100
AcDbLine
62
7
6
CONTINUOUS
10
92.6194349031
20
190.5905240177
11
93.4699667166
21
190.7031349475
0
LINE
5
2C5
100
AcDbEntity
8
0
100
AcDbLine
62
7
6
CONTINUOUS
10
92.7895412658
20
189.0139838886
11
93.2998603539
21
189.0139838886
0
LINE
5
2C6
100
AcDbEntity
8
0
100
AcDbLine
62
7
6
CONTINUOUS
10
146.3461369446
20
189.2070519450
11
154.3411369446
21
189.2070519450
0
LINE
5
2C7
100
AcDbEntity
8
0
100
AcDbLine
62
7
6
CONTINUOUS
10
93.4699667166
20
189.6896443122
11
92.6194349031
21
189.6896443122
0
LINE
5
2C8
100
AcDbEntity
8
0
100
AcDbLine
62
7
6
CONTINUOUS
10
154.3411369446
20
190.0193744421
11
146.3461369446
21
190.0193744421
0
LINE
5
2C9
100
AcDbEntity
8
0
100
AcDbLine
62
7
6
CONTINUOUS
10
90.0678392243
20
190.5905240177
11
92.6194349031
21
190.5905240177
0
LINE
5
2CA
100
AcDbEntity
8
0
100
AcDbLine
62
7
6
CONTINUOUS
10
146.3461369446
20
191.1024716214
11
154.3411369446
21
191.1024716214
0
LINE
5
2CB
100
AcDbEntity
8
0
100
AcDbLine
62
7
6
CONTINUOUS
10
92.6194349031
20
191.2661844413
11
90.0678392243
21
191.2661844413
0
LINE
5
2CC
100
AcDbEntity
8
0
100
AcDbLine
62
7
6
CONTINUOUS
10
154.3411369446
20
191.9147941185
11
150.7689028514
21
191.9147941185
0
LINE
5
2CD
100
AcDbEntity
8
0
100
AcDbLine
62
7
6
CONTINUOUS
10
149.7482646752
20
191.9147941185
11
147.1966687581
21
191.9147941185
0
LINE
5
2CE
100
AcDbEntity
8
0
100
AcDbLine
62
7
6
CONTINUOUS
10
89.2173069343
20
190.7031349475
11
90.0678392243
21
190.5905240177
0
LINE
5
2CF
100
AcDbEntity
8
0
100
AcDbLine
62
7
6
CONTINUOUS
10
94.1503922866
20
194.8697058410
11
93.2998603539
21
194.9823167707
0
LINE
5
2D0
100
AcDbEntity
8
0
100
AcDbLine
62
7
6
CONTINUOUS
10
90.0678392243
20
191.2661844413
11
89.3874137735
21
191.3787953710
0
LINE
5
2D1
100
AcDbEntity
8
0
100
AcDbLine
62
7
6
CONTINUOUS
10
93.2998603539
20
194.3066563472
11
93.8101794420
21
194.1940454174
0
LINE
5
2D2
100
AcDbEntity
8
0
100
AcDbLine
62
7
6
CONTINUOUS
10
151.9596476285
20
177.6991504194
11
152.4699667166
21
177.5637630783
0
LINE
5
2D3
100
AcDbEntity
8
0
100
AcDbLine
62
7
6
CONTINUOUS
10
152.9802859239
20
178.1053116679
11
152.1297539912
21
178.3760855754
0
LINE
5
2D4
100
AcDbEntity
8
0
100
AcDbLine
62
7
6
CONTINUOUS
10
148.2173069343
20
174.4498604310
11
147.7069878462
21
174.7206347258
0
LINE
5
2D5
100
AcDbEntity
8
0
100
AcDbLine
62
7
6
CONTINUOUS
10
147.0265623954
20
174.3144734773
11
147.7069878462
21
173.9083120351
0
LINE
5
2D6
100
AcDbEntity
8
0
100
AcDbLine
62
7
6
CONTINUOUS
10
146.3461369446
20
171.6067316912
11
147.5368814835
21
170.7944091941
0
LINE
5
2D7
100
AcDbEntity
8
0
100
AcDbLine
62
7
6
CONTINUOUS
10
148.8977328616
20
170.7944091941
11
147.7069878462
21
171.6067316912
0
LINE
5
2D8
100
AcDbEntity
8
DEFAULT_1
100
AcDbLine
62
2
6
CENTER
10
120.3373869446
20
253.9424091941
11
120.3373869446
21
119.3783710419
0
LINE
5
2D9
100
AcDbEntity
8
DEFAULT_1
100
AcDbLine
62
2
6
CENTER
10
120.3373869446
20
253.9424091941
11
120.3373869446
21
272.2386253625
0
LINE
5
2DA
100
AcDbEntity
8
0
100
AcDbLine
62
7
6
CONTINUOUS
10
93.8101794420
20
181.2438877293
11
93.2998603539
21
181.0186684473
0
LINE
5
2DB
100
AcDbEntity
8
0
100
AcDbLine
62
7
6
CONTINUOUS
10
93.4699667166
20
180.3430080237
11
94.1503922866
21
180.5682273058
0
LINE
5
2DC
100
AcDbEntity
8
0
100
AcDbLine
62
7
6
CONTINUOUS
10
89.2173069343
20
189.3518141004
11
88.7069878462
21
189.2392031707
0
LINE
5
2DD
100
AcDbEntity
8
0
100
AcDbLine
62
7
6
CONTINUOUS
10
88.8770942089
20
194.1940454174
11
89.3874137735
21
194.3066563472
0
LINE
5
2DE
100
AcDbEntity
8
0
100
AcDbLine
62
7
6
CONTINUOUS
10
93.2998603539
20
191.3787953710
11
92.6194349031
21
191.2661844413
0
LINE
5
2DF
100
AcDbEntity
8
0
100
AcDbLine
62
7
6
CONTINUOUS
10
89.3874137735
20
194.9823167707
11
88.5368814835
21
194.8697058410
0
LINE
5
2E0
100
AcDbEntity
8
0
100
AcDbLine
62
7
6
CONTINUOUS
10
148.2173069343
20
195.2994706732
11
148.7276264989
21
195.2994706732
0
LINE
5
2E1
100
AcDbEntity
8
0
100
AcDbLine
62
7
6
CONTINUOUS
10
87.3461369446
20
195.8831964763
11
95.3411369446
21
195.8831964763
0
LINE
5
2E2
100
AcDbEntity
8
0
100
AcDbLine
62
7
6
CONTINUOUS
10
148.8977328616
20
196.1117931703
11
148.2173069343
21
196.1117931703
0
LINE
5
2E3
100
AcDbEntity
8
0
100
AcDbLine
62
7
6
CONTINUOUS
10
95.3411369446
20
196.5588568998
11
91.5987964887
21
196.5588568998
0
LINE
5
2E4
100
AcDbEntity
8
0
100
AcDbLine
62
7
6
CONTINUOUS
10
90.5781583125
20
196.5588568998
11
87.3461369446
21
196.5588568998
0
LINE
5
2E5
100
AcDbEntity
8
0
100
AcDbLine
62
7
6
CONTINUOUS
10
108.3373869446
20
197.4424091941
11
132.3373869446
21
197.4424091941
0
LINE
5
2E6
100
AcDbEntity
8
0
100
AcDbLine
62
7
6
CONTINUOUS
10
87.3461369446
20
199.7119397354
11
90.5781583125
21
199.7119397354
0
LINE
5
2E7
100
AcDbEntity
8
0
100
AcDbLine
62
7
6
CONTINUOUS
10
91.5987964887
20
199.7119397354
11
95.3411369446
21
199.7119397354
0
LINE
5
2E8
100
AcDbEntity
8
0
100
AcDbLine
62
7
6
CONTINUOUS
10
95.3411369446
20
200.3876001589
11
87.3461369446
21
200.3876001589
0
LINE
5
2E9
100
AcDbEntity
8
0
100
AcDbLine
62
7
6
CONTINUOUS
10
154.3411369446
20
185.9577619567
11
146.3461369446
21
188.1239563152
0
LINE
5
2EA
100
AcDbEntity
8
0
100
AcDbLine
62
7
6
CONTINUOUS
10
146.3461369446
20
187.3116338181
11
153.3204986493
21
185.4162141417
0
LINE
5
2EB
100
AcDbEntity
8
0
100
AcDbLine
62
7
6
CONTINUOUS
10
148.0472005716
20
181.2192143152
11
152.2998603539
21
179.4591827546
0
LINE
5
2EC
100
AcDbEntity
8
0
100
AcDbLine
62
7
6
CONTINUOUS
10
152.6400730793
20
179.8653440032
11
148.3874137735
21
181.6253755638
0
LINE
5
2ED
100
AcDbEntity
8
0
100
AcDbLine
62
7
6
CONTINUOUS
10
152.4699667166
20
177.5637630783
11
152.9802859239
21
177.2929891708
0
LINE
5
2EE
100
AcDbEntity
8
0
100
AcDbLine
62
7
6
CONTINUOUS
10
153.6607114342
20
177.6991504194
11
152.9802859239
21
178.1053116679
0
LINE
5
2EF
100
AcDbEntity
8
0
100
AcDbLine
62
7
6
CONTINUOUS
10
147.7069878462
20
195.9764066039
11
147.0265623954
21
195.5702453554
0
LINE
5
2F0
100
AcDbEntity
8
0
100
AcDbLine
62
7
6
CONTINUOUS
10
148.7276264989
20
195.2994706732
11
149.2379455870
21
195.1640841068
0
LINE
5
2F1
100
AcDbEntity
8
0
100
AcDbLine
62
7
6
CONTINUOUS
10
149.4080519497
20
195.9764066039
11
148.8977328616
21
196.1117931703
0
LINE
5
2F2
100
AcDbEntity
8
0
100
AcDbLine
62
7
6
CONTINUOUS
10
150.9390092141
20
174.4498604310
11
150.5987964887
21
174.7206347258
0
LINE
5
2F3
100
AcDbEntity
8
0
100
AcDbLine
62
7
6
CONTINUOUS
10
147.7069878462
20
174.7206347258
11
147.3667751208
21
175.1267959744
0
LINE
5
2F4
100
AcDbEntity
8
0
100
AcDbLine
62
7
6
CONTINUOUS
10
147.3667751208
20
194.8933094247
11
147.7069878462
21
195.1640841068
0
LINE
5
2F5
100
AcDbEntity
8
0
100
AcDbLine
62
7
6
CONTINUOUS
10
150.0884774006
20
195.5702453554
11
149.4080519497
21
195.9764066039
0
LINE
5
2F6
100
AcDbEntity
8
0
100
AcDbLine
62
7
6
CONTINUOUS
10
149.4080519497
20
174.9914086333
11
150.0884774006
21
174.1790861362
0
LINE
5
2F7
100
AcDbEntity
8
0
100
AcDbLine
62
7
6
CONTINUOUS
10
150.5987964887
20
174.7206347258
11
150.2585837633
21
175.1267959744
0
LINE
5
2F8
100
AcDbEntity
8
0
100
AcDbLine
62
7
6
CONTINUOUS
10
152.9802859239
20
177.2929891708
11
153.3204986493
21
176.8868279223
0
LINE
5
2F9
100
AcDbEntity
8
0
100
AcDbLine
62
7
6
CONTINUOUS
10
146.5162433073
20
174.9914086333
11
147.0265623954
21
174.3144734773
0
LINE
5
2FA
100
AcDbEntity
8
0
100
AcDbLine
62
7
6
CONTINUOUS
10
139.3373869446
20
112.0424091941
11
139.3373869446
21
190.4424091941
0
LINE
5
2FB
100
AcDbEntity
8
0
100
AcDbLine
62
7
6
CONTINUOUS
10
142.3373869446
20
255.9424091941
11
142.3373869446
21
206.6441613514
0
LINE
5
2FC
100
AcDbEntity
8
0
100
AcDbLine
62
7
6
CONTINUOUS
10
147.0265623954
20
195.5702453554
11
146.5162433073
21
195.0286975405
0
LINE
5
2FD
100
AcDbEntity
8
0
100
AcDbLine
62
7
6
CONTINUOUS
10
151.2792219395
20
178.3760855754
11
150.4286901260
21
178.1053116679
0
LINE
5
2FE
100
AcDbEntity
8
0
100
AcDbLine
62
7
6
CONTINUOUS
10
149.2379455870
20
195.1640841068
11
149.5781583125
21
194.8933094247
0
LINE
5
2FF
100
AcDbEntity
8
0
100
AcDbLine
62
7
6
CONTINUOUS
10
150.5987964887
20
195.0286975405
11
150.0884774006
21
195.5702453554
0
LINE
5
300
100
AcDbEntity
8
0
100
AcDbLine
62
7
6
CONTINUOUS
10
154.1710305670
20
177.0222148760
11
153.6607114342
21
177.6991504194
0
LINE
5
301
100
AcDbEntity
8
0
100
AcDbLine
62
7
6
CONTINUOUS
10
147.3667751208
20
175.1267959744
11
147.1966687581
21
175.5329572229
0
LINE
5
302
100
AcDbEntity
8
0
100
AcDbLine
62
7
6
CONTINUOUS
10
150.2585837633
20
175.1267959744
11
150.0884774006
21
175.5329572229
0
LINE
5
303
100
AcDbEntity
8
0
100
AcDbLine
62
7
6
CONTINUOUS
10
146.3461369446
20
175.6683441766
11
146.5162433073
21
174.9914086333
0
LINE
5
304
100
AcDbEntity
8
0
100
AcDbLine
62
7
6
CONTINUOUS
10
146.3461369446
20
194.3517616098
11
146.3461369446
21
191.1024716214
0
LINE
5
305
100
AcDbEntity
8
0
100
AcDbLine
62
7
6
CONTINUOUS
10
146.3461369446
20
190.0193744421
11
146.3461369446
21
189.2070519450
0
LINE
5
306
100
AcDbEntity
8
0
100
AcDbLine
62
7
6
CONTINUOUS
10
146.3461369446
20
188.1239563152
11
146.3461369446
21
187.3116338181
0
LINE
5
307
100
AcDbEntity
8
0
100
AcDbLine
62
7
6
CONTINUOUS
10
146.3461369446
20
183.5207952401
11
146.3461369446
21
182.7084727430
0
LINE
5
308
100
AcDbEntity
8
0
100
AcDbLine
62
7
6
CONTINUOUS
10
146.3461369446
20
176.2098923789
11
146.3461369446
21
175.6683441766
0
LINE
5
309
100
AcDbEntity
8
0
100
AcDbLine
62
7
6
CONTINUOUS
10
146.3461369446
20
172.4190541883
11
146.3461369446
21
171.6067316912
0
LINE
5
30A
100
AcDbEntity
8
0
100
AcDbLine
62
7
6
CONTINUOUS
10
147.1966687581
20
175.5329572229
11
147.1966687581
21
176.3452797200
0
LINE
5
30B
100
AcDbEntity
8
0
100
AcDbLine
62
7
6
CONTINUOUS
10
147.1966687581
20
191.9147941185
11
147.1966687581
21
194.4871481761
0
LINE
5
30C
100
AcDbEntity
8
0
100
AcDbLine
62
7
6
CONTINUOUS
10
148.2173069343
20
177.4283765119
11
148.2173069343
21
178.1053116679
0
LINE
5
30D
100
AcDbEntity
8
0
100
AcDbLine
62
7
6
CONTINUOUS
10
149.2379455870
20
176.3452797200
11
149.2379455870
21
175.6683441766
0
LINE
5
30E
100
AcDbEntity
8
0
100
AcDbLine
62
7
6
CONTINUOUS
10
146.5162433073
20
195.0286975405
11
146.3461369446
21
194.3517616098
0
LINE
5
30F
100
AcDbEntity
8
0
100
AcDbLine
62
7
6
CONTINUOUS
10
147.1966687581
20
194.4871481761
11
147.3667751208
21
194.8933094247
0
LINE
5
310
100
AcDbEntity
8
0
100
AcDbLine
62
7
6
CONTINUOUS
10
148.3874137735
20
181.6253755638
11
148.0472005716
21
181.2192143152
0
LINE
5
311
100
AcDbEntity
8
0
100
AcDbLine
62
7
6
CONTINUOUS
10
150.4286901260
20
178.1053116679
11
149.9183710379
21
177.6991504194
0
LINE
5
312
100
AcDbEntity
8
0
100
AcDbLine
62
7
6
CONTINUOUS
10
150.5987964887
20
177.2929891708
11
150.9390092141
21
177.5637630783
0
LINE
5
313
100
AcDbEntity
8
0
100
AcDbLine
62
7
6
CONTINUOUS
10
147.7069878462
20
177.9699243268
11
147.0265623954
21
177.5637630783
0
LINE
5
314
100
AcDbEntity
8
0
100
AcDbLine
62
7
6
CONTINUOUS
10
147.7069878462
20
177.1576022171
11
148.2173069343
21
177.4283765119
0
LINE
5
315
100
AcDbEntity
8
0
100
AcDbLine
62
7
6
CONTINUOUS
10
152.9802859239
20
174.7206347258
11
152.4699667166
21
174.4498604310
0
LINE
5
316
100
AcDbEntity
8
0
100
AcDbLine
62
7
6
CONTINUOUS
10
152.1297539912
20
173.6375379339
11
152.9802859239
21
173.9083120351
0
LINE
5
317
100
AcDbEntity
8
0
100
AcDbLine
62
7
6
CONTINUOUS
10
153.3204986493
20
176.8868279223
11
153.4906050120
21
176.4806666737
0
LINE
5
318
100
AcDbEntity
8
0
100
AcDbLine
62
7
6
CONTINUOUS
10
149.5781583125
20
194.8933094247
11
149.7482646752
21
194.4871481761
0
LINE
5
319
100
AcDbEntity
8
0
100
AcDbLine
62
7
6
CONTINUOUS
10
149.2379455870
20
175.6683441766
11
149.4080519497
21
174.9914086333
0
LINE
5
31A
100
AcDbEntity
8
0
100
AcDbLine
62
7
6
CONTINUOUS
10
154.3411369446
20
176.3452797200
11
154.1710305670
21
177.0222148760
0
LINE
5
31B
100
AcDbEntity
8
0
100
AcDbLine
62
7
6
CONTINUOUS
10
149.7482646752
20
194.4871481761
11
149.7482646752
21
191.9147941185
0
LINE
5
31C
100
AcDbEntity
8
0
100
AcDbLine
62
7
6
CONTINUOUS
10
150.0884774006
20
175.5329572229
11
150.0884774006
21
176.4806666737
0
LINE
5
31D
100
AcDbEntity
8
0
100
AcDbLine
62
7
6
CONTINUOUS
10
150.7689028514
20
191.9147941185
11
150.7689028514
21
194.3517616098
0
LINE
5
31E
100
AcDbEntity
8
0
100
AcDbLine
62
7
6
CONTINUOUS
10
153.4906050120
20
176.4806666737
11
153.4906050120
21
175.5329572229
0
LINE
5
31F
100
AcDbEntity
8
0
100
AcDbLine
62
7
6
CONTINUOUS
10
154.3411369446
20
171.6067316912
11
154.3411369446
21
172.4190541883
0
LINE
5
320
100
AcDbEntity
8
0
100
AcDbLine
62
7
6
CONTINUOUS
10
154.3411369446
20
175.6683441766
11
154.3411369446
21
176.3452797200
0
LINE
5
321
100
AcDbEntity
8
0
100
AcDbLine
62
7
6
CONTINUOUS
10
154.3411369446
20
184.8746663268
11
154.3411369446
21
185.9577619567
0
LINE
5
322
100
AcDbEntity
8
0
100
AcDbLine
62
7
6
CONTINUOUS
10
154.3411369446
20
189.2070519450
11
154.3411369446
21
190.0193744421
0
LINE
5
323
100
AcDbEntity
8
0
100
AcDbLine
62
7
6
CONTINUOUS
10
154.3411369446
20
191.1024716214
11
154.3411369446
21
191.9147941185
0
LINE
5
324
100
AcDbEntity
8
0
100
AcDbLine
62
7
6
CONTINUOUS
10
146.5162433073
20
176.8868279223
11
146.3461369446
21
176.2098923789
0
LINE
5
325
100
AcDbEntity
8
0
100
AcDbLine
62
7
6
CONTINUOUS
10
149.4080519497
20
177.0222148760
11
149.2379455870
21
176.3452797200
0
LINE
5
326
100
AcDbEntity
8
0
100
AcDbLine
62
7
6
CONTINUOUS
10
147.1966687581
20
176.3452797200
11
147.3667751208
21
176.7514409686
0
LINE
5
327
100
AcDbEntity
8
0
100
AcDbLine
62
7
6
CONTINUOUS
10
150.0884774006
20
176.4806666737
11
150.2585837633
21
176.8868279223
0
LINE
5
328
100
AcDbEntity
8
0
100
AcDbLine
62
7
6
CONTINUOUS
10
147.0265623954
20
177.5637630783
11
146.5162433073
21
176.8868279223
0
LINE
5
329
100
AcDbEntity
8
0
100
AcDbLine
62
7
6
CONTINUOUS
10
149.9183710379
20
177.6991504194
11
149.4080519497
21
177.0222148760
0
LINE
5
32A
100
AcDbEntity
8
0
100
AcDbLine
62
7
6
CONTINUOUS
10
147.3667751208
20
176.7514409686
11
147.7069878462
21
177.1576022171
0
LINE
5
32B
100
AcDbEntity
8
0
100
AcDbLine
62
7
6
CONTINUOUS
10
152.2998603539
20
179.4591827546
11
152.6400730793
21
179.8653440032
0
LINE
5
32C
100
AcDbEntity
8
0
100
AcDbLine
62
7
6
CONTINUOUS
10
150.2585837633
20
176.8868279223
11
150.5987964887
21
177.2929891708
0
LINE
5
32D
100
AcDbEntity
8
0
100
AcDbLine
62
7
6
CONTINUOUS
10
153.3204986493
20
175.1267959744
11
152.9802859239
21
174.7206347258
0
LINE
5
32E
100
AcDbEntity
8
0
100
AcDbLine
62
7
6
CONTINUOUS
10
152.9802859239
20
173.9083120351
11
153.6607114342
21
174.3144734773
0
LINE
5
32F
100
AcDbEntity
8
0
100
AcDbLine
62
7
6
CONTINUOUS
10
150.7689028514
20
194.3517616098
11
150.5987964887
21
195.0286975405
0
LINE
5
330
100
AcDbEntity
8
0
100
AcDbLine
62
7
6
CONTINUOUS
10
157.3373869446
20
120.1057428782
11
157.3373869446
21
155.9657123635
0
LINE
5
331
100
AcDbEntity
8
0
100
AcDbLine
62
7
6
CONTINUOUS
10
160.3373869446
20
169.0424091941
11
160.3373869446
21
190.4424091941
0
LINE
5
332
100
AcDbEntity
8
0
100
AcDbLine
62
7
6
CONTINUOUS
10
154.1710305670
20
174.9914086333
11
154.3411369446
21
175.6683441766
0
LINE
5
333
100
AcDbEntity
8
0
100
AcDbLine
62
7
6
CONTINUOUS
10
153.4906050120
20
175.5329572229
11
153.3204986493
21
175.1267959744
0
LINE
5
334
100
AcDbEntity
8
0
100
AcDbLine
62
7
6
CONTINUOUS
10
153.6607114342
20
174.3144734773
11
154.1710305670
21
174.9914086333
0
LINE
5
335
100
AcDbEntity
8
0
100
AcDbLine
62
7
6
CONTINUOUS
10
175.3373869446
20
112.0424091941
11
175.3373869446
21
155.0424091941
0
LINE
5
336
100
AcDbEntity
8
DEFAULT_1
100
AcDbLine
62
2
6
CENTER
10
120.3373869446
20
253.9424091941
11
102.4797762862
21
253.9424091941
0
LINE
5
337
100
AcDbEntity
8
DEFAULT_1
100
AcDbLine
62
2
6
CENTER
10
120.3373869446
20
253.9424091941
11
138.3992353404
21
253.9424091941
0
LINE
5
338
100
AcDbEntity
8
0
100
AcDbLine
62
7
6
CONTINUOUS
10
116.3373869446
20
273.9424091941
11
124.3373869446
21
273.9424091941
0
LINE
5
339
100
AcDbEntity
8
0
100
AcDbLine
62
7
6
CONTINUOUS
10
295.4771299929
20
112.0424091941
11
295.2771299929
21
112.0424091941
0
LINE
5
33A
100
AcDbEntity
8
0
100
AcDbLine
62
7
6
CONTINUOUS
10
291.8771299929
20
115.9424091941
11
298.8771299929
21
115.9424091941
0
LINE
5
33B
100
AcDbEntity
8
0
100
AcDbLine
62
7
6
CONTINUOUS
10
277.3771299929
20
124.3139880973
11
291.8771299929
21
115.9424091941
0
LINE
5
33C
100
AcDbEntity
8
DEFAULT_1
100
AcDbLine
62
2
6
CENTER
10
295.3771299929
20
135.9424091941
11
280.3771299929
21
135.9424091941
0
LINE
5
33D
100
AcDbEntity
8
DEFAULT_1
100
AcDbLine
62
2
6
CENTER
10
295.3771299929
20
135.9424091941
11
310.3771299929
21
135.9424091941
0
LINE
5
33E
100
AcDbEntity
8
0
100
AcDbLine
62
7
6
CONTINUOUS
10
271.3771299929
20
155.0424091941
11
273.2411863717
21
155.0424091941
0
LINE
5
33F
100
AcDbEntity
8
0
100
AcDbLine
62
7
6
CONTINUOUS
10
317.5130736141
20
155.0424091941
11
319.3771299929
21
155.0424091941
0
LINE
5
340
100
AcDbEntity
8
0
100
AcDbLine
62
7
6
CONTINUOUS
10
291.8771299929
20
155.9424091941
11
298.8771299929
21
155.9424091941
0
LINE
5
341
100
AcDbEntity
8
0
100
AcDbLine
62
7
6
CONTINUOUS
10
261.8771299929
20
238.2532983266
11
261.8771299929
21
273.9424091941
0
LINE
5
342
100
AcDbEntity
8
0
100
AcDbLine
62
7
6
CONTINUOUS
10
313.3771299929
20
147.5708302908
11
298.8771299929
21
155.9424091941
0
LINE
5
343
100
AcDbEntity
8
0
100
AcDbLine
62
7
6
CONTINUOUS
10
271.3771299929
20
135.9424091941
11
271.3771299929
21
155.0424091941
0
LINE
5
344
100
AcDbEntity
8
0
100
AcDbLine
62
7
6
CONTINUOUS
10
305.4475113028
20
166.9424091941
11
306.1703799929
21
166.9424091941
0
LINE
5
345
100
AcDbEntity
8
0
100
AcDbLine
62
7
6
CONTINUOUS
10
277.3771299929
20
147.5708302908
11
277.3771299929
21
124.3139880973
0
LINE
5
346
100
AcDbEntity
8
0
100
AcDbLine
62
7
6
CONTINUOUS
10
305.2797141727
20
171.4468119103
11
306.1703799929
21
171.4468119103
0
LINE
5
347
100
AcDbEntity
8
0
100
AcDbLine
62
7
6
CONTINUOUS
10
305.8771299929
20
171.6067316912
11
306.1703799929
21
171.6067316912
0
LINE
5
348
100
AcDbEntity
8
0
100
AcDbLine
62
7
6
CONTINUOUS
10
305.2797141727
20
172.3476925824
11
306.1703799929
21
172.3476925824
0
LINE
5
349
100
AcDbEntity
8
0
100
AcDbLine
62
7
6
CONTINUOUS
10
305.2797141727
20
176.8520956207
11
306.1703799929
21
176.8520956207
0
LINE
5
34A
100
AcDbEntity
8
0
100
AcDbLine
62
7
6
CONTINUOUS
10
305.8771299929
20
176.8868279223
11
306.1703799929
21
176.8868279223
0
LINE
5
34B
100
AcDbEntity
8
0
100
AcDbLine
62
7
6
CONTINUOUS
10
305.8771299929
20
177.5637630783
11
306.1703799929
21
177.5637630783
0
LINE
5
34C
100
AcDbEntity
8
0
100
AcDbLine
62
7
6
CONTINUOUS
10
305.8771299929
20
177.7529759706
11
306.1703799929
21
177.7529759706
0
LINE
5
34D
100
AcDbEntity
8
0
100
AcDbLine
62
7
6
CONTINUOUS
10
284.8771299929
20
201.8802313676
11
284.8771299929
21
169.0424091941
0
LINE
5
34E
100
AcDbEntity
8
0
100
AcDbLine
62
7
6
CONTINUOUS
10
286.8771299929
20
273.9424091941
11
286.8771299929
21
230.4424091941
0
LINE
5
34F
100
AcDbEntity
8
0
100
AcDbLine
62
7
6
CONTINUOUS
10
305.8771299929
20
185.4162141417
11
306.1703799929
21
185.4162141417
0
LINE
5
350
100
AcDbEntity
8
0
100
AcDbLine
62
7
6
CONTINUOUS
10
291.8771299929
20
155.9424091941
11
291.8771299929
21
115.9424091941
0
LINE
5
351
100
AcDbEntity
8
DEFAULT_1
100
AcDbLine
62
2
6
CENTER
10
295.3771299929
20
253.9424091941
11
295.3771299929
21
154.7576878546
0
LINE
5
352
100
AcDbEntity
8
DEFAULT_1
100
AcDbLine
62
2
6
CENTER
10
295.3771299929
20
135.9424091941
11
295.3771299929
21
120.9424091941
0
LINE
5
353
100
AcDbEntity
8
DEFAULT_1
100
AcDbLine
62
2
6
CENTER
10
295.3771299929
20
135.9424091941
11
295.3771299929
21
150.9424091941
0
LINE
5
354
100
AcDbEntity
8
DEFAULT_1
100
AcDbLine
62
2
6
CENTER
10
295.3771299929
20
253.9424091941
11
295.3771299929
21
273.8590520868
0
LINE
5
355
100
AcDbEntity
8
0
100
AcDbLine
62
7
6
CONTINUOUS
10
305.4860189337
20
201.6544232923
11
308.8771299929
21
203.6122821752
0
LINE
5
356
100
AcDbEntity
8
0
100
AcDbLine
62
7
6
CONTINUOUS
10
305.8771299929
20
189.6896443122
11
306.1703799929
21
189.6896443122
0
LINE
5
357
100
AcDbEntity
8
0
100
AcDbLine
62
7
6
CONTINUOUS
10
305.8771299929
20
190.0193744421
11
306.1703799929
21
190.0193744421
0
LINE
5
358
100
AcDbEntity
8
0
100
AcDbLine
62
7
6
CONTINUOUS
10
298.8771299929
20
155.9424091941
11
298.8771299929
21
115.9424091941
0
LINE
5
359
100
AcDbEntity
8
0
100
AcDbLine
62
7
6
CONTINUOUS
10
305.8771299929
20
195.0286975405
11
306.1703799929
21
195.0286975405
0
LINE
5
35A
100
AcDbEntity
8
0
100
AcDbLine
62
7
6
CONTINUOUS
10
305.8771299929
20
195.5702453554
11
306.1703799929
21
195.5702453554
0
LINE
5
35B
100
AcDbEntity
8
0
100
AcDbLine
62
7
6
CONTINUOUS
10
305.0071164940
20
195.8831964763
11
306.1703799929
21
195.8831964763
0
LINE
5
35C
100
AcDbEntity
8
0
100
AcDbLine
62
7
6
CONTINUOUS
10
285.2682414360
20
201.6544230707
11
281.8771299929
21
203.6122821752
0
LINE
5
35D
100
AcDbEntity
8
0
100
AcDbLine
62
7
6
CONTINUOUS
10
305.8915455759
20
168.4072489654
11
305.8771299929
21
169.0424091941
0
LINE
5
35E
100
AcDbEntity
8
0
100
AcDbLine
62
7
6
CONTINUOUS
10
303.8771299929
20
230.4424091941
11
303.8771299929
21
273.9424091941
0
LINE
5
35F
100
AcDbEntity
8
0
100
AcDbLine
62
7
6
CONTINUOUS
10
305.2797141727
20
187.8878823236
11
305.2797141727
21
187.3248315411
0
LINE
5
360
100
AcDbEntity
8
0
100
AcDbLine
62
7
6
CONTINUOUS
10
305.2797141727
20
183.0456497179
11
305.2797141727
21
182.0321590826
0
LINE
5
361
100
AcDbEntity
8
0
100
AcDbLine
62
7
6
CONTINUOUS
10
305.2797141727
20
176.8520956207
11
305.2797141727
21
176.1764351972
0
LINE
5
362
100
AcDbEntity
8
0
100
AcDbLine
62
7
6
CONTINUOUS
10
305.2797141727
20
173.0233530059
11
305.2797141727
21
172.3476925824
0
LINE
5
363
100
AcDbEntity
8
0
100
AcDbLine
62
7
6
CONTINUOUS
10
305.2797141727
20
171.4468119103
11
305.2797141727
21
170.7711514867
0
LINE
5
364
100
AcDbEntity
8
0
100
AcDbLine
62
7
6
CONTINUOUS
10
305.8771299929
20
201.8802313676
11
305.8771299929
21
200.4225635369
0
LINE
5
365
100
AcDbEntity
8
0
100
AcDbLine
62
7
6
CONTINUOUS
10
305.8771299929
20
195.8864317708
11
305.8771299929
21
194.9823167707
0
LINE
5
366
100
AcDbEntity
8
0
100
AcDbLine
62
7
6
CONTINUOUS
10
305.8771299929
20
190.5905538251
11
305.8771299929
21
189.3518141004
0
LINE
5
367
100
AcDbEntity
8
0
100
AcDbLine
62
7
6
CONTINUOUS
10
305.8771299929
20
185.8609010530
11
305.8771299929
21
184.6221898470
0
LINE
5
368
100
AcDbEntity
8
0
100
AcDbLine
62
7
6
CONTINUOUS
10
305.8771299929
20
180.2303970940
11
305.8771299929
21
176.8520956207
0
LINE
5
369
100
AcDbEntity
8
0
100
AcDbLine
62
7
6
CONTINUOUS
10
305.8771299929
20
175.3872493113
11
305.8771299929
21
173.8125385692
0
LINE
5
36A
100
AcDbEntity
8
0
100
AcDbLine
62
7
6
CONTINUOUS
10
305.8771299929
20
172.3476925824
11
305.8771299929
21
171.4468119103
0
LINE
5
36B
100
AcDbEntity
8
0
100
AcDbLine
62
7
6
CONTINUOUS
10
305.8771299929
20
169.9819632960
11
305.8771299929
21
169.0424091941
0
LINE
5
36C
100
AcDbEntity
8
0
100
AcDbLine
62
7
6
CONTINUOUS
10
306.1703799929
20
200.3876001589
11
306.1703799929
21
195.0286975405
0
LINE
5
36D
100
AcDbEntity
8
0
100
AcDbLine
62
7
6
CONTINUOUS
10
306.1703799929
20
194.9823167707
11
306.1703799929
21
190.5905240177
0
LINE
5
36E
100
AcDbEntity
8
0
100
AcDbLine
62
7
6
CONTINUOUS
10
306.1703799929
20
190.0193744421
11
306.1703799929
21
179.4591827546
0
LINE
5
36F
100
AcDbEntity
8
0
100
AcDbLine
62
7
6
CONTINUOUS
10
306.1703799929
20
179.3295173884
11
306.1703799929
21
176.8868279223
0
LINE
5
370
100
AcDbEntity
8
0
100
AcDbLine
62
7
6
CONTINUOUS
10
306.1703799929
20
176.8520956207
11
306.1703799929
21
166.9424091941
0
LINE
5
371
100
AcDbEntity
8
0
100
AcDbLine
62
7
6
CONTINUOUS
10
304.1771390861
20
200.3876001589
11
306.1703799929
21
200.3876001589
0
LINE
5
372
100
AcDbEntity
8
0
100
AcDbLine
62
7
6
CONTINUOUS
10
313.3771299929
20
124.3139880973
11
313.3771299929
21
147.5708302908
0
LINE
5
373
100
AcDbEntity
8
0
100
AcDbLine
62
7
6
CONTINUOUS
10
319.3771299929
20
155.0424091941
11
319.3771299929
21
135.9424091941
0
LINE
5
374
100
AcDbEntity
8
0
100
AcDbLine
62
7
6
CONTINUOUS
10
328.8771299929
20
273.9424091941
11
328.8771299929
21
238.2532983266
0
LINE
5
375
100
AcDbEntity
8
0
100
AcDbLine
62
7
6
CONTINUOUS
10
291.8771299929
20
155.9424091941
11
277.3771299929
21
147.5708302908
0
LINE
5
376
100
AcDbEntity
8
0
100
AcDbLine
62
7
6
CONTINUOUS
10
286.8771299929
20
244.3924091941
11
303.8771299929
21
244.3924091941
0
LINE
5
377
100
AcDbEntity
8
DEFAULT_1
100
AcDbLine
62
2
6
CENTER
10
295.3771299929
20
253.9424091941
11
260.4713819003
21
253.9424091941
0
LINE
5
378
100
AcDbEntity
8
DEFAULT_1
100
AcDbLine
62
2
6
CENTER
10
295.3771299929
20
253.9424091941
11
329.6095888015
21
253.9424091941
0
LINE
5
379
100
AcDbEntity
8
0
100
AcDbLine
62
7
6
CONTINUOUS
10
298.8771299929
20
115.9424091941
11
313.3771299929
21
124.3139880973
0
LINE
5
37A
100
AcDbEntity
8
0
100
AcDbLine
62
7
6
CONTINUOUS
10
286.8771299929
20
263.4924091941
11
303.8771299929
21
263.4924091941
0
LINE
5
37B
100
AcDbEntity
8
0
100
AcDbLine
62
7
6
CONTINUOUS
10
328.8771299929
20
273.9424091941
11
303.8771299929
21
273.9424091941
0
LINE
5
37C
100
AcDbEntity
8
0
100
AcDbLine
62
7
6
CONTINUOUS
10
286.8771299929
20
273.9424091941
11
261.8771299929
21
273.9424091941
0
LINE
5
37D
100
AcDbEntity
8
0
100
AcDbLine
62
7
6
CONTINUOUS
10
54.3373869446
20
48.1139431652
11
54.3373869446
21
41.1139431652
0
LINE
5
37E
100
AcDbEntity
8
0
100
AcDbLine
62
7
6
CONTINUOUS
10
74.3373869446
20
26.6139431652
11
74.3373869446
21
41.1139431652
0
LINE
5
37F
100
AcDbEntity
8
0
100
AcDbLine
62
7
6
CONTINUOUS
10
74.3373869446
20
48.1139431652
11
74.3373869446
21
62.6139431652
0
LINE
5
380
100
AcDbEntity
8
0
100
AcDbLine
62
7
6
CONTINUOUS
10
80.3373869446
20
68.6139431652
11
80.3373869446
21
20.6139431652
0
LINE
5
381
100
AcDbEntity
8
0
100
AcDbLine
62
7
6
CONTINUOUS
10
98.3373869446
20
11.1139431652
11
142.3373869446
21
11.1139431652
0
LINE
5
382
100
AcDbEntity
8
0
100
AcDbLine
62
7
6
CONTINUOUS
10
87.3461369446
20
35.8139340720
11
87.3461369446
21
33.8206931652
0
LINE
5
383
100
AcDbEntity
8
0
100
AcDbLine
62
7
6
CONTINUOUS
10
80.3373869446
20
20.6139431652
11
98.3373869446
21
20.6139431652
0
LINE
5
384
100
AcDbEntity
8
0
100
AcDbLine
62
7
6
CONTINUOUS
10
142.3373869446
20
20.6139431652
11
157.3373869446
21
20.6139431652
0
LINE
5
385
100
AcDbEntity
8
0
100
AcDbLine
62
7
6
CONTINUOUS
10
80.3373869446
20
26.6139431652
11
74.3373869446
21
26.6139431652
0
LINE
5
386
100
AcDbEntity
8
0
100
AcDbLine
62
7
6
CONTINUOUS
10
157.3373869446
20
26.6139431652
11
175.3373869446
21
26.6139431652
0
LINE
5
387
100
AcDbEntity
8
0
100
AcDbLine
62
7
6
CONTINUOUS
10
98.3373057104
20
42.9324944435
11
98.3338296054
21
44.6139431273
0
LINE
5
388
100
AcDbEntity
8
0
100
AcDbLine
62
7
6
CONTINUOUS
10
98.3373869446
20
11.1139431652
11
98.3373869446
21
16.3778751877
0
LINE
5
389
100
AcDbEntity
8
0
100
AcDbLine
62
7
6
CONTINUOUS
10
98.3373869446
20
16.8505874084
11
98.3373869446
21
20.3772989221
0
LINE
5
38A
100
AcDbEntity
8
0
100
AcDbLine
62
7
6
CONTINUOUS
10
98.3373869446
20
20.8500111427
11
98.3373869446
21
42.9324944436
0
LINE
5
38B
100
AcDbEntity
8
0
100
AcDbLine
62
7
6
CONTINUOUS
10
98.3373869446
20
46.3000402183
11
98.3373869446
21
78.1139431652
0
LINE
5
38C
100
AcDbEntity
8
0
100
AcDbLine
62
7
6
CONTINUOUS
10
98.3338296054
20
44.6139431273
11
98.3373356126
21
46.3000402183
0
LINE
5
38D
100
AcDbEntity
8
0
100
AcDbLine
62
7
6
CONTINUOUS
10
154.3411369446
20
33.8206931652
11
147.2935978730
21
33.8206931652
0
LINE
5
38E
100
AcDbEntity
8
0
100
AcDbLine
62
7
6
CONTINUOUS
10
93.3806472284
20
33.8206931652
11
87.3461369446
21
33.8206931652
0
LINE
5
38F
100
AcDbEntity
8
0
100
AcDbLine
62
7
6
CONTINUOUS
10
148.8977328616
20
34.1139438944
11
147.9904558620
21
34.1139431652
0
LINE
5
390
100
AcDbEntity
8
0
100
AcDbLine
62
7
6
CONTINUOUS
10
110.7873869446
20
53.1139431652
11
110.7873869446
21
36.1139431652
0
LINE
5
391
100
AcDbEntity
8
0
100
AcDbLine
62
7
6
CONTINUOUS
10
98.3373869446
20
36.1139431652
11
142.3373869446
21
36.1139431652
0
LINE
5
392
100
AcDbEntity
8
0
100
AcDbLine
62
7
6
CONTINUOUS
10
80.3373869446
20
41.1139431652
11
54.3382855896
21
41.1139431652
0
LINE
5
393
100
AcDbEntity
8
DEFAULT_1
100
AcDbLine
62
2
6
CENTER
10
51.3056865552
20
44.6139431652
11
178.3373869446
21
44.6139431652
0
LINE
5
394
100
AcDbEntity
8
0
100
AcDbLine
62
7
6
CONTINUOUS
10
80.3373869446
20
48.1139431652
11
54.3382855896
21
48.1139431652
0
LINE
5
395
100
AcDbEntity
8
DEFAULT_1
100
AcDbLine
62
2
6
CENTER
10
120.3373869446
20
28.6344744841
11
120.3373869446
21
62.9335068140
0
LINE
5
396
100
AcDbEntity
8
0
100
AcDbLine
62
7
6
CONTINUOUS
10
98.3373869446
20
53.1139431652
11
142.3373869446
21
53.1139431652
0
LINE
5
397
100
AcDbEntity
8
0
100
AcDbLine
62
7
6
CONTINUOUS
10
149.8373869446
20
55.1139431652
11
147.9895254658
21
55.1139431652
0
LINE
5
398
100
AcDbEntity
8
0
100
AcDbLine
62
7
6
CONTINUOUS
10
92.6843359883
20
55.1139431652
11
90.8373869446
21
55.1139431652
0
LINE
5
399
100
AcDbEntity
8
0
100
AcDbLine
62
7
6
CONTINUOUS
10
129.8873869446
20
53.1139431652
11
129.8873869446
21
36.1139431652
0
LINE
5
39A
100
AcDbEntity
8
0
100
AcDbLine
62
7
6
CONTINUOUS
10
175.3373869446
20
62.6139431652
11
157.3373869446
21
62.6139431652
0
LINE
5
39B
100
AcDbEntity
8
0
100
AcDbLine
62
7
6
CONTINUOUS
10
80.3373869446
20
62.6139431652
11
74.3373869446
21
62.6139431652
0
LINE
5
39C
100
AcDbEntity
8
0
100
AcDbLine
62
7
6
CONTINUOUS
10
142.3374330833
20
46.2995229752
11
142.3409403298
21
44.6139431715
0
LINE
5
39D
100
AcDbEntity
8
0
100
AcDbLine
62
7
6
CONTINUOUS
10
142.3373869446
20
16.3778751877
11
142.3373869446
21
11.1139431652
0
LINE
5
39E
100
AcDbEntity
8
0
100
AcDbLine
62
7
6
CONTINUOUS
10
142.3373869446
20
16.8505874084
11
142.3373869446
21
20.3772989221
0
LINE
5
39F
100
AcDbEntity
8
0
100
AcDbLine
62
7
6
CONTINUOUS
10
142.3373869446
20
20.8500111427
11
142.3373869446
21
42.9324379015
0
LINE
5
3A0
100
AcDbEntity
8
0
100
AcDbLine
62
7
6
CONTINUOUS
10
142.3373869446
20
46.2995229752
11
142.3373869446
21
78.1139431652
0
LINE
5
3A1
100
AcDbEntity
8
0
100
AcDbLine
62
7
6
CONTINUOUS
10
142.3409403298
20
44.6139431715
11
142.3374609089
21
42.9324379013
0
LINE
5
3A2
100
AcDbEntity
8
0
100
AcDbLine
62
7
6
CONTINUOUS
10
80.3373869446
20
68.6139431652
11
98.3373869446
21
68.6139431652
0
LINE
5
3A3
100
AcDbEntity
8
0
100
AcDbLine
62
7
6
CONTINUOUS
10
142.3373869446
20
68.6139431652
11
157.3373869446
21
68.6139431652
0
LINE
5
3A4
100
AcDbEntity
8
0
100
AcDbLine
62
7
6
CONTINUOUS
10
147.7069878462
20
34.0082102267
11
147.7069878462
21
33.8206931652
0
LINE
5
3A5
100
AcDbEntity
8
0
100
AcDbLine
62
7
6
CONTINUOUS
10
148.2173069343
20
34.1333680984
11
148.2173069343
21
33.8206931652
0
LINE
5
3A6
100
AcDbEntity
8
0
100
AcDbLine
62
7
6
CONTINUOUS
10
148.8977328616
20
34.1139438944
11
148.8977328616
21
33.8206931652
0
LINE
5
3A7
100
AcDbEntity
8
0
100
AcDbLine
62
7
6
CONTINUOUS
10
149.4080519497
20
34.1233886404
11
149.4080519497
21
33.8206931652
0
LINE
5
3A8
100
AcDbEntity
8
0
100
AcDbLine
62
7
6
CONTINUOUS
10
150.0884774006
20
34.1594866021
11
150.0884774006
21
33.8206931652
0
LINE
5
3A9
100
AcDbEntity
8
0
100
AcDbLine
62
7
6
CONTINUOUS
10
150.5987964887
20
34.1983280677
11
150.5987964887
21
33.8206931652
0
LINE
5
3AA
100
AcDbEntity
8
0
100
AcDbLine
62
7
6
CONTINUOUS
10
150.7689028514
20
34.1999978403
11
150.7689028514
21
33.8206931652
0
LINE
5
3AB
100
AcDbEntity
8
0
100
AcDbLine
62
7
6
CONTINUOUS
10
98.3373869446
20
78.1139431652
11
142.3373869446
21
78.1139431652
0
LINE
5
3AC
100
AcDbEntity
8
0
100
AcDbLine
62
7
6
CONTINUOUS
10
154.3411369446
20
35.1524116488
11
154.3411369446
21
33.8206931652
0
LINE
5
3AD
100
AcDbEntity
8
0
100
AcDbLine
62
7
6
CONTINUOUS
10
157.3373869446
20
20.6139431652
11
157.3373869446
21
26.6139431652
0
LINE
5
3AE
100
AcDbEntity
8
0
100
AcDbLine
62
7
6
CONTINUOUS
10
157.3373869446
20
62.6139431652
11
157.3373869446
21
68.6139431652
0
LINE
5
3AF
100
AcDbEntity
8
0
100
AcDbLine
62
7
6
CONTINUOUS
10
175.3373869446
20
62.6139431652
11
175.3373869446
21
26.6139431652
0
CIRCLE
5
3B0
100
AcDbEntity
8
0
100
AcDbCircle
62
7
6
CONTINUOUS
10
120.3373869446
20
253.9424091941
40
10.2800000000
0
ARC
5
3B1
100
AcDbEntity
8
0
100
AcDbCircle
62
7
6
CONTINUOUS
10
174.3373869446
20
169.0424091941
40
14.0000000000
100
AcDbArc
50
180.0000000000
51
270.0000000000
0
ARC
5
3B2
100
AcDbEntity
8
0
100
AcDbCircle
62
7
6
CONTINUOUS
10
108.3373869446
20
190.4424091941
40
7.0000000000
100
AcDbArc
50
90.0000000000
51
180.0000000000
0
ARC
5
3B3
100
AcDbEntity
8
0
100
AcDbCircle
62
7
6
CONTINUOUS
10
108.3373869446
20
190.4424091941
40
28.0000000000
100
AcDbArc
50
120.8981478252
51
180.0000000000
0
ARC
5
3B4
100
AcDbEntity
8
0
100
AcDbCircle
62
7
6
CONTINUOUS
10
132.3373869446
20
190.4424091941
40
7.0000000000
100
AcDbArc
50
0.0000000000
51
90.0000000000
0
ARC
5
3B5
100
AcDbEntity
8
0
100
AcDbCircle
62
7
6
CONTINUOUS
10
132.3373869446
20
190.4424091941
40
28.0000000000
100
AcDbArc
50
0.0000000000
51
59.1018521748
0
CIRCLE
5
3B6
100
AcDbEntity
8
0
100
AcDbCircle
62
7
6
CONTINUOUS
10
90.8373869446
20
147.4424091941
40
3.0000000000
0
ARC
5
3B7
100
AcDbEntity
8
0
100
AcDbCircle
62
7
6
CONTINUOUS
10
74.3373869446
20
135.9424091941
40
20.0000000000
100
AcDbArc
50
90.0000000000
51
270.0000000000
0
ARC
5
3B8
100
AcDbEntity
8
0
100
AcDbCircle
62
7
6
CONTINUOUS
10
116.3373869446
20
255.9424091941
40
18.0000000000
100
AcDbArc
50
90.0000000000
51
180.0000000000
0
ARC
5
3B9
100
AcDbEntity
8
0
100
AcDbCircle
62
7
6
CONTINUOUS
10
124.3373869446
20
255.9424091941
40
18.0000000000
100
AcDbArc
50
0.0000000000
51
90.0000000000
0
ARC
5
3BA
100
AcDbEntity
8
0
100
AcDbCircle
62
7
6
CONTINUOUS
10
319.8771299929
20
169.0424091941
40
14.0000000000
100
AcDbArc
50
188.7069201586
51
268.1831018217
0
ARC
5
3BB
100
AcDbEntity
8
0
100
AcDbCircle
62
7
6
CONTINUOUS
10
270.8771299929
20
169.0424091941
40
14.0000000000
100
AcDbArc
50
271.8168981783
51
360.0000000000
0
ARC
5
3BC
100
AcDbEntity
8
0
100
AcDbCircle
62
7
6
CONTINUOUS
10
295.4771299929
20
135.9424091941
40
23.9000000000
100
AcDbArc
50
270.0000000000
51
360.0000000000
0
ARC
5
3BD
100
AcDbEntity
8
0
100
AcDbCircle
62
7
6
CONTINUOUS
10
295.2771299929
20
135.9424091941
40
23.9000000000
100
AcDbArc
50
180.0000000000
51
270.0000000000
0
ARC
5
3BE
100
AcDbEntity
8
0
100
AcDbCircle
62
7
6
CONTINUOUS
10
295.3771299929
20
230.4424091941
40
8.5000000000
100
AcDbArc
50
180.0000000000
51
360.0000000000
0
CIRCLE
5
3BF
100
AcDbEntity
8
0
100
AcDbCircle
62
7
6
CONTINUOUS
10
321.3771299929
20
253.9424091941
40
3.0000000000
0
ARC
5
3C0
100
AcDbEntity
8
0
100
AcDbCircle
62
7
6
CONTINUOUS
10
288.8771299929
20
238.2532983266
40
40.0000000000
100
AcDbArc
50
300.0000000000
51
360.0000000000
0
ARC
5
3C1
100
AcDbEntity
8
0
100
AcDbCircle
62
7
6
CONTINUOUS
10
301.8771299929
20
238.2532983266
40
40.0000000000
100
AcDbArc
50
180.0000000000
51
240.0000000000
0
ARC
5
3C2
100
AcDbEntity
8
0
100
AcDbCircle
62
7
6
CONTINUOUS
10
90.8373869446
20
44.6139431652
40
10.5000000000
100
AcDbArc
50
90.0000000000
51
250.5292245142
0
ARC
5
3C3
100
AcDbEntity
8
0
100
AcDbCircle
62
7
6
CONTINUOUS
10
149.8373869446
20
44.6139431652
40
10.5000000000
100
AcDbArc
50
295.4601198122
51
90.0000000000
0
SPLINE
5
3C4
100
AcDbEntity
8
0
100
AcDbSpline
62
7
6
CONTINUOUS
70
0
71
3
72
12
73
8
74
6
42
0.0000001000
43
0.0000001000
44
0.0000000001
40
0.0000000000
40
0.0000000000
40
0.0000000000
40
0.0000000000
40
0.1727660253
40
0.3952308619
40
0.6183144565
40
0.8322568507
40
1.0000000000
40
1.0000000000
40
1.0000000000
40
1.0000000000
10
146.7157614026
20
214.4686850678
30
0.0000000000
10
146.2697851136
20
214.7356738741
30
0.0000000000
10
145.3004497856
20
215.4361610039
30
0.0000000000
10
144.0286355629
20
216.8114992115
30
0.0000000000
10
143.0306040252
20
218.5436097835
30
0.0000000000
10
142.4835121622
20
220.2911405425
30
0.0000000000
10
142.3549276033
20
221.4381028626
30
0.0000000000
10
142.3409229965
20
221.9423943424
30
0.0000000000
11
146.7157614026
21
214.4686850678
31
0.0000000000
11
145.4522217283
21
215.3822115832
31
0.0000000000
11
144.0902867834
21
216.8547875100
31
0.0000000000
11
143.0860867872
21
218.5975844056
31
0.0000000000
11
142.5098021636
21
220.4384769090
31
0.0000000000
11
142.3409229965
21
221.9423943424
31
0.0000000000
0
SPLINE
5
3C5
100
AcDbEntity
8
0
100
AcDbSpline
62
7
6
CONTINUOUS
70
0
71
3
72
10
73
6
74
4
42
0.0000001000
43
0.0000001000
44
0.0000000001
40
0.0000000000
40
0.0000000000
40
0.0000000000
40
0.0000000000
40
0.2462771197
40
0.8277093425
40
1.0000000000
40
1.0000000000
40
1.0000000000
40
1.0000000000
10
96.8473975258
20
217.2316066012
30
0.0000000000
10
96.8265532240
20
217.2000438017
30
0.0000000000
10
96.7558291729
20
217.0944064394
30
0.0000000000
10
96.6676908452
20
216.9686077190
30
0.0000000000
10
96.5994489027
20
216.8750990615
30
0.0000000000
10
96.5837557721
20
216.8537934795
30
0.0000000000
11
96.8473975258
21
217.2316066012
31
0.0000000000
11
96.7842693509
21
217.1373149070
31
0.0000000000
11
96.6305526578
21
216.9179170236
31
0.0000000000
11
96.5837557721
21
216.8537934795
31
0.0000000000
0
SPLINE
5
3C6
100
AcDbEntity
8
0
100
AcDbSpline
62
7
6
CONTINUOUS
70
0
71
3
72
11
73
7
74
5
42
0.0000001000
43
0.0000001000
44
0.0000000001
40
0.0000000000
40
0.0000000000
40
0.0000000000
40
0.0000000000
40
0.1896543511
40
0.4605658591
40
0.7338828881
40
1.0000000000
40
1.0000000000
40
1.0000000000
40
1.0000000000
10
96.5837557721
20
216.8537934795
30
0.0000000000
10
96.5460089612
20
216.8025469950
30
0.0000000000
10
96.4530225987
20
216.6790698922
30
0.0000000000
10
96.2998266364
20
216.4861873593
30
0.0000000000
10
96.1242649267
20
216.2784551249
30
0.0000000000
10
96.0032783711
20
216.1437604833
30
0.0000000000
10
95.9426167806
20
216.0782150425
30
0.0000000000
11
96.5837557721
21
216.8537934795
31
0.0000000000
11
96.4688930252
21
216.7012667134
31
0.0000000000
11
96.2992629733
21
216.4876927241
31
0.0000000000
11
96.1216479139
21
216.2775308852
31
0.0000000000
11
95.9426167806
21
216.0782150425
31
0.0000000000
0
SPLINE
5
3C7
100
AcDbEntity
8
0
100
AcDbSpline
62
7
6
CONTINUOUS
70
0
71
3
72
12
73
8
74
6
42
0.0000001000
43
0.0000001000
44
0.0000000001
40
0.0000000000
40
0.0000000000
40
0.0000000000
40
0.0000000000
40
0.0097248645
40
0.2913995865
40
0.5755003508
40
0.8620237438
40
1.0000000000
40
1.0000000000
40
1.0000000000
40
1.0000000000
10
95.9426167806
20
216.0782150425
30
0.0000000000
10
95.9404279825
20
216.0758500248
30
0.0000000000
10
95.8748039282
20
216.0050189486
30
0.0000000000
10
95.7429491649
20
215.8672180284
30
0.0000000000
10
95.5413952183
20
215.6693386456
30
0.0000000000
10
95.3687224168
20
215.5101832107
30
0.0000000000
10
95.2630831116
20
215.4172983742
30
0.0000000000
10
95.2285188399
20
215.3873711359
30
0.0000000000
11
95.9426167806
21
216.0782150425
31
0.0000000000
11
95.9360465766
21
216.0711235175
31
0.0000000000
11
95.7424715607
21
215.8688190001
31
0.0000000000
11
95.5409498804
21
215.6709713029
31
0.0000000000
11
95.3315235008
21
215.4779394829
31
0.0000000000
11
95.2285188399
21
215.3873711359
31
0.0000000000
0
SPLINE
5
3C8
100
AcDbEntity
8
0
100
AcDbSpline
62
7
6
CONTINUOUS
70
0
71
3
72
11
73
7
74
5
42
0.0000001000
43
0.0000001000
44
0.0000000001
40
0.0000000000
40
0.0000000000
40
0.0000000000
40
0.0000000000
40
0.1553680582
40
0.4552215677
40
0.7575578043
40
1.0000000000
40
1.0000000000
40
1.0000000000
40
1.0000000000
10
95.2285188399
20
215.3873711359
30
0.0000000000
10
95.1907004343
20
215.3546263280
30
0.0000000000
10
95.0790942729
20
215.2596092802
30
0.0000000000
10
94.8895396206
20
215.1060558198
30
0.0000000000
10
94.6727755629
20
214.9417701616
30
0.0000000000
10
94.5299341953
20
214.8399445434
30
0.0000000000
10
94.4657868562
20
214.7954637212
30
0.0000000000
11
95.2285188399
21
215.3873711359
31
0.0000000000
11
95.1142498633
21
215.2900871436
31
0.0000000000
11
94.8892023981
21
215.1077818579
31
0.0000000000
11
94.6564710216
21
214.9313945535
31
0.0000000000
11
94.4657868562
21
214.7954637212
31
0.0000000000
0
SPLINE
5
3C9
100
AcDbEntity
8
0
100
AcDbSpline
62
7
6
CONTINUOUS
70
0
71
3
72
10
73
6
74
4
42
0.0000001000
43
0.0000001000
44
0.0000000001
40
0.0000000000
40
0.0000000000
40
0.0000000000
40
0.0000000000
40
0.0998953458
40
0.5920446767
40
1.0000000000
40
1.0000000000
40
1.0000000000
40
1.0000000000
10
94.4657868562
20
214.7954637212
30
0.0000000000
10
94.4492836300
20
214.7840201121
30
0.0000000000
10
94.3512477529
20
214.7165252198
30
0.0000000000
10
94.1834079895
20
214.6058146351
30
0.0000000000
10
94.0294064692
20
214.5107694088
30
0.0000000000
10
93.9590314891
20
214.4686533877
30
0.0000000000
11
94.4657868562
21
214.7954637212
31
0.0000000000
11
94.4161626165
21
214.7612988614
31
0.0000000000
11
94.1684014927
21
214.5978704262
31
0.0000000000
11
93.9590314891
21
214.4686533877
31
0.0000000000
0
SPLINE
5
3CA
100
AcDbEntity
8
0
100
AcDbSpline
62
7
6
CONTINUOUS
70
0
71
3
72
13
73
9
74
7
42
0.0000001000
43
0.0000001000
44
0.0000000001
40
0.0000000000
40
0.0000000000
40
0.0000000000
40
0.0000000000
40
0.1668481776
40
0.3407122055
40
0.5201005426
40
0.7034590450
40
0.8893121658
40
1.0000000000
40
1.0000000000
40
1.0000000000
40
1.0000000000
10
98.3206236512
20
221.6436307695
30
0.0000000000
10
98.3164607158
20
221.5750789062
30
0.0000000000
10
98.3063755573
20
221.4361834455
30
0.0000000000
10
98.2860296010
20
221.2237591561
30
0.0000000000
10
98.2597599558
20
221.0053902225
30
0.0000000000
10
98.2273773710
20
220.7828116813
30
0.0000000000
10
98.1941481988
20
220.5888974331
30
0.0000000000
10
98.1711928750
20
220.4695180838
30
0.0000000000
10
98.1622880236
20
220.4250254262
30
0.0000000000
11
98.3206236512
21
221.6436307695
31
0.0000000000
11
98.3058054623
21
221.4389808605
31
0.0000000000
11
98.2854040624
21
221.2261428062
31
0.0000000000
11
98.2590607183
21
221.0071140669
31
0.0000000000
11
98.2265945138
21
220.7839739011
31
0.0000000000
11
98.1879921504
21
220.5586998903
31
0.0000000000
11
98.1622880236
21
220.4250254262
31
0.0000000000
0
SPLINE
5
3CB
100
AcDbEntity
8
0
100
AcDbSpline
62
7
6
CONTINUOUS
70
0
71
3
72
12
73
8
74
6
42
0.0000001000
43
0.0000001000
44
0.0000000001
40
0.0000000000
40
0.0000000000
40
0.0000000000
40
0.0000000000
40
0.0994349812
40
0.3440639196
40
0.5912883030
40
0.8411044072
40
1.0000000000
40
1.0000000000
40
1.0000000000
40
1.0000000000
10
98.1622880236
20
220.4250254262
30
0.0000000000
10
98.1560784251
20
220.3939994692
30
0.0000000000
10
98.1340258946
20
220.2867569412
30
0.0000000000
10
98.0927681838
20
220.1031661273
30
0.0000000000
10
98.0350285127
20
219.8743102906
30
0.0000000000
10
97.9786460158
20
219.6733249532
30
0.0000000000
10
97.9408100501
20
219.5488889541
30
0.0000000000
10
97.9256938912
20
219.5006391169
30
0.0000000000
11
98.1622880236
21
220.4250254262
31
0.0000000000
11
98.1431687237
21
220.3320474762
31
0.0000000000
11
98.0919668073
21
220.1042061308
31
0.0000000000
11
98.0342334617
21
219.8753754490
31
0.0000000000
11
97.9698204412
21
219.6457638864
31
0.0000000000
11
97.9256938912
21
219.5006391169
31
0.0000000000
0
SPLINE
5
3CC
100
AcDbEntity
8
0
100
AcDbSpline
62
7
6
CONTINUOUS
70
0
71
3
72
12
73
8
74
6
42
0.0000001000
43
0.0000001000
44
0.0000000001
40
0.0000000000
40
0.0000000000
40
0.0000000000
40
0.0000000000
40
0.0910143992
40
0.3392016072
40
0.5899007751
40
0.8431083038
40
1.0000000000
40
1.0000000000
40
1.0000000000
40
1.0000000000
10
97.9256938912
20
219.5006391169
30
0.0000000000
10
97.9167981696
20
219.4722445280
30
0.0000000000
10
97.8831198981
20
219.3665851231
30
0.0000000000
10
97.8211594792
20
219.1839336651
30
0.0000000000
10
97.7358624509
20
218.9532948456
30
0.0000000000
10
97.6553842057
20
218.7527862819
30
0.0000000000
10
97.6026734942
20
218.6295025652
30
0.0000000000
10
97.5821062559
20
218.5825137168
30
0.0000000000
11
97.9256938912
21
219.5006391169
31
0.0000000000
11
97.8985847147
21
219.4155890854
31
0.0000000000
11
97.8203889748
21
219.1850779688
31
0.0000000000
11
97.7351021455
21
218.9544667381
31
0.0000000000
11
97.6425998966
21
218.7240008251
31
0.0000000000
11
97.5821062559
21
218.5825137168
31
0.0000000000
0
SPLINE
5
3CD
100
AcDbEntity
8
0
100
AcDbSpline
62
7
6
CONTINUOUS
70
0
71
3
72
12
73
8
74
6
42
0.0000001000
43
0.0000001000
44
0.0000000001
40
0.0000000000
40
0.0000000000
40
0.0000000000
40
0.0000000000
40
0.0969876919
40
0.3504118299
40
0.6062870765
40
0.8646098274
40
1.0000000000
40
1.0000000000
40
1.0000000000
40
1.0000000000
10
97.5821062559
20
218.5825137168
30
0.0000000000
10
97.5691516750
20
218.5529170920
30
0.0000000000
10
97.5217716239
20
218.4462379264
30
0.0000000000
10
97.4362115954
20
218.2632744055
30
0.0000000000
10
97.3213775111
20
218.0347783339
30
0.0000000000
10
97.2187210061
20
217.8442692222
30
0.0000000000
10
97.1539971567
20
217.7301983649
30
0.0000000000
10
97.1314463135
20
217.6911411254
30
0.0000000000
11
97.5821062559
21
218.5825137168
31
0.0000000000
11
97.5427651636
21
218.4939348129
31
0.0000000000
11
97.4354886770
21
218.2645323312
31
0.0000000000
11
97.3206694984
21
218.0360659286
31
0.0000000000
11
97.1982155651
21
217.8088169190
31
0.0000000000
11
97.1314463135
21
217.6911411254
31
0.0000000000
0
SPLINE
5
3CE
100
AcDbEntity
8
0
100
AcDbSpline
62
7
6
CONTINUOUS
70
0
71
3
72
10
73
6
74
4
42
0.0000001000
43
0.0000001000
44
0.0000000001
40
0.0000000000
40
0.0000000000
40
0.0000000000
40
0.0000000000
40
0.2318875898
40
0.7186967601
40
1.0000000000
40
1.0000000000
40
1.0000000000
40
1.0000000000
10
97.1314463135
20
217.6911411254
30
0.0000000000
10
97.1105633720
20
217.6549726308
30
0.0000000000
10
97.0450599141
20
217.5433249299
30
0.0000000000
10
96.9505800408
20
217.3899670758
30
0.0000000000
10
96.8753176194
20
217.2738836863
30
0.0000000000
10
96.8473975258
20
217.2316066012
30
0.0000000000
11
97.1314463135
21
217.6911411254
31
0.0000000000
11
97.0680442409
21
217.5830752024
31
0.0000000000
11
96.9300828725
21
217.3591390577
31
0.0000000000
11
96.8473975258
21
217.2316066012
31
0.0000000000
0
SPLINE
5
3CF
100
AcDbEntity
8
0
100
AcDbSpline
62
7
6
CONTINUOUS
70
0
71
3
72
8
73
4
74
2
42
0.0000001000
43
0.0000001000
44
0.0000000001
40
0.0000000000
40
0.0000000000
40
0.0000000000
40
0.0000000000
40
1.0000000000
40
1.0000000000
40
1.0000000000
40
1.0000000000
10
98.3337770774
20
221.9424001487
30
0.0000000000
10
98.3196467503
20
221.4335498611
30
0.0000000000
10
98.2622437555
20
220.9249129811
30
0.0000000000
10
98.1622431779
20
220.4250344076
30
0.0000000000
11
98.3337770774
21
221.9424001487
31
0.0000000000
11
98.1622431779
21
220.4250344076
31
0.0000000000
0
SPLINE
5
3D0
100
AcDbEntity
8
0
100
AcDbSpline
62
7
6
CONTINUOUS
70
0
71
3
72
8
73
4
74
2
42
0.0000001000
43
0.0000001000
44
0.0000000001
40
0.0000000000
40
0.0000000000
40
0.0000000000
40
0.0000000000
40
1.0000000000
40
1.0000000000
40
1.0000000000
40
1.0000000000
10
98.1622431779
20
220.4250344076
30
0.0000000000
10
98.0998095077
20
220.1129436703
30
0.0000000000
10
98.0207711682
20
219.8042674240
30
0.0000000000
10
97.9256550165
20
219.5006512972
30
0.0000000000
11
98.1622431779
21
220.4250344076
31
0.0000000000
11
97.9256550165
21
219.5006512972
31
0.0000000000
0
SPLINE
5
3D1
100
AcDbEntity
8
0
100
AcDbSpline
62
7
6
CONTINUOUS
70
0
71
3
72
8
73
4
74
2
42
0.0000001000
43
0.0000001000
44
0.0000000001
40
0.0000000000
40
0.0000000000
40
0.0000000000
40
0.0000000000
40
1.0000000000
40
1.0000000000
40
1.0000000000
40
1.0000000000
10
97.9256550165
20
219.5006512972
30
0.0000000000
10
97.8279182715
20
219.1886700887
30
0.0000000000
10
97.7132055747
20
218.8820316678
30
0.0000000000
10
97.5820885434
20
218.5825214614
30
0.0000000000
11
97.9256550165
21
219.5006512972
31
0.0000000000
11
97.5820885434
21
218.5825214614
31
0.0000000000
0
SPLINE
5
3D2
100
AcDbEntity
8
0
100
AcDbSpline
62
7
6
CONTINUOUS
70
0
71
3
72
8
73
4
74
2
42
0.0000001000
43
0.0000001000
44
0.0000000001
40
0.0000000000
40
0.0000000000
40
0.0000000000
40
0.0000000000
40
1.0000000000
40
1.0000000000
40
1.0000000000
40
1.0000000000
10
97.5820885434
20
218.5825214614
30
0.0000000000
10
97.4484461421
20
218.2772425608
30
0.0000000000
10
97.2977603026
20
217.9793692702
30
0.0000000000
10
97.1310839481
20
217.6907250499
30
0.0000000000
11
97.5820885434
21
218.5825214614
31
0.0000000000
11
97.1310839481
21
217.6907250499
31
0.0000000000
0
SPLINE
5
3D3
100
AcDbEntity
8
0
100
AcDbSpline
62
7
6
CONTINUOUS
70
0
71
3
72
8
73
4
74
2
42
0.0000001000
43
0.0000001000
44
0.0000000001
40
0.0000000000
40
0.0000000000
40
0.0000000000
40
0.0000000000
40
1.0000000000
40
1.0000000000
40
1.0000000000
40
1.0000000000
10
97.1310839481
20
217.6907250499
30
0.0000000000
10
96.9635549173
20
217.4006041949
30
0.0000000000
10
96.7798713485
20
217.1198070786
30
0.0000000000
10
96.5811024156
20
216.8501852886
30
0.0000000000
11
97.1310839481
21
217.6907250499
31
0.0000000000
11
96.5811024156
21
216.8501852886
31
0.0000000000
0
SPLINE
5
3D4
100
AcDbEntity
8
0
100
AcDbSpline
62
7
6
CONTINUOUS
70
0
71
3
72
8
73
4
74
2
42
0.0000001000
43
0.0000001000
44
0.0000000001
40
0.0000000000
40
0.0000000000
40
0.0000000000
40
0.0000000000
40
1.0000000000
40
1.0000000000
40
1.0000000000
40
1.0000000000
10
96.5811024156
20
216.8501852886
30
0.0000000000
10
96.3828384734
20
216.5812484974
30
0.0000000000
10
96.1695657212
20
216.3234303206
30
0.0000000000
10
95.9426234404
20
216.0782088807
30
0.0000000000
11
96.5811024156
21
216.8501852886
31
0.0000000000
11
95.9426234404
21
216.0782088807
31
0.0000000000
0
SPLINE
5
3D5
100
AcDbEntity
8
0
100
AcDbSpline
62
7
6
CONTINUOUS
70
0
71
3
72
8
73
4
74
2
42
0.0000001000
43
0.0000001000
44
0.0000000001
40
0.0000000000
40
0.0000000000
40
0.0000000000
40
0.0000000000
40
1.0000000000
40
1.0000000000
40
1.0000000000
40
1.0000000000
10
95.9426234404
20
216.0782088807
30
0.0000000000
10
95.7175979797
20
215.8350586520
30
0.0000000000
10
95.4791329287
20
215.6042932675
30
0.0000000000
10
95.2285339187
20
215.3873537111
30
0.0000000000
11
95.9426234404
21
216.0782088807
31
0.0000000000
11
95.2285339187
21
215.3873537111
31
0.0000000000
0
SPLINE
5
3D6
100
AcDbEntity
8
0
100
AcDbSpline
62
7
6
CONTINUOUS
70
0
71
3
72
8
73
4
74
2
42
0.0000001000
43
0.0000001000
44
0.0000000001
40
0.0000000000
40
0.0000000000
40
0.0000000000
40
0.0000000000
40
1.0000000000
40
1.0000000000
40
1.0000000000
40
1.0000000000
10
95.2285339187
20
215.3873537111
30
0.0000000000
10
94.9851168039
20
215.1766314066
30
0.0000000000
10
94.7302504582
20
214.9789539689
30
0.0000000000
10
94.4657425374
20
214.7955276465
30
0.0000000000
11
95.2285339187
21
215.3873537111
31
0.0000000000
11
94.4657425374
21
214.7955276465
31
0.0000000000
0
SPLINE
5
3D7
100
AcDbEntity
8
0
100
AcDbSpline
62
7
6
CONTINUOUS
70
0
71
3
72
8
73
4
74
2
42
0.0000001000
43
0.0000001000
44
0.0000000001
40
0.0000000000
40
0.0000000000
40
0.0000000000
40
0.0000000000
40
1.0000000000
40
1.0000000000
40
1.0000000000
40
1.0000000000
10
94.4657425374
20
214.7955276465
30
0.0000000000
10
94.3004560498
20
214.6809076666
30
0.0000000000
10
94.1314047330
20
214.5718524436
30
0.0000000000
10
93.9590296621
20
214.4686563060
30
0.0000000000
11
94.4657425374
21
214.7955276465
31
0.0000000000
11
93.9590296621
21
214.4686563060
31
0.0000000000
0
SPLINE
5
3D8
100
AcDbEntity
8
0
100
AcDbSpline
62
7
6
CONTINUOUS
70
0
71
3
72
11
73
7
74
5
42
0.0000001000
43
0.0000001000
44
0.0000000001
40
0.0000000000
40
0.0000000000
40
0.0000000000
40
0.0000000000
40
0.2699624234
40
0.5339468920
40
0.7791635898
40
1.0000000000
40
1.0000000000
40
1.0000000000
40
1.0000000000
10
91.3677423614
20
201.6544232923
30
0.0000000000
10
91.8855482435
20
201.7187268968
30
0.0000000000
10
92.9043142491
20
201.8961305263
30
0.0000000000
10
94.3545270167
20
202.3146595548
30
0.0000000000
10
95.6544025254
20
202.8734830048
30
0.0000000000
10
96.4239013317
20
203.3518112439
30
0.0000000000
10
96.7620447519
20
203.6122821752
30
0.0000000000
11
91.3677423614
21
201.6544232923
31
0.0000000000
11
92.9093393484
21
201.9260842851
31
0.0000000000
11
94.3784163210
21
202.3559879776
31
0.0000000000
11
95.6811094861
21
202.9258029992
31
0.0000000000
11
96.7620447519
21
203.6122821752
31
0.0000000000
0
SPLINE
5
3D9
100
AcDbEntity
8
0
100
AcDbSpline
62
7
6
CONTINUOUS
70
0
71
3
72
10
73
6
74
4
42
0.0000001000
43
0.0000001000
44
0.0000000001
40
0.0000000000
40
0.0000000000
40
0.0000000000
40
0.0000000000
40
0.3321558936
40
0.6593443441
40
1.0000000000
40
1.0000000000
40
1.0000000000
40
1.0000000000
10
142.3373731503
20
206.6441613515
30
0.0000000000
10
142.3373731503
20
206.2529737495
30
0.0000000000
10
142.4558684558
20
205.4686926905
30
0.0000000000
10
143.0220226874
20
204.4126962680
30
0.0000000000
10
143.5948946219
20
203.8571102245
30
0.0000000000
10
143.9127295395
20
203.6122821752
30
0.0000000000
11
142.3373731503
21
206.6441613515
31
0.0000000000
11
142.5214234287
21
205.4851207332
31
0.0000000000
11
143.0611464850
21
204.4628376280
31
0.0000000000
11
143.9127295395
21
203.6122821752
31
0.0000000000
0
SPLINE
5
3DA
100
AcDbEntity
8
0
100
AcDbSpline
62
7
6
CONTINUOUS
70
0
71
3
72
10
73
6
74
4
42
0.0000001000
43
0.0000001000
44
0.0000000001
40
0.0000000000
40
0.0000000000
40
0.0000000000
40
0.0000000000
40
0.3407445780
40
0.6688158321
40
1.0000000000
40
1.0000000000
40
1.0000000000
40
1.0000000000
10
96.7620447519
20
203.6122821752
30
0.0000000000
10
97.0799612153
20
203.8571723381
30
0.0000000000
10
97.6536567559
20
204.4135659591
30
0.0000000000
10
98.2193166956
20
205.4699875076
30
0.0000000000
10
98.3373992583
20
206.2540984778
30
0.0000000000
10
98.3373992583
20
206.6441394991
30
0.0000000000
11
96.7620447519
21
203.6122821752
31
0.0000000000
11
97.6138157593
21
204.4630846067
31
0.0000000000
11
98.1544481101
21
205.4884073234
31
0.0000000000
11
98.3373992583
21
206.6441394991
31
0.0000000000
0
SPLINE
5
3DB
100
AcDbEntity
8
0
100
AcDbSpline
62
7
6
CONTINUOUS
70
0
71
3
72
11
73
7
74
5
42
0.0000001000
43
0.0000001000
44
0.0000000001
40
0.0000000000
40
0.0000000000
40
0.0000000000
40
0.0000000000
40
0.2706284666
40
0.5332917515
40
0.7778703542
40
1.0000000000
40
1.0000000000
40
1.0000000000
40
1.0000000000
10
149.3070326734
20
201.6544231500
30
0.0000000000
10
148.7879496581
20
201.7188853945
30
0.0000000000
10
147.7704396614
20
201.8961926098
30
0.0000000000
10
146.3226796861
20
202.3140604847
30
0.0000000000
10
145.0237513297
20
202.8716895703
30
0.0000000000
10
144.2528525448
20
203.3502856250
30
0.0000000000
10
143.9127295395
20
203.6122821752
30
0.0000000000
11
149.3070326734
21
201.6544231500
31
0.0000000000
11
147.7616689747
21
201.9269558243
31
0.0000000000
11
146.2999422856
21
202.3546967558
31
0.0000000000
11
145.0003202774
21
202.9222973591
31
0.0000000000
11
143.9127295395
21
203.6122821752
31
0.0000000000
0
SPLINE
5
3DC
100
AcDbEntity
8
0
100
AcDbSpline
62
7
6
CONTINUOUS
70
0
71
3
72
10
73
6
74
4
42
0.0000001000
43
0.0000001000
44
0.0000000001
40
0.0000000000
40
0.0000000000
40
0.0000000000
40
0.0000000000
40
0.3332429234
40
0.6667354017
40
1.0000000000
40
1.0000000000
40
1.0000000000
40
1.0000000000
10
144.9129580437
20
155.0424091941
30
0.0000000000
10
146.0069804424
20
155.0424091941
30
0.0000000000
10
148.1958324401
20
155.0517956750
30
0.0000000000
10
151.4787991341
20
155.0517964180
30
0.0000000000
10
153.6677222890
20
155.0424091941
30
0.0000000000
10
154.7618158455
20
155.0424091941
30
0.0000000000
11
144.9129580437
21
155.0424091941
31
0.0000000000
11
148.1950176932
21
155.0494474215
31
0.0000000000
11
151.4795427231
21
155.0494478838
31
0.0000000000
11
154.7618158455
21
155.0424091941
31
0.0000000000
0
SPLINE
5
3DD
100
AcDbEntity
8
0
100
AcDbSpline
62
7
6
CONTINUOUS
70
0
71
3
72
15
73
11
74
9
42
0.0000001000
43
0.0000001000
44
0.0000000001
40
0.0000000000
40
0.0000000000
40
0.0000000000
40
0.0000000000
40
0.1250316511
40
0.2501035075
40
0.3751703518
40
0.5001999128
40
0.6251720707
40
0.7501015485
40
0.8750388679
40
1.0000000000
40
1.0000000000
40
1.0000000000
40
1.0000000000
10
157.3373869446
20
155.9657123635
30
0.0000000000
10
157.7157614361
20
155.9100680932
30
0.0000000000
10
158.4723998580
20
155.7971936034
30
0.0000000000
10
159.6077527611
20
155.6302113798
30
0.0000000000
10
160.7444220411
20
155.4723524701
30
0.0000000000
10
161.8828743435
20
155.3301204256
30
0.0000000000
10
163.0234490704
20
155.2096500535
30
0.0000000000
10
164.1663641981
20
155.1167222152
30
0.0000000000
10
165.3114862540
20
155.0568253667
30
0.0000000000
10
166.0759286186
20
155.0424091941
30
0.0000000000
10
166.4581570832
20
155.0424091941
30
0.0000000000
11
157.3373869446
21
155.9657123635
31
0.0000000000
11
158.4723364734
21
155.7976009946
31
0.0000000000
11
159.6079884114
21
155.6317297685
31
0.0000000000
11
160.7448826886
21
155.4749355697
31
0.0000000000
11
161.8834720844
21
155.3337192719
31
0.0000000000
11
163.0240159069
21
155.2142235540
31
0.0000000000
11
164.1667136616
21
155.1222281159
31
0.0000000000
11
165.3116603177
21
155.0632072471
31
0.0000000000
11
166.4581570832
21
155.0424091941
31
0.0000000000
0
SPLINE
5
3DE
100
AcDbEntity
8
0
100
AcDbSpline
62
7
6
CONTINUOUS
70
0
71
3
72
10
73
6
74
4
42
0.0000001000
43
0.0000001000
44
0.0000000001
40
0.0000000000
40
0.0000000000
40
0.0000000000
40
0.0000000000
40
0.3332645983
40
0.6667570766
40
1.0000000000
40
1.0000000000
40
1.0000000000
40
1.0000000000
10
85.9129580437
20
155.0424091941
30
0.0000000000
10
87.0070516002
20
155.0424091941
30
0.0000000000
10
89.1959747551
20
155.0517964180
30
0.0000000000
10
92.4789414491
20
155.0517956750
30
0.0000000000
10
94.6677934468
20
155.0424091941
30
0.0000000000
10
95.7618158455
20
155.0424091941
30
0.0000000000
11
85.9129580437
21
155.0424091941
31
0.0000000000
11
89.1952311661
21
155.0494478838
31
0.0000000000
11
92.4797561960
21
155.0494474215
31
0.0000000000
11
95.7618158455
21
155.0424091941
31
0.0000000000
0
SPLINE
5
3DF
100
AcDbEntity
8
0
100
AcDbSpline
62
7
6
CONTINUOUS
70
0
71
3
72
9
73
5
74
3
42
0.0000001000
43
0.0000001000
44
0.0000000001
40
0.0000000000
40
0.0000000000
40
0.0000000000
40
0.0000000000
40
0.4759180028
40
1.0000000000
40
1.0000000000
40
1.0000000000
40
1.0000000000
10
305.7513933769
20
185.8609010530
30
0.0000000000
10
305.7327006971
20
185.8807111863
30
0.0000000000
10
305.6910706547
20
185.9201399927
30
0.0000000000
10
305.6461596969
20
185.9557157957
30
0.0000000000
10
305.6220152838
20
185.9735106940
30
0.0000000000
11
305.7513933769
21
185.8609010530
31
0.0000000000
11
305.6923326032
21
185.9173682465
31
0.0000000000
11
305.6220152838
21
185.9735106940
31
0.0000000000
0
SPLINE
5
3E0
100
AcDbEntity
8
0
100
AcDbSpline
62
7
6
CONTINUOUS
70
0
71
3
72
9
73
5
74
3
42
0.0000001000
43
0.0000001000
44
0.0000000001
40
0.0000000000
40
0.0000000000
40
0.0000000000
40
0.0000000000
40
0.4979992310
40
1.0000000000
40
1.0000000000
40
1.0000000000
40
1.0000000000
10
305.6220152838
20
185.9735106940
30
0.0000000000
10
305.5962030496
20
186.0496075877
30
0.0000000000
10
305.5407027794
20
186.2011914907
30
0.0000000000
10
305.4781725036
20
186.3500092670
30
0.0000000000
10
305.4451015313
20
186.4239518355
30
0.0000000000
11
305.6220152838
21
185.9735106940
31
0.0000000000
11
305.5391814017
21
186.1998989136
31
0.0000000000
11
305.4451015313
21
186.4239518355
31
0.0000000000
0
SPLINE
5
3E1
100
AcDbEntity
8
0
100
AcDbSpline
62
7
6
CONTINUOUS
70
0
71
3
72
9
73
5
74
3
42
0.0000001000
43
0.0000001000
44
0.0000000001
40
0.0000000000
40
0.0000000000
40
0.0000000000
40
0.0000000000
40
0.5015386735
40
1.0000000000
40
1.0000000000
40
1.0000000000
40
1.0000000000
10
305.4451015313
20
186.4239518355
30
0.0000000000
10
305.4282092970
20
186.4994894767
30
0.0000000000
10
305.3935264930
20
186.6498789851
30
0.0000000000
10
305.3568400088
20
186.7997923086
30
0.0000000000
10
305.3380538929
20
186.8743916883
30
0.0000000000
11
305.4451015313
21
186.4239518355
31
0.0000000000
11
305.3929157542
21
186.6502220057
31
0.0000000000
11
305.3380538929
21
186.8743916883
31
0.0000000000
0
SPLINE
5
3E2
100
AcDbEntity
8
0
100
AcDbSpline
62
7
6
CONTINUOUS
70
0
71
3
72
9
73
5
74
3
42
0.0000001000
43
0.0000001000
44
0.0000000001
40
0.0000000000
40
0.0000000000
40
0.0000000000
40
0.0000000000
40
0.5008361071
40
1.0000000000
40
1.0000000000
40
1.0000000000
40
1.0000000000
10
305.3380538929
20
186.8743916883
30
0.0000000000
10
305.3285810498
20
186.9496247184
30
0.0000000000
10
305.3094015046
20
187.0998062802
30
0.0000000000
10
305.2896882402
20
187.2499187208
30
0.0000000000
10
305.2797141727
20
187.3248315411
30
0.0000000000
11
305.3380538929
21
186.8743916883
31
0.0000000000
11
305.3092355559
21
187.1000400778
31
0.0000000000
11
305.2797141727
21
187.3248315411
31
0.0000000000
0
SPLINE
5
3E3
100
AcDbEntity
8
0
100
AcDbSpline
62
7
6
CONTINUOUS
70
0
71
3
72
9
73
5
74
3
42
0.0000001000
43
0.0000001000
44
0.0000000001
40
0.0000000000
40
0.0000000000
40
0.0000000000
40
0.0000000000
40
0.5007718814
40
1.0000000000
40
1.0000000000
40
1.0000000000
40
1.0000000000
10
305.3380538929
20
188.4509331061
30
0.0000000000
10
305.3285837980
20
188.3569189397
30
0.0000000000
10
305.3094059416
20
188.1692072139
30
0.0000000000
10
305.2896911805
20
187.9815511143
30
0.0000000000
10
305.2797141727
20
187.8878823236
30
0.0000000000
11
305.3380538929
21
188.4509331061
31
0.0000000000
11
305.3092416946
21
188.1689313810
31
0.0000000000
11
305.2797141727
21
187.8878823236
31
0.0000000000
0
SPLINE
5
3E4
100
AcDbEntity
8
0
100
AcDbSpline
62
7
6
CONTINUOUS
70
0
71
3
72
9
73
5
74
3
42
0.0000001000
43
0.0000001000
44
0.0000000001
40
0.0000000000
40
0.0000000000
40
0.0000000000
40
0.0000000000
40
0.4999021782
40
1.0000000000
40
1.0000000000
40
1.0000000000
40
1.0000000000
10
305.4939113661
20
188.9013729589
30
0.0000000000
10
305.4700618037
20
188.8256052706
30
0.0000000000
10
305.4202087703
20
188.6747070684
30
0.0000000000
10
305.3661339652
20
188.5252701318
30
0.0000000000
10
305.3380538929
20
188.4509331061
30
0.0000000000
11
305.4939113661
21
188.9013729589
31
0.0000000000
11
305.4191634938
21
188.6751017641
31
0.0000000000
11
305.3380538929
21
188.4509331061
31
0.0000000000
0
SPLINE
5
3E5
100
AcDbEntity
8
0
100
AcDbSpline
62
7
6
CONTINUOUS
70
0
71
3
72
9
73
5
74
3
42
0.0000001000
43
0.0000001000
44
0.0000000001
40
0.0000000000
40
0.0000000000
40
0.0000000000
40
0.0000000000
40
0.4950387377
40
1.0000000000
40
1.0000000000
40
1.0000000000
40
1.0000000000
10
305.6587349105
20
189.2392031707
30
0.0000000000
10
305.6348359354
20
189.1819371304
30
0.0000000000
10
305.5830648269
20
189.0676885418
30
0.0000000000
10
305.5248212787
20
188.9566092283
30
0.0000000000
10
305.4939113661
20
188.9013729589
30
0.0000000000
11
305.6587349105
21
189.2392031707
31
0.0000000000
11
305.5819923692
21
189.0695988494
31
0.0000000000
11
305.4939113661
21
188.9013729589
31
0.0000000000
0
SPLINE
5
3E6
100
AcDbEntity
8
0
100
AcDbSpline
62
7
6
CONTINUOUS
70
0
71
3
72
9
73
5
74
3
42
0.0000001000
43
0.0000001000
44
0.0000000001
40
0.0000000000
40
0.0000000000
40
0.0000000000
40
0.0000000000
40
0.4868907813
40
1.0000000000
40
1.0000000000
40
1.0000000000
40
1.0000000000
10
305.7513933769
20
189.3518141004
30
0.0000000000
10
305.7377130682
20
189.3324830508
30
0.0000000000
10
305.7080550786
20
189.2938694685
30
0.0000000000
10
305.6758186756
20
189.2573969224
30
0.0000000000
10
305.6587349105
20
189.2392031707
30
0.0000000000
11
305.7513933769
21
189.3518141004
31
0.0000000000
11
305.7082214193
21
189.2953894160
31
0.0000000000
11
305.6587349105
21
189.2392031707
31
0.0000000000
0
SPLINE
5
3E7
100
AcDbEntity
8
0
100
AcDbSpline
62
7
6
CONTINUOUS
70
0
71
3
72
9
73
5
74
3
42
0.0000001000
43
0.0000001000
44
0.0000000001
40
0.0000000000
40
0.0000000000
40
0.0000000000
40
0.0000000000
40
0.4707576655
40
1.0000000000
40
1.0000000000
40
1.0000000000
40
1.0000000000
10
305.6875608140
20
194.9823167707
30
0.0000000000
10
305.6597918435
20
194.9620483689
30
0.0000000000
10
305.5984835125
20
194.9221523002
30
0.0000000000
10
305.5342989608
20
194.8871933615
30
0.0000000000
10
305.4998312108
20
194.8697058410
30
0.0000000000
11
305.6875608140
21
194.9823167707
31
0.0000000000
11
305.6014317027
21
194.9255797397
31
0.0000000000
11
305.4998312108
21
194.8697058410
31
0.0000000000
0
SPLINE
5
3E8
100
AcDbEntity
8
0
100
AcDbSpline
62
7
6
CONTINUOUS
70
0
71
3
72
9
73
5
74
3
42
0.0000001000
43
0.0000001000
44
0.0000000001
40
0.0000000000
40
0.0000000000
40
0.0000000000
40
0.0000000000
40
0.4627511895
40
1.0000000000
40
1.0000000000
40
1.0000000000
40
1.0000000000
10
305.8488918459
20
180.2303970940
30
0.0000000000
10
305.8376970149
20
180.2505664245
30
0.0000000000
10
305.8080013690
20
180.2911297722
30
0.0000000000
10
305.7718210932
20
180.3256887226
30
0.0000000000
10
305.7513933769
20
180.3430080237
30
0.0000000000
11
305.8488918459
21
180.2303970940
31
0.0000000000
11
305.8088250140
21
180.2868221257
31
0.0000000000
11
305.7513933769
21
180.3430080237
31
0.0000000000
0
SPLINE
5
3E9
100
AcDbEntity
8
0
100
AcDbSpline
62
7
6
CONTINUOUS
70
0
71
3
72
9
73
5
74
3
42
0.0000001000
43
0.0000001000
44
0.0000000001
40
0.0000000000
40
0.0000000000
40
0.0000000000
40
0.0000000000
40
0.4904102032
40
1.0000000000
40
1.0000000000
40
1.0000000000
40
1.0000000000
10
305.7513933769
20
180.3430080237
30
0.0000000000
10
305.7332628723
20
180.3814367260
30
0.0000000000
10
305.6929477958
20
180.4582517237
30
0.0000000000
10
305.6468030256
20
180.5316892180
30
0.0000000000
10
305.6220152838
20
180.5682273058
30
0.0000000000
11
305.7513933769
21
180.3430080237
31
0.0000000000
11
305.6923189686
21
180.4559661464
31
0.0000000000
11
305.6220152838
21
180.5682273058
31
0.0000000000
0
SPLINE
5
3EA
100
AcDbEntity
8
0
100
AcDbSpline
62
7
6
CONTINUOUS
70
0
71
3
72
9
73
5
74
3
42
0.0000001000
43
0.0000001000
44
0.0000000001
40
0.0000000000
40
0.0000000000
40
0.0000000000
40
0.0000000000
40
0.4979992310
40
1.0000000000
40
1.0000000000
40
1.0000000000
40
1.0000000000
10
305.6220152838
20
180.5682273058
30
0.0000000000
10
305.5962030496
20
180.6443241995
30
0.0000000000
10
305.5407027794
20
180.7959081024
30
0.0000000000
10
305.4781725036
20
180.9447258787
30
0.0000000000
10
305.4451015313
20
181.0186684473
30
0.0000000000
11
305.6220152838
21
180.5682273058
31
0.0000000000
11
305.5391814017
21
180.7946155253
31
0.0000000000
11
305.4451015313
21
181.0186684473
31
0.0000000000
0
SPLINE
5
3EB
100
AcDbEntity
8
0
100
AcDbSpline
62
7
6
CONTINUOUS
70
0
71
3
72
9
73
5
74
3
42
0.0000001000
43
0.0000001000
44
0.0000000001
40
0.0000000000
40
0.0000000000
40
0.0000000000
40
0.0000000000
40
0.4984361786
40
1.0000000000
40
1.0000000000
40
1.0000000000
40
1.0000000000
10
305.4998312108
20
194.8697058410
30
0.0000000000
10
305.4735473400
20
194.7937626355
30
0.0000000000
10
305.4178499412
20
194.6424092939
30
0.0000000000
10
305.3562258901
20
194.4933685743
30
0.0000000000
10
305.3238451280
20
194.4192672769
30
0.0000000000
11
305.4998312108
21
194.8697058410
31
0.0000000000
11
305.4165517334
21
194.6434572177
31
0.0000000000
11
305.3238451280
21
194.4192672769
31
0.0000000000
0
SPLINE
5
3EC
100
AcDbEntity
8
0
100
AcDbSpline
62
7
6
CONTINUOUS
70
0
71
3
72
9
73
5
74
3
42
0.0000001000
43
0.0000001000
44
0.0000000001
40
0.0000000000
40
0.0000000000
40
0.0000000000
40
0.0000000000
40
0.5012025160
40
1.0000000000
40
1.0000000000
40
1.0000000000
40
1.0000000000
10
305.3238451280
20
194.4192672769
30
0.0000000000
10
305.3097949475
20
194.3438343760
30
0.0000000000
10
305.2808643068
20
194.1934962418
30
0.0000000000
10
305.2500734009
20
194.0435276382
30
0.0000000000
10
305.2342352114
20
193.9688261354
30
0.0000000000
11
305.3238451280
21
194.4192672769
31
0.0000000000
11
305.2803274217
21
194.1932275013
31
0.0000000000
11
305.2342352114
21
193.9688261354
31
0.0000000000
0
SPLINE
5
3ED
100
AcDbEntity
8
0
100
AcDbSpline
62
7
6
CONTINUOUS
70
0
71
3
72
9
73
5
74
3
42
0.0000001000
43
0.0000001000
44
0.0000000001
40
0.0000000000
40
0.0000000000
40
0.0000000000
40
0.0000000000
40
0.5009193883
40
1.0000000000
40
1.0000000000
40
1.0000000000
40
1.0000000000
10
305.2342352114
20
193.9688261354
30
0.0000000000
10
305.2297177475
20
193.8747832631
30
0.0000000000
10
305.2201541505
20
193.6870685043
30
0.0000000000
10
305.2094723122
20
193.4994139754
30
0.0000000000
10
305.2038545707
20
193.4057766416
30
0.0000000000
11
305.2342352114
21
193.9688261354
31
0.0000000000
11
305.2198559758
21
193.6867384517
31
0.0000000000
11
305.2038545707
21
193.4057766416
31
0.0000000000
0
SPLINE
5
3EE
100
AcDbEntity
8
0
100
AcDbSpline
62
7
6
CONTINUOUS
70
0
71
3
72
9
73
5
74
3
42
0.0000001000
43
0.0000001000
44
0.0000000001
40
0.0000000000
40
0.0000000000
40
0.0000000000
40
0.0000000000
40
0.4987199805
40
1.0000000000
40
1.0000000000
40
1.0000000000
40
1.0000000000
10
305.2038545707
20
193.4057766416
30
0.0000000000
10
305.2127168084
20
193.2373697162
30
0.0000000000
10
305.2288137537
20
192.8996014873
30
0.0000000000
10
305.2417033400
20
192.5616962310
30
0.0000000000
10
305.2473891653
20
192.3922860063
30
0.0000000000
11
305.2038545707
21
193.4057766416
31
0.0000000000
11
305.2279748054
21
192.9004321054
31
0.0000000000
11
305.2473891653
21
192.3922860063
31
0.0000000000
0
SPLINE
5
3EF
100
AcDbEntity
8
0
100
AcDbSpline
62
7
6
CONTINUOUS
70
0
71
3
72
9
73
5
74
3
42
0.0000001000
43
0.0000001000
44
0.0000000001
40
0.0000000000
40
0.0000000000
40
0.0000000000
40
0.0000000000
40
0.4984403017
40
1.0000000000
40
1.0000000000
40
1.0000000000
40
1.0000000000
10
305.2473891653
20
192.3922860063
30
0.0000000000
10
305.2607240436
20
192.2988527061
30
0.0000000000
10
305.2866057345
20
192.1112760512
30
0.0000000000
10
305.3108136696
20
191.9234763528
30
0.0000000000
10
305.3225528897
20
191.8292339351
30
0.0000000000
11
305.2473891653
21
192.3922860063
31
0.0000000000
11
305.2861091667
21
192.1118057637
31
0.0000000000
11
305.3225528897
21
191.8292339351
31
0.0000000000
0
SPLINE
5
3F0
100
AcDbEntity
8
0
100
AcDbSpline
62
7
6
CONTINUOUS
70
0
71
3
72
9
73
5
74
3
42
0.0000001000
43
0.0000001000
44
0.0000000001
40
0.0000000000
40
0.0000000000
40
0.0000000000
40
0.0000000000
40
0.5001909886
40
1.0000000000
40
1.0000000000
40
1.0000000000
40
1.0000000000
10
305.3225528897
20
191.8292339351
30
0.0000000000
10
305.3433040314
20
191.7544980559
30
0.0000000000
10
305.3833924495
20
191.6046918488
30
0.0000000000
10
305.4207427675
20
191.4541803447
30
0.0000000000
10
305.4387422748
20
191.3787953710
30
0.0000000000
11
305.3225528897
21
191.8292339351
31
0.0000000000
11
305.3827227143
21
191.6044581673
31
0.0000000000
11
305.4387422748
21
191.3787953710
31
0.0000000000
0
SPLINE
5
3F1
100
AcDbEntity
8
0
100
AcDbSpline
62
7
6
CONTINUOUS
70
0
71
3
72
9
73
5
74
3
42
0.0000001000
43
0.0000001000
44
0.0000000001
40
0.0000000000
40
0.0000000000
40
0.0000000000
40
0.0000000000
40
0.4993399692
40
1.0000000000
40
1.0000000000
40
1.0000000000
40
1.0000000000
10
305.4387422748
20
191.3787953710
30
0.0000000000
10
305.4727808956
20
191.3054212188
30
0.0000000000
10
305.5373074293
20
191.1567610889
30
0.0000000000
10
305.5941878389
20
191.0050059060
30
0.0000000000
10
305.6206746516
20
190.9283542295
30
0.0000000000
11
305.4387422748
21
191.3787953710
31
0.0000000000
11
305.5353157626
21
191.1561856077
31
0.0000000000
11
305.6206746516
21
190.9283542295
31
0.0000000000
0
SPLINE
5
3F2
100
AcDbEntity
8
0
100
AcDbSpline
62
7
6
CONTINUOUS
70
0
71
3
72
9
73
5
74
3
42
0.0000001000
43
0.0000001000
44
0.0000000001
40
0.0000000000
40
0.0000000000
40
0.0000000000
40
0.0000000000
40
0.5088221070
40
1.0000000000
40
1.0000000000
40
1.0000000000
40
1.0000000000
10
305.6206746516
20
190.9283542295
30
0.0000000000
10
305.6456548622
20
190.8919173571
30
0.0000000000
10
305.6922126143
20
190.8185246547
30
0.0000000000
10
305.7328366548
20
190.7416645324
30
0.0000000000
10
305.7511156287
20
190.7031349475
30
0.0000000000
11
305.6206746516
21
190.9283542295
31
0.0000000000
11
305.6914978516
21
190.8163319834
31
0.0000000000
11
305.7511156287
21
190.7031349475
31
0.0000000000
0
SPLINE
5
3F3
100
AcDbEntity
8
0
100
AcDbSpline
62
7
6
CONTINUOUS
70
0
71
3
72
9
73
5
74
3
42
0.0000001000
43
0.0000001000
44
0.0000000001
40
0.0000000000
40
0.0000000000
40
0.0000000000
40
0.0000000000
40
0.5370508551
40
1.0000000000
40
1.0000000000
40
1.0000000000
40
1.0000000000
10
305.7511156287
20
190.7031349475
30
0.0000000000
10
305.7715812673
20
190.6858326031
30
0.0000000000
10
305.8078469333
20
190.6512878355
30
0.0000000000
10
305.8376207973
20
190.6107142822
30
0.0000000000
10
305.8488477074
20
190.5905240177
30
0.0000000000
11
305.7511156287
21
190.7031349475
31
0.0000000000
11
305.8086618921
21
190.6469891649
31
0.0000000000
11
305.8488477074
21
190.5905240177
31
0.0000000000
0
SPLINE
5
3F4
100
AcDbEntity
8
0
100
AcDbSpline
62
7
6
CONTINUOUS
70
0
71
3
72
9
73
5
74
3
42
0.0000001000
43
0.0000001000
44
0.0000000001
40
0.0000000000
40
0.0000000000
40
0.0000000000
40
0.0000000000
40
0.5015386735
40
1.0000000000
40
1.0000000000
40
1.0000000000
40
1.0000000000
10
305.4451015313
20
181.0186684473
30
0.0000000000
10
305.4282092970
20
181.0942060884
30
0.0000000000
10
305.3935264930
20
181.2445955968
30
0.0000000000
10
305.3568400088
20
181.3945089204
30
0.0000000000
10
305.3380538929
20
181.4691083000
30
0.0000000000
11
305.4451015313
21
181.0186684473
31
0.0000000000
11
305.3929157542
21
181.2449386175
31
0.0000000000
11
305.3380538929
21
181.4691083000
31
0.0000000000
0
SPLINE
5
3F5
100
AcDbEntity
8
0
100
AcDbSpline
62
7
6
CONTINUOUS
70
0
71
3
72
9
73
5
74
3
42
0.0000001000
43
0.0000001000
44
0.0000000001
40
0.0000000000
40
0.0000000000
40
0.0000000000
40
0.0000000000
40
0.5007710986
40
1.0000000000
40
1.0000000000
40
1.0000000000
40
1.0000000000
10
305.3380538929
20
181.4691083000
30
0.0000000000
10
305.3285838128
20
181.5631223195
30
0.0000000000
10
305.3094059568
20
181.7508340453
30
0.0000000000
10
305.2896911961
20
181.9384901450
30
0.0000000000
10
305.2797141727
20
182.0321590826
30
0.0000000000
11
305.3380538929
21
181.4691083000
31
0.0000000000
11
305.3092417403
21
181.7511095844
31
0.0000000000
11
305.2797141727
21
182.0321590826
31
0.0000000000
0
SPLINE
5
3F6
100
AcDbEntity
8
0
100
AcDbSpline
62
7
6
CONTINUOUS
70
0
71
3
72
9
73
5
74
3
42
0.0000001000
43
0.0000001000
44
0.0000000001
40
0.0000000000
40
0.0000000000
40
0.0000000000
40
0.0000000000
40
0.5007710990
40
1.0000000000
40
1.0000000000
40
1.0000000000
40
1.0000000000
10
305.3380538929
20
183.6086992117
30
0.0000000000
10
305.3285838128
20
183.5146854071
30
0.0000000000
10
305.3094059568
20
183.3269741109
30
0.0000000000
10
305.2896911961
20
183.1393184408
30
0.0000000000
10
305.2797141727
20
183.0456497179
30
0.0000000000
11
305.3380538929
21
183.6086992117
31
0.0000000000
11
305.3092417402
21
183.3266985723
31
0.0000000000
11
305.2797141727
21
183.0456497179
31
0.0000000000
0
SPLINE
5
3F7
100
AcDbEntity
8
0
100
AcDbSpline
62
7
6
CONTINUOUS
70
0
71
3
72
9
73
5
74
3
42
0.0000001000
43
0.0000001000
44
0.0000000001
40
0.0000000000
40
0.0000000000
40
0.0000000000
40
0.0000000000
40
0.5015386814
40
1.0000000000
40
1.0000000000
40
1.0000000000
40
1.0000000000
10
305.4451015313
20
184.0591403532
30
0.0000000000
10
305.4282092971
20
183.9836024960
30
0.0000000000
10
305.3935264933
20
183.8332125586
30
0.0000000000
10
305.3568400089
20
183.6832988049
30
0.0000000000
10
305.3380538929
20
183.6086992117
30
0.0000000000
11
305.4451015313
21
184.0591403532
31
0.0000000000
11
305.3929157538
21
183.8328695339
31
0.0000000000
11
305.3380538929
21
183.6086992117
31
0.0000000000
0
SPLINE
5
3F8
100
AcDbEntity
8
0
100
AcDbSpline
62
7
6
CONTINUOUS
70
0
71
3
72
9
73
5
74
3
42
0.0000001000
43
0.0000001000
44
0.0000000001
40
0.0000000000
40
0.0000000000
40
0.0000000000
40
0.0000000000
40
0.4994794228
40
1.0000000000
40
1.0000000000
40
1.0000000000
40
1.0000000000
10
305.3567074272
20
167.6180696176
30
0.0000000000
10
305.3689346988
20
167.5052165759
30
0.0000000000
10
305.3963169437
20
167.2795803341
30
0.0000000000
10
305.4294768644
20
167.0547205851
30
0.0000000000
10
305.4475113028
20
166.9424091941
30
0.0000000000
11
305.3567074272
21
167.6180696176
31
0.0000000000
11
305.3977298473
21
167.2800089754
31
0.0000000000
11
305.4475113028
21
166.9424091941
31
0.0000000000
0
SPLINE
5
3F9
100
AcDbEntity
8
0
100
AcDbSpline
62
7
6
CONTINUOUS
70
0
71
3
72
9
73
5
74
3
42
0.0000001000
43
0.0000001000
44
0.0000000001
40
0.0000000000
40
0.0000000000
40
0.0000000000
40
0.0000000000
40
0.4979992054
40
1.0000000000
40
1.0000000000
40
1.0000000000
40
1.0000000000
10
305.6220152838
20
184.5095802059
30
0.0000000000
10
305.5962030487
20
184.4334835272
30
0.0000000000
10
305.5407027755
20
184.2819000508
30
0.0000000000
10
305.4781725022
20
184.1330827070
30
0.0000000000
10
305.4451015313
20
184.0591403532
30
0.0000000000
11
305.6220152838
21
184.5095802059
31
0.0000000000
11
305.5391814022
21
184.2831926354
31
0.0000000000
11
305.4451015313
21
184.0591403532
31
0.0000000000
0
SPLINE
5
3FA
100
AcDbEntity
8
0
100
AcDbSpline
62
7
6
CONTINUOUS
70
0
71
3
72
9
73
5
74
3
42
0.0000001000
43
0.0000001000
44
0.0000000001
40
0.0000000000
40
0.0000000000
40
0.0000000000
40
0.0000000000
40
0.4635732862
40
1.0000000000
40
1.0000000000
40
1.0000000000
40
1.0000000000
10
305.7765327548
20
184.6221898470
30
0.0000000000
10
305.7550749720
20
184.6018138886
30
0.0000000000
10
305.7052884710
20
184.5615282108
30
0.0000000000
10
305.6515111369
20
184.5269714064
30
0.0000000000
10
305.6220152838
20
184.5095802059
30
0.0000000000
11
305.7765327548
21
184.6221898470
31
0.0000000000
11
305.7080579574
21
184.5656942965
31
0.0000000000
11
305.6220152838
21
184.5095802059
31
0.0000000000
0
SPLINE
5
3FB
100
AcDbEntity
8
0
100
AcDbSpline
62
7
6
CONTINUOUS
70
0
71
3
72
17
73
13
74
11
42
0.0000001000
43
0.0000001000
44
0.0000000001
40
0.0000000000
40
0.0000000000
40
0.0000000000
40
0.0000000000
40
0.0874837687
40
0.1763146663
40
0.2652273294
40
0.3528326482
40
0.4394705813
40
0.5337904403
40
0.6429571076
40
0.7617267019
40
0.8834354802
40
1.0000000000
40
1.0000000000
40
1.0000000000
40
1.0000000000
10
295.3771299888
20
169.0424091941
30
0.0000000000
10
295.8939534235
20
168.4456328958
30
0.0000000000
10
296.9355642373
20
167.2428862850
30
0.0000000000
10
298.5281948238
20
165.4560255973
30
0.0000000000
10
300.1727424514
20
163.7148560236
30
0.0000000000
10
301.8765723250
20
162.0592784330
30
0.0000000000
10
303.7074459519
20
160.4690519833
30
0.0000000000
10
305.8039481449
20
158.8961468030
30
0.0000000000
10
308.2923110628
20
157.3795364680
30
0.0000000000
10
311.1834181864
20
156.0887247660
30
0.0000000000
10
314.3068181533
20
155.2414445457
30
0.0000000000
10
316.4611856498
20
155.0424091941
30
0.0000000000
10
317.5130736141
20
155.0424091941
30
0.0000000000
11
295.3771299888
21
169.0424091941
31
0.0000000000
11
296.9318204766
21
167.2557438079
31
0.0000000000
11
298.5362678665
21
165.4643579603
31
0.0000000000
11
300.1932470478
21
163.7183951233
31
0.0000000000
11
301.8979299031
21
162.0694894653
31
0.0000000000
11
303.6720381308
21
160.5352683520
31
0.0000000000
11
305.7183236555
21
159.0079089165
31
0.0000000000
11
308.2467593445
21
157.4777692161
31
0.0000000000
11
311.1872288540
21
156.1769308618
31
0.0000000000
11
314.3700733762
21
155.3248345983
31
0.0000000000
11
317.5130736141
21
155.0424091941
31
0.0000000000
0
SPLINE
5
3FC
100
AcDbEntity
8
0
100
AcDbSpline
62
7
6
CONTINUOUS
70
0
71
3
72
9
73
5
74
3
42
0.0000001000
43
0.0000001000
44
0.0000000001
40
0.0000000000
40
0.0000000000
40
0.0000000000
40
0.0000000000
40
0.4971183863
40
1.0000000000
40
1.0000000000
40
1.0000000000
40
1.0000000000
10
304.1771390861
20
200.3876001589
30
0.0000000000
10
304.2082083587
20
200.2761166563
30
0.0000000000
10
304.2688797458
20
200.0513442977
30
0.0000000000
10
304.3260124316
20
199.8256474656
30
0.0000000000
10
304.3538832201
20
199.7119397354
30
0.0000000000
11
304.1771390861
21
200.3876001589
31
0.0000000000
11
304.2676555753
21
200.0524112498
31
0.0000000000
11
304.3538832201
21
199.7119397354
31
0.0000000000
0
SPLINE
5
3FD
100
AcDbEntity
8
0
100
AcDbSpline
62
7
6
CONTINUOUS
70
0
71
3
72
10
73
6
74
4
42
0.0000001000
43
0.0000001000
44
0.0000000001
40
0.0000000000
40
0.0000000000
40
0.0000000000
40
0.0000000000
40
0.3287746393
40
0.6621278466
40
1.0000000000
40
1.0000000000
40
1.0000000000
40
1.0000000000
10
305.5670640941
20
199.7119397354
30
0.0000000000
10
305.6066613188
20
199.3676578294
30
0.0000000000
10
305.6750865902
20
198.6729638748
30
0.0000000000
10
305.7497551505
20
197.6214469096
30
0.0000000000
10
305.7841835516
20
196.9147120045
30
0.0000000000
10
305.7984498669
20
196.5588568998
30
0.0000000000
11
305.5670640941
21
199.7119397354
31
0.0000000000
11
305.6699325631
21
198.6773867802
31
0.0000000000
11
305.7455476110
21
197.6259692655
31
0.0000000000
11
305.7984498669
21
196.5588568998
31
0.0000000000
0
SPLINE
5
3FE
100
AcDbEntity
8
0
100
AcDbSpline
62
7
6
CONTINUOUS
70
0
71
3
72
9
73
5
74
3
42
0.0000001000
43
0.0000001000
44
0.0000000001
40
0.0000000000
40
0.0000000000
40
0.0000000000
40
0.0000000000
40
0.4980680838
40
1.0000000000
40
1.0000000000
40
1.0000000000
40
1.0000000000
10
304.9271930803
20
196.5588568998
30
0.0000000000
10
304.9415170168
20
196.4468105227
30
0.0000000000
10
304.9691911446
20
196.2217086614
30
0.0000000000
10
304.9947777440
20
195.9963603270
30
0.0000000000
10
305.0071164940
20
195.8831964763
30
0.0000000000
11
304.9271930803
21
196.5588568998
31
0.0000000000
11
304.9685663594
21
196.2225172742
31
0.0000000000
11
305.0071164940
21
195.8831964763
31
0.0000000000
0
SPLINE
5
3FF
100
AcDbEntity
8
0
100
AcDbSpline
62
7
6
CONTINUOUS
70
0
71
3
72
9
73
5
74
3
42
0.0000001000
43
0.0000001000
44
0.0000000001
40
0.0000000000
40
0.0000000000
40
0.0000000000
40
0.0000000000
40
0.8190921021
40
1.0000000000
40
1.0000000000
40
1.0000000000
40
1.0000000000
10
305.8771299221
20
169.9819634988
30
0.0000000000
10
305.8771610612
20
170.1234550787
30
0.0000000000
10
305.7983369025
20
170.2961558056
30
0.0000000000
10
305.6868556444
20
170.4340995826
30
0.0000000000
10
305.6657699348
20
170.4580492058
30
0.0000000000
11
305.8771299221
21
169.9819634988
31
0.0000000000
11
305.7261225338
21
170.3830518313
31
0.0000000000
11
305.6657699348
21
170.4580492058
31
0.0000000000
0
SPLINE
5
400
100
AcDbEntity
8
0
100
AcDbSpline
62
7
6
CONTINUOUS
70
0
71
3
72
8
73
4
74
2
42
0.0000001000
43
0.0000001000
44
0.0000000001
40
0.0000000000
40
0.0000000000
40
0.0000000000
40
0.0000000000
40
1.0000000000
40
1.0000000000
40
1.0000000000
40
1.0000000000
10
305.6657699348
20
170.4580492058
30
0.0000000000
10
305.5550971272
20
170.5837538695
30
0.0000000000
10
305.4191379060
20
170.6817581627
30
0.0000000000
10
305.2797141727
20
170.7711514867
30
0.0000000000
11
305.6657699348
21
170.4580492058
31
0.0000000000
11
305.2797141727
21
170.7711514867
31
0.0000000000
0
SPLINE
5
401
100
AcDbEntity
8
0
100
AcDbSpline
62
7
6
CONTINUOUS
70
0
71
3
72
10
73
6
74
4
42
0.0000001000
43
0.0000001000
44
0.0000000001
40
0.0000000000
40
0.0000000000
40
0.0000000000
40
0.0000000000
40
0.3351735210
40
0.7602728179
40
1.0000000000
40
1.0000000000
40
1.0000000000
40
1.0000000000
10
305.8914953500
20
168.4072777388
30
0.0000000000
10
305.8940578187
20
168.3479172209
30
0.0000000000
10
305.8782296768
20
168.2120379158
30
0.0000000000
10
305.8001648521
20
168.0505472953
30
0.0000000000
10
305.7298505208
20
167.9561905341
30
0.0000000000
10
305.7026888741
20
167.9236525208
30
0.0000000000
11
305.8914953500
21
168.4072777388
31
0.0000000000
11
305.8716429511
21
168.2306563865
31
0.0000000000
11
305.7781649295
21
168.0259291385
31
0.0000000000
11
305.7026888741
21
167.9236525208
31
0.0000000000
0
SPLINE
5
402
100
AcDbEntity
8
0
100
AcDbSpline
62
7
6
CONTINUOUS
70
0
71
3
72
9
73
5
74
3
42
0.0000001000
43
0.0000001000
44
0.0000000001
40
0.0000000000
40
0.0000000000
40
0.0000000000
40
0.0000000000
40
0.3013926687
40
1.0000000000
40
1.0000000000
40
1.0000000000
40
1.0000000000
10
305.7026888741
20
167.9236525208
30
0.0000000000
10
305.6728703442
20
167.8879317218
30
0.0000000000
10
305.5667076242
20
167.7753536631
30
0.0000000000
10
305.4451172740
20
167.6794957908
30
0.0000000000
10
305.3567074272
20
167.6180696176
30
0.0000000000
11
305.7026888741
21
167.9236525208
31
0.0000000000
11
305.6074756052
21
167.8215901393
31
0.0000000000
11
305.3567074272
21
167.6180696176
31
0.0000000000
0
SPLINE
5
403
100
AcDbEntity
8
0
100
AcDbSpline
62
7
6
CONTINUOUS
70
0
71
3
72
17
73
13
74
11
42
0.0000001000
43
0.0000001000
44
0.0000000001
40
0.0000000000
40
0.0000000000
40
0.0000000000
40
0.0000000000
40
0.1169821358
40
0.2390355773
40
0.3580381667
40
0.4672663843
40
0.5615099834
40
0.6479984098
40
0.7353919000
40
0.8240873976
40
0.9127075686
40
1.0000000000
40
1.0000000000
40
1.0000000000
40
1.0000000000
10
273.2411863717
20
155.0424091941
30
0.0000000000
10
274.2968403499
20
155.0424091941
30
0.0000000000
10
276.4581225666
20
155.2428048372
30
0.0000000000
10
279.5895785163
20
156.0950478760
30
0.0000000000
10
282.4845942765
20
157.3913276414
30
0.0000000000
10
284.9730069675
20
158.9116044158
30
0.0000000000
10
287.0669149903
20
160.4854555773
30
0.0000000000
10
288.8937696186
20
162.0742551819
30
0.0000000000
10
290.5931807359
20
163.7268643062
30
0.0000000000
10
292.2334114395
20
165.4641541161
30
0.0000000000
10
293.8222052180
20
167.2469386482
30
0.0000000000
10
294.8614381718
20
168.4469395754
30
0.0000000000
10
295.3771299888
20
169.0424091941
30
0.0000000000
11
273.2411863717
21
155.0424091941
31
0.0000000000
11
276.3953506346
21
155.3268308827
31
0.0000000000
11
279.5865122836
21
156.1839055215
31
0.0000000000
11
282.5313652484
21
157.4904024969
31
0.0000000000
11
285.0595975494
21
159.0240794661
31
0.0000000000
11
287.1028705932
21
160.5520112662
31
0.0000000000
11
288.8729166303
21
162.0847324887
31
0.0000000000
11
290.5727964983
21
163.7303466121
31
0.0000000000
11
292.2253588028
21
165.4723877488
31
0.0000000000
11
293.8258619943
21
167.2596398145
31
0.0000000000
11
295.3771299888
21
169.0424091941
31
0.0000000000
0
SPLINE
5
404
100
AcDbEntity
8
0
100
AcDbSpline
62
7
6
CONTINUOUS
70
0
71
3
72
9
73
5
74
3
42
0.0000001000
43
0.0000001000
44
0.0000000001
40
0.0000000000
40
0.0000000000
40
0.0000000000
40
0.0000000000
40
0.8200888825
40
1.0000000000
40
1.0000000000
40
1.0000000000
40
1.0000000000
10
305.8771296262
20
173.8125385683
30
0.0000000000
10
305.8772012916
20
173.6708804318
30
0.0000000000
10
305.7982782031
20
173.4982422929
30
0.0000000000
10
305.6867705283
20
173.3603311353
30
0.0000000000
10
305.6658024236
20
173.3365136604
30
0.0000000000
11
305.8771296262
21
173.8125385683
31
0.0000000000
11
305.7258387709
21
173.4110786795
31
0.0000000000
11
305.6658024236
21
173.3365136604
31
0.0000000000
0
SPLINE
5
405
100
AcDbEntity
8
0
100
AcDbSpline
62
7
6
CONTINUOUS
70
0
71
3
72
8
73
4
74
2
42
0.0000001000
43
0.0000001000
44
0.0000000001
40
0.0000000000
40
0.0000000000
40
0.0000000000
40
0.0000000000
40
1.0000000000
40
1.0000000000
40
1.0000000000
40
1.0000000000
10
305.6658024236
20
173.3365136604
30
0.0000000000
10
305.5551127973
20
173.2107823446
30
0.0000000000
10
305.4191574386
20
173.1127588443
30
0.0000000000
10
305.2797141727
20
173.0233530059
30
0.0000000000
11
305.6658024236
21
173.3365136604
31
0.0000000000
11
305.2797141727
21
173.0233530059
31
0.0000000000
0
SPLINE
5
406
100
AcDbEntity
8
0
100
AcDbSpline
62
7
6
CONTINUOUS
70
0
71
3
72
9
73
5
74
3
42
0.0000001000
43
0.0000001000
44
0.0000000001
40
0.0000000000
40
0.0000000000
40
0.0000000000
40
0.0000000000
40
0.8200886592
40
1.0000000000
40
1.0000000000
40
1.0000000000
40
1.0000000000
10
305.8771296262
20
175.3872493122
30
0.0000000000
10
305.8772012915
20
175.5289075033
30
0.0000000000
10
305.7982781906
20
175.7015457559
30
0.0000000000
10
305.6867704634
20
175.8394570088
30
0.0000000000
10
305.6658023212
20
175.8632745288
30
0.0000000000
11
305.8771296262
21
175.3872493122
31
0.0000000000
11
305.7258387707
21
175.7887093653
31
0.0000000000
11
305.6658023212
21
175.8632745288
31
0.0000000000
0
SPLINE
5
407
100
AcDbEntity
8
0
100
AcDbSpline
62
7
6
CONTINUOUS
70
0
71
3
72
8
73
4
74
2
42
0.0000001000
43
0.0000001000
44
0.0000000001
40
0.0000000000
40
0.0000000000
40
0.0000000000
40
0.0000000000
40
1.0000000000
40
1.0000000000
40
1.0000000000
40
1.0000000000
10
305.6658023212
20
175.8632745288
30
0.0000000000
10
305.5551127204
20
175.9890058288
30
0.0000000000
10
305.4191574016
20
176.0870293459
30
0.0000000000
10
305.2797141727
20
176.1764351972
30
0.0000000000
11
305.6658023212
21
175.8632745288
31
0.0000000000
11
305.2797141727
21
176.1764351972
31
0.0000000000
0
SPLINE
5
408
100
AcDbEntity
8
0
100
AcDbSpline
62
7
6
CONTINUOUS
70
0
71
3
72
13
73
9
74
7
42
0.0000001000
43
0.0000001000
44
0.0000000001
40
0.0000000000
40
0.0000000000
40
0.0000000000
40
0.0000000000
40
0.1418608049
40
0.3135835203
40
0.4999894523
40
0.6864008781
40
0.8580696746
40
1.0000000000
40
1.0000000000
40
1.0000000000
40
1.0000000000
10
142.3373869446
20
16.3778751877
30
0.0000000000
10
142.3373869446
20
16.5893671397
30
0.0000000000
10
142.3286632995
20
17.0568279170
30
0.0000000000
10
142.3139005028
20
17.8020714678
30
0.0000000000
10
142.3073431473
20
18.6139041754
30
0.0000000000
10
142.3138987917
20
19.4256565079
30
0.0000000000
10
142.3286597155
20
20.1709315477
30
0.0000000000
10
142.3373869446
20
20.6384155468
30
0.0000000000
10
142.3373869446
20
20.8500111427
30
0.0000000000
11
142.3373869446
21
16.3778751877
31
0.0000000000
11
142.3293844855
21
17.0123005752
31
0.0000000000
11
142.3157737109
21
17.7802139306
31
0.0000000000
11
142.3095877002
21
18.6138959866
31
0.0000000000
11
142.3157727208
21
19.4476026219
31
0.0000000000
11
142.3293786301
21
20.2152748724
31
0.0000000000
11
142.3373869446
21
20.8500111427
31
0.0000000000
0
SPLINE
5
409
100
AcDbEntity
8
0
100
AcDbSpline
62
7
6
CONTINUOUS
70
0
71
3
72
13
73
9
74
7
42
0.0000001000
43
0.0000001000
44
0.0000000001
40
0.0000000000
40
0.0000000000
40
0.0000000000
40
0.0000000000
40
0.1419303254
40
0.3135991219
40
0.5000105477
40
0.6864164797
40
0.8581391951
40
1.0000000000
40
1.0000000000
40
1.0000000000
40
1.0000000000
10
98.3373869446
20
20.8500111427
30
0.0000000000
10
98.3373869446
20
20.6384155468
30
0.0000000000
10
98.3461141737
20
20.1709315477
30
0.0000000000
10
98.3608750975
20
19.4256565079
30
0.0000000000
10
98.3674307419
20
18.6139041754
30
0.0000000000
10
98.3608733864
20
17.8020714678
30
0.0000000000
10
98.3461105897
20
17.0568279170
30
0.0000000000
10
98.3373869446
20
16.5893671397
30
0.0000000000
10
98.3373869446
20
16.3778751877
30
0.0000000000
11
98.3373869446
21
20.8500111427
31
0.0000000000
11
98.3453952591
21
20.2152748724
31
0.0000000000
11
98.3590011684
21
19.4476026219
31
0.0000000000
11
98.3651861890
21
18.6138959866
31
0.0000000000
11
98.3590001783
21
17.7802139306
31
0.0000000000
11
98.3453894037
21
17.0123005752
31
0.0000000000
11
98.3373869446
21
16.3778751877
31
0.0000000000
0
SPLINE
5
40A
100
AcDbEntity
8
0
100
AcDbSpline
62
7
6
CONTINUOUS
70
0
71
3
72
11
73
7
74
5
42
0.0000001000
43
0.0000001000
44
0.0000000001
40
0.0000000000
40
0.0000000000
40
0.0000000000
40
0.0000000000
40
0.2485724099
40
0.5007143345
40
0.7514243707
40
1.0000000000
40
1.0000000000
40
1.0000000000
40
1.0000000000
10
91.3677405767
20
54.7228317221
30
0.0000000000
10
91.8942779435
20
54.8360876009
30
0.0000000000
10
92.9378518686
20
55.1541957721
30
0.0000000000
10
94.3979332501
20
55.8928254186
30
0.0000000000
10
95.7045494581
20
56.8783877885
30
0.0000000000
10
96.4390296557
20
57.6829726326
30
0.0000000000
10
96.7620473124
20
58.1139431652
30
0.0000000000
11
91.3677405767
21
54.7228317221
31
0.0000000000
11
92.9130024375
21
55.1948298323
31
0.0000000000
11
94.3748935011
21
55.9357795674
31
0.0000000000
11
95.6745494082
21
56.9189400827
31
0.0000000000
11
96.7620473124
21
58.1139431652
31
0.0000000000
0
SPLINE
5
40B
100
AcDbEntity
8
0
100
AcDbSpline
62
7
6
CONTINUOUS
70
0
71
3
72
11
73
7
74
5
42
0.0000001000
43
0.0000001000
44
0.0000000001
40
0.0000000000
40
0.0000000000
40
0.0000000000
40
0.0000000000
40
0.2479673592
40
0.5013504198
40
0.7527848810
40
1.0000000000
40
1.0000000000
40
1.0000000000
40
1.0000000000
10
91.3677423614
20
34.5050542244
30
0.0000000000
10
91.8929979651
20
34.3920747215
30
0.0000000000
10
92.9379228898
20
34.0737858108
30
0.0000000000
10
94.4007306179
20
33.3337772165
30
0.0000000000
10
95.7077396641
20
32.3464345413
30
0.0000000000
10
96.4407940798
20
31.5425538506
30
0.0000000000
10
96.7620447519
20
31.1139431652
30
0.0000000000
11
91.3677423614
21
34.5050542244
31
0.0000000000
11
92.9093393484
21
34.0345235825
31
0.0000000000
11
94.3784163210
21
33.2899085448
31
0.0000000000
11
95.6811094861
21
32.3029599763
31
0.0000000000
11
96.7620447519
21
31.1139431652
31
0.0000000000
0
SPLINE
5
40C
100
AcDbEntity
8
0
100
AcDbSpline
62
7
6
CONTINUOUS
70
0
71
3
72
8
73
4
74
2
42
0.0000001000
43
0.0000001000
44
0.0000000001
40
0.0000000000
40
0.0000000000
40
0.0000000000
40
0.0000000000
40
1.0000000000
40
1.0000000000
40
1.0000000000
40
1.0000000000
10
149.3070326734
20
34.5050544709
30
0.0000000000
10
149.0435856181
20
34.4483884679
30
0.0000000000
10
148.7822590661
20
34.3805406922
30
0.0000000000
10
148.5241726896
20
34.3017323532
30
0.0000000000
11
149.3070326734
21
34.5050544709
31
0.0000000000
11
148.5241726896
21
34.3017323532
31
0.0000000000
0
SPLINE
5
40D
100
AcDbEntity
8
0
100
AcDbSpline
62
7
6
CONTINUOUS
70
0
71
3
72
11
73
7
74
5
42
0.0000001000
43
0.0000001000
44
0.0000000001
40
0.0000000000
40
0.0000000000
40
0.0000000000
40
0.0000000000
40
0.1418624717
40
0.4297854582
40
0.7160955697
40
1.0000000000
40
1.0000000000
40
1.0000000000
40
1.0000000000
10
148.5241726896
20
34.3017323532
30
0.0000000000
10
148.2664006346
20
34.2230199943
30
0.0000000000
10
147.4952489052
20
33.9514284290
30
0.0000000000
10
146.2768704197
20
33.3350714011
30
0.0000000000
10
144.9702744422
20
32.3495455748
30
0.0000000000
10
144.2357728894
20
31.5449468645
30
0.0000000000
10
143.9127295395
20
31.1139431652
30
0.0000000000
11
148.5241726896
21
34.3017323532
31
0.0000000000
11
147.7616689747
21
34.0330140323
31
0.0000000000
11
146.2999422856
21
33.2921450064
31
0.0000000000
11
145.0003202774
21
32.3090319231
31
0.0000000000
11
143.9127295395
21
31.1139431652
31
0.0000000000
0
SPLINE
5
40E
100
AcDbEntity
8
0
100
AcDbSpline
62
7
6
CONTINUOUS
70
0
71
3
72
11
73
7
74
5
42
0.0000001000
43
0.0000001000
44
0.0000000001
40
0.0000000000
40
0.0000000000
40
0.0000000000
40
0.0000000000
40
0.2483414527
40
0.5001100100
40
0.7528203823
40
1.0000000000
40
1.0000000000
40
1.0000000000
40
1.0000000000
10
143.9127252503
20
58.1139431652
30
0.0000000000
10
144.2354387011
20
57.6833789539
30
0.0000000000
10
144.9710429726
20
56.8774144215
30
0.0000000000
10
146.2803644645
20
55.8902627489
30
0.0000000000
10
147.7415159709
20
55.1525223941
30
0.0000000000
10
148.7834459488
20
54.8354532516
30
0.0000000000
10
149.3070328156
20
54.7228318290
30
0.0000000000
11
143.9127252503
21
58.1139431652
31
0.0000000000
11
144.9990933314
21
56.9199708056
31
0.0000000000
11
146.3044445370
21
55.9329353213
31
0.0000000000
11
147.7702057202
21
55.1914506572
31
0.0000000000
11
149.3070328156
21
54.7228318290
31
0.0000000000
0
SPLINE
5
40F
100
AcDbEntity
8
0
100
AcDbSpline
62
7
6
CONTINUOUS
70
0
71
3
72
10
73
6
74
4
42
0.0000001000
43
0.0000001000
44
0.0000000001
40
0.0000000000
40
0.0000000000
40
0.0000000000
40
0.0000000000
40
0.3262098355
40
0.6613494802
40
1.0000000000
40
1.0000000000
40
1.0000000000
40
1.0000000000
10
142.3373731503
20
26.6014471745
30
0.0000000000
10
142.3373731503
20
27.1291694089
30
0.0000000000
10
142.4668516754
20
28.2025836729
30
0.0000000000
10
143.0126565099
20
29.7373307039
30
0.0000000000
10
143.5841570755
20
30.6755625348
30
0.0000000000
10
143.9127295395
20
31.1139431652
30
0.0000000000
11
142.3373731503
21
26.6014471745
31
0.0000000000
11
142.5214234287
21
28.1738791459
31
0.0000000000
11
143.0611464850
21
29.7082251025
31
0.0000000000
11
143.9127295395
21
31.1139431652
31
0.0000000000
0
SPLINE
5
410
100
AcDbEntity
8
0
100
AcDbSpline
62
7
6
CONTINUOUS
70
0
71
3
72
10
73
6
74
4
42
0.0000001000
43
0.0000001000
44
0.0000000001
40
0.0000000000
40
0.0000000000
40
0.0000000000
40
0.0000000000
40
0.3387410329
40
0.6747811934
40
1.0000000000
40
1.0000000000
40
1.0000000000
40
1.0000000000
10
96.7620447519
20
31.1139431652
30
0.0000000000
10
97.0907039505
20
30.6754480691
30
0.0000000000
10
97.6630207268
20
29.7358345911
30
0.0000000000
10
98.2083426692
20
28.2008246221
30
0.0000000000
10
98.3373992583
20
27.1275916611
30
0.0000000000
10
98.3373992583
20
26.6014753535
30
0.0000000000
11
96.7620447519
21
31.1139431652
31
0.0000000000
11
97.6138157593
21
29.7078352339
31
0.0000000000
11
98.1544481101
21
28.1691852116
31
0.0000000000
11
98.3373992583
21
26.6014753535
31
0.0000000000
0
SPLINE
5
411
100
AcDbEntity
8
0
100
AcDbSpline
62
7
6
CONTINUOUS
70
0
71
3
72
10
73
6
74
4
42
0.0000001000
43
0.0000001000
44
0.0000000001
40
0.0000000000
40
0.0000000000
40
0.0000000000
40
0.0000000000
40
0.3389764789
40
0.6752377041
40
1.0000000000
40
1.0000000000
40
1.0000000000
40
1.0000000000
10
143.9127252503
20
58.1139431652
30
0.0000000000
10
143.5838345370
20
58.5527490788
30
0.0000000000
10
143.0111867991
20
59.4930613902
30
0.0000000000
10
142.4662031603
20
61.0282396083
30
0.0000000000
10
142.3373813928
20
62.1010915160
30
0.0000000000
10
142.3373813928
20
62.6264757076
30
0.0000000000
11
143.9127252503
21
58.1139431652
31
0.0000000000
11
143.0604599408
21
59.5211110381
31
0.0000000000
11
142.5198231443
21
61.0609176773
31
0.0000000000
11
142.3373813928
21
62.6264757076
31
0.0000000000
0
SPLINE
5
412
100
AcDbEntity
8
0
100
AcDbSpline
62
7
6
CONTINUOUS
70
0
71
3
72
10
73
6
74
4
42
0.0000001000
43
0.0000001000
44
0.0000000001
40
0.0000000000
40
0.0000000000
40
0.0000000000
40
0.0000000000
40
0.3249236921
40
0.6611043449
40
1.0000000000
40
1.0000000000
40
1.0000000000
40
1.0000000000
10
98.3373950796
20
62.6264712777
30
0.0000000000
10
98.3373950796
20
62.1008263733
30
0.0000000000
10
98.2084908242
20
61.0278398604
30
0.0000000000
10
97.6633894128
20
59.4927146655
30
0.0000000000
10
97.0908591457
20
58.5526442949
30
0.0000000000
10
96.7620473124
20
58.1139431652
30
0.0000000000
11
98.3373950796
21
62.6264712777
31
0.0000000000
11
98.1547734345
21
61.0601467826
31
0.0000000000
11
97.6141435496
21
59.5207534324
31
0.0000000000
11
96.7620473124
21
58.1139431652
31
0.0000000000
0
SPLINE
5
413
100
AcDbEntity
8
0
100
AcDbSpline
62
7
6
CONTINUOUS
70
0
71
3
72
10
73
6
74
4
42
0.0000001000
43
0.0000001000
44
0.0000000001
40
0.0000000000
40
0.0000000000
40
0.0000000000
40
0.0000000000
40
0.3329015991
40
0.6666534834
40
1.0000000000
40
1.0000000000
40
1.0000000000
40
1.0000000000
10
154.3411369446
20
35.1524116488
30
0.0000000000
10
153.9685549627
20
34.9735225563
30
0.0000000000
10
153.2005148356
20
34.6589738148
30
0.0000000000
10
152.0017350366
20
34.3261729187
30
0.0000000000
10
151.1809244439
20
34.1996476841
30
0.0000000000
10
150.7689028514
20
34.1607407995
30
0.0000000000
11
154.3411369446
21
35.1524116488
31
0.0000000000
11
153.1937316244
21
34.6824874026
31
0.0000000000
11
151.9959660490
21
34.3499384599
31
0.0000000000
11
150.7689028514
21
34.1607407995
31
0.0000000000
0
SPLINE
5
414
100
AcDbEntity
8
0
100
AcDbSpline
62
7
6
CONTINUOUS
70
0
71
3
72
9
73
5
74
3
42
0.0000001000
43
0.0000001000
44
0.0000000001
40
0.0000000000
40
0.0000000000
40
0.0000000000
40
0.0000000000
40
0.4999579601
40
1.0000000000
40
1.0000000000
40
1.0000000000
40
1.0000000000
10
150.7689028514
20
34.1999978403
30
0.0000000000
10
150.7405579429
20
34.1994408074
30
0.0000000000
10
150.6838574816
20
34.1986087995
30
0.0000000000
10
150.6271516377
20
34.1983300536
30
0.0000000000
10
150.5987964887
20
34.1983280677
30
0.0000000000
11
150.7689028514
21
34.1999978403
31
0.0000000000
11
150.6838609035
21
34.1987471617
31
0.0000000000
11
150.5987964887
21
34.1983280677
31
0.0000000000
0
SPLINE
5
415
100
AcDbEntity
8
0
100
AcDbSpline
62
7
6
CONTINUOUS
70
0
71
3
72
9
73
5
74
3
42
0.0000001000
43
0.0000001000
44
0.0000000001
40
0.0000000000
40
0.0000000000
40
0.0000000000
40
0.0000000000
40
0.4994332371
40
1.0000000000
40
1.0000000000
40
1.0000000000
40
1.0000000000
10
150.5987964887
20
34.1983280677
30
0.0000000000
10
150.5139404722
20
34.1906283528
30
0.0000000000
10
150.3439162700
20
34.1765058986
30
0.0000000000
10
150.1737104169
20
34.1647926028
30
0.0000000000
10
150.0884774006
20
34.1594866021
30
0.0000000000
11
150.5987964887
21
34.1983280677
31
0.0000000000
11
150.3440636870
21
34.1771228317
31
0.0000000000
11
150.0884774006
21
34.1594866021
31
0.0000000000
0
SPLINE
5
416
100
AcDbEntity
8
0
100
AcDbSpline
62
7
6
CONTINUOUS
70
0
71
3
72
9
73
5
74
3
42
0.0000001000
43
0.0000001000
44
0.0000000001
40
0.0000000000
40
0.0000000000
40
0.0000000000
40
0.0000000000
40
0.6673898919
40
1.0000000000
40
1.0000000000
40
1.0000000000
40
1.0000000000
10
150.0884774006
20
34.1594866021
30
0.0000000000
10
149.9749782489
20
34.1510544213
30
0.0000000000
10
149.8047710489
20
34.1402815202
30
0.0000000000
10
149.6344247460
20
34.1321693342
30
0.0000000000
10
149.5777539825
20
34.1297580512
30
0.0000000000
11
150.0884774006
21
34.1594866021
31
0.0000000000
11
149.7477271615
21
34.1378600779
31
0.0000000000
11
149.5777539825
21
34.1297580512
31
0.0000000000
0
SPLINE
5
417
100
AcDbEntity
8
0
100
AcDbSpline
62
7
6
CONTINUOUS
70
0
71
3
72
8
73
4
74
2
42
0.0000001000
43
0.0000001000
44
0.0000000001
40
0.0000000000
40
0.0000000000
40
0.0000000000
40
0.0000000000
40
1.0000000000
40
1.0000000000
40
1.0000000000
40
1.0000000000
10
149.5777539825
20
34.1297580512
30
0.0000000000
10
149.5211972829
20
34.1273516215
30
0.0000000000
10
149.4646287699
20
34.1252309501
30
0.0000000000
10
149.4080519497
20
34.1233886404
30
0.0000000000
11
149.5777539825
21
34.1297580512
31
0.0000000000
11
149.4080519497
21
34.1233886404
31
0.0000000000
0
SPLINE
5
418
100
AcDbEntity
8
0
100
AcDbSpline
62
7
6
CONTINUOUS
70
0
71
3
72
9
73
5
74
3
42
0.0000001000
43
0.0000001000
44
0.0000000001
40
0.0000000000
40
0.0000000000
40
0.0000000000
40
0.0000000000
40
0.4969824361
40
1.0000000000
40
1.0000000000
40
1.0000000000
40
1.0000000000
10
149.4080519497
20
34.1233886404
30
0.0000000000
10
149.3235515845
20
34.1202702651
30
0.0000000000
10
149.1534633203
20
34.1155652732
30
0.0000000000
10
148.9833175751
20
34.1139713292
30
0.0000000000
10
148.8977328616
20
34.1139438944
30
0.0000000000
11
149.4080519497
21
34.1233886404
31
0.0000000000
11
149.1544756274
21
34.1163620710
31
0.0000000000
11
148.8977328616
21
34.1139438944
31
0.0000000000
0
SPLINE
5
419
100
AcDbEntity
8
0
100
AcDbSpline
62
7
6
CONTINUOUS
70
0
71
3
72
8
73
4
74
2
42
0.0000001000
43
0.0000001000
44
0.0000000001
40
0.0000000000
40
0.0000000000
40
0.0000000000
40
0.0000000000
40
1.0000000000
40
1.0000000000
40
1.0000000000
40
1.0000000000
10
92.4449230963
20
34.1883588063
30
0.0000000000
10
92.0745194168
20
34.2259535492
30
0.0000000000
10
91.7056439125
20
34.2781432586
30
0.0000000000
10
91.3395979038
20
34.3456156481
30
0.0000000000
11
92.4449230963
21
34.1883588063
31
0.0000000000
11
91.3395979038
21
34.3456156481
31
0.0000000000
0
SPLINE
5
41A
100
AcDbEntity
8
0
100
AcDbSpline
62
7
6
CONTINUOUS
70
0
71
3
72
10
73
6
74
4
42
0.0000001000
43
0.0000001000
44
0.0000000001
40
0.0000000000
40
0.0000000000
40
0.0000000000
40
0.0000000000
40
0.0961002530
40
0.5610716583
40
1.0000000000
40
1.0000000000
40
1.0000000000
40
1.0000000000
10
91.3395979038
20
34.3456156481
30
0.0000000000
10
91.2048992386
20
34.3704443324
30
0.0000000000
10
90.4207115931
20
34.5274863785
30
0.0000000000
10
89.0502679868
20
34.9351905617
30
0.0000000000
10
87.8848998616
20
35.4970186677
30
0.0000000000
10
87.3461369446
20
35.8139340720
30
0.0000000000
11
91.3395979038
21
34.3456156481
31
0.0000000000
11
90.9367161897
21
34.4263443167
31
0.0000000000
11
89.0339935841
21
34.9969593768
31
0.0000000000
11
87.3461369446
21
35.8139340720
31
0.0000000000
0
ENDSEC
0
SECTION
2
OBJECTS
0
DICTIONARY
5
41B
100
AcDbDictionary
3
ACAD_GROUP
350
41C
3
ACAD_MLINESTYLE
350
41D
0
DICTIONARY
5
41C
102
{ACAD_REACTORS
330
41B
102
}
100
AcDbDictionary
0
DICTIONARY
5
41D
102
{ACAD_REACTORS
330
41B
102
}
100
AcDbDictionary
3
STANDARD
350
41E
0
MLINESTYLE
5
41E
102
{ACAD_REACTORS
330
41D
102
}
100
AcDbMlineStyle
2
STANDARD
70
0
3

62
256
51
90.0
52
90.0
71
2
49
0.5
62
256
6
BYLAYER
49
-0.5
62
256
6
BYLAYER
0
ENDSEC
0
EOF
