999
DXF file: C:\Aktuell-Internet\CAD-Daten\2vv-gsch10.dxf
999
Pro/ENGINEER 2001400 by Parametric Technology Corporation
0
SECTION
2
HEADER
9
$ACADVER
1
AC1014
9
$EXTMAX
10
420.0000000000
20
297.0000000000
9
$EXTMIN
10
0.0000000000
20
0.0000000000
9
$LIMMIN
10
0.0000000000
20
0.0000000000
9
$LIMMAX
10
420.0000000000
20
297.0000000000
9
$VIEWCTR
10
210.0000000000
20
148.5000000000
9
$VIEWSIZE
40
297.0000000000
9
$CLAYER
8
0
9
$LTSCALE
40
23.1000000000
9
$CELTYPE
6
BYLAYER
9
$DIMSCALE
40
1
9
$DIMASZ
40
3.5000000000
9
$DIMEXO
40
2.6250000000
9
$DIMDLI
40
15.9600000000
9
$DIMEXE
40
7.5600000000
9
$DIMCEN
40
3.7800000000
9
$DIMLFAC
40
1.0000000000
9
$DIMTXT
40
3.5000000000
9
$DIMTOL
70
1
9
$DIMTFAC
40
0.6000000000
9
$DIMTP
40
0.0050000000
9
$DIMTM
40
0.0050000000
9
$HANDSEED
5
3EE
0
ENDSEC
0
SECTION
2
CLASSES
0
ENDSEC
0
SECTION
2
TABLES
0
TABLE
2
VPORT
5
8
100
AcDbSymbolTable
70
2
0
VPORT
5
1F4
100
AcDbSymbolTableRecord
100
AcDbViewportTableRecord
2
*ACTIVE
70
0
10
0.0
20
0.0
11
1.0
21
1.0
12
210.0000000000
22
148.5000000000
13
0.0
23
0.0
14
1.0
24
1.0
15
0.0
25
0.0
16
0.0
26
0.0
36
1.0
17
0.0
27
0.0
37
0.0
40
297.0000000000
41
1.4141414141
42
50.0
43
0.0
44
0.0
50
0.0
51
0.0
71
0
72
100
73
1
74
1
75
0
76
0
77
0
78
0
0
ENDTAB
0
TABLE
2
LTYPE
5
5
100
AcDbSymbolTable
70
6
0
LTYPE
5
14
100
AcDbSymbolTableRecord
100
AcDbLinetypeTableRecord
2
BYBLOCK
70
0
3

72
65
73
0
40
0.0
0
LTYPE
5
15
100
AcDbSymbolTableRecord
100
AcDbLinetypeTableRecord
2
BYLAYER
70
0
3

72
65
73
0
40
0.0
0
LTYPE
5
16
100
AcDbSymbolTableRecord
100
AcDbLinetypeTableRecord
2
CONTINUOUS
70
64
3
Solid line
72
65
73
0
40
0
0
LTYPE
5
1F5
100
AcDbSymbolTableRecord
100
AcDbLinetypeTableRecord
2
CENTER
70
64
3
____ _ ____ _ ____ _ ____ _ ____ _ ____ _ ____
72
65
73
4
40
0.6
49
0.375
74
0
49
-0.075
74
0
49
0.075
74
0
49
-0.075
74
0
0
LTYPE
5
1F6
100
AcDbSymbolTableRecord
100
AcDbLinetypeTableRecord
2
HIDDEN
70
64
3
- - - - - - - - - - - - - - - - - - - -
72
65
73
2
40
0.2
49
0.1
74
0
49
-0.1
74
0
0
LTYPE
5
1F7
100
AcDbSymbolTableRecord
100
AcDbLinetypeTableRecord
2
PHANTOM
70
64
3
_____ _ _ _____ _ _ _____ _ _ _____
72
65
73
6
40
0.8
49
0.45
74
0
49
-0.05
74
0
49
0.1
74
0
49
-0.05
74
0
49
0.1
74
0
49
-0.05
74
0
0
LTYPE
5
1F8
100
AcDbSymbolTableRecord
100
AcDbLinetypeTableRecord
2
DOT
70
64
3
. . . . . . . . . . . . . . . . . . . .
72
65
73
2
40
0.2
49
0.1
74
0
49
-0.1
74
0
0
LTYPE
5
1F9
100
AcDbSymbolTableRecord
100
AcDbLinetypeTableRecord
2
DASHED
70
64
3
- - - - - - - - - - - - - - - - - - - -
72
65
73
2
40
0.2
49
0.1
74
0
49
-0.1
74
0
0
ENDTAB
0
TABLE
2
LAYER
5
2
100
AcDbSymbolTable
70
36
0
LAYER
5
10
100
AcDbSymbolTableRecord
100
AcDbLayerTableRecord
2
0
70
0
62
7
6
CONTINUOUS
0
LAYER
5
1FA
100
AcDbSymbolTableRecord
100
AcDbLayerTableRecord
2
DEFAULT_1
70
0
62
7
6
CENTER
0
LAYER
5
1FB
100
AcDbSymbolTableRecord
100
AcDbLayerTableRecord
2
DEFAULT_2
70
0
62
8
6
HIDDEN
0
LAYER
5
1FC
100
AcDbSymbolTableRecord
100
AcDbLayerTableRecord
2
DEFAULT_3
70
0
62
7
6
PHANTOM
0
LAYER
5
1FD
100
AcDbSymbolTableRecord
100
AcDbLayerTableRecord
2
ZEICHNUNGSBEMASSUNGEN
70
0
62
7
6
CONTINUOUS
0
ENDTAB
0
TABLE
2
STYLE
5
3
100
AcDbSymbolTable
70
1
0
STYLE
5
11
100
AcDbSymbolTableRecord
100
AcDbTextStyleTableRecord
2
STANDARD
70
0
40
0.0
41
1.0
50
0.0
71
0
42
0.0
3
txt
4

0
STYLE
5
1FE
100
AcDbSymbolTableRecord
100
AcDbTextStyleTableRecord
2
TEXTSTYLE_0
70
0
40
0.0
41
0.80
50
0.0
71
0
42
0.2
3
txt
4

0
ENDTAB
0
TABLE
2
VIEW
5
6
100
AcDbSymbolTable
70
0
0
ENDTAB
0
TABLE
2
UCS
5
7
100
AcDbSymbolTable
70
0
0
ENDTAB
0
TABLE
2
APPID
5
9
100
AcDbSymbolTable
70
1
0
APPID
5
1FF
100
AcDbSymbolTableRecord
100
AcDbRegAppTableRecord
2
ACAD
70
0
0
ENDTAB
0
TABLE
2
DIMSTYLE
5
A
100
AcDbSymbolTable
70
1
0
DIMSTYLE
105
200
100
AcDbSymbolTableRecord
100
AcDbDimStyleTableRecord
2
STANDARD
70
0
3

4

5

6

7

40
1.0
41
0.18
42
0.0625
43
0.38
44
0.18
45
0.0
46
0.0
47
0.0050000000
48
0.0050000000
140
3.5000000000
141
0.09
142
0.0
143
25.4
144
1.0000000000
145
0.0
146
0.6000000000
147
0.09
71
1
72
0
73
1
74
1
75
0
76
0
77
0
78
0
170
0
171
2
172
0
173
0
174
0
175
0
176
0
177
0
178
0
270
2
271
3
272
4
273
2
274
2
340
11
275
0
280
0
281
0
282
0
283
1
284
0
285
0
286
0
287
3
288
0
0
ENDTAB
0
TABLE
2
BLOCK_RECORD
5
1
100
AcDbSymbolTable
70
0
0
BLOCK_RECORD
5
1B
100
AcDbSymbolTableRecord
100
AcDbBlockTableRecord
2
*MODEL_SPACE
0
BLOCK_RECORD
5
1C
100
AcDbSymbolTableRecord
100
AcDbBlockTableRecord
2
*PAPER_SPACE
0
ENDTAB
0
ENDSEC
0
SECTION
2
BLOCKS
0
BLOCK
5
1E
100
AcDbEntity
8
0
100
AcDbBlockBegin
2
*MODEL_SPACE
70
0
10
0.0
20
0.0
30
0.0
3
*MODEL_SPACE
1

0
ENDBLK
5
1F
100
AcDbEntity
8
0
100
AcDbBlockEnd
0
BLOCK
5
20
100
AcDbEntity
8
0
100
AcDbBlockBegin
2
*PAPER_SPACE
70
0
10
0.0
20
0.0
30
0.0
3
*PAPER_SPACE
1

0
ENDBLK
5
21
100
AcDbEntity
8
0
100
AcDbBlockEnd
0
ENDSEC
0
SECTION
2
ENTITIES
0
TEXT
5
201
100
AcDbEntity
8
0
100
AcDbText
62
2
6
CONTINUOUS
10
283.4223308024
20
239.5999036698
7
TEXTSTYLE_0
40
3.5000000000
1
VV-GSCH
50
90.0000000000
72
5
11
283.4223308024
21
259.0999036698
100
AcDbText
0
TEXT
5
202
100
AcDbEntity
8
0
100
AcDbText
62
2
6
CONTINUOUS
10
308.2804142609
20
241.5807573135
7
TEXTSTYLE_0
40
4.0000000000
1
10/VIP
50
90.0000000000
72
5
11
308.2804142609
21
259.1045668373
100
AcDbText
0
TEXT
5
203
100
AcDbEntity
8
0
100
AcDbText
62
2
6
CONTINUOUS
10
103.5885427018
20
86.9422736358
7
TEXTSTYLE_0
40
4.0000000000
1
VV-GSCH
72
5
11
125.8742569875
21
86.9422736358
100
AcDbText
0
TEXT
5
204
100
AcDbEntity
8
0
100
AcDbText
62
2
6
CONTINUOUS
10
106.4347292342
20
53.4867640905
7
TEXTSTYLE_0
40
4.5000000000
1
10/VIP
72
5
11
126.1490149485
21
53.4867640905
100
AcDbText
0
LINE
5
205
100
AcDbEntity
8
0
100
AcDbLine
62
7
6
CONTINUOUS
10
0.0000000000
20
0.0000000000
11
0.0000000000
21
297.0000000000
0
LINE
5
206
100
AcDbEntity
8
0
100
AcDbLine
62
7
6
CONTINUOUS
10
0.0000000000
20
0.0000000000
11
420.0000000000
21
0.0000000000
0
LINE
5
207
100
AcDbEntity
8
0
100
AcDbLine
62
7
6
CONTINUOUS
10
0.0000000000
20
297.0000000000
11
420.0000000000
21
297.0000000000
0
LINE
5
208
100
AcDbEntity
8
0
100
AcDbLine
62
7
6
CONTINUOUS
10
420.0000000000
20
0.0000000000
11
420.0000000000
21
297.0000000000
0
LINE
5
209
100
AcDbEntity
8
0
100
AcDbLine
62
7
6
CONTINUOUS
10
88.4832141413
20
161.0019526045
11
101.4832141413
21
161.0019526045
0
LINE
5
20A
100
AcDbEntity
8
0
100
AcDbLine
62
7
6
CONTINUOUS
10
128.4832141413
20
161.0019526045
11
150.4832141413
21
161.0019526045
0
LINE
5
20B
100
AcDbEntity
8
0
100
AcDbLine
62
7
6
CONTINUOUS
10
88.4832141413
20
164.0019526045
11
84.4832141413
21
164.0019526045
0
LINE
5
20C
100
AcDbEntity
8
0
100
AcDbLine
62
7
6
CONTINUOUS
10
137.9832141413
20
165.1513197100
11
150.4832141413
21
165.1513197100
0
LINE
5
20D
100
AcDbEntity
8
0
100
AcDbLine
62
7
6
CONTINUOUS
10
101.4832141413
20
169.0019526045
11
128.4832141413
21
169.0019526045
0
LINE
5
20E
100
AcDbEntity
8
0
100
AcDbLine
62
7
6
CONTINUOUS
10
88.4832141413
20
169.1981050272
11
84.4832141413
21
169.1981050272
0
LINE
5
20F
100
AcDbEntity
8
DEFAULT_1
100
AcDbLine
62
2
6
CENTER
10
133.0207469615
20
177.0019526045
11
80.8287975423
21
177.0019526045
0
LINE
5
210
100
AcDbEntity
8
0
100
AcDbLine
62
7
6
CONTINUOUS
10
84.4832141413
20
164.0019526045
11
84.4832141413
21
190.0019526045
0
LINE
5
211
100
AcDbEntity
8
0
100
AcDbLine
62
7
6
CONTINUOUS
10
88.4832141413
20
184.5171250472
11
84.4832141413
21
184.5171250472
0
LINE
5
212
100
AcDbEntity
8
0
100
AcDbLine
62
7
6
CONTINUOUS
10
101.4832141413
20
185.0019526045
11
128.4832141413
21
185.0019526045
0
LINE
5
213
100
AcDbEntity
8
0
100
AcDbLine
62
7
6
CONTINUOUS
10
88.4832141413
20
215.5019526045
11
88.4832141413
21
161.0019526045
0
LINE
5
214
100
AcDbEntity
8
0
100
AcDbLine
62
7
6
CONTINUOUS
10
88.4832141413
20
190.0019526045
11
84.4832141413
21
190.0019526045
0
LINE
5
215
100
AcDbEntity
8
0
100
AcDbLine
62
7
6
CONTINUOUS
10
150.4832141413
20
191.0019526045
11
143.4795368753
21
191.0019526045
0
LINE
5
216
100
AcDbEntity
8
0
100
AcDbLine
62
7
6
CONTINUOUS
10
88.4832141413
20
191.0019526045
11
101.4832141413
21
191.0019526045
0
LINE
5
217
100
AcDbEntity
8
0
100
AcDbLine
62
7
6
CONTINUOUS
10
128.4832141413
20
191.0019526045
11
137.9832141413
21
191.0019526045
0
LINE
5
218
100
AcDbEntity
8
0
100
AcDbLine
62
7
6
CONTINUOUS
10
92.7332141413
20
220.4182696557
11
92.7332141413
21
219.9957177961
0
LINE
5
219
100
AcDbEntity
8
0
100
AcDbLine
62
7
6
CONTINUOUS
10
92.7332141413
20
218.0238085806
11
92.7332141413
21
217.6012567210
0
LINE
5
21A
100
AcDbEntity
8
0
100
AcDbLine
62
7
6
CONTINUOUS
10
92.7332141413
20
216.0519009770
11
92.7332141413
21
215.4180731875
0
LINE
5
21B
100
AcDbEntity
8
0
100
AcDbLine
62
7
6
CONTINUOUS
10
92.7332141413
20
212.6010602528
11
92.7332141413
21
212.2489334344
0
LINE
5
21C
100
AcDbEntity
8
0
100
AcDbLine
62
7
6
CONTINUOUS
10
92.7332141413
20
209.5727721941
11
92.7332141413
21
208.9389444047
0
LINE
5
21D
100
AcDbEntity
8
0
100
AcDbLine
62
7
6
CONTINUOUS
10
92.7332141413
20
205.6993800133
11
92.7332141413
21
205.2768281537
0
LINE
5
21E
100
AcDbEntity
8
0
100
AcDbLine
62
7
6
CONTINUOUS
10
92.7332141413
20
203.3049193411
11
92.7332141413
21
202.8823674815
0
LINE
5
21F
100
AcDbEntity
8
0
100
AcDbLine
62
7
6
CONTINUOUS
10
92.7332141413
20
202.3189649348
11
92.7332141413
21
201.8964130752
0
LINE
5
220
100
AcDbEntity
8
0
100
AcDbLine
62
7
6
CONTINUOUS
10
92.7332141413
20
199.9245044642
11
92.7332141413
21
199.5019526045
0
LINE
5
221
100
AcDbEntity
8
0
100
AcDbLine
62
7
6
CONTINUOUS
10
93.3715119376
20
208.9389444047
11
93.3715119376
21
209.5727721941
0
LINE
5
222
100
AcDbEntity
8
0
100
AcDbLine
62
7
6
CONTINUOUS
10
93.3715119376
20
212.2489334344
11
93.3715119376
21
212.6714852940
0
LINE
5
223
100
AcDbEntity
8
0
100
AcDbLine
62
7
6
CONTINUOUS
10
93.3715119376
20
215.4180731875
11
93.3715119376
21
216.0519009770
0
LINE
5
224
100
AcDbEntity
8
0
100
AcDbLine
62
7
6
CONTINUOUS
10
93.9034267678
20
213.0940379596
11
93.9034267678
21
213.5165898192
0
LINE
5
225
100
AcDbEntity
8
0
100
AcDbLine
62
7
6
CONTINUOUS
10
94.0098100318
20
210.1361741363
11
94.0098100318
21
210.5587259959
0
LINE
5
226
100
AcDbEntity
8
0
100
AcDbLine
62
7
6
CONTINUOUS
10
94.0098100318
20
216.6153029191
11
94.0098100318
21
217.0378547788
0
LINE
5
227
100
AcDbEntity
8
0
100
AcDbLine
62
7
6
CONTINUOUS
10
92.8395971073
20
216.4040269893
11
92.7332141413
21
216.0519009770
0
LINE
5
228
100
AcDbEntity
8
0
100
AcDbLine
62
7
6
CONTINUOUS
10
92.8395971073
20
212.9531870711
11
92.7332141413
21
212.6010602528
0
LINE
5
229
100
AcDbEntity
8
0
100
AcDbLine
62
7
6
CONTINUOUS
10
93.3715119376
20
216.0519009770
11
93.4778949036
21
216.3336011421
0
LINE
5
22A
100
AcDbEntity
8
0
100
AcDbLine
62
7
6
CONTINUOUS
10
136.2438524677
20
201.7800193586
11
136.5630013658
21
201.8646892444
0
LINE
5
22B
100
AcDbEntity
8
0
100
AcDbLine
62
7
6
CONTINUOUS
10
92.8395971073
20
208.5868175864
11
93.0523630394
21
208.3051166153
0
LINE
5
22C
100
AcDbEntity
8
0
100
AcDbLine
62
7
6
CONTINUOUS
10
93.4778949036
20
208.6572426276
11
93.3715119376
21
208.9389444047
0
LINE
5
22D
100
AcDbEntity
8
0
100
AcDbLine
62
7
6
CONTINUOUS
10
92.7332141413
20
212.2489334344
11
92.8395971073
21
211.9672324633
0
LINE
5
22E
100
AcDbEntity
8
0
100
AcDbLine
62
7
6
CONTINUOUS
10
92.7332141413
20
208.9389444047
11
92.8395971073
21
208.5868175864
0
LINE
5
22F
100
AcDbEntity
8
0
100
AcDbLine
62
7
6
CONTINUOUS
10
94.7544907941
20
219.9957177961
11
94.7544907941
21
218.0238085806
0
LINE
5
230
100
AcDbEntity
8
0
100
AcDbLine
62
7
6
CONTINUOUS
10
94.8608737602
20
212.6714852940
11
94.8608737602
21
212.2489334344
0
LINE
5
231
100
AcDbEntity
8
0
100
AcDbLine
62
7
6
CONTINUOUS
10
94.9672567262
20
210.5587259959
11
94.9672567262
21
209.5023463469
0
LINE
5
232
100
AcDbEntity
8
0
100
AcDbLine
62
7
6
CONTINUOUS
10
95.3927885904
20
207.2487369662
11
95.3927885904
21
206.2627823585
0
LINE
5
233
100
AcDbEntity
8
0
100
AcDbLine
62
7
6
CONTINUOUS
10
95.3927885904
20
218.0238085806
11
95.3927885904
21
219.9957177961
0
LINE
5
234
100
AcDbEntity
8
0
100
AcDbLine
62
7
6
CONTINUOUS
10
95.4991715564
20
212.2489334344
11
95.4991715564
21
212.6714852940
0
LINE
5
235
100
AcDbEntity
8
0
100
AcDbLine
62
7
6
CONTINUOUS
10
95.6055545224
20
209.5023463469
11
95.6055545224
21
210.1361741363
0
LINE
5
236
100
AcDbEntity
8
0
100
AcDbLine
62
7
6
CONTINUOUS
10
95.9247035696
20
206.2627823585
11
95.9247035696
21
207.2487369662
0
LINE
5
237
100
AcDbEntity
8
0
100
AcDbLine
62
7
6
CONTINUOUS
10
96.3502354337
20
211.5446806037
11
96.3502354337
21
211.1221287441
0
LINE
5
238
100
AcDbEntity
8
0
100
AcDbLine
62
7
6
CONTINUOUS
10
96.4566183998
20
217.0378547788
11
96.4566183998
21
216.6153029191
0
LINE
5
239
100
AcDbEntity
8
0
100
AcDbLine
62
7
6
CONTINUOUS
10
97.0949162705
20
216.0519009770
11
97.0949162705
21
215.4180731875
0
LINE
5
23A
100
AcDbEntity
8
0
100
AcDbLine
62
7
6
CONTINUOUS
10
97.0949162705
20
212.6714852940
11
97.0949162705
21
212.1080833518
0
LINE
5
23B
100
AcDbEntity
8
0
100
AcDbLine
62
7
6
CONTINUOUS
10
97.0949162705
20
209.5727721941
11
97.0949162705
21
208.9389444047
0
LINE
5
23C
100
AcDbEntity
8
0
100
AcDbLine
62
7
6
CONTINUOUS
10
97.7332141413
20
200.6287575971
11
97.7332141413
21
201.1921600430
0
LINE
5
23D
100
AcDbEntity
8
0
100
AcDbLine
62
7
6
CONTINUOUS
10
97.7332141413
20
204.0091725748
11
97.7332141413
21
204.5725749200
0
LINE
5
23E
100
AcDbEntity
8
0
100
AcDbLine
62
7
6
CONTINUOUS
10
97.7332141413
20
208.9389444047
11
97.7332141413
21
209.5727721941
0
LINE
5
23F
100
AcDbEntity
8
0
100
AcDbLine
62
7
6
CONTINUOUS
10
97.7332141413
20
212.1080833518
11
97.7332141413
21
212.6714852940
0
LINE
5
240
100
AcDbEntity
8
0
100
AcDbLine
62
7
6
CONTINUOUS
10
97.7332141413
20
215.4180731875
11
97.7332141413
21
216.0519009770
0
LINE
5
241
100
AcDbEntity
8
0
100
AcDbLine
62
7
6
CONTINUOUS
10
97.7332141413
20
217.6012567210
11
97.7332141413
21
218.0238085806
0
LINE
5
242
100
AcDbEntity
8
0
100
AcDbLine
62
7
6
CONTINUOUS
10
97.7332141413
20
219.9957177961
11
97.7332141413
21
220.4182696557
0
LINE
5
243
100
AcDbEntity
8
0
100
AcDbLine
62
7
6
CONTINUOUS
10
92.8395971073
20
209.9248982065
11
92.7332141413
21
209.5727721941
0
LINE
5
244
100
AcDbEntity
8
0
100
AcDbLine
62
7
6
CONTINUOUS
10
94.9672567262
20
213.0236121124
11
94.8608737602
21
212.6714852940
0
LINE
5
245
100
AcDbEntity
8
0
100
AcDbLine
62
7
6
CONTINUOUS
10
97.6268311659
20
215.0659455632
11
97.7332141413
21
215.4180731875
0
LINE
5
246
100
AcDbEntity
8
0
100
AcDbLine
62
7
6
CONTINUOUS
10
93.3715119376
20
209.5727721941
11
93.4778949036
21
209.8544731652
0
LINE
5
247
100
AcDbEntity
8
0
100
AcDbLine
62
7
6
CONTINUOUS
10
95.4991715564
20
212.6714852940
11
95.6055545224
21
212.9531870711
0
LINE
5
248
100
AcDbEntity
8
0
100
AcDbLine
62
7
6
CONTINUOUS
10
95.3927885904
20
211.9672324633
11
95.4991715564
21
212.2489334344
0
LINE
5
249
100
AcDbEntity
8
0
100
AcDbLine
62
7
6
CONTINUOUS
10
97.0949162705
20
215.4180731875
11
96.9885333045
21
215.1363714105
0
LINE
5
24A
100
AcDbEntity
8
0
100
AcDbLine
62
7
6
CONTINUOUS
10
97.0949162705
20
212.1080833518
11
96.9885333045
21
211.8263815748
0
LINE
5
24B
100
AcDbEntity
8
0
100
AcDbLine
62
7
6
CONTINUOUS
10
93.3715119376
20
212.6714852940
11
93.4778949036
21
212.8827612238
0
LINE
5
24C
100
AcDbEntity
8
0
100
AcDbLine
62
7
6
CONTINUOUS
10
94.8608737602
20
212.2489334344
11
94.7544907941
21
212.0376575046
0
LINE
5
24D
100
AcDbEntity
8
0
100
AcDbLine
62
7
6
CONTINUOUS
10
93.0523630394
20
216.6857287664
11
92.8395971073
21
216.4040269893
0
LINE
5
24E
100
AcDbEntity
8
0
100
AcDbLine
62
7
6
CONTINUOUS
10
95.1800226583
20
213.3053138894
11
94.9672567262
21
213.0236121124
0
LINE
5
24F
100
AcDbEntity
8
0
100
AcDbLine
62
7
6
CONTINUOUS
10
93.0523630394
20
210.2065999836
11
92.8395971073
21
209.9248982065
0
LINE
5
250
100
AcDbEntity
8
0
100
AcDbLine
62
7
6
CONTINUOUS
10
93.4778949036
20
216.3336011421
11
93.6906608357
21
216.5448770719
0
LINE
5
251
100
AcDbEntity
8
0
100
AcDbLine
62
7
6
CONTINUOUS
10
93.4778949036
20
216.9674289315
11
93.0523630394
21
216.6857287664
0
LINE
5
252
100
AcDbEntity
8
0
100
AcDbLine
62
7
6
CONTINUOUS
10
134.2225759639
20
204.6587942649
11
133.9034267678
21
204.5741242580
0
LINE
5
253
100
AcDbEntity
8
0
100
AcDbLine
62
7
6
CONTINUOUS
10
135.7119374885
20
201.6953494728
11
136.2438524677
21
201.7800193586
0
LINE
5
254
100
AcDbEntity
8
0
100
AcDbLine
62
7
6
CONTINUOUS
10
136.2438524677
20
202.2033686666
11
135.6055545224
21
202.1186986596
0
LINE
5
255
100
AcDbEntity
8
0
100
AcDbLine
62
7
6
CONTINUOUS
10
133.4778949036
20
200.0019526045
11
134.3289589299
21
200.0019526045
0
LINE
5
256
100
AcDbEntity
8
0
100
AcDbLine
62
7
6
CONTINUOUS
10
133.5842778696
20
200.5099716771
11
137.7332141413
21
200.5099716771
0
LINE
5
257
100
AcDbEntity
8
0
100
AcDbLine
62
7
6
CONTINUOUS
10
97.7332141413
20
201.1921600430
11
92.7332141413
21
202.3189649348
0
LINE
5
258
100
AcDbEntity
8
0
100
AcDbLine
62
7
6
CONTINUOUS
10
92.7332141413
20
201.8964130752
11
97.0949162705
21
200.9104587697
0
LINE
5
259
100
AcDbEntity
8
0
100
AcDbLine
62
7
6
CONTINUOUS
10
93.0523630394
20
208.3051166153
11
93.4778949036
21
208.0234148382
0
LINE
5
25A
100
AcDbEntity
8
0
100
AcDbLine
62
7
6
CONTINUOUS
10
93.6906608357
20
208.4459666978
11
93.4778949036
21
208.6572426276
0
LINE
5
25B
100
AcDbEntity
8
0
100
AcDbLine
62
7
6
CONTINUOUS
10
93.6906608357
20
211.8263815748
11
93.4778949036
21
212.0376575046
0
LINE
5
25C
100
AcDbEntity
8
0
100
AcDbLine
62
7
6
CONTINUOUS
10
92.8395971073
20
211.9672324633
11
93.0523630394
21
211.6855314922
0
LINE
5
25D
100
AcDbEntity
8
0
100
AcDbLine
62
7
6
CONTINUOUS
10
92.8395971073
20
215.0659455632
11
93.0523630394
21
214.7842453981
0
LINE
5
25E
100
AcDbEntity
8
0
100
AcDbLine
62
7
6
CONTINUOUS
10
97.6268311659
20
209.9248982065
11
97.4140652059
21
210.2065999836
0
LINE
5
25F
100
AcDbEntity
8
0
100
AcDbLine
62
7
6
CONTINUOUS
10
93.4778949036
20
212.0376575046
11
93.3715119376
21
212.2489334344
0
LINE
5
260
100
AcDbEntity
8
0
100
AcDbLine
62
7
6
CONTINUOUS
10
93.4778949036
20
215.1363714105
11
93.3715119376
21
215.4180731875
0
LINE
5
261
100
AcDbEntity
8
0
100
AcDbLine
62
7
6
CONTINUOUS
10
96.9885333045
20
209.8544731652
11
97.0949162705
21
209.5727721941
0
LINE
5
262
100
AcDbEntity
8
0
100
AcDbLine
62
7
6
CONTINUOUS
10
96.9885333045
20
212.9531870711
11
97.0949162705
21
212.6714852940
0
LINE
5
263
100
AcDbEntity
8
0
100
AcDbLine
62
7
6
CONTINUOUS
10
92.7332141413
20
215.4180731875
11
92.8395971073
21
215.0659455632
0
LINE
5
264
100
AcDbEntity
8
0
100
AcDbLine
62
7
6
CONTINUOUS
10
97.7332141413
20
209.5727721941
11
97.6268311659
21
209.9248982065
0
LINE
5
265
100
AcDbEntity
8
0
100
AcDbLine
62
7
6
CONTINUOUS
10
97.7332141413
20
212.6714852940
11
97.6268311659
21
213.0236121124
0
LINE
5
266
100
AcDbEntity
8
0
100
AcDbLine
62
7
6
CONTINUOUS
10
100.6082141413
20
226.7972222509
11
100.6082141413
21
252.0019526045
0
LINE
5
267
100
AcDbEntity
8
0
100
AcDbLine
62
7
6
CONTINUOUS
10
101.4832141413
20
161.0019526045
11
101.4832141413
21
215.5019526045
0
LINE
5
268
100
AcDbEntity
8
0
100
AcDbLine
62
7
6
CONTINUOUS
10
97.6268311659
20
211.7559565335
11
97.7332141413
21
212.1080833518
0
LINE
5
269
100
AcDbEntity
8
0
100
AcDbLine
62
7
6
CONTINUOUS
10
97.6268311659
20
208.5868175864
11
97.7332141413
21
208.9389444047
0
LINE
5
26A
100
AcDbEntity
8
0
100
AcDbLine
62
7
6
CONTINUOUS
10
97.0949162705
20
208.9389444047
11
96.9885333045
21
208.6572426276
0
LINE
5
26B
100
AcDbEntity
8
0
100
AcDbLine
62
7
6
CONTINUOUS
10
97.4140652059
20
214.7842453981
11
97.6268311659
21
215.0659455632
0
LINE
5
26C
100
AcDbEntity
8
0
100
AcDbLine
62
7
6
CONTINUOUS
10
95.1800226583
20
211.6855314922
11
95.3927885904
21
211.9672324633
0
LINE
5
26D
100
AcDbEntity
8
0
100
AcDbLine
62
7
6
CONTINUOUS
10
97.3076822399
20
211.4038297152
11
97.6268311659
21
211.7559565335
0
LINE
5
26E
100
AcDbEntity
8
0
100
AcDbLine
62
7
6
CONTINUOUS
10
96.9885333045
20
215.1363714105
11
96.7757672979
21
214.9250954807
0
LINE
5
26F
100
AcDbEntity
8
0
100
AcDbLine
62
7
6
CONTINUOUS
10
95.6055545224
20
212.9531870711
11
95.8183204545
21
213.1644621949
0
LINE
5
270
100
AcDbEntity
8
0
100
AcDbLine
62
7
6
CONTINUOUS
10
94.7544907941
20
212.0376575046
11
94.5417248620
21
211.8263815748
0
LINE
5
271
100
AcDbEntity
8
0
100
AcDbLine
62
7
6
CONTINUOUS
10
93.4778949036
20
209.8544731652
11
93.6906608357
21
210.0657490950
0
LINE
5
272
100
AcDbEntity
8
0
100
AcDbLine
62
7
6
CONTINUOUS
10
93.1587460055
20
213.2348880422
11
92.8395971073
21
212.9531870711
0
LINE
5
273
100
AcDbEntity
8
0
100
AcDbLine
62
7
6
CONTINUOUS
10
93.4778949036
20
212.8827612238
11
93.6906608357
21
213.0236121124
0
LINE
5
274
100
AcDbEntity
8
0
100
AcDbLine
62
7
6
CONTINUOUS
10
96.9885333045
20
214.5025436210
11
97.4140652059
21
214.7842453981
0
LINE
5
275
100
AcDbEntity
8
0
100
AcDbLine
62
7
6
CONTINUOUS
10
95.6055545224
20
213.5870140546
11
95.1800226583
21
213.3053138894
0
LINE
5
276
100
AcDbEntity
8
0
100
AcDbLine
62
7
6
CONTINUOUS
10
93.5842778696
20
213.4461639720
11
93.1587460055
21
213.2348880422
0
LINE
5
277
100
AcDbEntity
8
0
100
AcDbLine
62
7
6
CONTINUOUS
10
137.0949162705
20
209.1462959114
11
132.7332141413
21
207.9609182368
0
LINE
5
278
100
AcDbEntity
8
0
100
AcDbLine
62
7
6
CONTINUOUS
10
132.7332141413
20
207.4528991642
11
137.7332141413
21
208.8076168526
0
LINE
5
279
100
AcDbEntity
8
0
100
AcDbLine
62
7
6
CONTINUOUS
10
97.0949162705
20
200.9104587697
11
92.7332141413
21
199.9245044642
0
LINE
5
27A
100
AcDbEntity
8
0
100
AcDbLine
62
7
6
CONTINUOUS
10
92.7332141413
20
199.5019526045
11
97.7332141413
21
200.6287575971
0
LINE
5
27B
100
AcDbEntity
8
0
100
AcDbLine
62
7
6
CONTINUOUS
10
134.7544907941
20
204.7434637873
11
134.2225759639
21
204.6587942649
0
LINE
5
27C
100
AcDbEntity
8
0
100
AcDbLine
62
7
6
CONTINUOUS
10
134.2225759639
20
204.2354447147
11
134.8608737602
21
204.3201147217
0
LINE
5
27D
100
AcDbEntity
8
0
100
AcDbLine
62
7
6
CONTINUOUS
10
137.7332141413
20
201.0179907497
11
132.7332141413
21
201.0179907497
0
LINE
5
27E
100
AcDbEntity
8
0
100
AcDbLine
62
7
6
CONTINUOUS
10
134.7544907941
20
201.6953494728
11
135.7119374885
21
201.6953494728
0
LINE
5
27F
100
AcDbEntity
8
0
100
AcDbLine
62
7
6
CONTINUOUS
10
135.6055545224
20
202.1186986596
11
134.8608737602
21
202.1186986596
0
LINE
5
280
100
AcDbEntity
8
0
100
AcDbLine
62
7
6
CONTINUOUS
10
134.8608737602
20
204.3201147217
11
135.6055545224
21
204.3201147217
0
LINE
5
281
100
AcDbEntity
8
0
100
AcDbLine
62
7
6
CONTINUOUS
10
135.7119374885
20
204.7434637873
11
134.7544907941
21
204.7434637873
0
LINE
5
282
100
AcDbEntity
8
0
100
AcDbLine
62
7
6
CONTINUOUS
10
97.7332141413
20
204.5725749200
11
92.7332141413
21
205.6993800133
0
LINE
5
283
100
AcDbEntity
8
0
100
AcDbLine
62
7
6
CONTINUOUS
10
92.7332141413
20
205.2768281537
11
97.0949162705
21
204.2908735459
0
LINE
5
284
100
AcDbEntity
8
0
100
AcDbLine
62
7
6
CONTINUOUS
10
93.4778949036
20
208.0234148382
11
93.9034267678
21
207.8825647556
0
LINE
5
285
100
AcDbEntity
8
0
100
AcDbLine
62
7
6
CONTINUOUS
10
94.0098100318
20
208.3051166153
11
93.6906608357
21
208.4459666978
0
LINE
5
286
100
AcDbEntity
8
0
100
AcDbLine
62
7
6
CONTINUOUS
10
93.0523630394
20
211.6855314922
11
93.4778949036
21
211.4038297152
0
LINE
5
287
100
AcDbEntity
8
0
100
AcDbLine
62
7
6
CONTINUOUS
10
97.4140652059
20
210.2065999836
11
96.9885333045
21
210.4883009547
0
LINE
5
288
100
AcDbEntity
8
0
100
AcDbLine
62
7
6
CONTINUOUS
10
93.0523630394
20
214.7842453981
11
93.4778949036
21
214.5025436210
0
LINE
5
289
100
AcDbEntity
8
0
100
AcDbLine
62
7
6
CONTINUOUS
10
96.7757672979
20
210.0657490950
11
96.9885333045
21
209.8544731652
0
LINE
5
28A
100
AcDbEntity
8
0
100
AcDbLine
62
7
6
CONTINUOUS
10
93.6906608357
20
214.9250954807
11
93.4778949036
21
215.1363714105
0
LINE
5
28B
100
AcDbEntity
8
0
100
AcDbLine
62
7
6
CONTINUOUS
10
96.7757672979
20
213.1644621949
11
96.9885333045
21
212.9531870711
0
LINE
5
28C
100
AcDbEntity
8
0
100
AcDbLine
62
7
6
CONTINUOUS
10
97.6268311659
20
213.0236121124
11
97.4140652059
21
213.3053138894
0
LINE
5
28D
100
AcDbEntity
8
0
100
AcDbLine
62
7
6
CONTINUOUS
10
97.6268311659
20
216.4040269893
11
97.4140652059
21
216.6857287664
0
LINE
5
28E
100
AcDbEntity
8
0
100
AcDbLine
62
7
6
CONTINUOUS
10
96.9885333045
20
216.3336011421
11
97.0949162705
21
216.0519009770
0
LINE
5
28F
100
AcDbEntity
8
0
100
AcDbLine
62
7
6
CONTINUOUS
10
97.7332141413
20
216.0519009770
11
97.6268311659
21
216.4040269893
0
LINE
5
290
100
AcDbEntity
8
0
100
AcDbLine
62
7
6
CONTINUOUS
10
97.4140652059
20
208.3051166153
11
97.6268311659
21
208.5868175864
0
LINE
5
291
100
AcDbEntity
8
0
100
AcDbLine
62
7
6
CONTINUOUS
10
96.9885333045
20
208.6572426276
11
96.7757672979
21
208.4459666978
0
LINE
5
292
100
AcDbEntity
8
0
100
AcDbLine
62
7
6
CONTINUOUS
10
94.7544907941
20
211.4038297152
11
95.1800226583
21
211.6855314922
0
LINE
5
293
100
AcDbEntity
8
0
100
AcDbLine
62
7
6
CONTINUOUS
10
93.4778949036
20
210.4883009547
11
93.0523630394
21
210.2065999836
0
LINE
5
294
100
AcDbEntity
8
0
100
AcDbLine
62
7
6
CONTINUOUS
10
96.9885333045
20
211.8263815748
11
96.6693843319
21
211.6151056450
0
LINE
5
295
100
AcDbEntity
8
0
100
AcDbLine
62
7
6
CONTINUOUS
10
96.7757672979
20
214.9250954807
11
96.4566183998
21
214.7842453981
0
LINE
5
296
100
AcDbEntity
8
0
100
AcDbLine
62
7
6
CONTINUOUS
10
95.8183204545
20
213.1644621949
11
96.1374695017
21
213.3053138894
0
LINE
5
297
100
AcDbEntity
8
0
100
AcDbLine
62
7
6
CONTINUOUS
10
96.5630013658
20
214.3616935385
11
96.9885333045
21
214.5025436210
0
LINE
5
298
100
AcDbEntity
8
0
100
AcDbLine
62
7
6
CONTINUOUS
10
93.6906608357
20
213.0236121124
11
93.9034267678
21
213.0940379596
0
LINE
5
299
100
AcDbEntity
8
0
100
AcDbLine
62
7
6
CONTINUOUS
10
96.0310865356
20
213.7278657490
11
95.6055545224
21
213.5870140546
0
LINE
5
29A
100
AcDbEntity
8
0
100
AcDbLine
62
7
6
CONTINUOUS
10
97.0949162705
20
204.2908735459
11
92.7332141413
21
203.3049193411
0
LINE
5
29B
100
AcDbEntity
8
0
100
AcDbLine
62
7
6
CONTINUOUS
10
92.7332141413
20
202.8823674815
11
97.7332141413
21
204.0091725748
0
LINE
5
29C
100
AcDbEntity
8
0
100
AcDbLine
62
7
6
CONTINUOUS
10
95.3927885904
20
206.2627823585
11
95.9247035696
21
206.2627823585
0
LINE
5
29D
100
AcDbEntity
8
0
100
AcDbLine
62
7
6
CONTINUOUS
10
95.9247035696
20
207.2487369662
11
95.3927885904
21
207.2487369662
0
LINE
5
29E
100
AcDbEntity
8
0
100
AcDbLine
62
7
6
CONTINUOUS
10
94.4353418960
20
207.8121389084
11
96.0310865356
21
207.8121389084
0
LINE
5
29F
100
AcDbEntity
8
0
100
AcDbLine
62
7
6
CONTINUOUS
10
96.0310865356
20
208.2346907680
11
94.4353418960
21
208.2346907680
0
LINE
5
2A0
100
AcDbEntity
8
0
100
AcDbLine
62
7
6
CONTINUOUS
10
93.9034267678
20
207.8825647556
11
94.4353418960
21
207.8121389084
0
LINE
5
2A1
100
AcDbEntity
8
0
100
AcDbLine
62
7
6
CONTINUOUS
10
134.8608737602
20
202.1186986596
11
134.2225759639
21
202.2033686666
0
LINE
5
2A2
100
AcDbEntity
8
0
100
AcDbLine
62
7
6
CONTINUOUS
10
135.6055545224
20
204.3201147217
11
136.2438524677
21
204.2354447147
0
LINE
5
2A3
100
AcDbEntity
8
0
100
AcDbLine
62
7
6
CONTINUOUS
10
134.2225759639
20
201.7800193586
11
134.7544907941
21
201.6953494728
0
LINE
5
2A4
100
AcDbEntity
8
0
100
AcDbLine
62
7
6
CONTINUOUS
10
136.2438524677
20
204.6587942649
11
135.7119374885
21
204.7434637873
0
LINE
5
2A5
100
AcDbEntity
8
0
100
AcDbLine
62
7
6
CONTINUOUS
10
94.4353418960
20
208.2346907680
11
94.0098100318
21
208.3051166153
0
LINE
5
2A6
100
AcDbEntity
8
0
100
AcDbLine
62
7
6
CONTINUOUS
10
96.9885333045
20
210.4883009547
11
96.5630013658
21
210.5587259959
0
LINE
5
2A7
100
AcDbEntity
8
0
100
AcDbLine
62
7
6
CONTINUOUS
10
93.4778949036
20
211.4038297152
11
93.9034267678
21
211.3334046739
0
LINE
5
2A8
100
AcDbEntity
8
0
100
AcDbLine
62
7
6
CONTINUOUS
10
96.4566183998
20
210.1361741363
11
96.7757672979
21
210.0657490950
0
LINE
5
2A9
100
AcDbEntity
8
0
100
AcDbLine
62
7
6
CONTINUOUS
10
94.0098100318
20
211.7559565335
11
93.6906608357
21
211.8263815748
0
LINE
5
2AA
100
AcDbEntity
8
0
100
AcDbLine
62
7
6
CONTINUOUS
10
133.9034267678
20
201.8646892444
11
134.2225759639
21
201.7800193586
0
LINE
5
2AB
100
AcDbEntity
8
0
100
AcDbLine
62
7
6
CONTINUOUS
10
93.4778949036
20
214.5025436210
11
93.9034267678
21
214.3616935385
0
LINE
5
2AC
100
AcDbEntity
8
0
100
AcDbLine
62
7
6
CONTINUOUS
10
96.9885333045
20
213.5870140546
11
96.5630013658
21
213.7278657490
0
LINE
5
2AD
100
AcDbEntity
8
0
100
AcDbLine
62
7
6
CONTINUOUS
10
96.4566183998
20
213.3053138894
11
96.7757672979
21
213.1644621949
0
LINE
5
2AE
100
AcDbEntity
8
0
100
AcDbLine
62
7
6
CONTINUOUS
10
94.0098100318
20
214.7842453981
11
93.6906608357
21
214.9250954807
0
LINE
5
2AF
100
AcDbEntity
8
0
100
AcDbLine
62
7
6
CONTINUOUS
10
97.4140652059
20
213.3053138894
11
96.9885333045
21
213.5870140546
0
LINE
5
2B0
100
AcDbEntity
8
0
100
AcDbLine
62
7
6
CONTINUOUS
10
97.4140652059
20
216.6857287664
11
96.9885333045
21
216.9674289315
0
LINE
5
2B1
100
AcDbEntity
8
0
100
AcDbLine
62
7
6
CONTINUOUS
10
96.7757672979
20
216.5448770719
11
96.9885333045
21
216.3336011421
0
LINE
5
2B2
100
AcDbEntity
8
0
100
AcDbLine
62
7
6
CONTINUOUS
10
96.9885333045
20
208.0234148382
11
97.4140652059
21
208.3051166153
0
LINE
5
2B3
100
AcDbEntity
8
0
100
AcDbLine
62
7
6
CONTINUOUS
10
96.7757672979
20
208.4459666978
11
96.4566183998
21
208.3051166153
0
LINE
5
2B4
100
AcDbEntity
8
0
100
AcDbLine
62
7
6
CONTINUOUS
10
96.7757672979
20
211.1925537854
11
97.3076822399
21
211.4038297152
0
LINE
5
2B5
100
AcDbEntity
8
0
100
AcDbLine
62
7
6
CONTINUOUS
10
96.5630013658
20
207.8825647556
11
96.9885333045
21
208.0234148382
0
LINE
5
2B6
100
AcDbEntity
8
0
100
AcDbLine
62
7
6
CONTINUOUS
10
133.5842778696
20
215.2425247826
11
133.9034267678
21
215.3271943051
0
LINE
5
2B7
100
AcDbEntity
8
0
100
AcDbLine
62
7
6
CONTINUOUS
10
133.9034267678
20
215.8352133777
11
133.5842778696
21
215.7505438552
0
LINE
5
2B8
100
AcDbEntity
8
0
100
AcDbLine
62
7
6
CONTINUOUS
10
96.4566183998
20
208.3051166153
11
96.0310865356
21
208.2346907680
0
LINE
5
2B9
100
AcDbEntity
8
0
100
AcDbLine
62
7
6
CONTINUOUS
10
96.3502354337
20
211.1221287441
11
96.7757672979
21
211.1925537854
0
LINE
5
2BA
100
AcDbEntity
8
0
100
AcDbLine
62
7
6
CONTINUOUS
10
96.0310865356
20
207.8121389084
11
96.5630013658
21
207.8825647556
0
LINE
5
2BB
100
AcDbEntity
8
0
100
AcDbLine
62
7
6
CONTINUOUS
10
94.0098100318
20
210.5587259959
11
93.4778949036
21
210.4883009547
0
LINE
5
2BC
100
AcDbEntity
8
0
100
AcDbLine
62
7
6
CONTINUOUS
10
94.9672567262
20
209.5023463469
11
95.6055545224
21
209.5023463469
0
LINE
5
2BD
100
AcDbEntity
8
0
100
AcDbLine
62
7
6
CONTINUOUS
10
95.6055545224
20
210.1361741363
11
96.4566183998
21
210.1361741363
0
LINE
5
2BE
100
AcDbEntity
8
0
100
AcDbLine
62
7
6
CONTINUOUS
10
96.5630013658
20
210.5587259959
11
94.9672567262
21
210.5587259959
0
LINE
5
2BF
100
AcDbEntity
8
0
100
AcDbLine
62
7
6
CONTINUOUS
10
93.9034267678
20
211.3334046739
11
94.3289589299
21
211.3334046739
0
LINE
5
2C0
100
AcDbEntity
8
0
100
AcDbLine
62
7
6
CONTINUOUS
10
132.7332141413
20
211.5170512605
11
137.7332141413
21
211.5170512605
0
LINE
5
2C1
100
AcDbEntity
8
0
100
AcDbLine
62
7
6
CONTINUOUS
10
94.2225759639
20
211.7559565335
11
94.0098100318
21
211.7559565335
0
LINE
5
2C2
100
AcDbEntity
8
0
100
AcDbLine
62
7
6
CONTINUOUS
10
137.7332141413
20
212.0250703331
11
132.7332141413
21
212.0250703331
0
LINE
5
2C3
100
AcDbEntity
8
0
100
AcDbLine
62
7
6
CONTINUOUS
10
132.7332141413
20
212.7024294196
11
137.7332141413
21
212.7024294196
0
LINE
5
2C4
100
AcDbEntity
8
0
100
AcDbLine
62
7
6
CONTINUOUS
10
137.7332141413
20
213.2104484922
11
135.4991715564
21
213.2104484922
0
LINE
5
2C5
100
AcDbEntity
8
0
100
AcDbLine
62
7
6
CONTINUOUS
10
134.8608737602
20
213.2104484922
11
133.2651289715
21
213.2104484922
0
LINE
5
2C6
100
AcDbEntity
8
0
100
AcDbLine
62
7
6
CONTINUOUS
10
96.1374695017
20
213.3053138894
11
96.4566183998
21
213.3053138894
0
LINE
5
2C7
100
AcDbEntity
8
0
100
AcDbLine
62
7
6
CONTINUOUS
10
93.9034267678
20
214.3616935385
11
94.4353418960
21
214.2912676912
0
LINE
5
2C8
100
AcDbEntity
8
0
100
AcDbLine
62
7
6
CONTINUOUS
10
94.4353418960
20
214.7138195509
11
94.0098100318
21
214.7842453981
0
LINE
5
2C9
100
AcDbEntity
8
0
100
AcDbLine
62
7
6
CONTINUOUS
10
96.4566183998
20
216.6153029191
11
96.7757672979
21
216.5448770719
0
LINE
5
2CA
100
AcDbEntity
8
0
100
AcDbLine
62
7
6
CONTINUOUS
10
136.5630013658
20
204.5741242580
11
136.2438524677
21
204.6587942649
0
LINE
5
2CB
100
AcDbEntity
8
0
100
AcDbLine
62
7
6
CONTINUOUS
10
133.4778949036
20
202.0340288949
11
133.9034267678
21
201.8646892444
0
LINE
5
2CC
100
AcDbEntity
8
DEFAULT_1
100
AcDbLine
62
2
6
CENTER
10
114.9832141413
20
252.0019526045
11
114.9832141413
21
165.3982313059
0
LINE
5
2CD
100
AcDbEntity
8
DEFAULT_1
100
AcDbLine
62
2
6
CENTER
10
114.9832141413
20
252.0019526045
11
114.9832141413
21
261.0519526045
0
LINE
5
2CE
100
AcDbEntity
8
0
100
AcDbLine
62
7
6
CONTINUOUS
10
93.6906608357
20
210.0657490950
11
94.0098100318
21
210.1361741363
0
LINE
5
2CF
100
AcDbEntity
8
0
100
AcDbLine
62
7
6
CONTINUOUS
10
96.6693843319
20
211.6151056450
11
96.3502354337
21
211.5446806037
0
LINE
5
2D0
100
AcDbEntity
8
0
100
AcDbLine
62
7
6
CONTINUOUS
10
94.5417248620
20
211.8263815748
11
94.2225759639
21
211.7559565335
0
LINE
5
2D1
100
AcDbEntity
8
0
100
AcDbLine
62
7
6
CONTINUOUS
10
93.9034267678
20
213.5165898192
11
93.5842778696
21
213.4461639720
0
LINE
5
2D2
100
AcDbEntity
8
0
100
AcDbLine
62
7
6
CONTINUOUS
10
94.3289589299
20
211.3334046739
11
94.7544907941
21
211.4038297152
0
LINE
5
2D3
100
AcDbEntity
8
0
100
AcDbLine
62
7
6
CONTINUOUS
10
96.4566183998
20
214.7842453981
11
96.0310865356
21
214.7138195509
0
LINE
5
2D4
100
AcDbEntity
8
0
100
AcDbLine
62
7
6
CONTINUOUS
10
96.0310865356
20
214.2912676912
11
96.5630013658
21
214.3616935385
0
LINE
5
2D5
100
AcDbEntity
8
0
100
AcDbLine
62
7
6
CONTINUOUS
10
96.5630013658
20
213.7278657490
11
96.0310865356
21
213.7278657490
0
LINE
5
2D6
100
AcDbEntity
8
0
100
AcDbLine
62
7
6
CONTINUOUS
10
94.4353418960
20
214.2912676912
11
96.0310865356
21
214.2912676912
0
LINE
5
2D7
100
AcDbEntity
8
0
100
AcDbLine
62
7
6
CONTINUOUS
10
96.0310865356
20
214.7138195509
11
94.4353418960
21
214.7138195509
0
LINE
5
2D8
100
AcDbEntity
8
0
100
AcDbLine
62
7
6
CONTINUOUS
10
133.9034267678
20
215.3271943051
11
134.2225759639
21
215.3271943051
0
LINE
5
2D9
100
AcDbEntity
8
0
100
AcDbLine
62
7
6
CONTINUOUS
10
134.3289589299
20
215.8352133777
11
133.9034267678
21
215.8352133777
0
LINE
5
2DA
100
AcDbEntity
8
0
100
AcDbLine
62
7
6
CONTINUOUS
10
92.7332141413
20
217.6012567210
11
97.7332141413
21
217.6012567210
0
LINE
5
2DB
100
AcDbEntity
8
0
100
AcDbLine
62
7
6
CONTINUOUS
10
96.9885333045
20
216.9674289315
11
96.4566183998
21
217.0378547788
0
LINE
5
2DC
100
AcDbEntity
8
0
100
AcDbLine
62
7
6
CONTINUOUS
10
137.7332141413
20
209.4849749701
11
132.7332141413
21
210.8396931430
0
LINE
5
2DD
100
AcDbEntity
8
0
100
AcDbLine
62
7
6
CONTINUOUS
10
132.7332141413
20
210.3316740704
11
137.0949162705
21
209.1462959114
0
LINE
5
2DE
100
AcDbEntity
8
0
100
AcDbLine
62
7
6
CONTINUOUS
10
136.9885333045
20
204.4047847286
11
136.5630013658
21
204.5741242580
0
LINE
5
2DF
100
AcDbEntity
8
0
100
AcDbLine
62
7
6
CONTINUOUS
10
133.7970438017
20
206.5215305414
11
136.4566183998
21
205.4208228738
0
LINE
5
2E0
100
AcDbEntity
8
0
100
AcDbLine
62
7
6
CONTINUOUS
10
136.6693843319
20
205.6748324101
11
134.0098100318
21
206.7755400777
0
LINE
5
2E1
100
AcDbEntity
8
0
100
AcDbLine
62
7
6
CONTINUOUS
10
134.2225759639
20
202.2033686666
11
133.5842778696
21
202.5420479675
0
LINE
5
2E2
100
AcDbEntity
8
0
100
AcDbLine
62
7
6
CONTINUOUS
10
136.2438524677
20
204.2354447147
11
136.8821503385
21
203.8967654137
0
LINE
5
2E3
100
AcDbEntity
8
0
100
AcDbLine
62
7
6
CONTINUOUS
10
132.7332141413
20
200.5099716771
11
133.4778949036
21
200.0019526045
0
LINE
5
2E4
100
AcDbEntity
8
0
100
AcDbLine
62
7
6
CONTINUOUS
10
134.3289589299
20
200.0019526045
11
133.5842778696
21
200.5099716771
0
LINE
5
2E5
100
AcDbEntity
8
0
100
AcDbLine
62
7
6
CONTINUOUS
10
133.5842778696
20
215.7505438552
11
133.1587460055
21
215.4965343189
0
LINE
5
2E6
100
AcDbEntity
8
0
100
AcDbLine
62
7
6
CONTINUOUS
10
93.6906608357
20
216.5448770719
11
94.0098100318
21
216.6153029191
0
LINE
5
2E7
100
AcDbEntity
8
0
100
AcDbLine
62
7
6
CONTINUOUS
10
94.0098100318
20
217.0378547788
11
93.4778949036
21
216.9674289315
0
LINE
5
2E8
100
AcDbEntity
8
0
100
AcDbLine
62
7
6
CONTINUOUS
10
97.7332141413
20
218.0238085806
11
95.3927885904
21
218.0238085806
0
LINE
5
2E9
100
AcDbEntity
8
0
100
AcDbLine
62
7
6
CONTINUOUS
10
94.7544907941
20
218.0238085806
11
92.7332141413
21
218.0238085806
0
LINE
5
2EA
100
AcDbEntity
8
0
100
AcDbLine
62
7
6
CONTINUOUS
10
92.7332141413
20
219.9957177961
11
94.7544907941
21
219.9957177961
0
LINE
5
2EB
100
AcDbEntity
8
0
100
AcDbLine
62
7
6
CONTINUOUS
10
95.3927885904
20
219.9957177961
11
97.7332141413
21
219.9957177961
0
LINE
5
2EC
100
AcDbEntity
8
0
100
AcDbLine
62
7
6
CONTINUOUS
10
97.7332141413
20
220.4182696557
11
92.7332141413
21
220.4182696557
0
LINE
5
2ED
100
AcDbEntity
8
0
100
AcDbLine
62
7
6
CONTINUOUS
10
106.4832141413
20
220.5019526045
11
123.4832141413
21
220.5019526045
0
LINE
5
2EE
100
AcDbEntity
8
0
100
AcDbLine
62
7
6
CONTINUOUS
10
134.2225759639
20
215.3271943051
11
134.5417248620
21
215.2425247826
0
LINE
5
2EF
100
AcDbEntity
8
0
100
AcDbLine
62
7
6
CONTINUOUS
10
134.6481078281
20
215.7505438552
11
134.3289589299
21
215.8352133777
0
LINE
5
2F0
100
AcDbEntity
8
0
100
AcDbLine
62
7
6
CONTINUOUS
10
133.1587460055
20
202.2880384312
11
133.4778949036
21
202.0340288949
0
LINE
5
2F1
100
AcDbEntity
8
0
100
AcDbLine
62
7
6
CONTINUOUS
10
133.3715119376
20
215.0731847688
11
133.5842778696
21
215.2425247826
0
LINE
5
2F2
100
AcDbEntity
8
0
100
AcDbLine
62
7
6
CONTINUOUS
10
137.3076822399
20
204.1507751923
11
136.9885333045
21
204.4047847286
0
LINE
5
2F3
100
AcDbEntity
8
0
100
AcDbLine
62
7
6
CONTINUOUS
10
133.5842778696
20
202.5420479675
11
133.3715119376
21
202.7960575038
0
LINE
5
2F4
100
AcDbEntity
8
0
100
AcDbLine
62
7
6
CONTINUOUS
10
132.8395971073
20
202.7113877392
11
133.1587460055
21
202.2880384312
0
LINE
5
2F5
100
AcDbEntity
8
0
100
AcDbLine
62
7
6
CONTINUOUS
10
128.4832141413
20
161.0019526045
11
128.4832141413
21
215.5019526045
0
LINE
5
2F6
100
AcDbEntity
8
0
100
AcDbLine
62
7
6
CONTINUOUS
10
133.1587460055
20
215.4965343189
11
132.8395971073
21
215.1578552602
0
LINE
5
2F7
100
AcDbEntity
8
0
100
AcDbLine
62
7
6
CONTINUOUS
10
133.9034267678
20
204.5741242580
11
133.4778949036
21
204.4047847286
0
LINE
5
2F8
100
AcDbEntity
8
0
100
AcDbLine
62
7
6
CONTINUOUS
10
135.0736396922
20
215.4965343189
11
134.6481078281
21
215.7505438552
0
LINE
5
2F9
100
AcDbEntity
8
0
100
AcDbLine
62
7
6
CONTINUOUS
10
134.5417248620
20
215.2425247826
11
134.7544907941
21
215.0731847688
0
LINE
5
2FA
100
AcDbEntity
8
0
100
AcDbLine
62
7
6
CONTINUOUS
10
136.8821503385
20
203.8967654137
11
137.0949162705
21
203.6427558774
0
LINE
5
2FB
100
AcDbEntity
8
0
100
AcDbLine
62
7
6
CONTINUOUS
10
137.6268311659
20
203.7274258844
11
137.3076822399
21
204.1507751923
0
LINE
5
2FC
100
AcDbEntity
8
0
100
AcDbLine
62
7
6
CONTINUOUS
10
129.3582141413
20
252.0019526045
11
129.3582141413
21
226.7965554042
0
LINE
5
2FD
100
AcDbEntity
8
0
100
AcDbLine
62
7
6
CONTINUOUS
10
132.7332141413
20
214.7345057100
11
132.7332141413
21
212.7024294196
0
LINE
5
2FE
100
AcDbEntity
8
0
100
AcDbLine
62
7
6
CONTINUOUS
10
132.7332141413
20
212.0250703331
11
132.7332141413
21
211.5170512605
0
LINE
5
2FF
100
AcDbEntity
8
0
100
AcDbLine
62
7
6
CONTINUOUS
10
132.7332141413
20
210.8396931430
11
132.7332141413
21
210.3316740704
0
LINE
5
300
100
AcDbEntity
8
0
100
AcDbLine
62
7
6
CONTINUOUS
10
132.7332141413
20
207.9609182368
11
132.7332141413
21
207.4528991642
0
LINE
5
301
100
AcDbEntity
8
0
100
AcDbLine
62
7
6
CONTINUOUS
10
132.7332141413
20
201.0179907497
11
132.7332141413
21
200.5099716771
0
LINE
5
302
100
AcDbEntity
8
0
100
AcDbLine
62
7
6
CONTINUOUS
10
133.2651289715
20
213.2104484922
11
133.2651289715
21
214.8191752325
0
LINE
5
303
100
AcDbEntity
8
0
100
AcDbLine
62
7
6
CONTINUOUS
10
132.8395971073
20
215.1578552602
11
132.7332141413
21
214.7345057100
0
LINE
5
304
100
AcDbEntity
8
0
100
AcDbLine
62
7
6
CONTINUOUS
10
133.2651289715
20
214.8191752325
11
133.3715119376
21
215.0731847688
0
LINE
5
305
100
AcDbEntity
8
0
100
AcDbLine
62
7
6
CONTINUOUS
10
134.0098100318
20
206.7755400777
11
133.7970438017
21
206.5215305414
0
LINE
5
306
100
AcDbEntity
8
0
100
AcDbLine
62
7
6
CONTINUOUS
10
133.4778949036
20
204.4047847286
11
133.1587460055
21
204.1507751923
0
LINE
5
307
100
AcDbEntity
8
0
100
AcDbLine
62
7
6
CONTINUOUS
10
133.5842778696
20
203.8967654137
11
134.2225759639
21
204.2354447147
0
LINE
5
308
100
AcDbEntity
8
0
100
AcDbLine
62
7
6
CONTINUOUS
10
136.8821503385
20
202.5420479675
11
136.2438524677
21
202.2033686666
0
LINE
5
309
100
AcDbEntity
8
0
100
AcDbLine
62
7
6
CONTINUOUS
10
136.5630013658
20
201.8646892444
11
136.9885333045
21
202.0340288949
0
LINE
5
30A
100
AcDbEntity
8
0
100
AcDbLine
62
7
6
CONTINUOUS
10
135.3927885904
20
215.1578552602
11
135.0736396922
21
215.4965343189
0
LINE
5
30B
100
AcDbEntity
8
0
100
AcDbLine
62
7
6
CONTINUOUS
10
133.3715119376
20
202.7960575038
11
133.2651289715
21
203.2194068118
0
LINE
5
30C
100
AcDbEntity
8
0
100
AcDbLine
62
7
6
CONTINUOUS
10
132.7332141413
20
203.2194068118
11
132.8395971073
21
202.7113877392
0
LINE
5
30D
100
AcDbEntity
8
0
100
AcDbLine
62
7
6
CONTINUOUS
10
134.8608737602
20
214.8191752325
11
134.8608737602
21
213.2104484922
0
LINE
5
30E
100
AcDbEntity
8
0
100
AcDbLine
62
7
6
CONTINUOUS
10
135.4991715564
20
213.2104484922
11
135.4991715564
21
214.7345057100
0
LINE
5
30F
100
AcDbEntity
8
0
100
AcDbLine
62
7
6
CONTINUOUS
10
132.8395971073
20
203.7274258844
11
132.7332141413
21
203.2194068118
0
LINE
5
310
100
AcDbEntity
8
0
100
AcDbLine
62
7
6
CONTINUOUS
10
133.2651289715
20
203.2194068118
11
133.3715119376
21
203.6427558774
0
LINE
5
311
100
AcDbEntity
8
0
100
AcDbLine
62
7
6
CONTINUOUS
10
133.1587460055
20
204.1507751923
11
132.8395971073
21
203.7274258844
0
LINE
5
312
100
AcDbEntity
8
0
100
AcDbLine
62
7
6
CONTINUOUS
10
133.3715119376
20
203.6427558774
11
133.5842778696
21
203.8967654137
0
LINE
5
313
100
AcDbEntity
8
0
100
AcDbLine
62
7
6
CONTINUOUS
10
136.4566183998
20
205.4208228738
11
136.6693843319
21
205.6748324101
0
LINE
5
314
100
AcDbEntity
8
0
100
AcDbLine
62
7
6
CONTINUOUS
10
137.0949162705
20
202.7960575038
11
136.8821503385
21
202.5420479675
0
LINE
5
315
100
AcDbEntity
8
0
100
AcDbLine
62
7
6
CONTINUOUS
10
136.9885333045
20
202.0340288949
11
137.3076822399
21
202.2880384312
0
LINE
5
316
100
AcDbEntity
8
0
100
AcDbLine
62
7
6
CONTINUOUS
10
134.7544907941
20
215.0731847688
11
134.8608737602
21
214.8191752325
0
LINE
5
317
100
AcDbEntity
8
0
100
AcDbLine
62
7
6
CONTINUOUS
10
137.0949162705
20
203.6427558774
11
137.2012992366
21
203.2194068118
0
LINE
5
318
100
AcDbEntity
8
0
100
AcDbLine
62
7
6
CONTINUOUS
10
135.4991715564
20
214.7345057100
11
135.3927885904
21
215.1578552602
0
LINE
5
319
100
AcDbEntity
8
0
100
AcDbLine
62
7
6
CONTINUOUS
10
137.7332141413
20
203.2194068118
11
137.6268311659
21
203.7274258844
0
LINE
5
31A
100
AcDbEntity
8
0
100
AcDbLine
62
7
6
CONTINUOUS
10
137.7332141413
20
200.5099716771
11
137.7332141413
21
201.0179907497
0
LINE
5
31B
100
AcDbEntity
8
0
100
AcDbLine
62
7
6
CONTINUOUS
10
137.7332141413
20
208.8076168526
11
137.7332141413
21
209.4849749701
0
LINE
5
31C
100
AcDbEntity
8
0
100
AcDbLine
62
7
6
CONTINUOUS
10
137.7332141413
20
211.5170512605
11
137.7332141413
21
212.0250703331
0
LINE
5
31D
100
AcDbEntity
8
0
100
AcDbLine
62
7
6
CONTINUOUS
10
137.7332141413
20
212.7024294196
11
137.7332141413
21
213.2104484922
0
LINE
5
31E
100
AcDbEntity
8
0
100
AcDbLine
62
7
6
CONTINUOUS
10
137.9832141413
20
165.1513197100
11
137.9832141413
21
191.3620211760
0
LINE
5
31F
100
AcDbEntity
8
0
100
AcDbLine
62
7
6
CONTINUOUS
10
141.4832141413
20
199.0019526045
11
141.4832141413
21
215.5019526045
0
LINE
5
320
100
AcDbEntity
8
0
100
AcDbLine
62
7
6
CONTINUOUS
10
137.6268311659
20
202.7113877392
11
137.7332141413
21
203.2194068118
0
LINE
5
321
100
AcDbEntity
8
0
100
AcDbLine
62
7
6
CONTINUOUS
10
137.2012992366
20
203.2194068118
11
137.0949162705
21
202.7960575038
0
LINE
5
322
100
AcDbEntity
8
0
100
AcDbLine
62
7
6
CONTINUOUS
10
137.3076822399
20
202.2880384312
11
137.6268311659
21
202.7113877392
0
LINE
5
323
100
AcDbEntity
8
0
100
AcDbLine
62
7
6
CONTINUOUS
10
150.4832141413
20
161.0019526045
11
150.4832141413
21
191.0019526045
0
LINE
5
324
100
AcDbEntity
8
DEFAULT_1
100
AcDbLine
62
2
6
CENTER
10
114.9832141413
20
252.0019526045
11
105.9332141413
21
252.0019526045
0
LINE
5
325
100
AcDbEntity
8
DEFAULT_1
100
AcDbLine
62
2
6
CENTER
10
114.9832141413
20
252.0019526045
11
124.0332141413
21
252.0019526045
0
LINE
5
326
100
AcDbEntity
8
0
100
AcDbLine
62
7
6
CONTINUOUS
10
113.6082141413
20
265.0019526045
11
116.3582141413
21
265.0019526045
0
LINE
5
327
100
AcDbEntity
8
0
100
AcDbLine
62
7
6
CONTINUOUS
10
296.3771299929
20
161.0019526045
11
294.3771299929
21
161.0019526045
0
LINE
5
328
100
AcDbEntity
8
0
100
AcDbLine
62
7
6
CONTINUOUS
10
292.3771299929
20
164.0019526045
11
298.3771299929
21
164.0019526045
0
LINE
5
329
100
AcDbEntity
8
0
100
AcDbLine
62
7
6
CONTINUOUS
10
283.3771299929
20
169.1981050272
11
292.3771299929
21
164.0019526045
0
LINE
5
32A
100
AcDbEntity
8
DEFAULT_1
100
AcDbLine
62
2
6
CENTER
10
295.3771299929
20
177.0019526045
11
284.3771299929
21
177.0019526045
0
LINE
5
32B
100
AcDbEntity
8
DEFAULT_1
100
AcDbLine
62
2
6
CENTER
10
295.3771299929
20
177.0019526045
11
306.3771299929
21
177.0019526045
0
LINE
5
32C
100
AcDbEntity
8
0
100
AcDbLine
62
7
6
CONTINUOUS
10
292.3771299929
20
190.0019526045
11
298.3771299929
21
190.0019526045
0
LINE
5
32D
100
AcDbEntity
8
0
100
AcDbLine
62
7
6
CONTINUOUS
10
273.3771299929
20
239.1263082575
11
273.3771299929
21
265.0019526045
0
LINE
5
32E
100
AcDbEntity
8
0
100
AcDbLine
62
7
6
CONTINUOUS
10
278.3771299929
20
191.0019526045
11
282.4156485961
21
191.0019526045
0
LINE
5
32F
100
AcDbEntity
8
0
100
AcDbLine
62
7
6
CONTINUOUS
10
308.3386113897
20
191.0019526045
11
312.3771299929
21
191.0019526045
0
LINE
5
330
100
AcDbEntity
8
0
100
AcDbLine
62
7
6
CONTINUOUS
10
307.3771299929
20
184.5171250472
11
298.3771299929
21
189.7132774699
0
LINE
5
331
100
AcDbEntity
8
0
100
AcDbLine
62
7
6
CONTINUOUS
10
278.3771299929
20
177.0019526045
11
278.3771299929
21
191.0019526045
0
LINE
5
332
100
AcDbEntity
8
0
100
AcDbLine
62
7
6
CONTINUOUS
10
283.3771299929
20
184.5171250472
11
283.3771299929
21
169.1981050272
0
LINE
5
333
100
AcDbEntity
8
0
100
AcDbLine
62
7
6
CONTINUOUS
10
301.4752854517
20
199.5019526045
11
302.1271299929
21
199.5019526045
0
LINE
5
334
100
AcDbEntity
8
0
100
AcDbLine
62
7
6
CONTINUOUS
10
301.4752854517
20
202.3189649348
11
302.1271299929
21
202.3189649348
0
LINE
5
335
100
AcDbEntity
8
0
100
AcDbLine
62
7
6
CONTINUOUS
10
301.8771299929
20
202.7113877392
11
302.1271299929
21
202.7113877392
0
LINE
5
336
100
AcDbEntity
8
0
100
AcDbLine
62
7
6
CONTINUOUS
10
301.4752854517
20
202.8823674815
11
302.1271299929
21
202.8823674815
0
LINE
5
337
100
AcDbEntity
8
0
100
AcDbLine
62
7
6
CONTINUOUS
10
301.4752854517
20
205.6993800133
11
302.1271299929
21
205.6993800133
0
LINE
5
338
100
AcDbEntity
8
0
100
AcDbLine
62
7
6
CONTINUOUS
10
288.8771299929
20
223.2491758548
11
288.8771299929
21
199.0019526045
0
LINE
5
339
100
AcDbEntity
8
0
100
AcDbLine
62
7
6
CONTINUOUS
10
289.7771299929
20
265.0019526045
11
289.7771299929
21
239.6019526045
0
LINE
5
33A
100
AcDbEntity
8
0
100
AcDbLine
62
7
6
CONTINUOUS
10
301.5221366847
20
223.0442203727
11
311.3771299929
21
228.7340034121
0
LINE
5
33B
100
AcDbEntity
8
0
100
AcDbLine
62
7
6
CONTINUOUS
10
301.8642132181
20
206.2627823585
11
302.1271299929
21
206.2627823585
0
LINE
5
33C
100
AcDbEntity
8
0
100
AcDbLine
62
7
6
CONTINUOUS
10
301.8771299929
20
207.4528991642
11
302.1271299929
21
207.4528991642
0
LINE
5
33D
100
AcDbEntity
8
0
100
AcDbLine
62
7
6
CONTINUOUS
10
292.3771299929
20
190.0019526045
11
292.3771299929
21
164.0019526045
0
LINE
5
33E
100
AcDbEntity
8
DEFAULT_1
100
AcDbLine
62
2
6
CENTER
10
295.3771299929
20
252.0019526045
11
295.3771299929
21
191.1439119112
0
LINE
5
33F
100
AcDbEntity
8
DEFAULT_1
100
AcDbLine
62
2
6
CENTER
10
295.3771299929
20
177.0019526045
11
295.3771299929
21
166.0019526045
0
LINE
5
340
100
AcDbEntity
8
DEFAULT_1
100
AcDbLine
62
2
6
CENTER
10
295.3771299929
20
177.0019526045
11
295.3771299929
21
188.0019526045
0
LINE
5
341
100
AcDbEntity
8
DEFAULT_1
100
AcDbLine
62
2
6
CENTER
10
295.3771299929
20
252.0019526045
11
295.3771299929
21
267.5029761905
0
LINE
5
342
100
AcDbEntity
8
0
100
AcDbLine
62
7
6
CONTINUOUS
10
301.8771299929
20
210.8396931430
11
302.1271299929
21
210.8396931430
0
LINE
5
343
100
AcDbEntity
8
0
100
AcDbLine
62
7
6
CONTINUOUS
10
298.3771299929
20
190.0019526045
11
298.3771299929
21
164.0019526045
0
LINE
5
344
100
AcDbEntity
8
0
100
AcDbLine
62
7
6
CONTINUOUS
10
301.8771299929
20
213.7278657490
11
302.1271299929
21
213.7278657490
0
LINE
5
345
100
AcDbEntity
8
0
100
AcDbLine
62
7
6
CONTINUOUS
10
300.9771299929
20
239.6019526045
11
300.9771299929
21
265.0019526045
0
LINE
5
346
100
AcDbEntity
8
0
100
AcDbLine
62
7
6
CONTINUOUS
10
301.4752854517
20
215.5019526045
11
301.4752854517
21
215.4180731875
0
LINE
5
347
100
AcDbEntity
8
0
100
AcDbLine
62
7
6
CONTINUOUS
10
301.4752854517
20
212.6010602528
11
301.4752854517
21
212.2489334344
0
LINE
5
348
100
AcDbEntity
8
0
100
AcDbLine
62
7
6
CONTINUOUS
10
301.4752854517
20
209.5727721941
11
301.4752854517
21
208.9389444047
0
LINE
5
349
100
AcDbEntity
8
0
100
AcDbLine
62
7
6
CONTINUOUS
10
301.4752854517
20
205.6993800133
11
301.4752854517
21
205.2768281537
0
LINE
5
34A
100
AcDbEntity
8
0
100
AcDbLine
62
7
6
CONTINUOUS
10
301.4752854517
20
203.3049193411
11
301.4752854517
21
202.8823674815
0
LINE
5
34B
100
AcDbEntity
8
0
100
AcDbLine
62
7
6
CONTINUOUS
10
301.4752854517
20
202.3189649348
11
301.4752854517
21
201.8964130752
0
LINE
5
34C
100
AcDbEntity
8
0
100
AcDbLine
62
7
6
CONTINUOUS
10
301.4752854517
20
199.9245044642
11
301.4752854517
21
199.5019526045
0
LINE
5
34D
100
AcDbEntity
8
0
100
AcDbLine
62
7
6
CONTINUOUS
10
301.8771299929
20
223.2491758548
11
301.8771299929
21
220.4278567919
0
LINE
5
34E
100
AcDbEntity
8
0
100
AcDbLine
62
7
6
CONTINUOUS
10
301.8771299929
20
217.6015509115
11
301.8771299929
21
217.0378547788
0
LINE
5
34F
100
AcDbEntity
8
0
100
AcDbLine
62
7
6
CONTINUOUS
10
301.8771299929
20
214.2912676912
11
301.8771299929
21
213.5165898192
0
LINE
5
350
100
AcDbEntity
8
0
100
AcDbLine
62
7
6
CONTINUOUS
10
301.8771299929
20
211.3334046739
11
301.8771299929
21
210.5587259959
0
LINE
5
351
100
AcDbEntity
8
0
100
AcDbLine
62
7
6
CONTINUOUS
10
301.8771299929
20
207.8121389084
11
301.8771299929
21
205.6993800133
0
LINE
5
352
100
AcDbEntity
8
0
100
AcDbLine
62
7
6
CONTINUOUS
10
301.8771299929
20
204.7682859590
11
301.8771299929
21
203.8134613279
0
LINE
5
353
100
AcDbEntity
8
0
100
AcDbLine
62
7
6
CONTINUOUS
10
301.8771299929
20
202.8823674815
11
301.8771299929
21
202.3189649348
0
LINE
5
354
100
AcDbEntity
8
0
100
AcDbLine
62
7
6
CONTINUOUS
10
301.8771299929
20
201.3878710364
11
301.8771299929
21
200.4330465029
0
LINE
5
355
100
AcDbEntity
8
0
100
AcDbLine
62
7
6
CONTINUOUS
10
301.8771299929
20
199.5019526045
11
301.8771299929
21
199.0019526045
0
LINE
5
356
100
AcDbEntity
8
0
100
AcDbLine
62
7
6
CONTINUOUS
10
302.1271299929
20
220.4182696557
11
302.1271299929
21
217.6012567210
0
LINE
5
357
100
AcDbEntity
8
0
100
AcDbLine
62
7
6
CONTINUOUS
10
302.1271299929
20
217.0378547788
11
302.1271299929
21
211.1221287441
0
LINE
5
358
100
AcDbEntity
8
0
100
AcDbLine
62
7
6
CONTINUOUS
10
302.1271299929
20
210.8396931430
11
302.1271299929
21
207.4528991642
0
LINE
5
359
100
AcDbEntity
8
0
100
AcDbLine
62
7
6
CONTINUOUS
10
302.1271299929
20
207.2487369662
11
302.1271299929
21
199.5019526045
0
LINE
5
35A
100
AcDbEntity
8
0
100
AcDbLine
62
7
6
CONTINUOUS
10
301.4141084368
20
217.6012567210
11
302.1271299929
21
217.6012567210
0
LINE
5
35B
100
AcDbEntity
8
0
100
AcDbLine
62
7
6
CONTINUOUS
10
301.0889216978
20
220.4182696557
11
302.1271299929
21
220.4182696557
0
LINE
5
35C
100
AcDbEntity
8
0
100
AcDbLine
62
7
6
CONTINUOUS
10
289.2321273318
20
223.0442180456
11
279.3771299929
21
228.7340034121
0
LINE
5
35D
100
AcDbEntity
8
0
100
AcDbLine
62
7
6
CONTINUOUS
10
307.3771299929
20
169.1981050272
11
307.3771299929
21
184.5171250472
0
LINE
5
35E
100
AcDbEntity
8
0
100
AcDbLine
62
7
6
CONTINUOUS
10
312.3771299929
20
191.0019526045
11
312.3771299929
21
177.0019526045
0
LINE
5
35F
100
AcDbEntity
8
0
100
AcDbLine
62
7
6
CONTINUOUS
10
292.3771299929
20
189.7132774699
11
283.3771299929
21
184.5171250472
0
LINE
5
360
100
AcDbEntity
8
0
100
AcDbLine
62
7
6
CONTINUOUS
10
317.3771299929
20
265.0019526045
11
317.3771299929
21
239.1263082575
0
LINE
5
361
100
AcDbEntity
8
0
100
AcDbLine
62
7
6
CONTINUOUS
10
289.7771299929
20
245.9519526045
11
300.9771299929
21
245.9519526045
0
LINE
5
362
100
AcDbEntity
8
DEFAULT_1
100
AcDbLine
62
2
6
CENTER
10
295.3771299929
20
252.0019526045
11
287.8840380898
21
252.0019526045
0
LINE
5
363
100
AcDbEntity
8
DEFAULT_1
100
AcDbLine
62
2
6
CENTER
10
295.3771299929
20
252.0019526045
11
302.3845867739
21
252.0019526045
0
LINE
5
364
100
AcDbEntity
8
0
100
AcDbLine
62
7
6
CONTINUOUS
10
298.3771299929
20
164.0019526045
11
307.3771299929
21
169.1981050272
0
LINE
5
365
100
AcDbEntity
8
0
100
AcDbLine
62
7
6
CONTINUOUS
10
289.7771299929
20
258.0519526045
11
300.9771299929
21
258.0519526045
0
LINE
5
366
100
AcDbEntity
8
0
100
AcDbLine
62
7
6
CONTINUOUS
10
317.3771299929
20
265.0019526045
11
300.9771299929
21
265.0019526045
0
LINE
5
367
100
AcDbEntity
8
0
100
AcDbLine
62
7
6
CONTINUOUS
10
289.7771299929
20
265.0019526045
11
273.3771299929
21
265.0019526045
0
LINE
5
368
100
AcDbEntity
8
0
100
AcDbLine
62
7
6
CONTINUOUS
10
71.4832141413
20
75.7410714286
11
71.4832141413
21
69.7410714286
0
LINE
5
369
100
AcDbEntity
8
0
100
AcDbLine
62
7
6
CONTINUOUS
10
84.4832141413
20
60.7410714286
11
84.4832141413
21
70.2410714286
0
LINE
5
36A
100
AcDbEntity
8
0
100
AcDbLine
62
7
6
CONTINUOUS
10
84.4832141413
20
75.2410714286
11
84.4832141413
21
84.7410714286
0
LINE
5
36B
100
AcDbEntity
8
0
100
AcDbLine
62
7
6
CONTINUOUS
10
88.4832141413
20
89.7410714286
11
88.4832141413
21
55.7410714286
0
LINE
5
36C
100
AcDbEntity
8
0
100
AcDbLine
62
7
6
CONTINUOUS
10
100.6082141413
20
50.7410714286
11
129.3582141413
21
50.7410714286
0
LINE
5
36D
100
AcDbEntity
8
0
100
AcDbLine
62
7
6
CONTINUOUS
10
92.7332141413
20
67.0292797237
11
92.7332141413
21
65.9910714286
0
LINE
5
36E
100
AcDbEntity
8
0
100
AcDbLine
62
7
6
CONTINUOUS
10
88.4832141413
20
55.7410714286
11
100.6082141413
21
55.7410714286
0
LINE
5
36F
100
AcDbEntity
8
0
100
AcDbLine
62
7
6
CONTINUOUS
10
129.3582141413
20
55.7410714286
11
137.9832141413
21
55.7410714286
0
LINE
5
370
100
AcDbEntity
8
0
100
AcDbLine
62
7
6
CONTINUOUS
10
88.4832141413
20
60.7410714286
11
84.4832141413
21
60.7410714286
0
LINE
5
371
100
AcDbEntity
8
0
100
AcDbLine
62
7
6
CONTINUOUS
10
137.9832141413
20
60.9910714286
11
150.4832141413
21
60.9910714286
0
LINE
5
372
100
AcDbEntity
8
0
100
AcDbLine
62
7
6
CONTINUOUS
10
100.6082141413
20
50.7410714286
11
100.6082141413
21
68.2037849052
0
LINE
5
373
100
AcDbEntity
8
0
100
AcDbLine
62
7
6
CONTINUOUS
10
100.6082141413
20
77.2783021212
11
100.6082141413
21
94.7410714286
0
LINE
5
374
100
AcDbEntity
8
0
100
AcDbLine
62
7
6
CONTINUOUS
10
135.0736396922
20
66.2417004597
11
134.9882457708
21
66.2410903952
0
LINE
5
375
100
AcDbEntity
8
0
100
AcDbLine
62
7
6
CONTINUOUS
10
137.7332141413
20
65.9910714286
11
133.2321151905
21
65.9910714286
0
LINE
5
376
100
AcDbEntity
8
0
100
AcDbLine
62
7
6
CONTINUOUS
10
96.7340493770
20
65.9910714286
11
92.7332141413
21
65.9910714286
0
LINE
5
377
100
AcDbEntity
8
0
100
AcDbLine
62
7
6
CONTINUOUS
10
134.9831087314
20
66.2410714286
11
133.7846145548
21
66.2410714286
0
LINE
5
378
100
AcDbEntity
8
0
100
AcDbLine
62
7
6
CONTINUOUS
10
96.1826365416
20
66.2410714286
11
96.0916084936
21
66.2410714286
0
LINE
5
379
100
AcDbEntity
8
0
100
AcDbLine
62
7
6
CONTINUOUS
10
100.6082141413
20
67.1410714286
11
129.3582141413
21
67.1410714286
0
LINE
5
37A
100
AcDbEntity
8
0
100
AcDbLine
62
7
6
CONTINUOUS
10
84.4832141413
20
69.7410714286
11
71.4837982605
21
69.7410714286
0
LINE
5
37B
100
AcDbEntity
8
0
100
AcDbLine
62
7
6
CONTINUOUS
10
108.9332141413
20
78.3410714286
11
108.9332141413
21
67.1410714286
0
LINE
5
37C
100
AcDbEntity
8
0
100
AcDbLine
62
7
6
CONTINUOUS
10
88.4832141413
20
70.2410714286
11
84.4832141413
21
70.2410714286
0
LINE
5
37D
100
AcDbEntity
8
DEFAULT_1
100
AcDbLine
62
2
6
CENTER
10
68.4626088882
20
72.7410714286
11
153.4832141413
21
72.7410714286
0
LINE
5
37E
100
AcDbEntity
8
0
100
AcDbLine
62
7
6
CONTINUOUS
10
88.4832141413
20
75.2410714286
11
84.4832141413
21
75.2410714286
0
LINE
5
37F
100
AcDbEntity
8
0
100
AcDbLine
62
7
6
CONTINUOUS
10
84.4832141413
20
75.7410714286
11
71.4837982605
21
75.7410714286
0
LINE
5
380
100
AcDbEntity
8
DEFAULT_1
100
AcDbLine
62
2
6
CENTER
10
114.9832141413
20
59.5533302897
11
114.9832141413
21
81.4322676506
0
LINE
5
381
100
AcDbEntity
8
0
100
AcDbLine
62
7
6
CONTINUOUS
10
100.6082141413
20
78.3410714286
11
129.3582141413
21
78.3410714286
0
LINE
5
382
100
AcDbEntity
8
0
100
AcDbLine
62
7
6
CONTINUOUS
10
134.9832141413
20
79.2410714286
11
133.7837748381
21
79.2410714286
0
LINE
5
383
100
AcDbEntity
8
0
100
AcDbLine
62
7
6
CONTINUOUS
10
96.1818380190
20
79.2410714286
11
94.9832141413
21
79.2410714286
0
LINE
5
384
100
AcDbEntity
8
0
100
AcDbLine
62
7
6
CONTINUOUS
10
121.0332141413
20
78.3410714286
11
121.0332141413
21
67.1410714286
0
LINE
5
385
100
AcDbEntity
8
0
100
AcDbLine
62
7
6
CONTINUOUS
10
150.4832141413
20
84.4910714286
11
137.9832141413
21
84.4910714286
0
LINE
5
386
100
AcDbEntity
8
0
100
AcDbLine
62
7
6
CONTINUOUS
10
88.4832141413
20
84.7410714286
11
84.4832141413
21
84.7410714286
0
LINE
5
387
100
AcDbEntity
8
0
100
AcDbLine
62
7
6
CONTINUOUS
10
129.3582141413
20
50.7410714286
11
129.3582141413
21
68.2035983309
0
LINE
5
388
100
AcDbEntity
8
0
100
AcDbLine
62
7
6
CONTINUOUS
10
129.3582141413
20
77.2784923107
11
129.3582141413
21
94.7410714286
0
LINE
5
389
100
AcDbEntity
8
0
100
AcDbLine
62
7
6
CONTINUOUS
10
88.4832141413
20
89.7410714286
11
100.6082141413
21
89.7410714286
0
LINE
5
38A
100
AcDbEntity
8
0
100
AcDbLine
62
7
6
CONTINUOUS
10
129.3582141413
20
89.7410714286
11
137.9832141413
21
89.7410714286
0
LINE
5
38B
100
AcDbEntity
8
0
100
AcDbLine
62
7
6
CONTINUOUS
10
133.5842778696
20
66.1565385982
11
133.5842778696
21
65.9910714286
0
LINE
5
38C
100
AcDbEntity
8
0
100
AcDbLine
62
7
6
CONTINUOUS
10
133.9034267678
20
66.2410714286
11
133.9034267678
21
65.9910714286
0
LINE
5
38D
100
AcDbEntity
8
0
100
AcDbLine
62
7
6
CONTINUOUS
10
134.3289589299
20
66.2410714286
11
134.3289589299
21
65.9910714286
0
LINE
5
38E
100
AcDbEntity
8
0
100
AcDbLine
62
7
6
CONTINUOUS
10
134.6481078281
20
66.2495730897
11
134.6481078281
21
65.9910714286
0
LINE
5
38F
100
AcDbEntity
8
0
100
AcDbLine
62
7
6
CONTINUOUS
10
135.0736396922
20
66.2417004597
11
135.0736396922
21
65.9910714286
0
LINE
5
390
100
AcDbEntity
8
0
100
AcDbLine
62
7
6
CONTINUOUS
10
135.3927885904
20
66.2539882034
11
135.3927885904
21
65.9910714286
0
LINE
5
391
100
AcDbEntity
8
0
100
AcDbLine
62
7
6
CONTINUOUS
10
135.4991715564
20
66.2615816380
11
135.4991715564
21
65.9910714286
0
LINE
5
392
100
AcDbEntity
8
0
100
AcDbLine
62
7
6
CONTINUOUS
10
100.6082141413
20
94.7410714286
11
129.3582141413
21
94.7410714286
0
LINE
5
393
100
AcDbEntity
8
0
100
AcDbLine
62
7
6
CONTINUOUS
10
137.7332141413
20
66.8514619339
11
137.7332141413
21
65.9910714286
0
LINE
5
394
100
AcDbEntity
8
0
100
AcDbLine
62
7
6
CONTINUOUS
10
137.9832141413
20
55.7410714286
11
137.9832141413
21
60.9910714286
0
LINE
5
395
100
AcDbEntity
8
0
100
AcDbLine
62
7
6
CONTINUOUS
10
137.9832141413
20
84.4910714286
11
137.9832141413
21
89.7410714286
0
LINE
5
396
100
AcDbEntity
8
0
100
AcDbLine
62
7
6
CONTINUOUS
10
150.4832141413
20
84.4910714286
11
150.4832141413
21
60.9910714286
0
ARC
5
397
100
AcDbEntity
8
0
100
AcDbCircle
62
7
6
CONTINUOUS
10
136.8582141413
20
237.2127588518
40
7.4999969906
100
AcDbArc
50
205.3475329694
51
238.3647259973
0
CIRCLE
5
398
100
AcDbEntity
8
0
100
AcDbCircle
62
7
6
CONTINUOUS
10
114.9832141413
20
252.0019526045
40
6.0500000000
0
ARC
5
399
100
AcDbEntity
8
0
100
AcDbCircle
62
7
6
CONTINUOUS
10
149.4832141413
20
199.0019526045
40
8.0000000000
100
AcDbArc
50
180.0000000000
51
270.0000000000
0
ARC
5
39A
100
AcDbEntity
8
0
100
AcDbCircle
62
7
6
CONTINUOUS
10
106.4832141413
20
215.5019526045
40
5.0000000000
100
AcDbArc
50
90.0000000000
51
180.0000000000
0
ARC
5
39B
100
AcDbEntity
8
0
100
AcDbCircle
62
7
6
CONTINUOUS
10
106.4832141413
20
215.5019526045
40
18.0000000000
100
AcDbArc
50
121.6352493549
51
180.0000000000
0
ARC
5
39C
100
AcDbEntity
8
0
100
AcDbCircle
62
7
6
CONTINUOUS
10
123.4832141413
20
215.5019526045
40
5.0000000000
100
AcDbArc
50
0.0000000000
51
90.0000000000
0
ARC
5
39D
100
AcDbEntity
8
0
100
AcDbCircle
62
7
6
CONTINUOUS
10
123.4832141413
20
215.5019526045
40
18.0000000000
100
AcDbArc
50
0.0000000000
51
58.3647506451
0
CIRCLE
5
39E
100
AcDbEntity
8
0
100
AcDbCircle
62
7
6
CONTINUOUS
10
94.9832141413
20
184.0019526045
40
2.5000000000
0
ARC
5
39F
100
AcDbEntity
8
0
100
AcDbCircle
62
7
6
CONTINUOUS
10
84.4832141413
20
177.0019526045
40
13.0000000000
100
AcDbArc
50
90.0000000000
51
270.0000000000
0
ARC
5
3A0
100
AcDbEntity
8
0
100
AcDbCircle
62
7
6
CONTINUOUS
10
113.6082141413
20
252.0019526045
40
13.0000000000
100
AcDbArc
50
90.0000000000
51
180.0000000000
0
ARC
5
3A1
100
AcDbEntity
8
0
100
AcDbCircle
62
7
6
CONTINUOUS
10
116.3582141413
20
252.0019526045
40
13.0000000000
100
AcDbArc
50
0.0000000000
51
90.0000000000
0
ARC
5
3A2
100
AcDbEntity
8
0
100
AcDbCircle
62
7
6
CONTINUOUS
10
309.8771299929
20
199.0019526045
40
8.0000000000
100
AcDbArc
50
180.0000000000
51
270.0000000000
0
ARC
5
3A3
100
AcDbEntity
8
0
100
AcDbCircle
62
7
6
CONTINUOUS
10
280.8771299929
20
199.0019526045
40
8.0000000000
100
AcDbArc
50
270.0000000000
51
360.0000000000
0
ARC
5
3A4
100
AcDbEntity
8
0
100
AcDbCircle
62
7
6
CONTINUOUS
10
296.3771299929
20
177.0019526045
40
16.0000000000
100
AcDbArc
50
270.0000000000
51
360.0000000000
0
ARC
5
3A5
100
AcDbEntity
8
0
100
AcDbCircle
62
7
6
CONTINUOUS
10
294.3771299929
20
177.0019526045
40
16.0000000000
100
AcDbArc
50
180.0000000000
51
270.0000000000
0
ARC
5
3A6
100
AcDbEntity
8
0
100
AcDbCircle
62
7
6
CONTINUOUS
10
295.3771299929
20
239.6019526045
40
5.6000000000
100
AcDbArc
50
180.0000000000
51
360.0000000000
0
CIRCLE
5
3A7
100
AcDbEntity
8
0
100
AcDbCircle
62
7
6
CONTINUOUS
10
313.0771299929
20
252.0019526045
40
2.5000000000
0
ARC
5
3A8
100
AcDbEntity
8
0
100
AcDbCircle
62
7
6
CONTINUOUS
10
305.3771299929
20
239.1263082575
40
12.0000000000
100
AcDbArc
50
300.0000000000
51
360.0000000000
0
ARC
5
3A9
100
AcDbEntity
8
0
100
AcDbCircle
62
7
6
CONTINUOUS
10
285.3771299929
20
239.1263082575
40
12.0000000000
100
AcDbArc
50
180.0000000000
51
240.0000000000
0
ARC
5
3AA
100
AcDbEntity
8
0
100
AcDbCircle
62
7
6
CONTINUOUS
10
94.9832141413
20
72.7410714286
40
6.5000000000
100
AcDbArc
50
90.0000000000
51
249.7477532578
0
ARC
5
3AB
100
AcDbEntity
8
0
100
AcDbCircle
62
7
6
CONTINUOUS
10
134.9832141413
20
72.7410714286
40
6.5000000000
100
AcDbArc
50
270.7170843654
51
90.0000000000
0
SPLINE
5
3AC
100
AcDbEntity
8
0
100
AcDbSpline
62
7
6
CONTINUOUS
70
0
71
3
72
10
73
6
74
4
42
0.0000001000
43
0.0000001000
44
0.0000000001
40
0.0000000000
40
0.0000000000
40
0.0000000000
40
0.0000000000
40
0.3175111492
40
0.6869123740
40
1.0000000000
40
1.0000000000
40
1.0000000000
40
1.0000000000
10
99.8861150473
20
234.0019618619
30
0.0000000000
10
99.6902646516
20
233.5886413409
30
0.0000000000
10
99.1846379579
20
232.7330590404
30
0.0000000000
10
98.2170347829
20
231.6554976098
30
0.0000000000
10
97.4256014718
20
231.0635805331
30
0.0000000000
10
97.0420486436
20
230.8272142019
30
0.0000000000
11
99.8861150473
21
234.0019618619
31
0.0000000000
11
99.1888553902
21
232.8223448258
31
0.0000000000
11
98.1241519593
21
231.6368576672
31
0.0000000000
11
97.0420486436
21
230.8272142019
31
0.0000000000
0
SPLINE
5
3AD
100
AcDbEntity
8
0
100
AcDbSpline
62
7
6
CONTINUOUS
70
0
71
3
72
15
73
11
74
9
42
0.0000001000
43
0.0000001000
44
0.0000000001
40
0.0000000000
40
0.0000000000
40
0.0000000000
40
0.0000000000
40
0.1937890284
40
0.3692914512
40
0.5294069580
40
0.6763023559
40
0.8070908387
40
0.9100435465
40
0.9761077940
40
1.0000000000
40
1.0000000000
40
1.0000000000
40
1.0000000000
10
100.6082141413
20
236.3212938779
30
0.0000000000
10
100.6082141343
20
236.1614665240
30
0.0000000000
10
100.5942933466
20
235.8566289817
30
0.0000000000
10
100.5304053554
20
235.4239534484
30
0.0000000000
10
100.4313071618
20
235.0377642378
30
0.0000000000
10
100.3047539646
20
234.6988707284
30
0.0000000000
10
100.1649643711
20
234.4171962381
30
0.0000000000
10
100.0354142133
20
234.2062696194
30
0.0000000000
10
99.9432738063
20
234.0764768858
30
0.0000000000
10
99.8982480912
20
234.0175047008
30
0.0000000000
10
99.8861471793
20
234.0019533939
30
0.0000000000
11
100.6082141413
21
236.3212938779
31
0.0000000000
11
100.5851653168
21
235.8423661182
31
0.0000000000
11
100.5207751328
21
235.4129301914
31
0.0000000000
11
100.4216036976
21
235.0293782754
31
0.0000000000
11
100.2940223558
21
234.6890505264
31
0.0000000000
11
100.1499948997
21
234.3992660176
31
0.0000000000
11
100.0166194403
21
234.1822438629
31
0.0000000000
11
99.9220202589
21
234.0489399165
31
0.0000000000
11
99.8861471793
21
234.0019533939
31
0.0000000000
0
SPLINE
5
3AE
100
AcDbEntity
8
0
100
AcDbSpline
62
7
6
CONTINUOUS
70
0
71
3
72
15
73
11
74
9
42
0.0000001000
43
0.0000001000
44
0.0000000001
40
0.0000000000
40
0.0000000000
40
0.0000000000
40
0.0000000000
40
0.0238001787
40
0.0896248063
40
0.1925399553
40
0.3235564701
40
0.4708403762
40
0.6313044743
40
0.8069571068
40
1.0000000000
40
1.0000000000
40
1.0000000000
40
1.0000000000
10
130.0802598974
20
234.0019526045
30
0.0000000000
10
130.0682099432
20
234.0174343263
30
0.0000000000
10
130.0233707284
20
234.0761553054
30
0.0000000000
10
129.9314617582
20
234.2056344386
30
0.0000000000
10
129.8018921315
20
234.4163450662
30
0.0000000000
10
129.6618891538
20
234.6982664333
30
0.0000000000
10
129.5351265014
20
235.0377296762
30
0.0000000000
10
129.4359140513
20
235.4244277130
30
0.0000000000
10
129.3721105542
20
235.8566758290
30
0.0000000000
10
129.3582141413
20
236.1608577652
30
0.0000000000
10
129.3582141413
20
236.3199852967
30
0.0000000000
11
130.0802598974
21
234.0019526045
31
0.0000000000
11
130.0445405675
21
234.0487307395
31
0.0000000000
11
129.9503250014
21
234.1814739925
31
0.0000000000
11
129.8169817048
21
234.3982482822
31
0.0000000000
11
129.6726957281
21
234.6883423311
31
0.0000000000
11
129.5448320718
21
235.0293844103
31
0.0000000000
11
129.4455170923
21
235.4135725629
31
0.0000000000
11
129.3811434689
21
235.8431536835
31
0.0000000000
11
129.3582141413
21
236.3199852967
31
0.0000000000
0
SPLINE
5
3AF
100
AcDbEntity
8
0
100
AcDbSpline
62
7
6
CONTINUOUS
70
0
71
3
72
13
73
9
74
7
42
0.0000001000
43
0.0000001000
44
0.0000000001
40
0.0000000000
40
0.0000000000
40
0.0000000000
40
0.0000000000
40
0.1741529037
40
0.3468804096
40
0.5171644531
40
0.6842607117
40
0.8461152720
40
1.0000000000
40
1.0000000000
40
1.0000000000
40
1.0000000000
10
106.4832141413
20
221.3727874799
30
0.0000000000
10
105.8772129933
20
221.6694860906
30
0.0000000000
10
104.6325894270
20
222.1864670834
30
0.0000000000
10
102.7038311158
20
222.7423781167
30
0.0000000000
10
100.7561080716
20
223.0955410046
30
0.0000000000
10
98.8262211334
20
223.2610673210
30
0.0000000000
10
96.9531373688
20
223.2513100593
30
0.0000000000
10
95.7334322232
20
223.1322650872
30
0.0000000000
10
95.1437606127
20
223.0442203727
30
0.0000000000
11
106.4832141413
21
221.3727874799
31
0.0000000000
11
104.6151083827
21
222.1522667851
31
0.0000000000
11
102.6869971078
21
222.7117272492
31
0.0000000000
11
100.7398596913
21
223.0667410948
31
0.0000000000
11
98.8047996142
21
223.2329473672
31
0.0000000000
11
96.9235743665
21
223.2215430212
31
0.0000000000
11
95.1437606127
21
223.0442203727
31
0.0000000000
0
SPLINE
5
3B0
100
AcDbEntity
8
0
100
AcDbSpline
62
7
6
CONTINUOUS
70
0
71
3
72
13
73
9
74
7
42
0.0000001000
43
0.0000001000
44
0.0000000001
40
0.0000000000
40
0.0000000000
40
0.0000000000
40
0.0000000000
40
0.1657399527
40
0.3321415816
40
0.4989582611
40
0.6660098017
40
0.8331134950
40
1.0000000000
40
1.0000000000
40
1.0000000000
40
1.0000000000
10
137.9832141413
20
191.3620211760
30
0.0000000000
10
138.2867161295
20
191.3386998955
30
0.0000000000
10
138.8946044995
20
191.2877353019
30
0.0000000000
10
139.8073431661
20
191.2061287367
30
0.0000000000
10
140.7227777924
20
191.1275691148
30
0.0000000000
10
141.6404733588
20
191.0606961111
30
0.0000000000
10
142.5595950077
20
191.0140664910
30
0.0000000000
10
143.1730344461
20
191.0019526045
30
0.0000000000
10
143.4795368753
20
191.0019526045
30
0.0000000000
11
137.9832141413
21
191.3620211760
31
0.0000000000
11
138.8933174091
21
191.2870005594
31
0.0000000000
11
139.8066331998
21
191.2067383635
31
0.0000000000
11
140.7225104481
21
191.1295687107
31
0.0000000000
11
141.6405942014
21
191.0640787571
31
0.0000000000
11
142.5601838443
21
191.0187947042
31
0.0000000000
11
143.4795368753
21
191.0019526045
31
0.0000000000
0
SPLINE
5
3B1
100
AcDbEntity
8
0
100
AcDbSpline
62
7
6
CONTINUOUS
70
0
71
3
72
13
73
9
74
7
42
0.0000001000
43
0.0000001000
44
0.0000000001
40
0.0000000000
40
0.0000000000
40
0.0000000000
40
0.0000000000
40
0.2092623825
40
0.4093633772
40
0.5883031743
40
0.7443773635
40
0.8803435546
40
1.0000000000
40
1.0000000000
40
1.0000000000
40
1.0000000000
10
95.1437606127
20
223.0442203727
30
0.0000000000
10
95.6342762227
20
223.1174462473
30
0.0000000000
10
96.5869390777
20
223.3149636142
30
0.0000000000
10
97.9085377568
20
223.7731953170
30
0.0000000000
10
99.0333874304
20
224.3727601958
30
0.0000000000
10
99.9020940532
20
225.0889739082
30
0.0000000000
10
100.4695061652
20
225.9034596895
30
0.0000000000
10
100.6081873842
20
226.5140122962
30
0.0000000000
10
100.6082141413
20
226.7975977004
30
0.0000000000
11
95.1437606127
21
223.0442203727
31
0.0000000000
11
96.5996241328
21
223.3510912601
31
0.0000000000
11
97.9408229664
21
223.8257565321
31
0.0000000000
11
99.0568315278
21
224.4366338975
31
0.0000000000
11
99.9002936020
21
225.1577267009
31
0.0000000000
11
100.4315459665
21
225.9653870925
31
0.0000000000
11
100.6082141413
21
226.7975977004
31
0.0000000000
0
SPLINE
5
3B2
100
AcDbEntity
8
0
100
AcDbSpline
62
7
6
CONTINUOUS
70
0
71
3
72
13
73
9
74
7
42
0.0000001000
43
0.0000001000
44
0.0000000001
40
0.0000000000
40
0.0000000000
40
0.0000000000
40
0.0000000000
40
0.2086773480
40
0.4060616945
40
0.5854843708
40
0.7429940974
40
0.8797464854
40
1.0000000000
40
1.0000000000
40
1.0000000000
40
1.0000000000
10
134.8226965278
20
223.0442160645
30
0.0000000000
10
134.3335645115
20
223.1172323997
30
0.0000000000
10
133.3885785021
20
223.3130099585
30
0.0000000000
10
132.0729361410
20
223.7673318560
30
0.0000000000
10
130.9480715341
20
224.3625810658
30
0.0000000000
10
130.0719151166
20
225.0800201873
30
0.0000000000
10
129.4986091351
20
225.8986551277
30
0.0000000000
10
129.3580989253
20
226.5124846686
30
0.0000000000
10
129.3582141413
20
226.7974777053
30
0.0000000000
11
134.8226965278
21
223.0442160645
31
0.0000000000
11
133.3708871285
21
223.3499661254
31
0.0000000000
11
132.0472424571
21
223.8162241538
31
0.0000000000
11
130.9263589515
21
224.4252641802
31
0.0000000000
11
130.0728591249
21
225.1502694131
31
0.0000000000
11
129.5366479027
21
225.9613253323
31
0.0000000000
11
129.3582141413
21
226.7974777053
31
0.0000000000
0
SPLINE
5
3B3
100
AcDbEntity
8
0
100
AcDbSpline
62
7
6
CONTINUOUS
70
0
71
3
72
13
73
9
74
7
42
0.0000001000
43
0.0000001000
44
0.0000000001
40
0.0000000000
40
0.0000000000
40
0.0000000000
40
0.0000000000
40
0.1538856109
40
0.3157412007
40
0.4828385664
40
0.6531233299
40
0.8258504851
40
1.0000000000
40
1.0000000000
40
1.0000000000
40
1.0000000000
10
134.8226965278
20
223.0442160645
30
0.0000000000
10
134.2330337494
20
223.1323531724
30
0.0000000000
10
133.0132980815
20
223.2512655563
30
0.0000000000
10
131.1402063586
20
223.2610802842
30
0.0000000000
10
129.2103011760
20
223.0955355542
30
0.0000000000
10
127.2625686855
20
222.7423726672
30
0.0000000000
10
125.3338175787
20
222.1864587603
30
0.0000000000
10
124.0892050173
20
221.6694810614
30
0.0000000000
10
123.4832141413
20
221.3727874799
30
0.0000000000
11
134.8226965278
21
223.0442160645
31
0.0000000000
11
133.0428683067
21
223.2215422659
31
0.0000000000
11
131.1616263766
21
223.2329472768
31
0.0000000000
11
129.2265487125
21
223.0667384551
31
0.0000000000
11
127.2793986470
21
222.7117196451
31
0.0000000000
11
125.3512874614
21
222.1522554254
31
0.0000000000
11
123.4832141413
21
221.3727874799
31
0.0000000000
0
SPLINE
5
3B4
100
AcDbEntity
8
0
100
AcDbSpline
62
7
6
CONTINUOUS
70
0
71
3
72
9
73
5
74
3
42
0.0000001000
43
0.0000001000
44
0.0000000001
40
0.0000000000
40
0.0000000000
40
0.0000000000
40
0.0000000000
40
0.4619123139
40
1.0000000000
40
1.0000000000
40
1.0000000000
40
1.0000000000
10
301.8539992986
20
214.2912676912
30
0.0000000000
10
301.8459030162
20
214.3039401596
30
0.0000000000
10
301.8251172960
20
214.3293088304
30
0.0000000000
10
301.8005879859
20
214.3508686653
30
0.0000000000
10
301.7868147923
20
214.3616935385
30
0.0000000000
11
301.8539992986
21
214.2912676912
31
0.0000000000
11
301.8259019125
21
214.3265636979
31
0.0000000000
11
301.7868147923
21
214.3616935385
31
0.0000000000
0
SPLINE
5
3B5
100
AcDbEntity
8
0
100
AcDbSpline
62
7
6
CONTINUOUS
70
0
71
3
72
9
73
5
74
3
42
0.0000001000
43
0.0000001000
44
0.0000000001
40
0.0000000000
40
0.0000000000
40
0.0000000000
40
0.0000000000
40
0.4899707710
40
1.0000000000
40
1.0000000000
40
1.0000000000
40
1.0000000000
10
301.7868147923
20
214.3616935385
30
0.0000000000
10
301.7745650950
20
214.3857620263
30
0.0000000000
10
301.7474922116
20
214.4338500949
30
0.0000000000
10
301.7168356083
20
214.4797212891
30
0.0000000000
10
301.7004213821
20
214.5025436210
30
0.0000000000
11
301.7868147923
21
214.3616935385
31
0.0000000000
11
301.7471749034
21
214.4323533143
31
0.0000000000
11
301.7004213821
21
214.5025436210
31
0.0000000000
0
SPLINE
5
3B6
100
AcDbEntity
8
0
100
AcDbSpline
62
7
6
CONTINUOUS
70
0
71
3
72
9
73
5
74
3
42
0.0000001000
43
0.0000001000
44
0.0000000001
40
0.0000000000
40
0.0000000000
40
0.0000000000
40
0.0000000000
40
0.4987619201
40
1.0000000000
40
1.0000000000
40
1.0000000000
40
1.0000000000
10
301.7004213821
20
214.5025436210
30
0.0000000000
10
301.6832623348
20
214.5502597557
30
0.0000000000
10
301.6465412053
20
214.6451102350
30
0.0000000000
10
301.6053980724
20
214.7381248174
30
0.0000000000
10
301.5837243910
20
214.7842453981
30
0.0000000000
11
301.7004213821
21
214.5025436210
31
0.0000000000
11
301.6455320998
21
214.6444186660
31
0.0000000000
11
301.5837243910
21
214.7842453981
31
0.0000000000
0
SPLINE
5
3B7
100
AcDbEntity
8
0
100
AcDbSpline
62
7
6
CONTINUOUS
70
0
71
3
72
9
73
5
74
3
42
0.0000001000
43
0.0000001000
44
0.0000000001
40
0.0000000000
40
0.0000000000
40
0.0000000000
40
0.0000000000
40
0.5015910626
40
1.0000000000
40
1.0000000000
40
1.0000000000
40
1.0000000000
10
301.5837243910
20
214.7842453981
30
0.0000000000
10
301.5726208327
20
214.8315008335
30
0.0000000000
10
301.5498459331
20
214.9255631120
30
0.0000000000
10
301.5257947169
20
215.0193071690
30
0.0000000000
10
301.5134893380
20
215.0659455632
30
0.0000000000
11
301.5837243910
21
214.7842453981
31
0.0000000000
11
301.5494523474
21
214.9257823675
31
0.0000000000
11
301.5134893380
21
215.0659455632
31
0.0000000000
0
SPLINE
5
3B8
100
AcDbEntity
8
0
100
AcDbSpline
62
7
6
CONTINUOUS
70
0
71
3
72
9
73
5
74
3
42
0.0000001000
43
0.0000001000
44
0.0000000001
40
0.0000000000
40
0.0000000000
40
0.0000000000
40
0.0000000000
40
0.5007761613
40
1.0000000000
40
1.0000000000
40
1.0000000000
40
1.0000000000
10
301.5134893380
20
215.0659455632
30
0.0000000000
10
301.5072839745
20
215.1247430562
30
0.0000000000
10
301.4947215608
20
215.2421378050
30
0.0000000000
10
301.4818151069
20
215.3594952307
30
0.0000000000
10
301.4752854517
20
215.4180731875
30
0.0000000000
11
301.5134893380
21
215.0659455632
31
0.0000000000
11
301.4946157826
21
215.2423106797
31
0.0000000000
11
301.4752854517
21
215.4180731875
31
0.0000000000
0
SPLINE
5
3B9
100
AcDbEntity
8
0
100
AcDbSpline
62
7
6
CONTINUOUS
70
0
71
3
72
17
73
13
74
11
42
0.0000001000
43
0.0000001000
44
0.0000000001
40
0.0000000000
40
0.0000000000
40
0.0000000000
40
0.0000000000
40
0.0879835720
40
0.1773782215
40
0.2668884988
40
0.3551094734
40
0.4421048735
40
0.5364946906
40
0.6454620843
40
0.7637017057
40
0.8845910596
40
1.0000000000
40
1.0000000000
40
1.0000000000
40
1.0000000000
10
295.3771299904
20
199.0017493210
30
0.0000000000
10
295.6857508332
20
198.6593652368
30
0.0000000000
10
296.3080940998
20
197.9692383389
30
0.0000000000
10
297.2585317120
20
196.9435698683
30
0.0000000000
10
298.2384247819
20
195.9439985171
30
0.0000000000
10
299.2501704569
20
194.9945906612
30
0.0000000000
10
300.3318722033
20
194.0849804676
30
0.0000000000
10
301.5626584603
20
193.1883958320
30
0.0000000000
10
303.0142262882
20
192.3264817508
30
0.0000000000
10
304.6911231061
20
191.5944445526
30
0.0000000000
10
306.4937185055
20
191.1147518987
30
0.0000000000
10
307.7339803482
20
191.0019526045
30
0.0000000000
10
308.3386113897
20
191.0019526045
30
0.0000000000
11
295.3771299904
21
199.0017493210
31
0.0000000000
11
296.3054393334
21
197.9768078906
31
0.0000000000
11
297.2629040710
21
196.9485307206
31
0.0000000000
11
298.2500771541
21
195.9461874359
31
0.0000000000
11
299.2633075474
21
194.9996353588
31
0.0000000000
11
300.3116670034
21
194.1218584189
31
0.0000000000
11
301.5128996750
21
193.2512770054
31
0.0000000000
11
302.9882468235
21
192.3814935147
31
0.0000000000
11
304.6939695046
21
191.6438633460
31
0.0000000000
11
306.5317480220
21
191.1614926876
31
0.0000000000
11
308.3386113897
21
191.0019526045
31
0.0000000000
0
SPLINE
5
3BA
100
AcDbEntity
8
0
100
AcDbSpline
62
7
6
CONTINUOUS
70
0
71
3
72
17
73
13
74
11
42
0.0000001000
43
0.0000001000
44
0.0000000001
40
0.0000000000
40
0.0000000000
40
0.0000000000
40
0.0000000000
40
0.1158929981
40
0.2372221208
40
0.3557749145
40
0.4648275055
40
0.5590929499
40
0.6458773602
40
0.7338439134
40
0.8231029767
40
0.9122521921
40
1.0000000000
40
1.0000000000
40
1.0000000000
40
1.0000000000
10
282.4156485961
20
191.0019526045
30
0.0000000000
10
283.0228138854
20
191.0019526045
30
0.0000000000
10
284.2679383866
20
191.1156728338
30
0.0000000000
10
286.0763923192
20
191.5988094117
30
0.0000000000
10
287.7563858737
20
192.3347858833
30
0.0000000000
10
289.2080588910
20
193.1993084993
30
0.0000000000
10
290.4368201602
20
194.0964147120
30
0.0000000000
10
291.5154636707
20
195.0048375678
30
0.0000000000
10
292.5240280439
20
195.9521320623
30
0.0000000000
10
293.5009338937
20
196.9491105256
30
0.0000000000
10
294.4486834916
20
197.9720313482
30
0.0000000000
10
295.0693370245
20
198.6602836838
30
0.0000000000
10
295.3771299904
20
199.0017493210
30
0.0000000000
11
282.4156485961
21
191.0019526045
31
0.0000000000
11
284.2300276767
21
191.1628120123
31
0.0000000000
11
286.0740277122
21
191.6486799318
31
0.0000000000
11
287.7833211299
21
192.3904365725
31
0.0000000000
11
289.2586945772
21
193.2627996194
31
0.0000000000
11
290.4574133550
21
194.1335099377
31
0.0000000000
11
291.5025605338
21
195.0099511175
31
0.0000000000
11
292.5124203699
21
195.9542474593
31
0.0000000000
11
293.4965793700
21
196.9540117680
31
0.0000000000
11
294.4513230906
21
197.9795462077
31
0.0000000000
11
295.3771299904
21
199.0017493210
31
0.0000000000
0
SPLINE
5
3BB
100
AcDbEntity
8
0
100
AcDbSpline
62
7
6
CONTINUOUS
70
0
71
3
72
9
73
5
74
3
42
0.0000001000
43
0.0000001000
44
0.0000000001
40
0.0000000000
40
0.0000000000
40
0.0000000000
40
0.0000000000
40
0.4667259205
40
1.0000000000
40
1.0000000000
40
1.0000000000
40
1.0000000000
10
301.7888544262
20
217.0378547788
30
0.0000000000
10
301.7732238454
20
217.0251246244
30
0.0000000000
10
301.7379427193
20
217.0000371410
30
0.0000000000
10
301.7005520547
20
216.9783257068
30
0.0000000000
10
301.6802597145
20
216.9674289315
30
0.0000000000
11
301.7888544262
21
217.0378547788
31
0.0000000000
11
301.7398310860
21
217.0024420821
31
0.0000000000
11
301.6802597145
21
216.9674289315
31
0.0000000000
0
SPLINE
5
3BC
100
AcDbEntity
8
0
100
AcDbSpline
62
7
6
CONTINUOUS
70
0
71
3
72
9
73
5
74
3
42
0.0000001000
43
0.0000001000
44
0.0000000001
40
0.0000000000
40
0.0000000000
40
0.0000000000
40
0.0000000000
40
0.5016292313
40
1.0000000000
40
1.0000000000
40
1.0000000000
40
1.0000000000
10
301.6802597145
20
216.9674289315
30
0.0000000000
10
301.6634951099
20
216.9195146825
30
0.0000000000
10
301.6279184872
20
216.8247381707
30
0.0000000000
10
301.5881308498
20
216.7316522113
30
0.0000000000
10
301.5672862756
20
216.6857287664
30
0.0000000000
11
301.6802597145
21
216.9674289315
31
0.0000000000
11
301.6267429365
21
216.8248547418
31
0.0000000000
11
301.5672862756
21
216.6857287664
31
0.0000000000
0
SPLINE
5
3BD
100
AcDbEntity
8
0
100
AcDbSpline
62
7
6
CONTINUOUS
70
0
71
3
72
9
73
5
74
3
42
0.0000001000
43
0.0000001000
44
0.0000000001
40
0.0000000000
40
0.0000000000
40
0.0000000000
40
0.0000000000
40
0.4758608122
40
1.0000000000
40
1.0000000000
40
1.0000000000
40
1.0000000000
10
301.7868147923
20
211.3334046739
30
0.0000000000
10
301.7741916430
20
211.3458058014
30
0.0000000000
10
301.7462744115
20
211.3704652763
30
0.0000000000
10
301.7164248989
20
211.3927040743
30
0.0000000000
10
301.7004213821
20
211.4038297152
30
0.0000000000
11
301.7868147923
21
211.3334046739
31
0.0000000000
11
301.7471846575
21
211.3687266104
31
0.0000000000
11
301.7004213821
21
211.4038297152
31
0.0000000000
0
SPLINE
5
3BE
100
AcDbEntity
8
0
100
AcDbSpline
62
7
6
CONTINUOUS
70
0
71
3
72
9
73
5
74
3
42
0.0000001000
43
0.0000001000
44
0.0000000001
40
0.0000000000
40
0.0000000000
40
0.0000000000
40
0.0000000000
40
0.4978859976
40
1.0000000000
40
1.0000000000
40
1.0000000000
40
1.0000000000
10
301.7004213821
20
211.4038297152
30
0.0000000000
10
301.6832924693
20
211.4514620514
30
0.0000000000
10
301.6465754416
20
211.5463139072
30
0.0000000000
10
301.6054359477
20
211.6393303147
30
0.0000000000
10
301.5837243910
20
211.6855314922
30
0.0000000000
11
301.7004213821
21
211.4038297152
31
0.0000000000
11
301.6456343942
21
211.5454578830
31
0.0000000000
11
301.5837243910
21
211.6855314922
31
0.0000000000
0
SPLINE
5
3BF
100
AcDbEntity
8
0
100
AcDbSpline
62
7
6
CONTINUOUS
70
0
71
3
72
9
73
5
74
3
42
0.0000001000
43
0.0000001000
44
0.0000000001
40
0.0000000000
40
0.0000000000
40
0.0000000000
40
0.0000000000
40
0.5008532709
40
1.0000000000
40
1.0000000000
40
1.0000000000
40
1.0000000000
10
301.5672862756
20
216.6857287664
30
0.0000000000
10
301.5572416147
20
216.6385453469
30
0.0000000000
10
301.5365133662
20
216.5444812268
30
0.0000000000
10
301.5143973544
20
216.4507333499
30
0.0000000000
10
301.5030019781
20
216.4040269893
30
0.0000000000
11
301.5672862756
21
216.6857287664
31
0.0000000000
11
301.5361298666
21
216.5444000333
31
0.0000000000
11
301.5030019781
21
216.4040269893
31
0.0000000000
0
SPLINE
5
3C0
100
AcDbEntity
8
0
100
AcDbSpline
62
7
6
CONTINUOUS
70
0
71
3
72
9
73
5
74
3
42
0.0000001000
43
0.0000001000
44
0.0000000001
40
0.0000000000
40
0.0000000000
40
0.0000000000
40
0.0000000000
40
0.5016417486
40
1.0000000000
40
1.0000000000
40
1.0000000000
40
1.0000000000
10
301.5837243910
20
211.6855314922
30
0.0000000000
10
301.5726197109
20
211.7327918372
30
0.0000000000
10
301.5498447469
20
211.8268543693
30
0.0000000000
10
301.5257934658
20
211.9205986777
30
0.0000000000
10
301.5134893380
20
211.9672324633
30
0.0000000000
11
301.5837243910
21
211.6855314922
31
0.0000000000
11
301.5494487873
21
211.8270831441
31
0.0000000000
11
301.5134893380
21
211.9672324633
31
0.0000000000
0
SPLINE
5
3C1
100
AcDbEntity
8
0
100
AcDbSpline
62
7
6
CONTINUOUS
70
0
71
3
72
9
73
5
74
3
42
0.0000001000
43
0.0000001000
44
0.0000000001
40
0.0000000000
40
0.0000000000
40
0.0000000000
40
0.0000000000
40
0.5008591468
40
1.0000000000
40
1.0000000000
40
1.0000000000
40
1.0000000000
10
301.5134893380
20
211.9672324633
30
0.0000000000
10
301.5072818696
20
212.0142862249
30
0.0000000000
10
301.4947182677
20
212.1082099789
30
0.0000000000
10
301.4818128601
20
212.2020873811
30
0.0000000000
10
301.4752854517
20
212.2489334344
30
0.0000000000
11
301.5134893380
21
211.9672324633
31
0.0000000000
11
301.4946109344
21
212.1083597397
31
0.0000000000
11
301.4752854517
21
212.2489334344
31
0.0000000000
0
SPLINE
5
3C2
100
AcDbEntity
8
0
100
AcDbSpline
62
7
6
CONTINUOUS
70
0
71
3
72
9
73
5
74
3
42
0.0000001000
43
0.0000001000
44
0.0000000001
40
0.0000000000
40
0.0000000000
40
0.0000000000
40
0.0000000000
40
0.5007894521
40
1.0000000000
40
1.0000000000
40
1.0000000000
40
1.0000000000
10
301.5134893380
20
212.9531870711
30
0.0000000000
10
301.5072838098
20
212.8943881521
30
0.0000000000
10
301.4947213916
20
212.7769936724
30
0.0000000000
10
301.4818149330
20
212.6596365159
30
0.0000000000
10
301.4752854517
20
212.6010602528
30
0.0000000000
11
301.5134893380
21
212.9531870711
31
0.0000000000
11
301.4946152748
21
212.7768176781
31
0.0000000000
11
301.4752854517
21
212.6010602528
31
0.0000000000
0
SPLINE
5
3C3
100
AcDbEntity
8
0
100
AcDbSpline
62
7
6
CONTINUOUS
70
0
71
3
72
9
73
5
74
3
42
0.0000001000
43
0.0000001000
44
0.0000000001
40
0.0000000000
40
0.0000000000
40
0.0000000000
40
0.0000000000
40
0.5013877738
40
1.0000000000
40
1.0000000000
40
1.0000000000
40
1.0000000000
10
301.5030019781
20
216.4040269893
30
0.0000000000
10
301.4980822522
20
216.3451419980
30
0.0000000000
10
301.4878882054
20
216.2277295481
30
0.0000000000
10
301.4769013496
20
216.1103885348
30
0.0000000000
10
301.4712179650
20
216.0519009770
30
0.0000000000
11
301.5030019781
21
216.4040269893
31
0.0000000000
11
301.4876606073
21
216.2274216227
31
0.0000000000
11
301.4712179650
21
216.0519009770
31
0.0000000000
0
SPLINE
5
3C4
100
AcDbEntity
8
0
100
AcDbSpline
62
7
6
CONTINUOUS
70
0
71
3
72
9
73
5
74
3
42
0.0000001000
43
0.0000001000
44
0.0000000001
40
0.0000000000
40
0.0000000000
40
0.0000000000
40
0.0000000000
40
0.4998094553
40
1.0000000000
40
1.0000000000
40
1.0000000000
40
1.0000000000
10
301.4712179650
20
216.0519009770
30
0.0000000000
10
301.4725763879
20
215.9602847805
30
0.0000000000
10
301.4746092295
20
215.7769717535
30
0.0000000000
10
301.4752854517
20
215.5936487336
30
0.0000000000
10
301.4752854517
20
215.5019526045
30
0.0000000000
11
301.4712179650
21
216.0519009770
31
0.0000000000
11
301.4742695584
21
215.7770391158
31
0.0000000000
11
301.4752854517
21
215.5019526045
31
0.0000000000
0
SPLINE
5
3C5
100
AcDbEntity
8
0
100
AcDbSpline
62
7
6
CONTINUOUS
70
0
71
3
72
10
73
6
74
4
42
0.0000001000
43
0.0000001000
44
0.0000000001
40
0.0000000000
40
0.0000000000
40
0.0000000000
40
0.0000000000
40
0.0521561675
40
0.8992500302
40
1.0000000000
40
1.0000000000
40
1.0000000000
40
1.0000000000
10
301.8769619463
20
200.4330437592
30
0.0000000000
10
301.8770331343
20
200.4274987197
30
0.0000000000
10
301.8756257092
20
200.3319734817
30
0.0000000000
10
301.8214918335
20
200.2287161588
30
0.0000000000
10
301.7549733860
20
200.1490010094
30
0.0000000000
10
301.7477435466
20
200.1407199960
30
0.0000000000
11
301.8769619463
21
200.4330437592
31
0.0000000000
11
301.8767108515
21
200.4164268485
31
0.0000000000
11
301.7689425640
21
200.1661526106
31
0.0000000000
11
301.7477435466
21
200.1407199960
31
0.0000000000
0
SPLINE
5
3C6
100
AcDbEntity
8
0
100
AcDbSpline
62
7
6
CONTINUOUS
70
0
71
3
72
8
73
4
74
2
42
0.0000001000
43
0.0000001000
44
0.0000000001
40
0.0000000000
40
0.0000000000
40
0.0000000000
40
0.0000000000
40
1.0000000000
40
1.0000000000
40
1.0000000000
40
1.0000000000
10
301.7477435466
20
200.1407199960
30
0.0000000000
10
301.6701354275
20
200.0518281359
30
0.0000000000
10
301.5741672041
20
199.9850849724
30
0.0000000000
10
301.4752854517
20
199.9245044642
30
0.0000000000
11
301.7477435466
21
200.1407199960
31
0.0000000000
11
301.4752854517
21
199.9245044642
31
0.0000000000
0
SPLINE
5
3C7
100
AcDbEntity
8
0
100
AcDbSpline
62
7
6
CONTINUOUS
70
0
71
3
72
10
73
6
74
4
42
0.0000001000
43
0.0000001000
44
0.0000000001
40
0.0000000000
40
0.0000000000
40
0.0000000000
40
0.0000000000
40
0.0521561624
40
0.8992499425
40
1.0000000000
40
1.0000000000
40
1.0000000000
40
1.0000000000
10
301.8769619463
20
201.3878737802
30
0.0000000000
10
301.8770331343
20
201.3934188197
30
0.0000000000
10
301.8756257092
20
201.4889440576
30
0.0000000000
10
301.8214918282
20
201.5922013906
30
0.0000000000
10
301.7549733723
20
201.6719165464
30
0.0000000000
10
301.7477435256
20
201.6801975674
30
0.0000000000
11
301.8769619463
21
201.3878737802
31
0.0000000000
11
301.8767108515
21
201.4044906908
31
0.0000000000
11
301.7689425640
21
201.6547649288
31
0.0000000000
11
301.7477435256
21
201.6801975674
31
0.0000000000
0
SPLINE
5
3C8
100
AcDbEntity
8
0
100
AcDbSpline
62
7
6
CONTINUOUS
70
0
71
3
72
8
73
4
74
2
42
0.0000001000
43
0.0000001000
44
0.0000000001
40
0.0000000000
40
0.0000000000
40
0.0000000000
40
0.0000000000
40
1.0000000000
40
1.0000000000
40
1.0000000000
40
1.0000000000
10
301.7477435256
20
201.6801975674
30
0.0000000000
10
301.6701354102
20
201.7690894155
30
0.0000000000
10
301.5741671952
20
201.8358325724
30
0.0000000000
10
301.4752854517
20
201.8964130752
30
0.0000000000
11
301.7477435256
21
201.6801975674
31
0.0000000000
11
301.4752854517
21
201.8964130752
31
0.0000000000
0
SPLINE
5
3C9
100
AcDbEntity
8
0
100
AcDbSpline
62
7
6
CONTINUOUS
70
0
71
3
72
9
73
5
74
3
42
0.0000001000
43
0.0000001000
44
0.0000000001
40
0.0000000000
40
0.0000000000
40
0.0000000000
40
0.0000000000
40
0.5001975617
40
1.0000000000
40
1.0000000000
40
1.0000000000
40
1.0000000000
10
301.6158250505
20
213.2348880422
30
0.0000000000
10
301.6001069265
20
213.1874471136
30
0.0000000000
10
301.5673230728
20
213.0930479945
30
0.0000000000
10
301.5318661721
20
212.9996203416
30
0.0000000000
10
301.5134893380
20
212.9531870711
30
0.0000000000
11
301.6158250505
21
213.2348880422
31
0.0000000000
11
301.5666413292
21
213.0932537537
31
0.0000000000
11
301.5134893380
21
212.9531870711
31
0.0000000000
0
SPLINE
5
3CA
100
AcDbEntity
8
0
100
AcDbSpline
62
7
6
CONTINUOUS
70
0
71
3
72
9
73
5
74
3
42
0.0000001000
43
0.0000001000
44
0.0000000001
40
0.0000000000
40
0.0000000000
40
0.0000000000
40
0.0000000000
40
0.4949407216
40
1.0000000000
40
1.0000000000
40
1.0000000000
40
1.0000000000
10
301.7248049458
20
213.4461639720
30
0.0000000000
10
301.7088864665
20
213.4103018270
30
0.0000000000
10
301.6745345127
20
213.3387992244
30
0.0000000000
10
301.6361452953
20
213.2693868707
30
0.0000000000
10
301.6158250505
20
213.2348880422
30
0.0000000000
11
301.7248049458
21
213.4461639720
31
0.0000000000
11
301.6738931113
21
213.3400347681
31
0.0000000000
11
301.6158250505
21
213.2348880422
31
0.0000000000
0
SPLINE
5
3CB
100
AcDbEntity
8
0
100
AcDbSpline
62
7
6
CONTINUOUS
70
0
71
3
72
9
73
5
74
3
42
0.0000001000
43
0.0000001000
44
0.0000000001
40
0.0000000000
40
0.0000000000
40
0.0000000000
40
0.0000000000
40
0.4865724963
40
1.0000000000
40
1.0000000000
40
1.0000000000
40
1.0000000000
10
301.7868147923
20
213.5165898192
30
0.0000000000
10
301.7775746519
20
213.5044861866
30
0.0000000000
10
301.7576413564
20
213.4803217355
30
0.0000000000
10
301.7361594596
20
213.4575330179
30
0.0000000000
10
301.7248049458
20
213.4461639720
30
0.0000000000
11
301.7868147923
21
213.5165898192
31
0.0000000000
11
301.7578100295
21
213.4812963808
31
0.0000000000
11
301.7248049458
21
213.4461639720
31
0.0000000000
0
SPLINE
5
3CC
100
AcDbEntity
8
0
100
AcDbSpline
62
7
6
CONTINUOUS
70
0
71
3
72
9
73
5
74
3
42
0.0000001000
43
0.0000001000
44
0.0000000001
40
0.0000000000
40
0.0000000000
40
0.0000000000
40
0.0000000000
40
0.4619123139
40
1.0000000000
40
1.0000000000
40
1.0000000000
40
1.0000000000
10
301.8539992986
20
207.8121389084
30
0.0000000000
10
301.8459030162
20
207.8248113768
30
0.0000000000
10
301.8251172960
20
207.8501800476
30
0.0000000000
10
301.8005879859
20
207.8717398825
30
0.0000000000
10
301.7868147923
20
207.8825647556
30
0.0000000000
11
301.8539992986
21
207.8121389084
31
0.0000000000
11
301.8259019125
21
207.8474349150
31
0.0000000000
11
301.7868147923
21
207.8825647556
31
0.0000000000
0
SPLINE
5
3CD
100
AcDbEntity
8
0
100
AcDbSpline
62
7
6
CONTINUOUS
70
0
71
3
72
9
73
5
74
3
42
0.0000001000
43
0.0000001000
44
0.0000000001
40
0.0000000000
40
0.0000000000
40
0.0000000000
40
0.0000000000
40
0.4899707710
40
1.0000000000
40
1.0000000000
40
1.0000000000
40
1.0000000000
10
301.7868147923
20
207.8825647556
30
0.0000000000
10
301.7745650950
20
207.9066332435
30
0.0000000000
10
301.7474922116
20
207.9547213121
30
0.0000000000
10
301.7168356083
20
208.0005925063
30
0.0000000000
10
301.7004213821
20
208.0234148382
30
0.0000000000
11
301.7868147923
21
207.8825647556
31
0.0000000000
11
301.7471749034
21
207.9532245315
31
0.0000000000
11
301.7004213821
21
208.0234148382
31
0.0000000000
0
SPLINE
5
3CE
100
AcDbEntity
8
0
100
AcDbSpline
62
7
6
CONTINUOUS
70
0
71
3
72
9
73
5
74
3
42
0.0000001000
43
0.0000001000
44
0.0000000001
40
0.0000000000
40
0.0000000000
40
0.0000000000
40
0.0000000000
40
0.4978859976
40
1.0000000000
40
1.0000000000
40
1.0000000000
40
1.0000000000
10
301.7004213821
20
208.0234148382
30
0.0000000000
10
301.6832924693
20
208.0710471744
30
0.0000000000
10
301.6465754416
20
208.1658990302
30
0.0000000000
10
301.6054359477
20
208.2589154377
30
0.0000000000
10
301.5837243910
20
208.3051166153
30
0.0000000000
11
301.7004213821
21
208.0234148382
31
0.0000000000
11
301.6456343942
21
208.1650430060
31
0.0000000000
11
301.5837243910
21
208.3051166153
31
0.0000000000
0
SPLINE
5
3CF
100
AcDbEntity
8
0
100
AcDbSpline
62
7
6
CONTINUOUS
70
0
71
3
72
9
73
5
74
3
42
0.0000001000
43
0.0000001000
44
0.0000000001
40
0.0000000000
40
0.0000000000
40
0.0000000000
40
0.0000000000
40
0.5016417486
40
1.0000000000
40
1.0000000000
40
1.0000000000
40
1.0000000000
10
301.5837243910
20
208.3051166153
30
0.0000000000
10
301.5726197109
20
208.3523769603
30
0.0000000000
10
301.5498447469
20
208.4464394923
30
0.0000000000
10
301.5257934658
20
208.5401838008
30
0.0000000000
10
301.5134893380
20
208.5868175864
30
0.0000000000
11
301.5837243910
21
208.3051166153
31
0.0000000000
11
301.5494487873
21
208.4466682672
31
0.0000000000
11
301.5134893380
21
208.5868175864
31
0.0000000000
0
SPLINE
5
3D0
100
AcDbEntity
8
0
100
AcDbSpline
62
7
6
CONTINUOUS
70
0
71
3
72
9
73
5
74
3
42
0.0000001000
43
0.0000001000
44
0.0000000001
40
0.0000000000
40
0.0000000000
40
0.0000000000
40
0.0000000000
40
0.5007894521
40
1.0000000000
40
1.0000000000
40
1.0000000000
40
1.0000000000
10
301.5134893380
20
208.5868175864
30
0.0000000000
10
301.5072838098
20
208.6456165053
30
0.0000000000
10
301.4947213916
20
208.7630109850
30
0.0000000000
10
301.4818149330
20
208.8803681415
30
0.0000000000
10
301.4752854517
20
208.9389444047
30
0.0000000000
11
301.5134893380
21
208.5868175864
31
0.0000000000
11
301.4946152748
21
208.7631869794
31
0.0000000000
11
301.4752854517
21
208.9389444047
31
0.0000000000
0
SPLINE
5
3D1
100
AcDbEntity
8
0
100
AcDbSpline
62
7
6
CONTINUOUS
70
0
71
3
72
9
73
5
74
3
42
0.0000001000
43
0.0000001000
44
0.0000000001
40
0.0000000000
40
0.0000000000
40
0.0000000000
40
0.0000000000
40
0.5007894527
40
1.0000000000
40
1.0000000000
40
1.0000000000
40
1.0000000000
10
301.5134893380
20
209.9248982065
30
0.0000000000
10
301.5072838098
20
209.8660994220
30
0.0000000000
10
301.4947213915
20
209.7487052109
30
0.0000000000
10
301.4818149330
20
209.6313483231
30
0.0000000000
10
301.4752854517
20
209.5727721941
30
0.0000000000
11
301.5134893380
21
209.9248982065
31
0.0000000000
11
301.4946152748
21
209.7485292168
31
0.0000000000
11
301.4752854517
21
209.5727721941
31
0.0000000000
0
SPLINE
5
3D2
100
AcDbEntity
8
0
100
AcDbSpline
62
7
6
CONTINUOUS
70
0
71
3
72
9
73
5
74
3
42
0.0000001000
43
0.0000001000
44
0.0000000001
40
0.0000000000
40
0.0000000000
40
0.0000000000
40
0.0000000000
40
0.5016417572
40
1.0000000000
40
1.0000000000
40
1.0000000000
40
1.0000000000
10
301.5837243910
20
210.2065999836
30
0.0000000000
10
301.5726197109
20
210.1593395034
30
0.0000000000
10
301.5498447472
20
210.0652767031
30
0.0000000000
10
301.5257934658
20
209.9715321256
30
0.0000000000
10
301.5134893380
20
209.9248982065
30
0.0000000000
11
301.5837243910
21
210.2065999836
31
0.0000000000
11
301.5494487870
21
210.0650479255
31
0.0000000000
11
301.5134893380
21
209.9248982065
31
0.0000000000
0
SPLINE
5
3D3
100
AcDbEntity
8
0
100
AcDbSpline
62
7
6
CONTINUOUS
70
0
71
3
72
9
73
5
74
3
42
0.0000001000
43
0.0000001000
44
0.0000000001
40
0.0000000000
40
0.0000000000
40
0.0000000000
40
0.0000000000
40
0.4978859707
40
1.0000000000
40
1.0000000000
40
1.0000000000
40
1.0000000000
10
301.7004213821
20
210.4883009547
30
0.0000000000
10
301.6832924686
20
210.4406687529
30
0.0000000000
10
301.6465754390
20
210.3458171639
30
0.0000000000
10
301.6054359468
20
210.2528010269
30
0.0000000000
10
301.5837243910
20
210.2065999836
30
0.0000000000
11
301.7004213821
21
210.4883009547
31
0.0000000000
11
301.6456343945
21
210.3466731929
31
0.0000000000
11
301.5837243910
21
210.2065999836
31
0.0000000000
0
SPLINE
5
3D4
100
AcDbEntity
8
0
100
AcDbSpline
62
7
6
CONTINUOUS
70
0
71
3
72
9
73
5
74
3
42
0.0000001000
43
0.0000001000
44
0.0000000001
40
0.0000000000
40
0.0000000000
40
0.0000000000
40
0.0000000000
40
0.4639074643
40
1.0000000000
40
1.0000000000
40
1.0000000000
40
1.0000000000
10
301.8038308915
20
210.5587259959
30
0.0000000000
10
301.7892450051
20
210.5459759277
30
0.0000000000
10
301.7557747167
20
210.5208032217
30
0.0000000000
10
301.7199865243
20
210.4991822941
30
0.0000000000
10
301.7004213821
20
210.4883009547
30
0.0000000000
11
301.8038308915
21
210.5587259959
31
0.0000000000
11
301.7576919354
21
210.5233846940
31
0.0000000000
11
301.7004213821
21
210.4883009547
31
0.0000000000
0
SPLINE
5
3D5
100
AcDbEntity
8
0
100
AcDbSpline
62
7
6
CONTINUOUS
70
0
71
3
72
10
73
6
74
4
42
0.0000001000
43
0.0000001000
44
0.0000000001
40
0.0000000000
40
0.0000000000
40
0.0000000000
40
0.0000000000
40
0.0521561759
40
0.8992501843
40
1.0000000000
40
1.0000000000
40
1.0000000000
40
1.0000000000
10
301.8769619463
20
203.8134585842
30
0.0000000000
10
301.8770331342
20
203.8079135453
30
0.0000000000
10
301.8756257094
20
203.7123883163
30
0.0000000000
10
301.8214918415
20
203.6091310213
30
0.0000000000
10
301.7549734104
20
203.5294158926
30
0.0000000000
10
301.7477435840
20
203.5211348936
30
0.0000000000
11
301.8769619463
21
203.8134585842
31
0.0000000000
11
301.8767108515
21
203.7968416752
31
0.0000000000
11
301.7689425641
21
203.5465674629
31
0.0000000000
11
301.7477435840
21
203.5211348936
31
0.0000000000
0
SPLINE
5
3D6
100
AcDbEntity
8
0
100
AcDbSpline
62
7
6
CONTINUOUS
70
0
71
3
72
8
73
4
74
2
42
0.0000001000
43
0.0000001000
44
0.0000000001
40
0.0000000000
40
0.0000000000
40
0.0000000000
40
0.0000000000
40
1.0000000000
40
1.0000000000
40
1.0000000000
40
1.0000000000
10
301.7477435840
20
203.5211348936
30
0.0000000000
10
301.6701354569
20
203.4322430189
30
0.0000000000
10
301.5741672189
20
203.3654998522
30
0.0000000000
10
301.4752854517
20
203.3049193411
30
0.0000000000
11
301.7477435840
21
203.5211348936
31
0.0000000000
11
301.4752854517
21
203.3049193411
31
0.0000000000
0
SPLINE
5
3D7
100
AcDbEntity
8
0
100
AcDbSpline
62
7
6
CONTINUOUS
70
0
71
3
72
9
73
5
74
3
42
0.0000001000
43
0.0000001000
44
0.0000000001
40
0.0000000000
40
0.0000000000
40
0.0000000000
40
0.0000000000
40
0.4974986614
40
1.0000000000
40
1.0000000000
40
1.0000000000
40
1.0000000000
10
301.0889216978
20
220.4182696557
30
0.0000000000
10
301.1017100752
20
220.3483394820
30
0.0000000000
10
301.1265785217
20
220.2076217293
30
0.0000000000
10
301.1498331867
20
220.0666286280
30
0.0000000000
10
301.1611280863
20
219.9957177961
30
0.0000000000
11
301.0889216978
21
220.4182696557
31
0.0000000000
11
301.1260546940
21
220.2082575446
31
0.0000000000
11
301.1611280863
21
219.9957177961
31
0.0000000000
0
SPLINE
5
3D8
100
AcDbEntity
8
0
100
AcDbSpline
62
7
6
CONTINUOUS
70
0
71
3
72
10
73
6
74
4
42
0.0000001000
43
0.0000001000
44
0.0000000001
40
0.0000000000
40
0.0000000000
40
0.0000000000
40
0.0000000000
40
0.0521561624
40
0.8992499182
40
1.0000000000
40
1.0000000000
40
1.0000000000
40
1.0000000000
10
301.8769619464
20
204.7682887027
30
0.0000000000
10
301.8770331343
20
204.7738337439
30
0.0000000000
10
301.8756257086
20
204.8693590087
30
0.0000000000
10
301.8214918306
20
204.9726163753
30
0.0000000000
10
301.7549733674
20
205.0523315616
30
0.0000000000
10
301.7477435180
20
205.0606125878
30
0.0000000000
11
301.8769619464
21
204.7682887027
31
0.0000000000
11
301.8767108515
21
204.7849056185
31
0.0000000000
11
301.7689425639
21
205.0351799333
31
0.0000000000
11
301.7477435180
21
205.0606125878
31
0.0000000000
0
SPLINE
5
3D9
100
AcDbEntity
8
0
100
AcDbSpline
62
7
6
CONTINUOUS
70
0
71
3
72
8
73
4
74
2
42
0.0000001000
43
0.0000001000
44
0.0000000001
40
0.0000000000
40
0.0000000000
40
0.0000000000
40
0.0000000000
40
1.0000000000
40
1.0000000000
40
1.0000000000
40
1.0000000000
10
301.7477435180
20
205.0606125878
30
0.0000000000
10
301.6701354086
20
205.1495044519
30
0.0000000000
10
301.5741671954
20
205.2162476322
30
0.0000000000
10
301.4752854517
20
205.2768281537
30
0.0000000000
11
301.7477435180
21
205.0606125878
31
0.0000000000
11
301.4752854517
21
205.2768281537
31
0.0000000000
0
SPLINE
5
3DA
100
AcDbEntity
8
0
100
AcDbSpline
62
7
6
CONTINUOUS
70
0
71
3
72
10
73
6
74
4
42
0.0000001000
43
0.0000001000
44
0.0000000001
40
0.0000000000
40
0.0000000000
40
0.0000000000
40
0.0000000000
40
0.3296894918
40
0.6630290493
40
1.0000000000
40
1.0000000000
40
1.0000000000
40
1.0000000000
10
301.7900952529
20
219.9957177961
30
0.0000000000
10
301.8028984062
20
219.7792465108
30
0.0000000000
10
301.8241487456
20
219.3436345399
30
0.0000000000
10
301.8455575189
20
218.6862255327
30
0.0000000000
10
301.8545475693
20
218.2454186870
30
0.0000000000
10
301.8581183836
20
218.0238085806
30
0.0000000000
11
301.7900952529
21
219.9957177961
31
0.0000000000
11
301.8222872022
21
219.3459660581
31
0.0000000000
11
301.8441541372
21
218.6885785479
31
0.0000000000
11
301.8581183836
21
218.0238085806
31
0.0000000000
0
SPLINE
5
3DB
100
AcDbEntity
8
0
100
AcDbSpline
62
7
6
CONTINUOUS
70
0
71
3
72
9
73
5
74
3
42
0.0000001000
43
0.0000001000
44
0.0000000001
40
0.0000000000
40
0.0000000000
40
0.0000000000
40
0.0000000000
40
0.4987172991
40
1.0000000000
40
1.0000000000
40
1.0000000000
40
1.0000000000
10
301.3856920550
20
218.0238085806
30
0.0000000000
10
301.3909183818
20
217.9535990917
30
0.0000000000
10
301.4008835626
20
217.8127802329
30
0.0000000000
10
301.4098535890
20
217.6718945907
30
0.0000000000
10
301.4141084368
20
217.6012567210
30
0.0000000000
11
301.3856920550
21
218.0238085806
31
0.0000000000
11
301.4006104842
21
217.8131248796
31
0.0000000000
11
301.4141084368
21
217.6012567210
31
0.0000000000
0
SPLINE
5
3DC
100
AcDbEntity
8
0
100
AcDbSpline
62
7
6
CONTINUOUS
70
0
71
3
72
18
73
14
74
12
42
0.0000001000
43
0.0000001000
44
0.0000000001
40
0.0000000000
40
0.0000000000
40
0.0000000000
40
0.0000000000
40
0.0201203353
40
0.0796418563
40
0.1737735969
40
0.2932348832
40
0.4298359840
40
0.5706308272
40
0.7072568351
40
0.8265592619
40
0.9206412917
40
0.9799556677
40
1.0000000000
40
1.0000000000
40
1.0000000000
40
1.0000000000
10
100.6082141413
20
57.5410714286
30
0.0000000000
10
100.6145858216
20
57.5079388763
30
0.0000000000
10
100.6393410033
20
57.3767007781
30
0.0000000000
10
100.6892953635
20
57.0895914616
30
0.0000000000
10
100.7551569194
20
56.6362725593
30
0.0000000000
10
100.8162174008
20
56.0520108046
30
0.0000000000
10
100.8525304239
20
55.3871920913
30
0.0000000000
10
100.8524663422
20
54.6925600241
30
0.0000000000
10
100.8160407593
20
54.0279723743
30
0.0000000000
10
100.7549206025
20
53.4440273283
30
0.0000000000
10
100.6891077315
20
52.9914059836
30
0.0000000000
10
100.6392306762
20
52.7048499981
30
0.0000000000
10
100.6145617529
20
52.5740788273
30
0.0000000000
10
100.6082141413
20
52.5410714286
30
0.0000000000
11
100.6082141413
21
57.5410714286
31
0.0000000000
11
100.6269751238
21
57.4416060418
31
0.0000000000
11
100.6782780649
21
57.1465991392
31
0.0000000000
11
100.7462780338
21
56.6779588511
31
0.0000000000
11
100.8086108578
21
56.0802269584
31
0.0000000000
11
100.8459811604
21
55.3940454473
31
0.0000000000
11
100.8459160108
21
54.6857496406
31
0.0000000000
11
100.8084104259
21
53.9994500232
31
0.0000000000
11
100.7460665134
21
53.4025228017
31
0.0000000000
11
100.6780490417
21
52.9341377554
31
0.0000000000
11
100.6269055920
21
52.6401608406
31
0.0000000000
11
100.6082141413
21
52.5410714286
31
0.0000000000
0
SPLINE
5
3DD
100
AcDbEntity
8
0
100
AcDbSpline
62
7
6
CONTINUOUS
70
0
71
3
72
13
73
9
74
7
42
0.0000001000
43
0.0000001000
44
0.0000000001
40
0.0000000000
40
0.0000000000
40
0.0000000000
40
0.0000000000
40
0.1695765386
40
0.3397318058
40
0.5085036970
40
0.6750707596
40
0.8399759914
40
1.0000000000
40
1.0000000000
40
1.0000000000
40
1.0000000000
10
95.1437450249
20
78.8860740897
30
0.0000000000
10
95.6426453040
20
79.0150766786
30
0.0000000000
10
96.6200366229
20
79.3705044121
30
0.0000000000
10
97.9488916444
20
80.1787213259
30
0.0000000000
10
99.0783997996
20
81.2368515710
30
0.0000000000
10
99.9436206806
20
82.5025127589
30
0.0000000000
10
100.4849850757
20
83.9092642707
30
0.0000000000
10
100.6082590450
20
84.9006779901
30
0.0000000000
10
100.6082141413
20
85.3869585790
30
0.0000000000
11
95.1437450249
21
78.8860740897
31
0.0000000000
11
96.5960523833
21
79.4158775862
31
0.0000000000
11
97.9201476394
21
80.2239619609
31
0.0000000000
11
99.0404427002
21
81.2785713506
31
0.0000000000
11
99.8939193810
21
82.5345140016
31
0.0000000000
11
100.4299302228
21
83.9390517578
31
0.0000000000
11
100.6082141413
21
85.3869585790
31
0.0000000000
0
SPLINE
5
3DE
100
AcDbEntity
8
0
100
AcDbSpline
62
7
6
CONTINUOUS
70
0
71
3
72
8
73
4
74
2
42
0.0000001000
43
0.0000001000
44
0.0000000001
40
0.0000000000
40
0.0000000000
40
0.0000000000
40
0.0000000000
40
1.0000000000
40
1.0000000000
40
1.0000000000
40
1.0000000000
10
95.1437606127
20
66.5960647368
30
0.0000000000
10
95.4710181579
20
66.5114468782
30
0.0000000000
10
95.7935219224
20
66.4059986768
30
0.0000000000
10
96.1080984328
20
66.2804028508
30
0.0000000000
11
95.1437606127
21
66.5960647368
31
0.0000000000
11
96.1080984328
21
66.2804028508
31
0.0000000000
0
SPLINE
5
3DF
100
AcDbEntity
8
0
100
AcDbSpline
62
7
6
CONTINUOUS
70
0
71
3
72
13
73
9
74
7
42
0.0000001000
43
0.0000001000
44
0.0000000001
40
0.0000000000
40
0.0000000000
40
0.0000000000
40
0.0000000000
40
0.0661270876
40
0.2602811316
40
0.4500812832
40
0.6360861580
40
0.8207687877
40
1.0000000000
40
1.0000000000
40
1.0000000000
40
1.0000000000
10
96.1080984328
20
66.2804028508
30
0.0000000000
10
96.2743094065
20
66.2140425096
30
0.0000000000
10
96.9198174561
20
65.9307044814
30
0.0000000000
10
97.9642097550
20
65.2927673428
30
0.0000000000
10
99.0923520264
20
64.2283675748
30
0.0000000000
10
99.9501339111
20
62.9656305162
30
0.0000000000
10
100.4861622495
20
61.5659301301
30
0.0000000000
10
100.6081877716
20
60.5790969430
30
0.0000000000
10
100.6082141413
20
60.0950245052
30
0.0000000000
11
96.1080984328
21
66.2804028508
31
0.0000000000
11
96.5996241328
21
66.0645487685
31
0.0000000000
11
97.9408229664
21
65.2424044008
31
0.0000000000
11
99.0568315278
21
64.1843337668
31
0.0000000000
11
99.9002936020
21
62.9353643943
31
0.0000000000
11
100.4315459665
21
61.5364555607
31
0.0000000000
11
100.6082141413
21
60.0950245052
31
0.0000000000
0
SPLINE
5
3E0
100
AcDbEntity
8
0
100
AcDbSpline
62
7
6
CONTINUOUS
70
0
71
3
72
13
73
9
74
7
42
0.0000001000
43
0.0000001000
44
0.0000000001
40
0.0000000000
40
0.0000000000
40
0.0000000000
40
0.0000000000
40
0.1695175115
40
0.3396028108
40
0.5084435582
40
0.6749950729
40
0.8399348656
40
1.0000000000
40
1.0000000000
40
1.0000000000
40
1.0000000000
10
134.8226965278
20
66.5960721988
30
0.0000000000
10
134.3239703621
20
66.4671235719
30
0.0000000000
10
133.3469584407
20
66.1118377451
30
0.0000000000
10
132.0181708427
20
65.3039064548
30
0.0000000000
10
130.8885606338
20
64.2459572718
30
0.0000000000
10
130.0230632743
20
62.9801572491
30
0.0000000000
10
129.4816343480
20
61.5732625115
30
0.0000000000
10
129.3581006104
20
60.5816353381
30
0.0000000000
10
129.3582141413
20
60.0952323429
30
0.0000000000
11
134.8226965278
21
66.5960721988
31
0.0000000000
11
133.3708871285
21
66.0664975589
31
0.0000000000
11
132.0472424571
21
65.2589149643
31
0.0000000000
11
130.9263589515
21
64.2040266947
31
0.0000000000
11
130.0728591249
21
62.9482807957
31
0.0000000000
11
129.5366479027
21
61.5434907358
31
0.0000000000
11
129.3582141413
21
60.0952323429
31
0.0000000000
0
SPLINE
5
3E1
100
AcDbEntity
8
0
100
AcDbSpline
62
7
6
CONTINUOUS
70
0
71
3
72
13
73
9
74
7
42
0.0000001000
43
0.0000001000
44
0.0000000001
40
0.0000000000
40
0.0000000000
40
0.0000000000
40
0.0000000000
40
0.1590172835
40
0.3226712071
40
0.4884114781
40
0.6578953635
40
0.8302200044
40
1.0000000000
40
1.0000000000
40
1.0000000000
40
1.0000000000
10
129.3582141413
20
85.3870750254
30
0.0000000000
10
129.3582192290
20
84.9038470310
30
0.0000000000
10
129.4797693603
20
83.9193540747
30
0.0000000000
10
130.0143039192
20
82.5202957500
30
0.0000000000
10
130.8724692378
20
81.2549989855
30
0.0000000000
10
132.0030069331
20
80.1885594904
30
0.0000000000
10
133.3389870701
20
79.3732608329
30
0.0000000000
10
134.3231712555
20
79.0152341944
30
0.0000000000
10
134.8226771333
20
78.8860756733
30
0.0000000000
11
129.3582141413
21
85.3870750254
31
0.0000000000
11
129.5342688780
21
83.9481211064
31
0.0000000000
11
130.0628999076
21
82.5529594796
31
0.0000000000
11
130.9075964272
21
81.3001502805
31
0.0000000000
11
132.0289488066
21
80.2371771046
31
0.0000000000
11
133.3686712440
21
79.4166972742
31
0.0000000000
11
134.8226771333
21
78.8860756733
31
0.0000000000
0
SPLINE
5
3E2
100
AcDbEntity
8
0
100
AcDbSpline
62
7
6
CONTINUOUS
70
0
71
3
72
18
73
14
74
12
42
0.0000001000
43
0.0000001000
44
0.0000000001
40
0.0000000000
40
0.0000000000
40
0.0000000000
40
0.0000000000
40
0.0200768233
40
0.0794825444
40
0.1734890349
40
0.2927964561
40
0.4294170718
40
0.5701990970
40
0.7067915337
40
0.8262440872
40
0.9203664085
40
0.9798816528
40
1.0000000000
40
1.0000000000
40
1.0000000000
40
1.0000000000
10
129.3582141413
20
52.5410714286
30
0.0000000000
10
129.3518562403
20
52.5741323301
30
0.0000000000
10
129.3271495722
20
52.7051077129
30
0.0000000000
10
129.2772666291
20
52.9917449796
30
0.0000000000
10
129.2114632945
20
53.4444027815
30
0.0000000000
10
129.1503677118
20
54.0282223908
30
0.0000000000
10
129.1139565224
20
54.6927886037
30
0.0000000000
10
129.1139038351
20
55.3873755290
30
0.0000000000
10
129.1502220868
20
56.0521431599
30
0.0000000000
10
129.2112827993
20
56.6363596401
30
0.0000000000
10
129.2771406284
20
57.0896376691
30
0.0000000000
10
129.3270904312
20
57.3767176769
30
0.0000000000
10
129.3518430904
20
57.5079421495
30
0.0000000000
10
129.3582141413
20
57.5410714286
30
0.0000000000
11
129.3582141413
21
52.5410714286
31
0.0000000000
11
129.3394929644
21
52.6403215699
31
0.0000000000
11
129.2882790575
21
52.9347526640
31
0.0000000000
11
129.2203310689
21
53.4027638079
31
0.0000000000
11
129.1579961141
21
53.9997172381
31
0.0000000000
11
129.1205055676
21
54.6859905220
31
0.0000000000
11
129.1204520025
21
55.3942218597
31
0.0000000000
11
129.1578281789
21
56.0803594121
31
0.0000000000
11
129.2201614797
21
56.6780470959
31
0.0000000000
11
129.2881568994
21
57.1466401709
31
0.0000000000
11
129.3394549771
21
57.4416158746
31
0.0000000000
11
129.3582141413
21
57.5410714286
31
0.0000000000
0
SPLINE
5
3E3
100
AcDbEntity
8
0
100
AcDbSpline
62
7
6
CONTINUOUS
70
0
71
3
72
8
73
4
74
2
42
0.0000001000
43
0.0000001000
44
0.0000000001
40
0.0000000000
40
0.0000000000
40
0.0000000000
40
0.0000000000
40
1.0000000000
40
1.0000000000
40
1.0000000000
40
1.0000000000
10
96.0848392312
20
66.2410767697
30
0.0000000000
10
95.7615443219
20
66.2411798734
30
0.0000000000
10
95.4383291490
20
66.2610011616
30
0.0000000000
10
95.1176577811
20
66.3013676993
30
0.0000000000
11
96.0848392312
21
66.2410767697
31
0.0000000000
11
95.1176577811
21
66.3013676993
31
0.0000000000
0
SPLINE
5
3E4
100
AcDbEntity
8
0
100
AcDbSpline
62
7
6
CONTINUOUS
70
0
71
3
72
8
73
4
74
2
42
0.0000001000
43
0.0000001000
44
0.0000000001
40
0.0000000000
40
0.0000000000
40
0.0000000000
40
0.0000000000
40
1.0000000000
40
1.0000000000
40
1.0000000000
40
1.0000000000
10
95.1176577811
20
66.3013676993
30
0.0000000000
10
95.1059249228
20
66.3028446470
30
0.0000000000
10
95.0941954700
20
66.3043490990
30
0.0000000000
10
95.0824695432
20
66.3058810956
30
0.0000000000
11
95.1176577811
21
66.3013676993
31
0.0000000000
11
95.0824695432
21
66.3058810956
31
0.0000000000
0
SPLINE
5
3E5
100
AcDbEntity
8
0
100
AcDbSpline
62
7
6
CONTINUOUS
70
0
71
3
72
9
73
5
74
3
42
0.0000001000
43
0.0000001000
44
0.0000000001
40
0.0000000000
40
0.0000000000
40
0.0000000000
40
0.0000000000
40
0.5087565780
40
1.0000000000
40
1.0000000000
40
1.0000000000
40
1.0000000000
10
95.0824695432
20
66.3058810956
30
0.0000000000
10
94.6671740467
20
66.3601396054
30
0.0000000000
10
93.8595726991
20
66.5347010838
30
0.0000000000
10
93.0928945425
20
66.8453167466
30
0.0000000000
10
92.7332141413
20
67.0292797237
30
0.0000000000
11
95.0824695432
21
66.3058810956
31
0.0000000000
11
93.8560213334
21
66.5729735537
31
0.0000000000
11
92.7332141413
21
67.0292797237
31
0.0000000000
0
SPLINE
5
3E6
100
AcDbEntity
8
0
100
AcDbSpline
62
7
6
CONTINUOUS
70
0
71
3
72
15
73
11
74
9
42
0.0000001000
43
0.0000001000
44
0.0000000001
40
0.0000000000
40
0.0000000000
40
0.0000000000
40
0.0000000000
40
0.1611206232
40
0.3159974365
40
0.4656728113
40
0.6032362269
40
0.7229438677
40
0.8269068156
40
0.9185898769
40
1.0000000000
40
1.0000000000
40
1.0000000000
40
1.0000000000
10
99.8861465674
20
72.7412526010
30
0.0000000000
10
99.8861359914
20
72.9886185223
30
0.0000000000
10
99.9116971810
20
73.4740889951
30
0.0000000000
10
100.0147655380
20
74.1822298883
30
0.0000000000
10
100.1543158542
20
74.8467416769
30
0.0000000000
10
100.3003799926
20
75.4542035519
30
0.0000000000
10
100.4285893593
20
75.9937854085
30
0.0000000000
10
100.5268013547
20
76.4680320565
30
0.0000000000
10
100.5904757480
20
76.8888409749
30
0.0000000000
10
100.6082141289
20
77.1545999871
30
0.0000000000
10
100.6082141413
20
77.2795876498
30
0.0000000000
11
99.8861465674
21
72.7412526010
31
0.0000000000
11
99.9237398223
21
73.4823975526
31
0.0000000000
11
100.0233447317
21
74.1887490150
31
0.0000000000
11
100.1615148451
21
74.8641433060
31
0.0000000000
11
100.3064942045
21
75.4809300005
31
0.0000000000
11
100.4313914490
21
76.0179530698
31
0.0000000000
11
100.5261172838
21
76.4873279860
31
0.0000000000
11
100.5866525201
21
76.9052451074
31
0.0000000000
11
100.6082141413
21
77.2795876498
31
0.0000000000
0
SPLINE
5
3E7
100
AcDbEntity
8
0
100
AcDbSpline
62
7
6
CONTINUOUS
70
0
71
3
72
15
73
11
74
9
42
0.0000001000
43
0.0000001000
44
0.0000000001
40
0.0000000000
40
0.0000000000
40
0.0000000000
40
0.0000000000
40
0.0843970748
40
0.1796293432
40
0.2867993081
40
0.4083716968
40
0.5456944244
40
0.6923471538
40
0.8426048445
40
1.0000000000
40
1.0000000000
40
1.0000000000
40
1.0000000000
10
100.6082141413
20
68.2026489803
30
0.0000000000
10
100.6082141334
20
68.3322302368
30
0.0000000000
10
100.5891480872
20
68.6080327915
30
0.0000000000
10
100.5215826833
20
69.0434107327
30
0.0000000000
10
100.4190864100
20
69.5303107960
30
0.0000000000
10
100.2884068984
20
70.0769551215
30
0.0000000000
10
100.1435817404
20
70.6825530336
30
0.0000000000
10
100.0086619016
20
71.3357195698
30
0.0000000000
10
99.9103885945
20
72.0269225760
30
0.0000000000
10
99.8861289075
20
72.4995918323
30
0.0000000000
10
99.8861465674
20
72.7412526010
30
0.0000000000
11
100.6082141413
21
68.2026489803
31
0.0000000000
11
100.5851653168
21
68.5907088598
31
0.0000000000
11
100.5207751328
21
69.0246092369
31
0.0000000000
11
100.4216036976
21
69.5081835547
31
0.0000000000
11
100.2940223558
21
70.0534343305
31
0.0000000000
11
100.1499948997
21
70.6693445455
31
0.0000000000
11
100.0166194403
21
71.3315476950
31
0.0000000000
11
99.9220202589
21
72.0171583908
31
0.0000000000
11
99.8861465674
21
72.7412526010
31
0.0000000000
0
SPLINE
5
3E8
100
AcDbEntity
8
0
100
AcDbSpline
62
7
6
CONTINUOUS
70
0
71
3
72
15
73
11
74
9
42
0.0000001000
43
0.0000001000
44
0.0000000001
40
0.0000000000
40
0.0000000000
40
0.0000000000
40
0.0000000000
40
0.1570425431
40
0.3070338535
40
0.4538076704
40
0.5914439443
40
0.7133358412
40
0.8206905740
40
0.9159434441
40
1.0000000000
40
1.0000000000
40
1.0000000000
40
1.0000000000
10
130.0802598974
20
72.7410624062
30
0.0000000000
10
130.0802602766
20
72.5000023043
30
0.0000000000
10
130.0561062530
20
72.0284038476
30
0.0000000000
10
129.9581972758
20
71.3380949469
30
0.0000000000
10
129.8233430499
20
70.6848156735
30
0.0000000000
10
129.6783050019
20
70.0782360876
30
0.0000000000
10
129.5473937805
20
69.5304984300
30
0.0000000000
10
129.4447511035
20
69.0429312853
30
0.0000000000
10
129.3772272642
20
68.6078650621
30
0.0000000000
10
129.3582141413
20
68.3326218981
30
0.0000000000
10
129.3582141413
20
68.2035951928
30
0.0000000000
11
130.0802598974
21
72.7410624062
31
0.0000000000
11
130.0445405675
21
72.0187647640
31
0.0000000000
11
129.9503250014
21
71.3345112214
31
0.0000000000
11
129.8169817048
21
70.6719021928
31
0.0000000000
11
129.6726957281
21
70.0547292909
31
0.0000000000
11
129.5448320718
21
69.5081748776
31
0.0000000000
11
129.4455170923
21
69.0238853118
31
0.0000000000
11
129.3811434689
21
68.5899955835
31
0.0000000000
11
129.3582141413
21
68.2035951928
31
0.0000000000
0
SPLINE
5
3E9
100
AcDbEntity
8
0
100
AcDbSpline
62
7
6
CONTINUOUS
70
0
71
3
72
15
73
11
74
9
42
0.0000001000
43
0.0000001000
44
0.0000000001
40
0.0000000000
40
0.0000000000
40
0.0000000000
40
0.0000000000
40
0.0812818193
40
0.1730110616
40
0.2769408758
40
0.3965399979
40
0.5340053107
40
0.6836491945
40
0.8386782103
40
1.0000000000
40
1.0000000000
40
1.0000000000
40
1.0000000000
10
129.3582141413
20
77.2787416066
30
0.0000000000
10
129.3582141417
20
77.1539687111
30
0.0000000000
10
129.3759667229
20
76.8883745488
30
0.0000000000
10
129.4396646710
20
76.4678096632
30
0.0000000000
10
129.5378524401
20
75.9937792540
30
0.0000000000
10
129.6659242550
20
75.4546241357
30
0.0000000000
10
129.8118510313
20
74.8475975178
30
0.0000000000
10
129.9515113410
20
74.1831728258
30
0.0000000000
10
130.0546664616
20
73.4746449963
30
0.0000000000
10
130.0802585574
20
72.9887018784
30
0.0000000000
10
130.0802598974
20
72.7410624062
30
0.0000000000
11
129.3582141413
21
77.2787416066
31
0.0000000000
11
129.3797595627
21
76.9050435011
31
0.0000000000
11
129.4403610450
21
76.4869818943
31
0.0000000000
11
129.5350656798
21
76.0178279800
31
0.0000000000
11
129.6598097027
21
75.4813630360
31
0.0000000000
11
129.8046561761
21
74.8651019585
31
0.0000000000
11
129.9428639290
21
74.1899636804
31
0.0000000000
11
130.0426017686
21
73.4830257738
31
0.0000000000
11
130.0802598974
21
72.7410624062
31
0.0000000000
0
ENDSEC
0
SECTION
2
OBJECTS
0
DICTIONARY
5
3EA
100
AcDbDictionary
3
ACAD_GROUP
350
3EB
3
ACAD_MLINESTYLE
350
3EC
0
DICTIONARY
5
3EB
102
{ACAD_REACTORS
330
3EA
102
}
100
AcDbDictionary
0
DICTIONARY
5
3EC
102
{ACAD_REACTORS
330
3EA
102
}
100
AcDbDictionary
3
STANDARD
350
3ED
0
MLINESTYLE
5
3ED
102
{ACAD_REACTORS
330
3EC
102
}
100
AcDbMlineStyle
2
STANDARD
70
0
3

62
256
51
90.0
52
90.0
71
2
49
0.5
62
256
6
BYLAYER
49
-0.5
62
256
6
BYLAYER
0
ENDSEC
0
EOF
