999
DXF file: C:\Aktuell-Internet\CAD-Daten\2vv-gsch8.dxf
999
Pro/ENGINEER 2001400 by Parametric Technology Corporation
0
SECTION
2
HEADER
9
$ACADVER
1
AC1014
9
$EXTMAX
10
420.0000000000
20
297.0000000000
9
$EXTMIN
10
0.0000000000
20
0.0000000000
9
$LIMMIN
10
0.0000000000
20
0.0000000000
9
$LIMMAX
10
420.0000000000
20
297.0000000000
9
$VIEWCTR
10
210.0000000000
20
148.5000000000
9
$VIEWSIZE
40
297.0000000000
9
$CLAYER
8
0
9
$LTSCALE
40
23.1000000000
9
$CELTYPE
6
BYLAYER
9
$DIMSCALE
40
1
9
$DIMASZ
40
3.5000000000
9
$DIMEXO
40
2.6250000000
9
$DIMDLI
40
15.9600000000
9
$DIMEXE
40
7.5600000000
9
$DIMCEN
40
3.7800000000
9
$DIMLFAC
40
1.0000000000
9
$DIMTXT
40
3.5000000000
9
$DIMTOL
70
1
9
$DIMTFAC
40
0.6000000000
9
$DIMTP
40
0.0050000000
9
$DIMTM
40
0.0050000000
9
$HANDSEED
5
40E
0
ENDSEC
0
SECTION
2
CLASSES
0
ENDSEC
0
SECTION
2
TABLES
0
TABLE
2
VPORT
5
8
100
AcDbSymbolTable
70
2
0
VPORT
5
1F4
100
AcDbSymbolTableRecord
100
AcDbViewportTableRecord
2
*ACTIVE
70
0
10
0.0
20
0.0
11
1.0
21
1.0
12
210.0000000000
22
148.5000000000
13
0.0
23
0.0
14
1.0
24
1.0
15
0.0
25
0.0
16
0.0
26
0.0
36
1.0
17
0.0
27
0.0
37
0.0
40
297.0000000000
41
1.4141414141
42
50.0
43
0.0
44
0.0
50
0.0
51
0.0
71
0
72
100
73
1
74
1
75
0
76
0
77
0
78
0
0
ENDTAB
0
TABLE
2
LTYPE
5
5
100
AcDbSymbolTable
70
6
0
LTYPE
5
14
100
AcDbSymbolTableRecord
100
AcDbLinetypeTableRecord
2
BYBLOCK
70
0
3

72
65
73
0
40
0.0
0
LTYPE
5
15
100
AcDbSymbolTableRecord
100
AcDbLinetypeTableRecord
2
BYLAYER
70
0
3

72
65
73
0
40
0.0
0
LTYPE
5
16
100
AcDbSymbolTableRecord
100
AcDbLinetypeTableRecord
2
CONTINUOUS
70
64
3
Solid line
72
65
73
0
40
0
0
LTYPE
5
1F5
100
AcDbSymbolTableRecord
100
AcDbLinetypeTableRecord
2
CENTER
70
64
3
____ _ ____ _ ____ _ ____ _ ____ _ ____ _ ____
72
65
73
4
40
0.6
49
0.375
74
0
49
-0.075
74
0
49
0.075
74
0
49
-0.075
74
0
0
LTYPE
5
1F6
100
AcDbSymbolTableRecord
100
AcDbLinetypeTableRecord
2
HIDDEN
70
64
3
- - - - - - - - - - - - - - - - - - - -
72
65
73
2
40
0.2
49
0.1
74
0
49
-0.1
74
0
0
LTYPE
5
1F7
100
AcDbSymbolTableRecord
100
AcDbLinetypeTableRecord
2
PHANTOM
70
64
3
_____ _ _ _____ _ _ _____ _ _ _____
72
65
73
6
40
0.8
49
0.45
74
0
49
-0.05
74
0
49
0.1
74
0
49
-0.05
74
0
49
0.1
74
0
49
-0.05
74
0
0
LTYPE
5
1F8
100
AcDbSymbolTableRecord
100
AcDbLinetypeTableRecord
2
DOT
70
64
3
. . . . . . . . . . . . . . . . . . . .
72
65
73
2
40
0.2
49
0.1
74
0
49
-0.1
74
0
0
LTYPE
5
1F9
100
AcDbSymbolTableRecord
100
AcDbLinetypeTableRecord
2
DASHED
70
64
3
- - - - - - - - - - - - - - - - - - - -
72
65
73
2
40
0.2
49
0.1
74
0
49
-0.1
74
0
0
ENDTAB
0
TABLE
2
LAYER
5
2
100
AcDbSymbolTable
70
36
0
LAYER
5
10
100
AcDbSymbolTableRecord
100
AcDbLayerTableRecord
2
0
70
0
62
7
6
CONTINUOUS
0
LAYER
5
1FA
100
AcDbSymbolTableRecord
100
AcDbLayerTableRecord
2
DEFAULT_1
70
0
62
7
6
CENTER
0
LAYER
5
1FB
100
AcDbSymbolTableRecord
100
AcDbLayerTableRecord
2
DEFAULT_2
70
0
62
8
6
HIDDEN
0
LAYER
5
1FC
100
AcDbSymbolTableRecord
100
AcDbLayerTableRecord
2
DEFAULT_3
70
0
62
7
6
PHANTOM
0
LAYER
5
1FD
100
AcDbSymbolTableRecord
100
AcDbLayerTableRecord
2
ZEICHNUNGSBEMASSUNGEN
70
0
62
7
6
CONTINUOUS
0
ENDTAB
0
TABLE
2
STYLE
5
3
100
AcDbSymbolTable
70
1
0
STYLE
5
11
100
AcDbSymbolTableRecord
100
AcDbTextStyleTableRecord
2
STANDARD
70
0
40
0.0
41
1.0
50
0.0
71
0
42
0.0
3
txt
4

0
STYLE
5
1FE
100
AcDbSymbolTableRecord
100
AcDbTextStyleTableRecord
2
TEXTSTYLE_0
70
0
40
0.0
41
0.80
50
0.0
71
0
42
0.2
3
txt
4

0
ENDTAB
0
TABLE
2
VIEW
5
6
100
AcDbSymbolTable
70
0
0
ENDTAB
0
TABLE
2
UCS
5
7
100
AcDbSymbolTable
70
0
0
ENDTAB
0
TABLE
2
APPID
5
9
100
AcDbSymbolTable
70
1
0
APPID
5
1FF
100
AcDbSymbolTableRecord
100
AcDbRegAppTableRecord
2
ACAD
70
0
0
ENDTAB
0
TABLE
2
DIMSTYLE
5
A
100
AcDbSymbolTable
70
1
0
DIMSTYLE
105
200
100
AcDbSymbolTableRecord
100
AcDbDimStyleTableRecord
2
STANDARD
70
0
3

4

5

6

7

40
1.0
41
0.18
42
0.0625
43
0.38
44
0.18
45
0.0
46
0.0
47
0.0050000000
48
0.0050000000
140
3.5000000000
141
0.09
142
0.0
143
25.4
144
1.0000000000
145
0.0
146
0.6000000000
147
0.09
71
1
72
0
73
1
74
1
75
0
76
0
77
0
78
0
170
0
171
2
172
0
173
0
174
0
175
0
176
0
177
0
178
0
270
2
271
3
272
4
273
2
274
2
340
11
275
0
280
0
281
0
282
0
283
1
284
0
285
0
286
0
287
3
288
0
0
ENDTAB
0
TABLE
2
BLOCK_RECORD
5
1
100
AcDbSymbolTable
70
0
0
BLOCK_RECORD
5
1B
100
AcDbSymbolTableRecord
100
AcDbBlockTableRecord
2
*MODEL_SPACE
0
BLOCK_RECORD
5
1C
100
AcDbSymbolTableRecord
100
AcDbBlockTableRecord
2
*PAPER_SPACE
0
ENDTAB
0
ENDSEC
0
SECTION
2
BLOCKS
0
BLOCK
5
1E
100
AcDbEntity
8
0
100
AcDbBlockBegin
2
*MODEL_SPACE
70
0
10
0.0
20
0.0
30
0.0
3
*MODEL_SPACE
1

0
ENDBLK
5
1F
100
AcDbEntity
8
0
100
AcDbBlockEnd
0
BLOCK
5
20
100
AcDbEntity
8
0
100
AcDbBlockBegin
2
*PAPER_SPACE
70
0
10
0.0
20
0.0
30
0.0
3
*PAPER_SPACE
1

0
ENDBLK
5
21
100
AcDbEntity
8
0
100
AcDbBlockEnd
0
ENDSEC
0
SECTION
2
ENTITIES
0
TEXT
5
201
100
AcDbEntity
8
0
100
AcDbText
62
2
6
CONTINUOUS
10
284.4914636035
20
233.8985890055
7
TEXTSTYLE_0
40
3.0000000000
1
VV-GSCH
50
90.0000000000
72
5
11
284.4914636035
21
250.6128747198
100
AcDbText
0
TEXT
5
202
100
AcDbEntity
8
0
100
AcDbText
62
2
6
CONTINUOUS
10
306.3919945710
20
235.6535671927
7
TEXTSTYLE_0
40
3.5000000000
1
8/VIP
50
90.0000000000
72
5
11
306.3919945710
21
248.9869005260
100
AcDbText
0
TEXT
5
203
100
AcDbEntity
8
0
100
AcDbText
62
2
6
CONTINUOUS
10
104.5121783250
20
125.0002329097
7
TEXTSTYLE_0
40
3.5000000000
1
VV-GSCH
72
5
11
124.0121783250
21
125.0002329097
100
AcDbText
0
TEXT
5
204
100
AcDbEntity
8
0
100
AcDbText
62
2
6
CONTINUOUS
10
106.5213389601
20
96.0310544200
7
TEXTSTYLE_0
40
4.0000000000
1
8/VIP
72
5
11
121.7594341982
21
96.0310544200
100
AcDbText
0
LINE
5
205
100
AcDbEntity
8
0
100
AcDbLine
62
7
6
CONTINUOUS
10
0.0000000000
20
0.0000000000
11
0.0000000000
21
297.0000000000
0
LINE
5
206
100
AcDbEntity
8
0
100
AcDbLine
62
7
6
CONTINUOUS
10
0.0000000000
20
0.0000000000
11
420.0000000000
21
0.0000000000
0
LINE
5
207
100
AcDbEntity
8
0
100
AcDbLine
62
7
6
CONTINUOUS
10
0.0000000000
20
297.0000000000
11
420.0000000000
21
297.0000000000
0
LINE
5
208
100
AcDbEntity
8
0
100
AcDbLine
62
7
6
CONTINUOUS
10
420.0000000000
20
0.0000000000
11
420.0000000000
21
297.0000000000
0
LINE
5
209
100
AcDbEntity
8
0
100
AcDbLine
62
7
6
CONTINUOUS
10
93.4914312982
20
171.7519526045
11
103.4914312982
21
171.7519526045
0
LINE
5
20A
100
AcDbEntity
8
0
100
AcDbLine
62
7
6
CONTINUOUS
10
124.4914312982
20
171.7519526045
11
141.4914312982
21
171.7519526045
0
LINE
5
20B
100
AcDbEntity
8
0
100
AcDbLine
62
7
6
CONTINUOUS
10
93.4914312982
20
173.7519526045
11
90.4914312982
21
173.7519526045
0
LINE
5
20C
100
AcDbEntity
8
0
100
AcDbLine
62
7
6
CONTINUOUS
10
131.4914312982
20
175.2814154315
11
141.4914312982
21
175.2814154315
0
LINE
5
20D
100
AcDbEntity
8
0
100
AcDbLine
62
7
6
CONTINUOUS
10
103.4914312982
20
177.7519526045
11
124.4914312982
21
177.7519526045
0
LINE
5
20E
100
AcDbEntity
8
0
100
AcDbLine
62
7
6
CONTINUOUS
10
93.4914312982
20
177.8511395158
11
90.4914312982
21
177.8511395158
0
LINE
5
20F
100
AcDbEntity
8
DEFAULT_1
100
AcDbLine
62
2
6
CENTER
10
135.0289641185
20
183.7519526045
11
82.8370146992
21
183.7519526045
0
LINE
5
210
100
AcDbEntity
8
0
100
AcDbLine
62
7
6
CONTINUOUS
10
90.4914312982
20
173.7519526045
11
90.4914312982
21
193.7519526045
0
LINE
5
211
100
AcDbEntity
8
0
100
AcDbLine
62
7
6
CONTINUOUS
10
93.4914312982
20
189.7105007202
11
90.4914312982
21
189.7105007202
0
LINE
5
212
100
AcDbEntity
8
0
100
AcDbLine
62
7
6
CONTINUOUS
10
103.4914312982
20
189.7519526045
11
124.4914312982
21
189.7519526045
0
LINE
5
213
100
AcDbEntity
8
0
100
AcDbLine
62
7
6
CONTINUOUS
10
93.4914312982
20
217.7519526045
11
93.4914312982
21
171.7519526045
0
LINE
5
214
100
AcDbEntity
8
0
100
AcDbLine
62
7
6
CONTINUOUS
10
93.4914312982
20
193.7519526045
11
90.4914312982
21
193.7519526045
0
LINE
5
215
100
AcDbEntity
8
0
100
AcDbLine
62
7
6
CONTINUOUS
10
141.4914312982
20
194.7519526045
11
136.8228704476
21
194.7519526045
0
LINE
5
216
100
AcDbEntity
8
0
100
AcDbLine
62
7
6
CONTINUOUS
10
93.4914312982
20
194.7519526045
11
103.4914312982
21
194.7519526045
0
LINE
5
217
100
AcDbEntity
8
0
100
AcDbLine
62
7
6
CONTINUOUS
10
124.4914312982
20
194.7519526045
11
131.4914312982
21
194.7519526045
0
LINE
5
218
100
AcDbEntity
8
0
100
AcDbLine
62
7
6
CONTINUOUS
10
96.4914312982
20
217.4850062455
11
96.4914312982
21
217.1469647578
0
LINE
5
219
100
AcDbEntity
8
0
100
AcDbLine
62
7
6
CONTINUOUS
10
96.4914312982
20
215.5694373854
11
96.4914312982
21
215.2313958977
0
LINE
5
21A
100
AcDbEntity
8
0
100
AcDbLine
62
7
6
CONTINUOUS
10
96.4914312982
20
213.9919113025
11
96.4914312982
21
213.4848490709
0
LINE
5
21B
100
AcDbEntity
8
0
100
AcDbLine
62
7
6
CONTINUOUS
10
96.4914312982
20
211.2312387231
11
96.4914312982
21
210.9495372684
0
LINE
5
21C
100
AcDbEntity
8
0
100
AcDbLine
62
7
6
CONTINUOUS
10
96.4914312982
20
208.8086082762
11
96.4914312982
21
208.3015460447
0
LINE
5
21D
100
AcDbEntity
8
0
100
AcDbLine
62
7
6
CONTINUOUS
10
96.4914312982
20
205.7098945315
11
96.4914312982
21
205.3718530438
0
LINE
5
21E
100
AcDbEntity
8
0
100
AcDbLine
62
7
6
CONTINUOUS
10
96.4914312982
20
203.7943259938
11
96.4914312982
21
203.4562845061
0
LINE
5
21F
100
AcDbEntity
8
0
100
AcDbLine
62
7
6
CONTINUOUS
10
96.4914312982
20
203.0055624688
11
96.4914312982
21
202.6675209811
0
LINE
5
220
100
AcDbEntity
8
0
100
AcDbLine
62
7
6
CONTINUOUS
10
96.4914312982
20
201.0899940922
11
96.4914312982
21
200.7519526045
0
LINE
5
221
100
AcDbEntity
8
0
100
AcDbLine
62
7
6
CONTINUOUS
10
97.0020695352
20
208.3015460447
11
97.0020695352
21
208.8086082762
0
LINE
5
222
100
AcDbEntity
8
0
100
AcDbLine
62
7
6
CONTINUOUS
10
97.0020695352
20
210.9495372684
11
97.0020695352
21
211.2875787561
0
LINE
5
223
100
AcDbEntity
8
0
100
AcDbLine
62
7
6
CONTINUOUS
10
97.0020695352
20
213.4848490709
11
97.0020695352
21
213.9919113025
0
LINE
5
224
100
AcDbEntity
8
0
100
AcDbLine
62
7
6
CONTINUOUS
10
97.4276013994
20
211.6256208886
11
97.4276013994
21
211.9636623763
0
LINE
5
225
100
AcDbEntity
8
0
100
AcDbLine
62
7
6
CONTINUOUS
10
97.5127080107
20
209.2593298300
11
97.5127080107
21
209.5973713177
0
LINE
5
226
100
AcDbEntity
8
0
100
AcDbLine
62
7
6
CONTINUOUS
10
97.5127080107
20
214.4426328562
11
97.5127080107
21
214.7806743439
0
LINE
5
227
100
AcDbEntity
8
0
100
AcDbLine
62
7
6
CONTINUOUS
10
96.5765376711
20
214.2736121124
11
96.4914312982
21
213.9919113025
0
LINE
5
228
100
AcDbEntity
8
0
100
AcDbLine
62
7
6
CONTINUOUS
10
96.5765376711
20
211.5129401778
11
96.4914312982
21
211.2312387231
0
LINE
5
229
100
AcDbEntity
8
0
100
AcDbLine
62
7
6
CONTINUOUS
10
97.0020695352
20
213.9919113025
11
97.0871759081
21
214.2172714346
0
LINE
5
22A
100
AcDbEntity
8
0
100
AcDbLine
62
7
6
CONTINUOUS
10
96.4914312982
20
202.6675209811
11
99.9807930016
21
201.8787575367
0
LINE
5
22B
100
AcDbEntity
8
0
100
AcDbLine
62
7
6
CONTINUOUS
10
97.2573886537
20
207.9071638792
11
97.0871759081
21
208.0761846230
0
LINE
5
22C
100
AcDbEntity
8
0
100
AcDbLine
62
7
6
CONTINUOUS
10
96.5765376711
20
208.0198445900
11
96.7467504167
21
207.7944838131
0
LINE
5
22D
100
AcDbEntity
8
0
100
AcDbLine
62
7
6
CONTINUOUS
10
97.0871759081
20
210.7805165246
11
97.0020695352
21
210.9495372684
0
LINE
5
22E
100
AcDbEntity
8
0
100
AcDbLine
62
7
6
CONTINUOUS
10
97.0871759081
20
208.0761846230
11
97.0020695352
21
208.3015460447
0
LINE
5
22F
100
AcDbEntity
8
0
100
AcDbLine
62
7
6
CONTINUOUS
10
96.4914312982
20
210.9495372684
11
96.5765376711
21
210.7241764916
0
LINE
5
230
100
AcDbEntity
8
0
100
AcDbLine
62
7
6
CONTINUOUS
10
96.4914312982
20
208.3015460447
11
96.5765376711
21
208.0198445900
0
LINE
5
231
100
AcDbEntity
8
0
100
AcDbLine
62
7
6
CONTINUOUS
10
96.4914312982
20
213.4848490709
11
96.5765376711
21
213.2031469715
0
LINE
5
232
100
AcDbEntity
8
0
100
AcDbLine
62
7
6
CONTINUOUS
10
98.1084526205
20
217.1469647578
11
98.1084526205
21
215.5694373854
0
LINE
5
233
100
AcDbEntity
8
0
100
AcDbLine
62
7
6
CONTINUOUS
10
98.1935589933
20
211.2875787561
11
98.1935589933
21
210.9495372684
0
LINE
5
234
100
AcDbEntity
8
0
100
AcDbLine
62
7
6
CONTINUOUS
10
98.2786653662
20
209.5973713177
11
98.2786653662
21
208.7522675984
0
LINE
5
235
100
AcDbEntity
8
0
100
AcDbLine
62
7
6
CONTINUOUS
10
98.6190908575
20
206.9493800939
11
98.6190908575
21
206.1606164077
0
LINE
5
236
100
AcDbEntity
8
0
100
AcDbLine
62
7
6
CONTINUOUS
10
98.6190908575
20
215.5694373854
11
98.6190908575
21
217.1469647578
0
LINE
5
237
100
AcDbEntity
8
0
100
AcDbLine
62
7
6
CONTINUOUS
10
98.7041972303
20
210.9495372684
11
98.7041972303
21
211.2875787561
0
LINE
5
238
100
AcDbEntity
8
0
100
AcDbLine
62
7
6
CONTINUOUS
10
98.7893036032
20
208.7522675984
11
98.7893036032
21
209.2593298300
0
LINE
5
239
100
AcDbEntity
8
0
100
AcDbLine
62
7
6
CONTINUOUS
10
99.0446228409
20
206.1606164077
11
99.0446228409
21
206.9493800939
0
LINE
5
23A
100
AcDbEntity
8
0
100
AcDbLine
62
7
6
CONTINUOUS
10
99.3850483322
20
210.3861350039
11
99.3850483322
21
210.0480935162
0
LINE
5
23B
100
AcDbEntity
8
0
100
AcDbLine
62
7
6
CONTINUOUS
10
99.4701547050
20
214.7806743439
11
99.4701547050
21
214.4426328562
0
LINE
5
23C
100
AcDbEntity
8
0
100
AcDbLine
62
7
6
CONTINUOUS
10
99.9807930016
20
213.9919113025
11
99.9807930016
21
213.4848490709
0
LINE
5
23D
100
AcDbEntity
8
0
100
AcDbLine
62
7
6
CONTINUOUS
10
99.9807930016
20
211.2875787561
11
99.9807930016
21
210.8368572024
0
LINE
5
23E
100
AcDbEntity
8
0
100
AcDbLine
62
7
6
CONTINUOUS
10
99.9807930016
20
208.8086082762
11
99.9807930016
21
208.3015460447
0
LINE
5
23F
100
AcDbEntity
8
0
100
AcDbLine
62
7
6
CONTINUOUS
10
100.4914312982
20
201.6533965986
11
100.4914312982
21
202.1041185553
0
LINE
5
240
100
AcDbEntity
8
0
100
AcDbLine
62
7
6
CONTINUOUS
10
100.4914312982
20
204.3577285808
11
100.4914312982
21
204.8084504569
0
LINE
5
241
100
AcDbEntity
8
0
100
AcDbLine
62
7
6
CONTINUOUS
10
100.4914312982
20
208.3015460447
11
100.4914312982
21
208.8086082762
0
LINE
5
242
100
AcDbEntity
8
0
100
AcDbLine
62
7
6
CONTINUOUS
10
100.4914312982
20
210.8368572024
11
100.4914312982
21
211.2875787561
0
LINE
5
243
100
AcDbEntity
8
0
100
AcDbLine
62
7
6
CONTINUOUS
10
100.4914312982
20
213.4848490709
11
100.4914312982
21
213.9919113025
0
LINE
5
244
100
AcDbEntity
8
0
100
AcDbLine
62
7
6
CONTINUOUS
10
100.4914312982
20
215.2313958977
11
100.4914312982
21
215.5694373854
0
LINE
5
245
100
AcDbEntity
8
0
100
AcDbLine
62
7
6
CONTINUOUS
10
100.4914312982
20
217.1469647578
11
100.4914312982
21
217.4850062455
0
LINE
5
246
100
AcDbEntity
8
0
100
AcDbLine
62
7
6
CONTINUOUS
10
96.5765376711
20
209.0903090861
11
96.4914312982
21
208.8086082762
0
LINE
5
247
100
AcDbEntity
8
0
100
AcDbLine
62
7
6
CONTINUOUS
10
98.2786653662
20
211.5692802108
11
98.1935589933
21
211.2875787561
0
LINE
5
248
100
AcDbEntity
8
0
100
AcDbLine
62
7
6
CONTINUOUS
10
100.4063249180
20
213.2031469715
11
100.4914312982
21
213.4848490709
0
LINE
5
249
100
AcDbEntity
8
0
100
AcDbLine
62
7
6
CONTINUOUS
10
97.0020695352
20
208.8086082762
11
97.0871759081
21
209.0339690531
0
LINE
5
24A
100
AcDbEntity
8
0
100
AcDbLine
62
7
6
CONTINUOUS
10
98.7041972303
20
211.2875787561
11
98.7893036032
21
211.5129401778
0
LINE
5
24B
100
AcDbEntity
8
0
100
AcDbLine
62
7
6
CONTINUOUS
10
98.6190908575
20
210.7241764916
11
98.7041972303
21
210.9495372684
0
LINE
5
24C
100
AcDbEntity
8
0
100
AcDbLine
62
7
6
CONTINUOUS
10
99.9807930016
20
213.4848490709
11
99.8956866288
21
213.2594876493
0
LINE
5
24D
100
AcDbEntity
8
0
100
AcDbLine
62
7
6
CONTINUOUS
10
97.0020695352
20
211.2875787561
11
97.0871759081
21
211.4565995000
0
LINE
5
24E
100
AcDbEntity
8
0
100
AcDbLine
62
7
6
CONTINUOUS
10
98.1935589933
20
210.9495372684
11
98.1084526205
21
210.7805165246
0
LINE
5
24F
100
AcDbEntity
8
0
100
AcDbLine
62
7
6
CONTINUOUS
10
96.7467504167
20
214.4989735340
11
96.5765376711
21
214.2736121124
0
LINE
5
250
100
AcDbEntity
8
0
100
AcDbLine
62
7
6
CONTINUOUS
10
97.0871759081
20
214.2172714346
11
97.2573886537
21
214.3862921784
0
LINE
5
251
100
AcDbEntity
8
0
100
AcDbLine
62
7
6
CONTINUOUS
10
100.4914312982
20
202.1041185553
11
96.4914312982
21
203.0055624688
0
LINE
5
252
100
AcDbEntity
8
0
100
AcDbLine
62
7
6
CONTINUOUS
10
100.4914312982
20
204.8084504569
11
96.4914312982
21
205.7098945315
0
LINE
5
253
100
AcDbEntity
8
0
100
AcDbLine
62
7
6
CONTINUOUS
10
96.4914312982
20
205.3718530438
11
99.9807930016
21
204.5830893576
0
LINE
5
254
100
AcDbEntity
8
0
100
AcDbLine
62
7
6
CONTINUOUS
10
97.5127080107
20
207.7944838131
11
97.2573886537
21
207.9071638792
0
LINE
5
255
100
AcDbEntity
8
0
100
AcDbLine
62
7
6
CONTINUOUS
10
96.7467504167
20
207.7944838131
11
97.0871759081
21
207.5691223915
0
LINE
5
256
100
AcDbEntity
8
0
100
AcDbLine
62
7
6
CONTINUOUS
10
96.7467504167
20
210.4988157147
11
97.0871759081
21
210.2734542930
0
LINE
5
257
100
AcDbEntity
8
0
100
AcDbLine
62
7
6
CONTINUOUS
10
97.2573886537
20
210.6114957807
11
97.0871759081
21
210.7805165246
0
LINE
5
258
100
AcDbEntity
8
0
100
AcDbLine
62
7
6
CONTINUOUS
10
99.7254738235
20
209.2029897969
11
99.8956866288
21
209.0339690531
0
LINE
5
259
100
AcDbEntity
8
0
100
AcDbLine
62
7
6
CONTINUOUS
10
96.5765376711
20
210.7241764916
11
96.7467504167
21
210.4988157147
0
LINE
5
25A
100
AcDbEntity
8
0
100
AcDbLine
62
7
6
CONTINUOUS
10
96.5765376711
20
213.2031469715
11
96.7467504167
21
212.9777868394
0
LINE
5
25B
100
AcDbEntity
8
0
100
AcDbLine
62
7
6
CONTINUOUS
10
100.4063249180
20
209.0903090861
11
100.2361121499
21
209.3156705078
0
LINE
5
25C
100
AcDbEntity
8
0
100
AcDbLine
62
7
6
CONTINUOUS
10
97.0871759081
20
213.2594876493
11
97.0020695352
21
213.4848490709
0
LINE
5
25D
100
AcDbEntity
8
0
100
AcDbLine
62
7
6
CONTINUOUS
10
99.8956866288
20
209.0339690531
11
99.9807930016
21
208.8086082762
0
LINE
5
25E
100
AcDbEntity
8
0
100
AcDbLine
62
7
6
CONTINUOUS
10
99.8956866288
20
211.5129401778
11
99.9807930016
21
211.2875787561
0
LINE
5
25F
100
AcDbEntity
8
0
100
AcDbLine
62
7
6
CONTINUOUS
10
99.8956866288
20
214.2172714346
11
99.9807930016
21
213.9919113025
0
LINE
5
260
100
AcDbEntity
8
0
100
AcDbLine
62
7
6
CONTINUOUS
10
100.4914312982
20
208.8086082762
11
100.4063249180
21
209.0903090861
0
LINE
5
261
100
AcDbEntity
8
0
100
AcDbLine
62
7
6
CONTINUOUS
10
100.4914312982
20
211.2875787561
11
100.4063249180
21
211.5692802108
0
LINE
5
262
100
AcDbEntity
8
0
100
AcDbLine
62
7
6
CONTINUOUS
10
102.4914312982
20
225.9426842321
11
102.4914312982
21
245.2519526045
0
LINE
5
263
100
AcDbEntity
8
0
100
AcDbLine
62
7
6
CONTINUOUS
10
103.4914312982
20
171.7519526045
11
103.4914312982
21
215.7519526045
0
LINE
5
264
100
AcDbEntity
8
0
100
AcDbLine
62
7
6
CONTINUOUS
10
100.4063249180
20
210.5551557477
11
100.4914312982
21
210.8368572024
0
LINE
5
265
100
AcDbEntity
8
0
100
AcDbLine
62
7
6
CONTINUOUS
10
100.4063249180
20
208.0198445900
11
100.4914312982
21
208.3015460447
0
LINE
5
266
100
AcDbEntity
8
0
100
AcDbLine
62
7
6
CONTINUOUS
10
99.9807930016
20
210.8368572024
11
99.8956866288
21
210.6114957807
0
LINE
5
267
100
AcDbEntity
8
0
100
AcDbLine
62
7
6
CONTINUOUS
10
99.9807930016
20
208.3015460447
11
99.8956866288
21
208.0761846230
0
LINE
5
268
100
AcDbEntity
8
0
100
AcDbLine
62
7
6
CONTINUOUS
10
98.4488781118
20
211.7946416324
11
98.2786653662
21
211.5692802108
0
LINE
5
269
100
AcDbEntity
8
0
100
AcDbLine
62
7
6
CONTINUOUS
10
96.7467504167
20
209.3156705078
11
96.5765376711
21
209.0903090861
0
LINE
5
26A
100
AcDbEntity
8
0
100
AcDbLine
62
7
6
CONTINUOUS
10
100.2361121499
20
212.9777868394
11
100.4063249180
21
213.2031469715
0
LINE
5
26B
100
AcDbEntity
8
0
100
AcDbLine
62
7
6
CONTINUOUS
10
98.4488781118
20
210.4988157147
11
98.6190908575
21
210.7241764916
0
LINE
5
26C
100
AcDbEntity
8
0
100
AcDbLine
62
7
6
CONTINUOUS
10
99.8956866288
20
213.2594876493
11
99.7254738235
21
213.0904669054
0
LINE
5
26D
100
AcDbEntity
8
0
100
AcDbLine
62
7
6
CONTINUOUS
10
98.7893036032
20
211.5129401778
11
98.9595163488
21
211.6819602769
0
LINE
5
26E
100
AcDbEntity
8
0
100
AcDbLine
62
7
6
CONTINUOUS
10
98.1084526205
20
210.7805165246
11
97.9382398748
21
210.6114957807
0
LINE
5
26F
100
AcDbEntity
8
0
100
AcDbLine
62
7
6
CONTINUOUS
10
97.0871759081
20
209.0339690531
11
97.2573886537
21
209.2029897969
0
LINE
5
270
100
AcDbEntity
8
0
100
AcDbLine
62
7
6
CONTINUOUS
10
96.8318567896
20
211.7383009547
11
96.5765376711
21
211.5129401778
0
LINE
5
271
100
AcDbEntity
8
0
100
AcDbLine
62
7
6
CONTINUOUS
10
97.0871759081
20
214.7243336661
11
96.7467504167
21
214.4989735340
0
LINE
5
272
100
AcDbEntity
8
0
100
AcDbLine
62
7
6
CONTINUOUS
10
97.0871759081
20
211.4565995000
11
97.2573886537
21
211.5692802108
0
LINE
5
273
100
AcDbEntity
8
0
100
AcDbLine
62
7
6
CONTINUOUS
10
130.9807930016
20
210.7127098523
11
127.4914312982
21
209.7644073250
0
LINE
5
274
100
AcDbEntity
8
0
100
AcDbLine
62
7
6
CONTINUOUS
10
127.4914312982
20
209.3579920669
11
131.4914312982
21
210.4417662177
0
LINE
5
275
100
AcDbEntity
8
0
100
AcDbLine
62
7
6
CONTINUOUS
10
99.9807930016
20
201.8787575367
11
96.4914312982
21
201.0899940922
0
LINE
5
276
100
AcDbEntity
8
0
100
AcDbLine
62
7
6
CONTINUOUS
10
96.4914312982
20
200.7519526045
11
100.4914312982
21
201.6533965986
0
LINE
5
277
100
AcDbEntity
8
0
100
AcDbLine
62
7
6
CONTINUOUS
10
130.2148355865
20
204.7519526045
11
130.4701547050
21
204.7519526045
0
LINE
5
278
100
AcDbEntity
8
0
100
AcDbLine
62
7
6
CONTINUOUS
10
128.5127080107
20
204.8196884829
11
128.7680271292
21
204.8196884829
0
LINE
5
279
100
AcDbEntity
8
0
100
AcDbLine
62
7
6
CONTINUOUS
10
130.4701547050
20
205.0906319782
11
130.2148355865
21
205.0906319782
0
LINE
5
27A
100
AcDbEntity
8
0
100
AcDbLine
62
7
6
CONTINUOUS
10
128.6829207563
20
205.1583678626
11
128.5127080107
21
205.1583678626
0
LINE
5
27B
100
AcDbEntity
8
0
100
AcDbLine
62
7
6
CONTINUOUS
10
98.6190908575
20
206.1606164077
11
99.0446228409
21
206.1606164077
0
LINE
5
27C
100
AcDbEntity
8
0
100
AcDbLine
62
7
6
CONTINUOUS
10
97.4276013994
20
207.4564423254
11
97.8531335020
21
207.4001016476
0
LINE
5
27D
100
AcDbEntity
8
0
100
AcDbLine
62
7
6
CONTINUOUS
10
97.8531335020
20
207.7381431353
11
97.5127080107
21
207.7944838131
0
LINE
5
27E
100
AcDbEntity
8
0
100
AcDbLine
62
7
6
CONTINUOUS
10
97.0871759081
20
207.5691223915
11
97.4276013994
21
207.4564423254
0
LINE
5
27F
100
AcDbEntity
8
0
100
AcDbLine
62
7
6
CONTINUOUS
10
100.2361121499
20
209.3156705078
11
99.8956866288
21
209.5410312846
0
LINE
5
280
100
AcDbEntity
8
0
100
AcDbLine
62
7
6
CONTINUOUS
10
96.7467504167
20
212.9777868394
11
97.0871759081
21
212.7524254177
0
LINE
5
281
100
AcDbEntity
8
0
100
AcDbLine
62
7
6
CONTINUOUS
10
100.2361121499
20
211.7946416324
11
99.8956866288
21
212.0200017646
0
LINE
5
282
100
AcDbEntity
8
0
100
AcDbLine
62
7
6
CONTINUOUS
10
97.2573886537
20
213.0904669054
11
97.0871759081
21
213.2594876493
0
LINE
5
283
100
AcDbEntity
8
0
100
AcDbLine
62
7
6
CONTINUOUS
10
99.7254738235
20
211.6819602769
11
99.8956866288
21
211.5129401778
0
LINE
5
284
100
AcDbEntity
8
0
100
AcDbLine
62
7
6
CONTINUOUS
10
99.7254738235
20
214.3862921784
11
99.8956866288
21
214.2172714346
0
LINE
5
285
100
AcDbEntity
8
0
100
AcDbLine
62
7
6
CONTINUOUS
10
100.4063249180
20
211.5692802108
11
100.2361121499
21
211.7946416324
0
LINE
5
286
100
AcDbEntity
8
0
100
AcDbLine
62
7
6
CONTINUOUS
10
100.4063249180
20
214.2736121124
11
100.2361121499
21
214.4989735340
0
LINE
5
287
100
AcDbEntity
8
0
100
AcDbLine
62
7
6
CONTINUOUS
10
100.4914312982
20
213.9919113025
11
100.4063249180
21
214.2736121124
0
LINE
5
288
100
AcDbEntity
8
0
100
AcDbLine
62
7
6
CONTINUOUS
10
100.2361121499
20
207.7944838131
11
100.4063249180
21
208.0198445900
0
LINE
5
289
100
AcDbEntity
8
0
100
AcDbLine
62
7
6
CONTINUOUS
10
100.1510057771
20
210.2734542930
11
100.4063249180
21
210.5551557477
0
LINE
5
28A
100
AcDbEntity
8
0
100
AcDbLine
62
7
6
CONTINUOUS
10
99.8956866288
20
208.0761846230
11
99.7254738235
21
207.9071638792
0
LINE
5
28B
100
AcDbEntity
8
0
100
AcDbLine
62
7
6
CONTINUOUS
10
99.8956866288
20
212.7524254177
11
100.2361121499
21
212.9777868394
0
LINE
5
28C
100
AcDbEntity
8
0
100
AcDbLine
62
7
6
CONTINUOUS
10
98.7893036032
20
212.0200017646
11
98.4488781118
21
211.7946416324
0
LINE
5
28D
100
AcDbEntity
8
0
100
AcDbLine
62
7
6
CONTINUOUS
10
98.1084526205
20
210.2734542930
11
98.4488781118
21
210.4988157147
0
LINE
5
28E
100
AcDbEntity
8
0
100
AcDbLine
62
7
6
CONTINUOUS
10
97.0871759081
20
209.5410312846
11
96.7467504167
21
209.3156705078
0
LINE
5
28F
100
AcDbEntity
8
0
100
AcDbLine
62
7
6
CONTINUOUS
10
99.8956866288
20
210.6114957807
11
99.6403674507
21
210.4424750369
0
LINE
5
290
100
AcDbEntity
8
0
100
AcDbLine
62
7
6
CONTINUOUS
10
97.1722822809
20
211.9073216985
11
96.8318567896
21
211.7383009547
0
LINE
5
291
100
AcDbEntity
8
0
100
AcDbLine
62
7
6
CONTINUOUS
10
99.7254738235
20
213.0904669054
11
99.4701547050
21
212.9777868394
0
LINE
5
292
100
AcDbEntity
8
0
100
AcDbLine
62
7
6
CONTINUOUS
10
98.9595163488
20
211.6819602769
11
99.2148355865
21
211.7946416324
0
LINE
5
293
100
AcDbEntity
8
0
100
AcDbLine
62
7
6
CONTINUOUS
10
99.5552610779
20
212.6397453517
11
99.8956866288
21
212.7524254177
0
LINE
5
294
100
AcDbEntity
8
0
100
AcDbLine
62
7
6
CONTINUOUS
10
97.2573886537
20
211.5692802108
11
97.4276013994
21
211.6256208886
0
LINE
5
295
100
AcDbEntity
8
0
100
AcDbLine
62
7
6
CONTINUOUS
10
99.9807930016
20
204.5830893576
11
96.4914312982
21
203.7943259938
0
LINE
5
296
100
AcDbEntity
8
0
100
AcDbLine
62
7
6
CONTINUOUS
10
96.4914312982
20
203.4562845061
11
100.4914312982
21
204.3577285808
0
LINE
5
297
100
AcDbEntity
8
0
100
AcDbLine
62
7
6
CONTINUOUS
10
99.4701547050
20
207.7944838131
11
99.1297292137
21
207.7381431353
0
LINE
5
298
100
AcDbEntity
8
0
100
AcDbLine
62
7
6
CONTINUOUS
10
99.1297292137
20
207.4001016476
11
99.5552610779
21
207.4564423254
0
LINE
5
299
100
AcDbEntity
8
0
100
AcDbLine
62
7
6
CONTINUOUS
10
128.5127080107
20
206.7840288949
11
128.6829207563
21
206.7840288949
0
LINE
5
29A
100
AcDbEntity
8
0
100
AcDbLine
62
7
6
CONTINUOUS
10
130.2148355865
20
206.8517647067
11
130.4701547050
21
206.8517647067
0
LINE
5
29B
100
AcDbEntity
8
0
100
AcDbLine
62
7
6
CONTINUOUS
10
99.0446228409
20
206.9493800939
11
98.6190908575
21
206.9493800939
0
LINE
5
29C
100
AcDbEntity
8
0
100
AcDbLine
62
7
6
CONTINUOUS
10
128.7680271292
20
207.1227083413
11
128.5127080107
21
207.1227083413
0
LINE
5
29D
100
AcDbEntity
8
0
100
AcDbLine
62
7
6
CONTINUOUS
10
130.4701547050
20
207.1904441530
11
130.2148355865
21
207.1904441530
0
LINE
5
29E
100
AcDbEntity
8
0
100
AcDbLine
62
7
6
CONTINUOUS
10
97.8531335020
20
207.4001016476
11
99.1297292137
21
207.4001016476
0
LINE
5
29F
100
AcDbEntity
8
0
100
AcDbLine
62
7
6
CONTINUOUS
10
99.1297292137
20
207.7381431353
11
97.8531335020
21
207.7381431353
0
LINE
5
2A0
100
AcDbEntity
8
0
100
AcDbLine
62
7
6
CONTINUOUS
10
98.2786653662
20
208.7522675984
11
98.7893036032
21
208.7522675984
0
LINE
5
2A1
100
AcDbEntity
8
0
100
AcDbLine
62
7
6
CONTINUOUS
10
98.7893036032
20
209.2593298300
11
99.4701547050
21
209.2593298300
0
LINE
5
2A2
100
AcDbEntity
8
0
100
AcDbLine
62
7
6
CONTINUOUS
10
99.5552610779
20
209.5973713177
11
98.2786653662
21
209.5973713177
0
LINE
5
2A3
100
AcDbEntity
8
0
100
AcDbLine
62
7
6
CONTINUOUS
10
99.8956866288
20
209.5410312846
11
99.5552610779
21
209.5973713177
0
LINE
5
2A4
100
AcDbEntity
8
0
100
AcDbLine
62
7
6
CONTINUOUS
10
97.0871759081
20
210.2734542930
11
97.4276013994
21
210.2171142600
0
LINE
5
2A5
100
AcDbEntity
8
0
100
AcDbLine
62
7
6
CONTINUOUS
10
99.4701547050
20
209.2593298300
11
99.7254738235
21
209.2029897969
0
LINE
5
2A6
100
AcDbEntity
8
0
100
AcDbLine
62
7
6
CONTINUOUS
10
97.5127080107
20
210.5551557477
11
97.2573886537
21
210.6114957807
0
LINE
5
2A7
100
AcDbEntity
8
0
100
AcDbLine
62
7
6
CONTINUOUS
10
97.0871759081
20
212.7524254177
11
97.4276013994
21
212.6397453517
0
LINE
5
2A8
100
AcDbEntity
8
0
100
AcDbLine
62
7
6
CONTINUOUS
10
99.8956866288
20
212.0200017646
11
99.5552610779
21
212.1326831201
0
LINE
5
2A9
100
AcDbEntity
8
0
100
AcDbLine
62
7
6
CONTINUOUS
10
99.4701547050
20
211.7946416324
11
99.7254738235
21
211.6819602769
0
LINE
5
2AA
100
AcDbEntity
8
0
100
AcDbLine
62
7
6
CONTINUOUS
10
97.5127080107
20
212.9777868394
11
97.2573886537
21
213.0904669054
0
LINE
5
2AB
100
AcDbEntity
8
0
100
AcDbLine
62
7
6
CONTINUOUS
10
100.2361121499
20
214.4989735340
11
99.8956866288
21
214.7243336661
0
LINE
5
2AC
100
AcDbEntity
8
0
100
AcDbLine
62
7
6
CONTINUOUS
10
99.8956866288
20
207.5691223915
11
100.2361121499
21
207.7944838131
0
LINE
5
2AD
100
AcDbEntity
8
0
100
AcDbLine
62
7
6
CONTINUOUS
10
99.7254738235
20
207.9071638792
11
99.4701547050
21
207.7944838131
0
LINE
5
2AE
100
AcDbEntity
8
0
100
AcDbLine
62
7
6
CONTINUOUS
10
99.7254738235
20
210.1044335492
11
100.1510057771
21
210.2734542930
0
LINE
5
2AF
100
AcDbEntity
8
0
100
AcDbLine
62
7
6
CONTINUOUS
10
99.1297292137
20
212.1326831201
11
98.7893036032
21
212.0200017646
0
LINE
5
2B0
100
AcDbEntity
8
0
100
AcDbLine
62
7
6
CONTINUOUS
10
128.1722822809
20
215.5896925617
11
128.4276013994
21
215.6574289548
0
LINE
5
2B1
100
AcDbEntity
8
0
100
AcDbLine
62
7
6
CONTINUOUS
10
128.4276013994
20
216.0638442129
11
128.1722822809
21
215.9961078197
0
LINE
5
2B2
100
AcDbEntity
8
0
100
AcDbLine
62
7
6
CONTINUOUS
10
97.2573886537
20
209.2029897969
11
97.5127080107
21
209.2593298300
0
LINE
5
2B3
100
AcDbEntity
8
0
100
AcDbLine
62
7
6
CONTINUOUS
10
99.6403674507
20
210.4424750369
11
99.3850483322
21
210.3861350039
0
LINE
5
2B4
100
AcDbEntity
8
0
100
AcDbLine
62
7
6
CONTINUOUS
10
99.3850483322
20
210.0480935162
11
99.7254738235
21
210.1044335492
0
LINE
5
2B5
100
AcDbEntity
8
0
100
AcDbLine
62
7
6
CONTINUOUS
10
97.7680271292
20
210.2171142600
11
98.1084526205
21
210.2734542930
0
LINE
5
2B6
100
AcDbEntity
8
0
100
AcDbLine
62
7
6
CONTINUOUS
10
97.5127080107
20
209.5973713177
11
97.0871759081
21
209.5410312846
0
LINE
5
2B7
100
AcDbEntity
8
0
100
AcDbLine
62
7
6
CONTINUOUS
10
97.4276013994
20
210.2171142600
11
97.7680271292
21
210.2171142600
0
LINE
5
2B8
100
AcDbEntity
8
0
100
AcDbLine
62
7
6
CONTINUOUS
10
97.6829207563
20
210.5551557477
11
97.5127080107
21
210.5551557477
0
LINE
5
2B9
100
AcDbEntity
8
0
100
AcDbLine
62
7
6
CONTINUOUS
10
99.2148355865
20
211.7946416324
11
99.4701547050
21
211.7946416324
0
LINE
5
2BA
100
AcDbEntity
8
0
100
AcDbLine
62
7
6
CONTINUOUS
10
99.5552610779
20
212.1326831201
11
99.1297292137
21
212.1326831201
0
LINE
5
2BB
100
AcDbEntity
8
0
100
AcDbLine
62
7
6
CONTINUOUS
10
97.8531335020
20
212.5834046739
11
99.1297292137
21
212.5834046739
0
LINE
5
2BC
100
AcDbEntity
8
0
100
AcDbLine
62
7
6
CONTINUOUS
10
127.4914312982
20
212.6093145192
11
131.4914312982
21
212.6093145192
0
LINE
5
2BD
100
AcDbEntity
8
0
100
AcDbLine
62
7
6
CONTINUOUS
10
99.1297292137
20
212.9214461616
11
97.8531335020
21
212.9214461616
0
LINE
5
2BE
100
AcDbEntity
8
0
100
AcDbLine
62
7
6
CONTINUOUS
10
131.4914312982
20
213.0157297773
11
127.4914312982
21
213.0157297773
0
LINE
5
2BF
100
AcDbEntity
8
0
100
AcDbLine
62
7
6
CONTINUOUS
10
97.4276013994
20
212.6397453517
11
97.8531335020
21
212.5834046739
0
LINE
5
2C0
100
AcDbEntity
8
0
100
AcDbLine
62
7
6
CONTINUOUS
10
99.8956866288
20
214.7243336661
11
99.4701547050
21
214.7806743439
0
LINE
5
2C1
100
AcDbEntity
8
0
100
AcDbLine
62
7
6
CONTINUOUS
10
97.8531335020
20
212.9214461616
11
97.5127080107
21
212.9777868394
0
LINE
5
2C2
100
AcDbEntity
8
0
100
AcDbLine
62
7
6
CONTINUOUS
10
99.4701547050
20
214.4426328562
11
99.7254738235
21
214.3862921784
0
LINE
5
2C3
100
AcDbEntity
8
0
100
AcDbLine
62
7
6
CONTINUOUS
10
128.0871759081
20
204.9551602336
11
128.5127080107
21
204.8196884829
0
LINE
5
2C4
100
AcDbEntity
8
0
100
AcDbLine
62
7
6
CONTINUOUS
10
129.7893036032
20
204.8874243613
11
130.2148355865
21
204.7519526045
0
LINE
5
2C5
100
AcDbEntity
8
0
100
AcDbLine
62
7
6
CONTINUOUS
10
130.8956866288
20
207.0549723357
11
130.4701547050
21
207.1904441530
0
LINE
5
2C6
100
AcDbEntity
8
DEFAULT_1
100
AcDbLine
62
2
6
CENTER
10
113.9914312982
20
242.7519526045
11
113.9914312982
21
189.4859128993
0
LINE
5
2C7
100
AcDbEntity
8
DEFAULT_1
100
AcDbLine
62
2
6
CENTER
10
113.9914312982
20
242.7519526045
11
113.9914312982
21
250.5519526045
0
LINE
5
2C8
100
AcDbEntity
8
0
100
AcDbLine
62
7
6
CONTINUOUS
10
99.5552610779
20
207.4564423254
11
99.8956866288
21
207.5691223915
0
LINE
5
2C9
100
AcDbEntity
8
0
100
AcDbLine
62
7
6
CONTINUOUS
10
97.9382398748
20
210.6114957807
11
97.6829207563
21
210.5551557477
0
LINE
5
2CA
100
AcDbEntity
8
0
100
AcDbLine
62
7
6
CONTINUOUS
10
97.4276013994
20
211.9636623763
11
97.1722822809
21
211.9073216985
0
LINE
5
2CB
100
AcDbEntity
8
0
100
AcDbLine
62
7
6
CONTINUOUS
10
99.4701547050
20
212.9777868394
11
99.1297292137
21
212.9214461616
0
LINE
5
2CC
100
AcDbEntity
8
0
100
AcDbLine
62
7
6
CONTINUOUS
10
99.1297292137
20
212.5834046739
11
99.5552610779
21
212.6397453517
0
LINE
5
2CD
100
AcDbEntity
8
0
100
AcDbLine
62
7
6
CONTINUOUS
10
97.5127080107
20
214.7806743439
11
97.0871759081
21
214.7243336661
0
LINE
5
2CE
100
AcDbEntity
8
0
100
AcDbLine
62
7
6
CONTINUOUS
10
127.4914312982
20
213.5576162713
11
131.4914312982
21
213.5576162713
0
LINE
5
2CF
100
AcDbEntity
8
0
100
AcDbLine
62
7
6
CONTINUOUS
10
131.4914312982
20
213.9640315293
11
129.7041972303
21
213.9640315293
0
LINE
5
2D0
100
AcDbEntity
8
0
100
AcDbLine
62
7
6
CONTINUOUS
10
129.1935589933
20
213.9640315293
11
127.9169631624
21
213.9640315293
0
LINE
5
2D1
100
AcDbEntity
8
0
100
AcDbLine
62
7
6
CONTINUOUS
10
96.4914312982
20
215.2313958977
11
100.4914312982
21
215.2313958977
0
LINE
5
2D2
100
AcDbEntity
8
0
100
AcDbLine
62
7
6
CONTINUOUS
10
100.4914312982
20
215.5694373854
11
98.6190908575
21
215.5694373854
0
LINE
5
2D3
100
AcDbEntity
8
0
100
AcDbLine
62
7
6
CONTINUOUS
10
98.1084526205
20
215.5694373854
11
96.4914312982
21
215.5694373854
0
LINE
5
2D4
100
AcDbEntity
8
0
100
AcDbLine
62
7
6
CONTINUOUS
10
128.4276013994
20
215.6574289548
11
128.6829207563
21
215.6574289548
0
LINE
5
2D5
100
AcDbEntity
8
0
100
AcDbLine
62
7
6
CONTINUOUS
10
128.7680271292
20
216.0638442129
11
128.4276013994
21
216.0638442129
0
LINE
5
2D6
100
AcDbEntity
8
0
100
AcDbLine
62
7
6
CONTINUOUS
10
131.4914312982
20
210.9836530993
11
127.4914312982
21
212.0674272500
0
LINE
5
2D7
100
AcDbEntity
8
0
100
AcDbLine
62
7
6
CONTINUOUS
10
127.4914312982
20
211.6610119919
11
130.9807930016
21
210.7127098523
0
LINE
5
2D8
100
AcDbEntity
8
0
100
AcDbLine
62
7
6
CONTINUOUS
10
129.1084526205
20
206.9872365240
11
128.7680271292
21
207.1227083413
0
LINE
5
2D9
100
AcDbEntity
8
0
100
AcDbLine
62
7
6
CONTINUOUS
10
128.3424950266
20
208.6128975563
11
130.4701547050
21
207.7323312284
0
LINE
5
2DA
100
AcDbEntity
8
0
100
AcDbLine
62
7
6
CONTINUOUS
10
130.6403674507
20
207.9355388574
11
128.5127080107
21
208.8161051854
0
LINE
5
2DB
100
AcDbEntity
8
0
100
AcDbLine
62
7
6
CONTINUOUS
10
128.5127080107
20
205.1583678626
11
128.2573886537
21
205.2938396315
0
LINE
5
2DC
100
AcDbEntity
8
0
100
AcDbLine
62
7
6
CONTINUOUS
10
128.6829207563
20
206.7840288949
11
128.9382398748
21
206.6485570777
0
LINE
5
2DD
100
AcDbEntity
8
0
100
AcDbLine
62
7
6
CONTINUOUS
10
130.2148355865
20
205.0906319782
11
129.8744099760
21
205.2938396315
0
LINE
5
2DE
100
AcDbEntity
8
0
100
AcDbLine
62
7
6
CONTINUOUS
10
128.1722822809
20
215.9961078197
11
127.8318567896
21
215.7929001907
0
LINE
5
2DF
100
AcDbEntity
8
0
100
AcDbLine
62
7
6
CONTINUOUS
10
97.2573886537
20
214.3862921784
11
97.5127080107
21
214.4426328562
0
LINE
5
2E0
100
AcDbEntity
8
0
100
AcDbLine
62
7
6
CONTINUOUS
10
96.4914312982
20
217.1469647578
11
98.1084526205
21
217.1469647578
0
LINE
5
2E1
100
AcDbEntity
8
0
100
AcDbLine
62
7
6
CONTINUOUS
10
98.6190908575
20
217.1469647578
11
100.4914312982
21
217.1469647578
0
LINE
5
2E2
100
AcDbEntity
8
0
100
AcDbLine
62
7
6
CONTINUOUS
10
100.4914312982
20
217.4850062455
11
96.4914312982
21
217.4850062455
0
LINE
5
2E3
100
AcDbEntity
8
0
100
AcDbLine
62
7
6
CONTINUOUS
10
128.6829207563
20
215.6574289548
11
128.9382398748
21
215.5896925617
0
LINE
5
2E4
100
AcDbEntity
8
0
100
AcDbLine
62
7
6
CONTINUOUS
10
130.4701547050
20
206.8517647067
11
130.8105802560
21
206.6485570777
0
LINE
5
2E5
100
AcDbEntity
8
0
100
AcDbLine
62
7
6
CONTINUOUS
10
127.8318567896
20
205.1583678626
11
128.0871759081
21
204.9551602336
0
LINE
5
2E6
100
AcDbEntity
8
0
100
AcDbLine
62
7
6
CONTINUOUS
10
129.3637717390
20
206.7840288949
11
129.1084526205
21
206.9872365240
0
LINE
5
2E7
100
AcDbEntity
8
0
100
AcDbLine
62
7
6
CONTINUOUS
10
128.2573886537
20
205.2938396315
11
128.0020695352
21
205.5647831207
0
LINE
5
2E8
100
AcDbEntity
8
0
100
AcDbLine
62
7
6
CONTINUOUS
10
127.8318567896
20
215.7929001907
11
127.5765376711
21
215.5219569437
0
LINE
5
2E9
100
AcDbEntity
8
0
100
AcDbLine
62
7
6
CONTINUOUS
10
128.0020695352
20
215.4542213258
11
128.1722822809
21
215.5896925617
0
LINE
5
2EA
100
AcDbEntity
8
0
100
AcDbLine
62
7
6
CONTINUOUS
10
109.4914312982
20
221.7519526045
11
118.4914312982
21
221.7519526045
0
LINE
5
2EB
100
AcDbEntity
8
0
100
AcDbLine
62
7
6
CONTINUOUS
10
129.0233462477
20
215.9961078197
11
128.7680271292
21
216.0638442129
0
LINE
5
2EC
100
AcDbEntity
8
0
100
AcDbLine
62
7
6
CONTINUOUS
10
131.1510057771
20
206.8517647067
11
130.8956866288
21
207.0549723357
0
LINE
5
2ED
100
AcDbEntity
8
0
100
AcDbLine
62
7
6
CONTINUOUS
10
129.5339844847
20
205.1583678626
11
129.7893036032
21
204.8874243613
0
LINE
5
2EE
100
AcDbEntity
8
0
100
AcDbLine
62
7
6
CONTINUOUS
10
128.9382398748
20
206.6485570777
11
129.1935589933
21
206.3776136369
0
LINE
5
2EF
100
AcDbEntity
8
0
100
AcDbLine
62
7
6
CONTINUOUS
10
127.5765376711
20
205.4970472605
11
127.8318567896
21
205.1583678626
0
LINE
5
2F0
100
AcDbEntity
8
0
100
AcDbLine
62
7
6
CONTINUOUS
10
124.4914312982
20
171.7519526045
11
124.4914312982
21
215.7519526045
0
LINE
5
2F1
100
AcDbEntity
8
0
100
AcDbLine
62
7
6
CONTINUOUS
10
128.2573886537
20
206.6485570777
11
128.5127080107
21
206.7840288949
0
LINE
5
2F2
100
AcDbEntity
8
0
100
AcDbLine
62
7
6
CONTINUOUS
10
128.5127080107
20
207.1227083413
11
128.0871759081
21
206.9872365240
0
LINE
5
2F3
100
AcDbEntity
8
0
100
AcDbLine
62
7
6
CONTINUOUS
10
130.2148355865
20
207.1904441530
11
129.7893036032
21
207.0549723357
0
LINE
5
2F4
100
AcDbEntity
8
0
100
AcDbLine
62
7
6
CONTINUOUS
10
130.4701547050
20
204.7519526045
11
130.8956866288
21
204.8874243613
0
LINE
5
2F5
100
AcDbEntity
8
0
100
AcDbLine
62
7
6
CONTINUOUS
10
129.3637717390
20
215.7929001907
11
129.0233462477
21
215.9961078197
0
LINE
5
2F6
100
AcDbEntity
8
0
100
AcDbLine
62
7
6
CONTINUOUS
10
128.9382398748
20
215.5896925617
11
129.1084526205
21
215.4542213258
0
LINE
5
2F7
100
AcDbEntity
8
0
100
AcDbLine
62
7
6
CONTINUOUS
10
131.4063249180
20
206.5130854542
11
131.1510057771
21
206.8517647067
0
LINE
5
2F8
100
AcDbEntity
8
0
100
AcDbLine
62
7
6
CONTINUOUS
10
129.4488781118
20
205.2938396315
11
129.5339844847
21
205.1583678626
0
LINE
5
2F9
100
AcDbEntity
8
0
100
AcDbLine
62
7
6
CONTINUOUS
10
129.8744099760
20
205.2938396315
11
129.7041972303
21
205.5647831207
0
LINE
5
2FA
100
AcDbEntity
8
0
100
AcDbLine
62
7
6
CONTINUOUS
10
129.4488781118
20
206.6485570777
11
129.3637717390
21
206.7840288949
0
LINE
5
2FB
100
AcDbEntity
8
0
100
AcDbLine
62
7
6
CONTINUOUS
10
130.8105802560
20
206.6485570777
11
130.9807930016
21
206.3776136369
0
LINE
5
2FC
100
AcDbEntity
8
0
100
AcDbLine
62
7
6
CONTINUOUS
10
128.0020695352
20
205.5647831207
11
127.9169631624
21
205.8357266584
0
LINE
5
2FD
100
AcDbEntity
8
0
100
AcDbLine
62
7
6
CONTINUOUS
10
125.4914312982
20
245.2519526045
11
125.4914312982
21
225.9429103687
0
LINE
5
2FE
100
AcDbEntity
8
0
100
AcDbLine
62
7
6
CONTINUOUS
10
127.4914312982
20
215.1832773036
11
127.4914312982
21
213.5576162713
0
LINE
5
2FF
100
AcDbEntity
8
0
100
AcDbLine
62
7
6
CONTINUOUS
10
127.4914312982
20
213.0157297773
11
127.4914312982
21
212.6093145192
0
LINE
5
300
100
AcDbEntity
8
0
100
AcDbLine
62
7
6
CONTINUOUS
10
127.4914312982
20
212.0674272500
11
127.4914312982
21
211.6610119919
0
LINE
5
301
100
AcDbEntity
8
0
100
AcDbLine
62
7
6
CONTINUOUS
10
127.4914312982
20
209.7644073250
11
127.4914312982
21
209.3579920669
0
LINE
5
302
100
AcDbEntity
8
0
100
AcDbLine
62
7
6
CONTINUOUS
10
127.4914312982
20
206.1066700992
11
127.4914312982
21
205.8357266584
0
LINE
5
303
100
AcDbEntity
8
0
100
AcDbLine
62
7
6
CONTINUOUS
10
127.9169631624
20
205.8357266584
11
127.9169631624
21
206.1066700992
0
LINE
5
304
100
AcDbEntity
8
0
100
AcDbLine
62
7
6
CONTINUOUS
10
127.9169631624
20
213.9640315293
11
127.9169631624
21
215.2510136967
0
LINE
5
305
100
AcDbEntity
8
0
100
AcDbLine
62
7
6
CONTINUOUS
10
127.5765376711
20
215.5219569437
11
127.4914312982
21
215.1832773036
0
LINE
5
306
100
AcDbEntity
8
0
100
AcDbLine
62
7
6
CONTINUOUS
10
127.9169631624
20
215.2510136967
11
128.0020695352
21
215.4542213258
0
LINE
5
307
100
AcDbEntity
8
0
100
AcDbLine
62
7
6
CONTINUOUS
10
127.8318567896
20
206.7840288949
11
127.5765376711
21
206.4453494486
0
LINE
5
308
100
AcDbEntity
8
0
100
AcDbLine
62
7
6
CONTINUOUS
10
128.5127080107
20
208.8161051854
11
128.3424950266
21
208.6128975563
0
LINE
5
309
100
AcDbEntity
8
0
100
AcDbLine
62
7
6
CONTINUOUS
10
128.0020695352
20
206.3776136369
11
128.2573886537
21
206.6485570777
0
LINE
5
30A
100
AcDbEntity
8
0
100
AcDbLine
62
7
6
CONTINUOUS
10
128.0871759081
20
206.9872365240
11
127.8318567896
21
206.7840288949
0
LINE
5
30B
100
AcDbEntity
8
0
100
AcDbLine
62
7
6
CONTINUOUS
10
129.8744099760
20
206.6485570777
11
130.2148355865
21
206.8517647067
0
LINE
5
30C
100
AcDbEntity
8
0
100
AcDbLine
62
7
6
CONTINUOUS
10
130.8105802560
20
205.2938396315
11
130.4701547050
21
205.0906319782
0
LINE
5
30D
100
AcDbEntity
8
0
100
AcDbLine
62
7
6
CONTINUOUS
10
128.9382398748
20
205.2938396315
11
128.6829207563
21
205.1583678626
0
LINE
5
30E
100
AcDbEntity
8
0
100
AcDbLine
62
7
6
CONTINUOUS
10
128.7680271292
20
204.8196884829
11
129.1084526205
21
204.9551602336
0
LINE
5
30F
100
AcDbEntity
8
0
100
AcDbLine
62
7
6
CONTINUOUS
10
129.6190908575
20
215.5219569437
11
129.3637717390
21
215.7929001907
0
LINE
5
310
100
AcDbEntity
8
0
100
AcDbLine
62
7
6
CONTINUOUS
10
129.1935589933
20
206.3776136369
11
129.2786653662
21
206.1066700992
0
LINE
5
311
100
AcDbEntity
8
0
100
AcDbLine
62
7
6
CONTINUOUS
10
129.7041972303
20
205.5647831207
11
129.6190908575
21
205.8357266584
0
LINE
5
312
100
AcDbEntity
8
0
100
AcDbLine
62
7
6
CONTINUOUS
10
130.9807930016
20
206.3776136369
11
131.0658993745
21
206.1066700992
0
LINE
5
313
100
AcDbEntity
8
0
100
AcDbLine
62
7
6
CONTINUOUS
10
127.4914312982
20
205.8357266584
11
127.5765376711
21
205.4970472605
0
LINE
5
314
100
AcDbEntity
8
0
100
AcDbLine
62
7
6
CONTINUOUS
10
129.1935589933
20
215.2510136967
11
129.1935589933
21
213.9640315293
0
LINE
5
315
100
AcDbEntity
8
0
100
AcDbLine
62
7
6
CONTINUOUS
10
129.2786653662
20
206.1066700992
11
129.2786653662
21
205.8357266584
0
LINE
5
316
100
AcDbEntity
8
0
100
AcDbLine
62
7
6
CONTINUOUS
10
129.6190908575
20
205.8357266584
11
129.6190908575
21
206.1066700992
0
LINE
5
317
100
AcDbEntity
8
0
100
AcDbLine
62
7
6
CONTINUOUS
10
129.7041972303
20
213.9640315293
11
129.7041972303
21
215.1832773036
0
LINE
5
318
100
AcDbEntity
8
0
100
AcDbLine
62
7
6
CONTINUOUS
10
131.0658993745
20
206.1066700992
11
131.0658993745
21
205.8357266584
0
LINE
5
319
100
AcDbEntity
8
0
100
AcDbLine
62
7
6
CONTINUOUS
10
131.4914312982
20
175.2814154315
11
131.4914312982
21
195.1377365461
0
LINE
5
31A
100
AcDbEntity
8
0
100
AcDbLine
62
7
6
CONTINUOUS
10
131.4914312982
20
205.7679907497
11
131.4914312982
21
206.1744060078
0
LINE
5
31B
100
AcDbEntity
8
0
100
AcDbLine
62
7
6
CONTINUOUS
10
131.4914312982
20
210.4417662177
11
131.4914312982
21
210.9836530993
0
LINE
5
31C
100
AcDbEntity
8
0
100
AcDbLine
62
7
6
CONTINUOUS
10
131.4914312982
20
212.6093145192
11
131.4914312982
21
213.0157297773
0
LINE
5
31D
100
AcDbEntity
8
0
100
AcDbLine
62
7
6
CONTINUOUS
10
131.4914312982
20
213.5576162713
11
131.4914312982
21
213.9640315293
0
LINE
5
31E
100
AcDbEntity
8
0
100
AcDbLine
62
7
6
CONTINUOUS
10
127.5765376711
20
206.4453494486
11
127.4914312982
21
206.1066700992
0
LINE
5
31F
100
AcDbEntity
8
0
100
AcDbLine
62
7
6
CONTINUOUS
10
127.9169631624
20
206.1066700992
11
128.0020695352
21
206.3776136369
0
LINE
5
320
100
AcDbEntity
8
0
100
AcDbLine
62
7
6
CONTINUOUS
10
129.2786653662
20
205.8357266584
11
129.1935589933
21
205.5647831207
0
LINE
5
321
100
AcDbEntity
8
0
100
AcDbLine
62
7
6
CONTINUOUS
10
129.6190908575
20
206.1066700992
11
129.7041972303
21
206.3776136369
0
LINE
5
322
100
AcDbEntity
8
0
100
AcDbLine
62
7
6
CONTINUOUS
10
129.5339844847
20
206.7840288949
11
129.4488781118
21
206.6485570777
0
LINE
5
323
100
AcDbEntity
8
0
100
AcDbLine
62
7
6
CONTINUOUS
10
129.7041972303
20
206.3776136369
11
129.8744099760
21
206.6485570777
0
LINE
5
324
100
AcDbEntity
8
0
100
AcDbLine
62
7
6
CONTINUOUS
10
129.3637717390
20
205.1583678626
11
129.4488781118
21
205.2938396315
0
LINE
5
325
100
AcDbEntity
8
0
100
AcDbLine
62
7
6
CONTINUOUS
10
130.9807930016
20
205.5647831207
11
130.8105802560
21
205.2938396315
0
LINE
5
326
100
AcDbEntity
8
0
100
AcDbLine
62
7
6
CONTINUOUS
10
131.1510057771
20
205.0906319782
11
131.4063249180
21
205.4293113519
0
LINE
5
327
100
AcDbEntity
8
0
100
AcDbLine
62
7
6
CONTINUOUS
10
130.4701547050
20
207.7323312284
11
130.6403674507
21
207.9355388574
0
LINE
5
328
100
AcDbEntity
8
0
100
AcDbLine
62
7
6
CONTINUOUS
10
129.7893036032
20
207.0549723357
11
129.5339844847
21
206.7840288949
0
LINE
5
329
100
AcDbEntity
8
0
100
AcDbLine
62
7
6
CONTINUOUS
10
129.1935589933
20
205.5647831207
11
128.9382398748
21
205.2938396315
0
LINE
5
32A
100
AcDbEntity
8
0
100
AcDbLine
62
7
6
CONTINUOUS
10
129.1084526205
20
204.9551602336
11
129.3637717390
21
205.1583678626
0
LINE
5
32B
100
AcDbEntity
8
0
100
AcDbLine
62
7
6
CONTINUOUS
10
130.8956866288
20
204.8874243613
11
131.1510057771
21
205.0906319782
0
LINE
5
32C
100
AcDbEntity
8
0
100
AcDbLine
62
7
6
CONTINUOUS
10
129.1084526205
20
215.4542213258
11
129.1935589933
21
215.2510136967
0
LINE
5
32D
100
AcDbEntity
8
0
100
AcDbLine
62
7
6
CONTINUOUS
10
131.4914312982
20
206.1744060078
11
131.4063249180
21
206.5130854542
0
LINE
5
32E
100
AcDbEntity
8
0
100
AcDbLine
62
7
6
CONTINUOUS
10
129.7041972303
20
215.1832773036
11
129.6190908575
21
215.5219569437
0
LINE
5
32F
100
AcDbEntity
8
0
100
AcDbLine
62
7
6
CONTINUOUS
10
134.4914312982
20
201.7519526045
11
134.4914312982
21
217.7519526045
0
LINE
5
330
100
AcDbEntity
8
0
100
AcDbLine
62
7
6
CONTINUOUS
10
131.4063249180
20
205.4293113519
11
131.4914312982
21
205.7679907497
0
LINE
5
331
100
AcDbEntity
8
0
100
AcDbLine
62
7
6
CONTINUOUS
10
131.0658993745
20
205.8357266584
11
130.9807930016
21
205.5647831207
0
LINE
5
332
100
AcDbEntity
8
0
100
AcDbLine
62
7
6
CONTINUOUS
10
141.4914312982
20
171.7519526045
11
141.4914312982
21
194.7519526045
0
LINE
5
333
100
AcDbEntity
8
DEFAULT_1
100
AcDbLine
62
2
6
CENTER
10
113.9914312982
20
242.7519526045
11
106.1914312982
21
242.7519526045
0
LINE
5
334
100
AcDbEntity
8
DEFAULT_1
100
AcDbLine
62
2
6
CENTER
10
113.9914312982
20
242.7519526045
11
121.7914312982
21
242.7519526045
0
LINE
5
335
100
AcDbEntity
8
0
100
AcDbLine
62
7
6
CONTINUOUS
10
111.4914312982
20
254.2519526045
11
116.4914312982
21
254.2519526045
0
LINE
5
336
100
AcDbEntity
8
0
100
AcDbLine
62
7
6
CONTINUOUS
10
296.3771299929
20
171.7519526045
11
294.3771299929
21
171.7519526045
0
LINE
5
337
100
AcDbEntity
8
0
100
AcDbLine
62
7
6
CONTINUOUS
10
292.9771299929
20
173.7519526045
11
297.7771299929
21
173.7519526045
0
LINE
5
338
100
AcDbEntity
8
0
100
AcDbLine
62
7
6
CONTINUOUS
10
285.8771299929
20
177.8511395158
11
292.9771299929
21
173.7519526045
0
LINE
5
339
100
AcDbEntity
8
DEFAULT_1
100
AcDbLine
62
2
6
CENTER
10
295.3771299929
20
183.7519526045
11
286.3771299929
21
183.7519526045
0
LINE
5
33A
100
AcDbEntity
8
DEFAULT_1
100
AcDbLine
62
2
6
CENTER
10
295.3771299929
20
183.7519526045
11
304.3771299929
21
183.7519526045
0
LINE
5
33B
100
AcDbEntity
8
0
100
AcDbLine
62
7
6
CONTINUOUS
10
275.8771299929
20
237.2367801618
11
275.8771299929
21
254.2519526045
0
LINE
5
33C
100
AcDbEntity
8
0
100
AcDbLine
62
7
6
CONTINUOUS
10
292.8771299929
20
193.7519526045
11
297.8771299929
21
193.7519526045
0
LINE
5
33D
100
AcDbEntity
8
0
100
AcDbLine
62
7
6
CONTINUOUS
10
282.3771299929
20
194.7519526045
11
284.4684178783
21
194.7519526045
0
LINE
5
33E
100
AcDbEntity
8
0
100
AcDbLine
62
7
6
CONTINUOUS
10
306.2858421075
20
194.7519526045
11
308.3771299929
21
194.7519526045
0
LINE
5
33F
100
AcDbEntity
8
0
100
AcDbLine
62
7
6
CONTINUOUS
10
304.8771299929
20
189.7105007202
11
297.8771299929
21
193.7519526045
0
LINE
5
340
100
AcDbEntity
8
0
100
AcDbLine
62
7
6
CONTINUOUS
10
282.3771299929
20
183.7519526045
11
282.3771299929
21
194.7519526045
0
LINE
5
341
100
AcDbEntity
8
0
100
AcDbLine
62
7
6
CONTINUOUS
10
300.0379370554
20
200.7519526045
11
300.7771299929
21
200.7519526045
0
LINE
5
342
100
AcDbEntity
8
0
100
AcDbLine
62
7
6
CONTINUOUS
10
285.8771299929
20
189.7105007202
11
285.8771299929
21
177.8511395158
0
LINE
5
343
100
AcDbEntity
8
0
100
AcDbLine
62
7
6
CONTINUOUS
10
299.9597056879
20
203.0055624688
11
300.7771299929
21
203.0055624688
0
LINE
5
344
100
AcDbEntity
8
0
100
AcDbLine
62
7
6
CONTINUOUS
10
299.9597056879
20
203.4562845061
11
300.7771299929
21
203.4562845061
0
LINE
5
345
100
AcDbEntity
8
0
100
AcDbLine
62
7
6
CONTINUOUS
10
302.9171687088
20
224.5581906030
11
309.8771299929
21
228.5765261240
0
LINE
5
346
100
AcDbEntity
8
0
100
AcDbLine
62
7
6
CONTINUOUS
10
299.9597056879
20
205.7098945315
11
300.7771299929
21
205.7098945315
0
LINE
5
347
100
AcDbEntity
8
0
100
AcDbLine
62
7
6
CONTINUOUS
10
300.3771299929
20
205.8357266584
11
300.7771299929
21
205.8357266584
0
LINE
5
348
100
AcDbEntity
8
0
100
AcDbLine
62
7
6
CONTINUOUS
10
300.3771299929
20
206.1066700992
11
300.7771299929
21
206.1066700992
0
LINE
5
349
100
AcDbEntity
8
0
100
AcDbLine
62
7
6
CONTINUOUS
10
300.3755000309
20
206.1606164077
11
300.7771299929
21
206.1606164077
0
LINE
5
34A
100
AcDbEntity
8
0
100
AcDbLine
62
7
6
CONTINUOUS
10
300.3771299929
20
206.9872365240
11
300.7771299929
21
206.9872365240
0
LINE
5
34B
100
AcDbEntity
8
0
100
AcDbLine
62
7
6
CONTINUOUS
10
300.3771299929
20
207.1227083413
11
300.7771299929
21
207.1227083413
0
LINE
5
34C
100
AcDbEntity
8
0
100
AcDbLine
62
7
6
CONTINUOUS
10
300.3771299929
20
207.1904441530
11
300.7771299929
21
207.1904441530
0
LINE
5
34D
100
AcDbEntity
8
0
100
AcDbLine
62
7
6
CONTINUOUS
10
290.8271299929
20
254.2519526045
11
290.8271299929
21
234.8019526045
0
LINE
5
34E
100
AcDbEntity
8
0
100
AcDbLine
62
7
6
CONTINUOUS
10
290.3771299929
20
201.7519526045
11
290.3771360062
21
219.6295580684
0
LINE
5
34F
100
AcDbEntity
8
0
100
AcDbLine
62
7
6
CONTINUOUS
10
300.3771299929
20
209.7644073250
11
300.7771299929
21
209.7644073250
0
LINE
5
350
100
AcDbEntity
8
0
100
AcDbLine
62
7
6
CONTINUOUS
10
292.9771299929
20
193.7519526045
11
292.9771299929
21
173.7519526045
0
LINE
5
351
100
AcDbEntity
8
DEFAULT_1
100
AcDbLine
62
2
6
CENTER
10
295.3771299929
20
242.7519526045
11
295.3771299929
21
195.1246209318
0
LINE
5
352
100
AcDbEntity
8
DEFAULT_1
100
AcDbLine
62
2
6
CENTER
10
295.3771299929
20
183.7519526045
11
295.3771299929
21
174.7519526045
0
LINE
5
353
100
AcDbEntity
8
DEFAULT_1
100
AcDbLine
62
2
6
CENTER
10
295.3771299929
20
183.7519526045
11
295.3771299929
21
192.7519526045
0
LINE
5
354
100
AcDbEntity
8
DEFAULT_1
100
AcDbLine
62
2
6
CENTER
10
295.3771299929
20
242.7519526045
11
295.3771299929
21
252.5195047458
0
LINE
5
355
100
AcDbEntity
8
0
100
AcDbLine
62
7
6
CONTINUOUS
10
300.3771299929
20
212.1326831201
11
300.7771299929
21
212.1326831201
0
LINE
5
356
100
AcDbEntity
8
0
100
AcDbLine
62
7
6
CONTINUOUS
10
297.7771299929
20
193.7519526045
11
297.7771299929
21
173.7519526045
0
LINE
5
357
100
AcDbEntity
8
0
100
AcDbLine
62
7
6
CONTINUOUS
10
300.3771299929
20
215.1832773036
11
300.7771299929
21
215.1832773036
0
LINE
5
358
100
AcDbEntity
8
0
100
AcDbLine
62
7
6
CONTINUOUS
10
299.9597056879
20
215.2313958977
11
300.7771299929
21
215.2313958977
0
LINE
5
359
100
AcDbEntity
8
0
100
AcDbLine
62
7
6
CONTINUOUS
10
300.3802768220
20
201.5420819180
11
300.3771299929
21
201.7519526045
0
LINE
5
35A
100
AcDbEntity
8
0
100
AcDbLine
62
7
6
CONTINUOUS
10
299.9271299929
20
234.8019526045
11
299.9271299929
21
254.2519526045
0
LINE
5
35B
100
AcDbEntity
8
0
100
AcDbLine
62
7
6
CONTINUOUS
10
299.9597056879
20
217.4850062455
11
299.9597056879
21
217.1469647578
0
LINE
5
35C
100
AcDbEntity
8
0
100
AcDbLine
62
7
6
CONTINUOUS
10
299.9597056879
20
215.5694373854
11
299.9597056879
21
215.2313958977
0
LINE
5
35D
100
AcDbEntity
8
0
100
AcDbLine
62
7
6
CONTINUOUS
10
299.9597056879
20
213.9919113025
11
299.9597056879
21
213.4848490709
0
LINE
5
35E
100
AcDbEntity
8
0
100
AcDbLine
62
7
6
CONTINUOUS
10
299.9597056879
20
211.2312387231
11
299.9597056879
21
210.9495372684
0
LINE
5
35F
100
AcDbEntity
8
0
100
AcDbLine
62
7
6
CONTINUOUS
10
299.9597056879
20
208.8086082762
11
299.9597056879
21
208.3015460447
0
LINE
5
360
100
AcDbEntity
8
0
100
AcDbLine
62
7
6
CONTINUOUS
10
299.9597056879
20
205.7098945315
11
299.9597056879
21
205.3718530438
0
LINE
5
361
100
AcDbEntity
8
0
100
AcDbLine
62
7
6
CONTINUOUS
10
299.9597056879
20
203.7943259938
11
299.9597056879
21
203.4562845061
0
LINE
5
362
100
AcDbEntity
8
0
100
AcDbLine
62
7
6
CONTINUOUS
10
299.9597056879
20
203.0055624688
11
299.9597056879
21
202.6675209811
0
LINE
5
363
100
AcDbEntity
8
0
100
AcDbLine
62
7
6
CONTINUOUS
10
300.3624411499
20
217.1469647578
11
300.3624411499
21
215.5694373854
0
LINE
5
364
100
AcDbEntity
8
0
100
AcDbLine
62
7
6
CONTINUOUS
10
300.3771247160
20
219.6294380851
11
300.3771299929
21
217.4850062455
0
LINE
5
365
100
AcDbEntity
8
0
100
AcDbLine
62
7
6
CONTINUOUS
10
300.3771299929
20
215.2313958977
11
300.3771299929
21
214.7806743439
0
LINE
5
366
100
AcDbEntity
8
0
100
AcDbLine
62
7
6
CONTINUOUS
10
300.3771299929
20
212.5834046739
11
300.3771299929
21
211.9636623763
0
LINE
5
367
100
AcDbEntity
8
0
100
AcDbLine
62
7
6
CONTINUOUS
10
300.3771299929
20
210.2171142600
11
300.3771299929
21
209.5973713177
0
LINE
5
368
100
AcDbEntity
8
0
100
AcDbLine
62
7
6
CONTINUOUS
10
300.3771299929
20
207.4001016476
11
300.3771299929
21
205.7098945315
0
LINE
5
369
100
AcDbEntity
8
0
100
AcDbLine
62
7
6
CONTINUOUS
10
300.3771299929
20
204.9198455047
11
300.3771299929
21
204.2463333482
0
LINE
5
36A
100
AcDbEntity
8
0
100
AcDbLine
62
7
6
CONTINUOUS
10
300.3771299929
20
203.4562845061
11
300.3771299929
21
203.0055624688
0
LINE
5
36B
100
AcDbEntity
8
0
100
AcDbLine
62
7
6
CONTINUOUS
10
300.3771299929
20
202.2155148097
11
300.3771299929
21
201.7519526045
0
LINE
5
36C
100
AcDbEntity
8
0
100
AcDbLine
62
7
6
CONTINUOUS
10
300.7771299929
20
217.4850062455
11
300.7771299929
21
212.5834046739
0
LINE
5
36D
100
AcDbEntity
8
0
100
AcDbLine
62
7
6
CONTINUOUS
10
300.7771299929
20
212.1326831201
11
300.7771299929
21
207.4001016476
0
LINE
5
36E
100
AcDbEntity
8
0
100
AcDbLine
62
7
6
CONTINUOUS
10
300.7771299929
20
207.1904441530
11
300.7771299929
21
203.4562845061
0
LINE
5
36F
100
AcDbEntity
8
0
100
AcDbLine
62
7
6
CONTINUOUS
10
300.7771299929
20
203.0055624688
11
300.7771299929
21
200.7519526045
0
LINE
5
370
100
AcDbEntity
8
0
100
AcDbLine
62
7
6
CONTINUOUS
10
299.9597056879
20
217.4850062455
11
300.7771299929
21
217.4850062455
0
LINE
5
371
100
AcDbEntity
8
0
100
AcDbLine
62
7
6
CONTINUOUS
10
287.8370987722
20
224.5581862757
11
280.8771299929
21
228.5765261240
0
LINE
5
372
100
AcDbEntity
8
0
100
AcDbLine
62
7
6
CONTINUOUS
10
304.8771299929
20
177.8511395158
11
304.8771299929
21
189.7105007202
0
LINE
5
373
100
AcDbEntity
8
0
100
AcDbLine
62
7
6
CONTINUOUS
10
308.3771299929
20
194.7519526045
11
308.3771299929
21
183.7519526045
0
LINE
5
374
100
AcDbEntity
8
0
100
AcDbLine
62
7
6
CONTINUOUS
10
292.8771299929
20
193.7519526045
11
285.8771299929
21
189.7105007202
0
LINE
5
375
100
AcDbEntity
8
0
100
AcDbLine
62
7
6
CONTINUOUS
10
314.8771299929
20
254.2519526045
11
314.8771299929
21
237.2367801618
0
LINE
5
376
100
AcDbEntity
8
0
100
AcDbLine
62
7
6
CONTINUOUS
10
290.8271299929
20
237.9519526045
11
299.9271299929
21
237.9519526045
0
LINE
5
377
100
AcDbEntity
8
DEFAULT_1
100
AcDbLine
62
2
6
CENTER
10
295.3771299929
20
242.7519526045
11
289.1183363431
21
242.7519526045
0
LINE
5
378
100
AcDbEntity
8
DEFAULT_1
100
AcDbLine
62
2
6
CENTER
10
295.3771299929
20
242.7519526045
11
301.3024345574
21
242.7519526045
0
LINE
5
379
100
AcDbEntity
8
0
100
AcDbLine
62
7
6
CONTINUOUS
10
297.7771299929
20
173.7519526045
11
304.8771299929
21
177.8511395158
0
LINE
5
37A
100
AcDbEntity
8
0
100
AcDbLine
62
7
6
CONTINUOUS
10
290.8271299929
20
247.5519526045
11
299.9271299929
21
247.5519526045
0
LINE
5
37B
100
AcDbEntity
8
0
100
AcDbLine
62
7
6
CONTINUOUS
10
314.8771299929
20
254.2519526045
11
299.9271299929
21
254.2519526045
0
LINE
5
37C
100
AcDbEntity
8
0
100
AcDbLine
62
7
6
CONTINUOUS
10
290.8271299929
20
254.2519526045
11
275.8771299929
21
254.2519526045
0
LINE
5
37D
100
AcDbEntity
8
0
100
AcDbLine
62
7
6
CONTINUOUS
10
80.4914312982
20
115.0134590964
11
80.4914312982
21
110.2134590964
0
LINE
5
37E
100
AcDbEntity
8
0
100
AcDbLine
62
7
6
CONTINUOUS
10
90.4914312982
20
103.1134590964
11
90.4914312982
21
110.2134590964
0
LINE
5
37F
100
AcDbEntity
8
0
100
AcDbLine
62
7
6
CONTINUOUS
10
90.4914312982
20
115.0134590964
11
90.4914312982
21
122.1134590964
0
LINE
5
380
100
AcDbEntity
8
0
100
AcDbLine
62
7
6
CONTINUOUS
10
102.4914312982
20
93.1134590964
11
125.4914312982
21
93.1134590964
0
LINE
5
381
100
AcDbEntity
8
0
100
AcDbLine
62
7
6
CONTINUOUS
10
93.4914312982
20
125.6134590964
11
93.4914312982
21
99.6134590964
0
LINE
5
382
100
AcDbEntity
8
0
100
AcDbLine
62
7
6
CONTINUOUS
10
96.4914312982
20
108.0308834014
11
96.4914312982
21
107.2134590964
0
LINE
5
383
100
AcDbEntity
8
0
100
AcDbLine
62
7
6
CONTINUOUS
10
93.4914312982
20
99.6134590964
11
102.4914312982
21
99.6134590964
0
LINE
5
384
100
AcDbEntity
8
0
100
AcDbLine
62
7
6
CONTINUOUS
10
125.4914312982
20
99.6134590964
11
131.4914312982
21
99.6134590964
0
LINE
5
385
100
AcDbEntity
8
0
100
AcDbLine
62
7
6
CONTINUOUS
10
93.4914312982
20
103.1134590964
11
90.4914312982
21
103.1134590964
0
LINE
5
386
100
AcDbEntity
8
0
100
AcDbLine
62
7
6
CONTINUOUS
10
131.4914312982
20
103.1134590964
11
141.4914312982
21
103.1134590964
0
LINE
5
387
100
AcDbEntity
8
0
100
AcDbLine
62
7
6
CONTINUOUS
10
102.4914312982
20
93.1134590964
11
102.4914312982
21
108.2899084820
0
LINE
5
388
100
AcDbEntity
8
0
100
AcDbLine
62
7
6
CONTINUOUS
10
102.4914312982
20
116.9370023403
11
102.4914312982
21
132.1134590964
0
LINE
5
389
100
AcDbEntity
8
0
100
AcDbLine
62
7
6
CONTINUOUS
10
130.2042122390
20
107.6880362388
11
130.3384621947
21
107.7086751088
0
LINE
5
38A
100
AcDbEntity
8
0
100
AcDbLine
62
7
6
CONTINUOUS
10
131.4914312982
20
107.2134590964
11
128.5530201042
21
107.2134590964
0
LINE
5
38B
100
AcDbEntity
8
0
100
AcDbLine
62
7
6
CONTINUOUS
10
99.4298785007
20
107.2134590964
11
96.4914312982
21
107.2134590964
0
LINE
5
38C
100
AcDbEntity
8
0
100
AcDbLine
62
7
6
CONTINUOUS
10
102.4914312982
20
108.0634590964
11
125.4914312982
21
108.0634590964
0
LINE
5
38D
100
AcDbEntity
8
0
100
AcDbLine
62
7
6
CONTINUOUS
10
97.7790357009
20
107.6880460427
11
97.6439835618
21
107.7088044098
0
LINE
5
38E
100
AcDbEntity
8
0
100
AcDbLine
62
7
6
CONTINUOUS
10
93.4914312982
20
110.1134590964
11
90.4914312982
21
110.1134590964
0
LINE
5
38F
100
AcDbEntity
8
0
100
AcDbLine
62
7
6
CONTINUOUS
10
90.4914312982
20
110.2134590964
11
80.4918806207
21
110.2134590964
0
LINE
5
390
100
AcDbEntity
8
0
100
AcDbLine
62
7
6
CONTINUOUS
10
109.1914312982
20
117.1634590964
11
109.1914312982
21
108.0634590964
0
LINE
5
391
100
AcDbEntity
8
DEFAULT_1
100
AcDbLine
62
2
6
CENTER
10
77.4755811036
20
112.6134590964
11
144.4914312982
21
112.6134590964
0
LINE
5
392
100
AcDbEntity
8
0
100
AcDbLine
62
7
6
CONTINUOUS
10
90.4914312982
20
115.0134590964
11
80.4918806207
21
115.0134590964
0
LINE
5
393
100
AcDbEntity
8
0
100
AcDbLine
62
7
6
CONTINUOUS
10
93.4914312982
20
115.1134590964
11
90.4914312982
21
115.1134590964
0
LINE
5
394
100
AcDbEntity
8
DEFAULT_1
100
AcDbLine
62
2
6
CENTER
10
113.9914312982
20
106.3077218572
11
113.9914312982
21
118.4631285301
0
LINE
5
395
100
AcDbEntity
8
0
100
AcDbLine
62
7
6
CONTINUOUS
10
102.4914312982
20
117.1634590964
11
125.4914312982
21
117.1634590964
0
LINE
5
396
100
AcDbEntity
8
0
100
AcDbLine
62
7
6
CONTINUOUS
10
97.7787926459
20
117.5388810063
11
97.6442475233
21
117.5182001230
0
LINE
5
397
100
AcDbEntity
8
0
100
AcDbLine
62
7
6
CONTINUOUS
10
118.7914312982
20
117.1634590964
11
118.7914312982
21
108.0634590964
0
LINE
5
398
100
AcDbEntity
8
0
100
AcDbLine
62
7
6
CONTINUOUS
10
141.4914312982
20
122.1134590964
11
131.4914312982
21
122.1134590964
0
LINE
5
399
100
AcDbEntity
8
0
100
AcDbLine
62
7
6
CONTINUOUS
10
93.4914312982
20
122.1134590964
11
90.4914312982
21
122.1134590964
0
LINE
5
39A
100
AcDbEntity
8
0
100
AcDbLine
62
7
6
CONTINUOUS
10
130.2041280367
20
117.5388822135
11
130.3385799947
21
117.5182125942
0
LINE
5
39B
100
AcDbEntity
8
0
100
AcDbLine
62
7
6
CONTINUOUS
10
125.4914312982
20
93.1134590964
11
125.4914312982
21
108.2899690876
0
LINE
5
39C
100
AcDbEntity
8
0
100
AcDbLine
62
7
6
CONTINUOUS
10
125.4914312982
20
116.9369913583
11
125.4914312982
21
132.1134590964
0
LINE
5
39D
100
AcDbEntity
8
0
100
AcDbLine
62
7
6
CONTINUOUS
10
93.4914312982
20
125.6134590964
11
102.4914312982
21
125.6134590964
0
LINE
5
39E
100
AcDbEntity
8
0
100
AcDbLine
62
7
6
CONTINUOUS
10
125.4914312982
20
125.6134590964
11
131.4914312982
21
125.6134590964
0
LINE
5
39F
100
AcDbEntity
8
0
100
AcDbLine
62
7
6
CONTINUOUS
10
128.7680271292
20
107.3012124088
11
128.7680271292
21
107.2134590964
0
LINE
5
3A0
100
AcDbEntity
8
0
100
AcDbLine
62
7
6
CONTINUOUS
10
129.0233462477
20
107.3961822522
11
129.0233462477
21
107.2134590964
0
LINE
5
3A1
100
AcDbEntity
8
0
100
AcDbLine
62
7
6
CONTINUOUS
10
129.3637717390
20
107.5021511623
11
129.3637717390
21
107.2134590964
0
LINE
5
3A2
100
AcDbEntity
8
0
100
AcDbLine
62
7
6
CONTINUOUS
10
129.6190908575
20
107.5677772992
11
129.6190908575
21
107.2134590964
0
LINE
5
3A3
100
AcDbEntity
8
0
100
AcDbLine
62
7
6
CONTINUOUS
10
129.7041972303
20
107.5895994219
11
129.7041972303
21
107.2134590964
0
LINE
5
3A4
100
AcDbEntity
8
0
100
AcDbLine
62
7
6
CONTINUOUS
10
102.4914312982
20
132.1134590964
11
125.4914312982
21
132.1134590964
0
LINE
5
3A5
100
AcDbEntity
8
0
100
AcDbLine
62
7
6
CONTINUOUS
10
131.4914312982
20
108.0308834014
11
131.4914312982
21
107.2134590964
0
LINE
5
3A6
100
AcDbEntity
8
0
100
AcDbLine
62
7
6
CONTINUOUS
10
131.4914312982
20
99.6134590964
11
131.4914312982
21
103.1134590964
0
LINE
5
3A7
100
AcDbEntity
8
0
100
AcDbLine
62
7
6
CONTINUOUS
10
131.4914312982
20
122.1134590964
11
131.4914312982
21
125.6134590964
0
LINE
5
3A8
100
AcDbEntity
8
0
100
AcDbLine
62
7
6
CONTINUOUS
10
141.4914312982
20
122.1134590964
11
141.4914312982
21
103.1134590964
0
ARC
5
3A9
100
AcDbEntity
8
0
100
AcDbCircle
62
7
6
CONTINUOUS
10
131.4914312982
20
234.4552367484
40
5.9999955864
100
AcDbArc
50
224.4709794507
51
236.6329400489
0
ARC
5
3AA
100
AcDbEntity
8
0
100
AcDbCircle
62
7
6
CONTINUOUS
10
118.4914736354
20
215.7519873734
40
5.9999769082
100
AcDbArc
50
359.9996674246
51
90.0003896994
0
CIRCLE
5
3AB
100
AcDbEntity
8
0
100
AcDbCircle
62
7
6
CONTINUOUS
10
113.9914312982
20
242.7519526045
40
4.8000000000
0
ARC
5
3AC
100
AcDbEntity
8
0
100
AcDbCircle
62
7
6
CONTINUOUS
10
96.4914312982
20
234.4552123507
40
5.9999836210
100
AcDbArc
50
303.3671880907
51
315.5292267143
0
ARC
5
3AD
100
AcDbEntity
8
0
100
AcDbCircle
62
7
6
CONTINUOUS
10
109.4913538252
20
215.7520164324
40
5.9999577442
100
AcDbArc
50
89.9992719045
51
180.0006099211
0
ARC
5
3AE
100
AcDbEntity
8
0
100
AcDbCircle
62
7
6
CONTINUOUS
10
141.4914312982
20
201.7519526045
40
7.0000000000
100
AcDbArc
50
180.0000000000
51
270.0000000000
0
ARC
5
3AF
100
AcDbEntity
8
0
100
AcDbCircle
62
7
6
CONTINUOUS
10
107.4914312982
20
217.7519526045
40
14.0000000000
100
AcDbArc
50
123.3670129692
51
180.0000000000
0
ARC
5
3B0
100
AcDbEntity
8
0
100
AcDbCircle
62
7
6
CONTINUOUS
10
120.4914312982
20
217.7519526045
40
14.0000000000
100
AcDbArc
50
0.0000000000
51
56.6329870308
0
CIRCLE
5
3B1
100
AcDbEntity
8
0
100
AcDbCircle
62
7
6
CONTINUOUS
10
98.4914312982
20
189.4519526045
40
1.7500000000
0
ARC
5
3B2
100
AcDbEntity
8
0
100
AcDbCircle
62
7
6
CONTINUOUS
10
90.4914312982
20
183.7519526045
40
10.0000000000
100
AcDbArc
50
90.0000000000
51
270.0000000000
0
ARC
5
3B3
100
AcDbEntity
8
0
100
AcDbCircle
62
7
6
CONTINUOUS
10
111.4914312982
20
245.2519526045
40
9.0000000000
100
AcDbArc
50
90.0000000000
51
180.0000000000
0
ARC
5
3B4
100
AcDbEntity
8
0
100
AcDbCircle
62
7
6
CONTINUOUS
10
116.4914312982
20
245.2519526045
40
9.0000000000
100
AcDbArc
50
0.0000000000
51
90.0000000000
0
CIRCLE
5
3B5
100
AcDbEntity
8
0
100
AcDbCircle
62
7
6
CONTINUOUS
10
310.0771299929
20
242.7519526045
40
1.7500000000
0
ARC
5
3B6
100
AcDbEntity
8
0
100
AcDbCircle
62
7
6
CONTINUOUS
10
306.3771216205
20
219.6275921178
40
5.9999954333
100
AcDbArc
50
167.9845447665
51
180.0001563034
0
ARC
5
3B7
100
AcDbEntity
8
0
100
AcDbCircle
62
7
6
CONTINUOUS
10
284.3771365785
20
219.6275931493
40
5.9999964079
100
AcDbArc
50
359.9997930442
51
12.0146490854
0
ARC
5
3B8
100
AcDbEntity
8
0
100
AcDbCircle
62
7
6
CONTINUOUS
10
296.3771299929
20
183.7519526045
40
12.0000000000
100
AcDbArc
50
270.0000000000
51
360.0000000000
0
ARC
5
3B9
100
AcDbEntity
8
0
100
AcDbCircle
62
7
6
CONTINUOUS
10
294.3771299929
20
183.7519526045
40
12.0000000000
100
AcDbArc
50
180.0000000000
51
270.0000000000
0
ARC
5
3BA
100
AcDbEntity
8
0
100
AcDbCircle
62
7
6
CONTINUOUS
10
307.3771299929
20
201.7519526045
40
7.0000000000
100
AcDbArc
50
188.2232975919
51
270.0000000000
0
ARC
5
3BB
100
AcDbEntity
8
0
100
AcDbCircle
62
7
6
CONTINUOUS
10
283.3771299929
20
201.7519526045
40
7.0000000000
100
AcDbArc
50
270.0000000000
51
360.0000000000
0
ARC
5
3BC
100
AcDbEntity
8
0
100
AcDbCircle
62
7
6
CONTINUOUS
10
295.3771299929
20
234.8019526045
40
4.5500000000
100
AcDbArc
50
180.0000000000
51
360.0000000000
0
ARC
5
3BD
100
AcDbEntity
8
0
100
AcDbCircle
62
7
6
CONTINUOUS
10
304.8771299929
20
237.2367801618
40
10.0000000000
100
AcDbArc
50
300.0000000000
51
360.0000000000
0
ARC
5
3BE
100
AcDbEntity
8
0
100
AcDbCircle
62
7
6
CONTINUOUS
10
285.8771299929
20
237.2367801618
40
10.0000000000
100
AcDbArc
50
180.0000000000
51
240.0000000000
0
ARC
5
3BF
100
AcDbEntity
8
0
100
AcDbCircle
62
7
6
CONTINUOUS
10
98.4914312982
20
112.6134590964
40
5.0000000000
100
AcDbArc
50
95.1605450878
51
264.8414964493
0
ARC
5
3C0
100
AcDbEntity
8
0
100
AcDbCircle
62
7
6
CONTINUOUS
10
129.4914312982
20
112.6134590964
40
5.0000000000
100
AcDbArc
50
275.1583554822
51
84.8395786551
0
SPLINE
5
3C1
100
AcDbEntity
8
0
100
AcDbSpline
62
7
6
CONTINUOUS
70
0
71
3
72
15
73
11
74
9
42
0.0000001000
43
0.0000001000
44
0.0000000001
40
0.0000000000
40
0.0000000000
40
0.0000000000
40
0.0000000000
40
0.2124772112
40
0.4052477035
40
0.5742186596
40
0.7197823698
40
0.8385489389
40
0.9278753966
40
0.9824942613
40
1.0000000000
40
1.0000000000
40
1.0000000000
40
1.0000000000
10
102.4914312982
20
233.3845843983
30
0.0000000000
10
102.4914312972
20
233.1175002380
30
0.0000000000
10
102.4550411918
20
232.6067316659
30
0.0000000000
10
102.2736644816
20
231.9033344987
30
0.0000000000
10
101.9884764591
20
231.3275764958
30
0.0000000000
10
101.6498563611
20
230.8966076680
30
0.0000000000
10
101.3182407596
20
230.5981097754
30
0.0000000000
10
101.0470292664
20
230.4087557997
30
0.0000000000
10
100.8721527552
20
230.3055805575
30
0.0000000000
10
100.7924866880
20
230.2622958862
30
0.0000000000
10
100.7730650784
20
230.2519526045
30
0.0000000000
11
102.4914312982
21
233.3845843983
31
0.0000000000
11
102.4280863104
21
232.5858397891
31
0.0000000000
11
102.2408458789
21
231.8834293688
31
0.0000000000
11
101.9554089307
21
231.3137477860
31
0.0000000000
11
101.6163946496
21
230.8820256551
31
0.0000000000
11
101.2842178298
21
230.5816168990
31
0.0000000000
11
101.0083827194
21
230.3882694840
31
0.0000000000
11
100.8310680664
21
230.2834729175
31
0.0000000000
11
100.7730650784
21
230.2519526045
31
0.0000000000
0
SPLINE
5
3C2
100
AcDbEntity
8
0
100
AcDbSpline
62
7
6
CONTINUOUS
70
0
71
3
72
15
73
11
74
9
42
0.0000001000
43
0.0000001000
44
0.0000000001
40
0.0000000000
40
0.0000000000
40
0.0000000000
40
0.0000000000
40
0.0200091350
40
0.0806927485
40
0.1755254198
40
0.2978074627
40
0.4428196703
40
0.6076683208
40
0.7947962286
40
1.0000000000
40
1.0000000000
40
1.0000000000
40
1.0000000000
10
127.2098001225
20
230.2519526046
30
0.0000000000
10
127.1875978052
20
230.2637756175
30
0.0000000000
10
127.0985103426
20
230.3123143836
30
0.0000000000
10
126.9089651584
20
230.4255711516
30
0.0000000000
10
126.6246299299
20
230.6295072384
30
0.0000000000
10
126.2910685718
20
230.9420105230
30
0.0000000000
10
125.9634027578
20
231.3795985810
30
0.0000000000
10
125.6946197297
20
231.9484788431
30
0.0000000000
10
125.5254608165
20
232.6324457998
30
0.0000000000
10
125.4914312963
20
233.1268898053
30
0.0000000000
10
125.4914312982
20
233.3848673808
30
0.0000000000
11
127.2098001225
21
230.2519526046
31
0.0000000000
11
127.1435361840
21
230.2880645513
31
0.0000000000
11
126.9471759423
21
230.4056410708
31
0.0000000000
11
126.6569673591
21
230.6146934213
31
0.0000000000
11
126.3211176390
21
230.9307659523
31
0.0000000000
11
125.9931979697
21
231.3684739521
31
0.0000000000
11
125.7249843144
21
231.9293769762
31
0.0000000000
11
125.5503041986
21
232.6131771275
31
0.0000000000
11
125.4914312982
21
233.3848673808
31
0.0000000000
0
SPLINE
5
3C3
100
AcDbEntity
8
0
100
AcDbSpline
62
7
6
CONTINUOUS
70
0
71
3
72
16
73
12
74
10
42
0.0000001000
43
0.0000001000
44
0.0000000001
40
0.0000000000
40
0.0000000000
40
0.0000000000
40
0.0000000000
40
0.1034108432
40
0.2071690179
40
0.3108202596
40
0.4139922879
40
0.5172487236
40
0.6238742910
40
0.7374295976
40
0.8615193869
40
1.0000000000
40
1.0000000000
40
1.0000000000
40
1.0000000000
10
131.4914312982
20
195.1377365461
30
0.0000000000
10
131.6752822599
20
195.1246131802
30
0.0000000000
10
132.0434086760
20
195.0955850053
30
0.0000000000
10
132.5952008342
20
195.0460700465
30
0.0000000000
10
133.1462450527
20
194.9931508774
30
0.0000000000
10
133.6963219436
20
194.9395371763
30
0.0000000000
10
134.2518626516
20
194.8873317814
30
0.0000000000
10
134.8262731883
20
194.8382564285
30
0.0000000000
10
135.4383810928
20
194.7946728013
30
0.0000000000
10
136.1080087444
20
194.7612014978
30
0.0000000000
10
136.5760435997
20
194.7519526045
30
0.0000000000
10
136.8228704476
20
194.7519526045
30
0.0000000000
11
131.4914312982
21
195.1377365461
31
0.0000000000
11
132.0427057886
21
195.0946433243
31
0.0000000000
11
132.5953365253
21
195.0454777258
31
0.0000000000
11
133.1470823693
21
194.9929385533
31
0.0000000000
11
133.6962030749
21
194.9398684491
31
0.0000000000
11
134.2459535521
21
194.8886571880
31
0.0000000000
11
134.8140709988
21
194.8406056560
31
0.0000000000
11
135.4197781808
21
194.7980470369
31
0.0000000000
11
136.0825163276
21
194.7656351611
31
0.0000000000
11
136.8228704476
21
194.7519526045
31
0.0000000000
0
SPLINE
5
3C4
100
AcDbEntity
8
0
100
AcDbSpline
62
7
6
CONTINUOUS
70
0
71
3
72
13
73
9
74
7
42
0.0000001000
43
0.0000001000
44
0.0000000001
40
0.0000000000
40
0.0000000000
40
0.0000000000
40
0.0000000000
40
0.1411035647
40
0.3033873428
40
0.4759893369
40
0.6524161187
40
0.8283044186
40
1.0000000000
40
1.0000000000
40
1.0000000000
40
1.0000000000
10
126.1179537218
20
224.5581804456
30
0.0000000000
10
126.3364099829
20
224.3285772076
30
0.0000000000
10
126.8099467647
20
223.8385764295
30
0.0000000000
10
127.5381589644
20
223.0556619439
30
0.0000000000
10
128.2900438516
20
222.1871504164
30
0.0000000000
10
129.0212275048
20
221.2617237977
30
0.0000000000
10
129.7067370779
20
220.3045156335
30
0.0000000000
10
130.1334691155
20
219.6505030557
30
0.0000000000
10
130.3384621947
20
219.3238656242
30
0.0000000000
11
126.1179537218
21
224.5581804456
31
0.0000000000
11
126.7748574875
21
223.8708344581
31
0.0000000000
11
127.5177024938
21
223.0684043780
31
0.0000000000
11
128.2778003055
21
222.1881499826
31
0.0000000000
11
129.0144898045
21
221.2551466634
31
0.0000000000
11
129.7050581291
21
220.2919704002
31
0.0000000000
11
130.3384621947
21
219.3238656242
31
0.0000000000
0
SPLINE
5
3C5
100
AcDbEntity
8
0
100
AcDbSpline
62
7
6
CONTINUOUS
70
0
71
3
72
10
73
6
74
4
42
0.0000001000
43
0.0000001000
44
0.0000000001
40
0.0000000000
40
0.0000000000
40
0.0000000000
40
0.0000000000
40
0.3629528224
40
0.6918163975
40
1.0000000000
40
1.0000000000
40
1.0000000000
40
1.0000000000
10
101.8649140947
20
224.5581906030
30
0.0000000000
10
101.9944668690
20
224.6943671455
30
0.0000000000
10
102.2192887430
20
224.9773322400
30
0.0000000000
10
102.4402648722
20
225.4515953878
30
0.0000000000
10
102.4915129088
20
225.7832490114
30
0.0000000000
10
102.4914312982
20
225.9428437784
30
0.0000000000
11
101.8649140947
21
224.5581906030
31
0.0000000000
11
102.2105638326
21
225.0036993092
31
0.0000000000
11
102.4209769444
21
225.4692715550
31
0.0000000000
11
102.4914312982
21
225.9428437784
31
0.0000000000
0
SPLINE
5
3C6
100
AcDbEntity
8
0
100
AcDbSpline
62
7
6
CONTINUOUS
70
0
71
3
72
13
73
9
74
7
42
0.0000001000
43
0.0000001000
44
0.0000000001
40
0.0000000000
40
0.0000000000
40
0.0000000000
40
0.0000000000
40
0.1410737621
40
0.3033467968
40
0.4759240952
40
0.6523368511
40
0.8282266377
40
1.0000000000
40
1.0000000000
40
1.0000000000
40
1.0000000000
10
101.8649140947
20
224.5581868415
30
0.0000000000
10
101.6464888225
20
224.3285939324
30
0.0000000000
10
101.1729818622
20
223.8385775419
30
0.0000000000
10
100.4447301835
20
223.0557241986
30
0.0000000000
10
99.6928479889
20
222.1871741285
30
0.0000000000
10
98.9616232386
20
221.2617050675
30
0.0000000000
10
98.2759571049
20
220.3042592737
30
0.0000000000
10
97.8489731962
20
219.6500811422
30
0.0000000000
10
97.6439835618
20
219.3231805646
30
0.0000000000
11
101.8649140947
21
224.5581868415
31
0.0000000000
11
101.2080906757
21
223.8708837591
31
0.0000000000
11
100.4651804422
21
223.0684335724
31
0.0000000000
11
99.7051031676
21
222.1881965854
31
0.0000000000
11
98.9683851731
21
221.2551540936
31
0.0000000000
11
98.2777063228
21
220.2918694222
31
0.0000000000
11
97.6439835618
21
219.3231805646
31
0.0000000000
0
SPLINE
5
3C7
100
AcDbEntity
8
0
100
AcDbSpline
62
7
6
CONTINUOUS
70
0
71
3
72
10
73
6
74
4
42
0.0000001000
43
0.0000001000
44
0.0000000001
40
0.0000000000
40
0.0000000000
40
0.0000000000
40
0.0000000000
40
0.3629909327
40
0.6918467730
40
1.0000000000
40
1.0000000000
40
1.0000000000
40
1.0000000000
10
126.1179537218
20
224.5581855410
30
0.0000000000
10
125.9883788387
20
224.6943721285
30
0.0000000000
10
125.7635551356
20
224.9773421350
30
0.0000000000
10
125.5424340978
20
225.4515928156
30
0.0000000000
10
125.4914424576
20
225.7832499325
30
0.0000000000
10
125.4914312982
20
225.9428313508
30
0.0000000000
11
126.1179537218
21
224.5581855410
31
0.0000000000
11
125.7722390219
21
225.0037293422
31
0.0000000000
11
125.5618064451
21
225.4692878983
31
0.0000000000
11
125.4914312982
21
225.9428313508
31
0.0000000000
0
SPLINE
5
3C8
100
AcDbEntity
8
0
100
AcDbSpline
62
7
6
CONTINUOUS
70
0
71
3
72
12
73
8
74
6
42
0.0000001000
43
0.0000001000
44
0.0000000001
40
0.0000000000
40
0.0000000000
40
0.0000000000
40
0.0000000000
40
0.2519325291
40
0.4799519262
40
0.6980490360
40
0.9143769134
40
1.0000000000
40
1.0000000000
40
1.0000000000
40
1.0000000000
10
287.8370957856
20
224.5581811027
30
0.0000000000
10
288.1669485015
20
224.3677405483
30
0.0000000000
10
288.7562325768
20
223.9287115294
30
0.0000000000
10
289.4249013341
20
223.1002448564
30
0.0000000000
10
289.8770200405
20
222.2000633247
30
0.0000000000
10
290.1149619634
20
221.4483502648
30
0.0000000000
10
290.2186985970
20
221.0035534127
30
0.0000000000
10
290.2456673565
20
220.8769023128
30
0.0000000000
11
287.8370957856
21
224.5581811027
31
0.0000000000
11
288.7499025342
21
223.8708546806
31
0.0000000000
11
289.4023081925
21
223.0684174756
31
0.0000000000
11
289.8535958207
21
222.1881782097
31
0.0000000000
11
290.1570986874
21
221.2551417983
31
0.0000000000
11
290.2456673565
21
220.8769023128
31
0.0000000000
0
SPLINE
5
3C9
100
AcDbEntity
8
0
100
AcDbSpline
62
7
6
CONTINUOUS
70
0
71
3
72
12
73
8
74
6
42
0.0000001000
43
0.0000001000
44
0.0000000001
40
0.0000000000
40
0.0000000000
40
0.0000000000
40
0.0000000000
40
0.2519279036
40
0.4799544484
40
0.6980536100
40
0.9143851691
40
1.0000000000
40
1.0000000000
40
1.0000000000
40
1.0000000000
10
302.9171708805
20
224.5581868415
30
0.0000000000
10
302.5873275064
20
224.3677516807
30
0.0000000000
10
301.9980450185
20
223.9287276506
30
0.0000000000
10
301.3293724401
20
223.1002678180
30
0.0000000000
10
300.8772469415
20
222.2000795870
30
0.0000000000
10
300.6393031243
20
221.4483782881
30
0.0000000000
10
300.5355737806
20
221.0035922969
30
0.0000000000
10
300.5086082156
20
220.8769547189
30
0.0000000000
11
302.9171708805
21
224.5581868415
31
0.0000000000
11
302.0043870672
21
223.8708837591
31
0.0000000000
11
301.3519623167
21
223.0684335724
31
0.0000000000
11
300.9006714452
21
222.1881965854
31
0.0000000000
11
300.5971648850
21
221.2551540936
31
0.0000000000
11
300.5086082156
21
220.8769547189
31
0.0000000000
0
SPLINE
5
3CA
100
AcDbEntity
8
0
100
AcDbSpline
62
7
6
CONTINUOUS
70
0
71
3
72
9
73
5
74
3
42
0.0000001000
43
0.0000001000
44
0.0000000001
40
0.0000000000
40
0.0000000000
40
0.0000000000
40
0.0000000000
40
0.4734755547
40
1.0000000000
40
1.0000000000
40
1.0000000000
40
1.0000000000
10
300.5086082156
20
220.8769547189
30
0.0000000000
10
300.4673025009
20
220.6829719246
30
0.0000000000
10
300.3921856158
20
220.2706875514
30
0.0000000000
10
300.3375184814
20
219.8553281465
30
0.0000000000
10
300.3133171888
20
219.6361444348
30
0.0000000000
11
300.5086082156
21
220.8769547189
31
0.0000000000
11
300.4007548900
21
220.2918694222
31
0.0000000000
11
300.3133171888
21
219.6361444348
31
0.0000000000
0
SPLINE
5
3CB
100
AcDbEntity
8
0
100
AcDbSpline
62
7
6
CONTINUOUS
70
0
71
3
72
8
73
4
74
2
42
0.0000001000
43
0.0000001000
44
0.0000000001
40
0.0000000000
40
0.0000000000
40
0.0000000000
40
0.0000000000
40
1.0000000000
40
1.0000000000
40
1.0000000000
40
1.0000000000
10
300.3133171888
20
219.6361444348
30
0.0000000000
10
300.3018092023
20
219.5319201178
30
0.0000000000
10
300.2913373216
20
219.4275857229
30
0.0000000000
10
300.2817846795
20
219.3231805646
30
0.0000000000
11
300.3133171888
21
219.6361444348
31
0.0000000000
11
300.2817846795
21
219.3231805646
31
0.0000000000
0
SPLINE
5
3CC
100
AcDbEntity
8
0
100
AcDbSpline
62
7
6
CONTINUOUS
70
0
71
3
72
10
73
6
74
4
42
0.0000001000
43
0.0000001000
44
0.0000000001
40
0.0000000000
40
0.0000000000
40
0.0000000000
40
0.0000000000
40
0.2292703585
40
0.5972457237
40
1.0000000000
40
1.0000000000
40
1.0000000000
40
1.0000000000
10
300.3802241188
20
201.5421316223
30
0.0000000000
10
300.3808101451
20
201.5217058099
30
0.0000000000
10
300.3763136008
20
201.4682717407
30
0.0000000000
10
300.3432396126
20
201.3844145910
30
0.0000000000
10
300.3020616242
20
201.3291724789
30
0.0000000000
10
300.2782280845
20
201.3024428557
30
0.0000000000
11
300.3802241188
21
201.5421316223
31
0.0000000000
11
300.3751095957
21
201.4811751053
31
0.0000000000
11
300.3408141157
21
201.3894712612
31
0.0000000000
11
300.2782280845
21
201.3024428557
31
0.0000000000
0
SPLINE
5
3CD
100
AcDbEntity
8
0
100
AcDbSpline
62
7
6
CONTINUOUS
70
0
71
3
72
10
73
6
74
4
42
0.0000001000
43
0.0000001000
44
0.0000000001
40
0.0000000000
40
0.0000000000
40
0.0000000000
40
0.0000000000
40
0.0286849075
40
0.4487977347
40
1.0000000000
40
1.0000000000
40
1.0000000000
40
1.0000000000
10
300.2782280845
20
201.3024428557
30
0.0000000000
10
300.2759558129
20
201.2998944736
30
0.0000000000
10
300.2400750603
20
201.2603270771
30
0.0000000000
10
300.1495771412
20
201.1825614517
30
0.0000000000
10
300.0512130070
20
201.1216013769
30
0.0000000000
10
299.9939123281
20
201.0899940922
30
0.0000000000
11
300.2782280845
21
201.3024428557
31
0.0000000000
11
300.2713498352
21
201.2948556359
31
0.0000000000
11
300.1594832765
21
201.1954822680
31
0.0000000000
11
299.9939123281
21
201.0899940922
31
0.0000000000
0
SPLINE
5
3CE
100
AcDbEntity
8
0
100
AcDbSpline
62
7
6
CONTINUOUS
70
0
71
3
72
17
73
13
74
11
42
0.0000001000
43
0.0000001000
44
0.0000000001
40
0.0000000000
40
0.0000000000
40
0.0000000000
40
0.0000000000
40
0.1178535778
40
0.2404156995
40
0.3596633588
40
0.4689321680
40
0.5631254208
40
0.6494149763
40
0.7364283221
40
0.8247489380
40
0.9130147926
40
1.0000000000
40
1.0000000000
40
1.0000000000
40
1.0000000000
10
284.4684178783
20
194.7519526045
30
0.0000000000
10
284.9952731027
20
194.7519526045
30
0.0000000000
10
286.0721973883
20
194.8528633317
30
0.0000000000
10
287.6293802389
20
195.2818429521
30
0.0000000000
10
289.0636067053
20
195.9328966043
30
0.0000000000
10
290.2920233559
20
196.6952196784
30
0.0000000000
10
291.3219491891
20
197.4831439535
30
0.0000000000
10
292.2172114244
20
198.2770810711
30
0.0000000000
10
293.0473777191
20
199.1016091623
30
0.0000000000
10
293.8468300234
20
199.9676995242
30
0.0000000000
10
294.6204063067
20
200.8565862599
30
0.0000000000
10
295.1261215639
20
201.4549554284
30
0.0000000000
10
295.3771299909
20
201.7519526045
30
0.0000000000
11
284.4684178783
21
194.7519526045
31
0.0000000000
11
286.0424474635
21
194.8955447792
31
0.0000000000
11
287.6285507472
21
195.3269024980
31
0.0000000000
11
289.0870337337
21
195.9830019910
31
0.0000000000
11
290.3346182246
21
196.7517847886
31
0.0000000000
11
291.3398331341
21
197.5168635239
31
0.0000000000
11
292.2073265279
21
198.2828190130
31
0.0000000000
11
293.0371707739
21
199.1032774913
31
0.0000000000
11
293.8426736467
21
199.9717155640
31
0.0000000000
11
294.6219727252
21
200.8627673137
31
0.0000000000
11
295.3771299909
21
201.7519526045
31
0.0000000000
0
SPLINE
5
3CF
100
AcDbEntity
8
0
100
AcDbSpline
62
7
6
CONTINUOUS
70
0
71
3
72
9
73
5
74
3
42
0.0000001000
43
0.0000001000
44
0.0000000001
40
0.0000000000
40
0.0000000000
40
0.0000000000
40
0.0000000000
40
0.2250973420
40
1.0000000000
40
1.0000000000
40
1.0000000000
40
1.0000000000
10
300.3749668187
20
202.2155186129
30
0.0000000000
10
300.3755366908
20
202.2362281778
30
0.0000000000
10
300.3682560780
20
202.3275685816
30
0.0000000000
10
300.3121194572
20
202.4055303817
30
0.0000000000
10
300.2612267928
20
202.4574830929
30
0.0000000000
11
300.3749668187
21
202.2155186129
31
0.0000000000
11
300.3697835217
21
202.2766712641
31
0.0000000000
11
300.2612267928
21
202.4574830929
31
0.0000000000
0
SPLINE
5
3D0
100
AcDbEntity
8
0
100
AcDbSpline
62
7
6
CONTINUOUS
70
0
71
3
72
9
73
5
74
3
42
0.0000001000
43
0.0000001000
44
0.0000000001
40
0.0000000000
40
0.0000000000
40
0.0000000000
40
0.0000000000
40
0.0724511180
40
1.0000000000
40
1.0000000000
40
1.0000000000
40
1.0000000000
10
300.2612267928
20
202.4574830929
30
0.0000000000
10
300.2548116040
20
202.4640319041
30
0.0000000000
10
300.1646453289
20
202.5525658733
30
0.0000000000
10
300.0604757552
20
202.6153280141
30
0.0000000000
10
299.9597056879
20
202.6675209811
30
0.0000000000
11
300.2612267928
21
202.4574830929
31
0.0000000000
11
300.2416728035
21
202.4767253937
31
0.0000000000
11
299.9597056879
21
202.6675209811
31
0.0000000000
0
SPLINE
5
3D1
100
AcDbEntity
8
0
100
AcDbSpline
62
7
6
CONTINUOUS
70
0
71
3
72
9
73
5
74
3
42
0.0000001000
43
0.0000001000
44
0.0000000001
40
0.0000000000
40
0.0000000000
40
0.0000000000
40
0.0000000000
40
0.4612616681
40
1.0000000000
40
1.0000000000
40
1.0000000000
40
1.0000000000
10
300.3362202243
20
212.5834046739
30
0.0000000000
10
300.3262692964
20
212.5936407141
30
0.0000000000
10
300.3026881854
20
212.6138862000
30
0.0000000000
10
300.2768926943
20
212.6310828307
30
0.0000000000
10
300.2626459274
20
212.6397453517
30
0.0000000000
11
300.3362202243
21
212.5834046739
31
0.0000000000
11
300.3040440346
21
212.6116689658
31
0.0000000000
11
300.2626459274
21
212.6397453517
31
0.0000000000
0
SPLINE
5
3D2
100
AcDbEntity
8
0
100
AcDbSpline
62
7
6
CONTINUOUS
70
0
71
3
72
9
73
5
74
3
42
0.0000001000
43
0.0000001000
44
0.0000000001
40
0.0000000000
40
0.0000000000
40
0.0000000000
40
0.0000000000
40
0.4885141244
40
1.0000000000
40
1.0000000000
40
1.0000000000
40
1.0000000000
10
300.2626459274
20
212.6397453517
30
0.0000000000
10
300.2499106520
20
212.6591038473
30
0.0000000000
10
300.2222632716
20
212.6977087022
30
0.0000000000
10
300.1919564262
20
212.7342487738
30
0.0000000000
10
300.1758867902
20
212.7524254177
30
0.0000000000
11
300.2626459274
21
212.6397453517
31
0.0000000000
11
300.2222637095
21
212.6963291287
31
0.0000000000
11
300.1758867902
21
212.7524254177
31
0.0000000000
0
SPLINE
5
3D3
100
AcDbEntity
8
0
100
AcDbSpline
62
7
6
CONTINUOUS
70
0
71
3
72
9
73
5
74
3
42
0.0000001000
43
0.0000001000
44
0.0000000001
40
0.0000000000
40
0.0000000000
40
0.0000000000
40
0.0000000000
40
0.4974348578
40
1.0000000000
40
1.0000000000
40
1.0000000000
40
1.0000000000
10
300.1758867902
20
212.7524254177
30
0.0000000000
10
300.1589806771
20
212.7906712320
30
0.0000000000
10
300.1230836716
20
212.8667258444
30
0.0000000000
10
300.0835730284
20
212.9409645066
30
0.0000000000
10
300.0628624460
20
212.9777868394
30
0.0000000000
11
300.1758867902
21
212.7524254177
31
0.0000000000
11
300.1223736697
21
212.8658863213
31
0.0000000000
11
300.0628624460
21
212.9777868394
31
0.0000000000
0
SPLINE
5
3D4
100
AcDbEntity
8
0
100
AcDbSpline
62
7
6
CONTINUOUS
70
0
71
3
72
9
73
5
74
3
42
0.0000001000
43
0.0000001000
44
0.0000000001
40
0.0000000000
40
0.0000000000
40
0.0000000000
40
0.0000000000
40
0.5019035022
40
1.0000000000
40
1.0000000000
40
1.0000000000
40
1.0000000000
10
300.0628624460
20
212.9777868394
30
0.0000000000
10
300.0522142311
20
213.0156505615
30
0.0000000000
10
300.0304478620
20
213.0909370413
30
0.0000000000
10
300.0075802744
20
213.1658963870
30
0.0000000000
10
299.9959158070
20
213.2031469715
30
0.0000000000
11
300.0628624460
21
212.9777868394
31
0.0000000000
11
300.0300875926
21
213.0911412499
31
0.0000000000
11
299.9959158070
21
213.2031469715
31
0.0000000000
0
SPLINE
5
3D5
100
AcDbEntity
8
0
100
AcDbSpline
62
7
6
CONTINUOUS
70
0
71
3
72
9
73
5
74
3
42
0.0000001000
43
0.0000001000
44
0.0000000001
40
0.0000000000
40
0.0000000000
40
0.0000000000
40
0.0000000000
40
0.4992403170
40
1.0000000000
40
1.0000000000
40
1.0000000000
40
1.0000000000
10
299.9939123281
20
201.0899940922
30
0.0000000000
10
299.9997543557
20
201.0335610507
30
0.0000000000
10
300.0129473309
20
200.9206726648
30
0.0000000000
10
300.0291071494
20
200.8081706804
30
0.0000000000
10
300.0379370554
20
200.7519526045
30
0.0000000000
11
299.9939123281
21
201.0899940922
31
0.0000000000
11
300.0136667446
21
200.9209404906
31
0.0000000000
11
300.0379370554
21
200.7519526045
31
0.0000000000
0
SPLINE
5
3D6
100
AcDbEntity
8
0
100
AcDbSpline
62
7
6
CONTINUOUS
70
0
71
3
72
9
73
5
74
3
42
0.0000001000
43
0.0000001000
44
0.0000000001
40
0.0000000000
40
0.0000000000
40
0.0000000000
40
0.0000000000
40
0.5008545030
40
1.0000000000
40
1.0000000000
40
1.0000000000
40
1.0000000000
10
299.9959158070
20
213.2031469715
30
0.0000000000
10
299.9900226488
20
213.2501969333
30
0.0000000000
10
299.9781052774
20
213.3441174436
30
0.0000000000
10
299.9658830731
20
213.4379987750
30
0.0000000000
10
299.9597056879
20
213.4848490709
30
0.0000000000
11
299.9959158070
21
213.2031469715
31
0.0000000000
11
299.9780084416
21
213.3442681261
31
0.0000000000
11
299.9597056879
21
213.4848490709
31
0.0000000000
0
SPLINE
5
3D7
100
AcDbEntity
8
0
100
AcDbSpline
62
7
6
CONTINUOUS
70
0
71
3
72
9
73
5
74
3
42
0.0000001000
43
0.0000001000
44
0.0000000001
40
0.0000000000
40
0.0000000000
40
0.0000000000
40
0.0000000000
40
0.5008545045
40
1.0000000000
40
1.0000000000
40
1.0000000000
40
1.0000000000
10
299.9959158070
20
214.2736121124
30
0.0000000000
10
299.9900226487
20
214.2265623656
30
0.0000000000
10
299.9781052773
20
214.1326422851
30
0.0000000000
10
299.9658830730
20
214.0387613836
30
0.0000000000
10
299.9597056879
20
213.9919113025
30
0.0000000000
11
299.9959158070
21
214.2736121124
31
0.0000000000
11
299.9780084415
21
214.1324916031
31
0.0000000000
11
299.9597056879
21
213.9919113025
31
0.0000000000
0
SPLINE
5
3D8
100
AcDbEntity
8
0
100
AcDbSpline
62
7
6
CONTINUOUS
70
0
71
3
72
9
73
5
74
3
42
0.0000001000
43
0.0000001000
44
0.0000000001
40
0.0000000000
40
0.0000000000
40
0.0000000000
40
0.0000000000
40
0.5019035066
40
1.0000000000
40
1.0000000000
40
1.0000000000
40
1.0000000000
10
300.0628624460
20
214.4989735340
30
0.0000000000
10
300.0522142315
20
214.4611095966
30
0.0000000000
10
300.0304478630
20
214.3858226877
30
0.0000000000
10
300.0075802748
20
214.3108629114
30
0.0000000000
10
299.9959158070
20
214.2736121124
30
0.0000000000
11
300.0628624460
21
214.4989735340
31
0.0000000000
11
300.0300875930
21
214.3856184765
31
0.0000000000
11
299.9959158070
21
214.2736121124
31
0.0000000000
0
SPLINE
5
3D9
100
AcDbEntity
8
0
100
AcDbSpline
62
7
6
CONTINUOUS
70
0
71
3
72
9
73
5
74
3
42
0.0000001000
43
0.0000001000
44
0.0000000001
40
0.0000000000
40
0.0000000000
40
0.0000000000
40
0.0000000000
40
0.4974347947
40
1.0000000000
40
1.0000000000
40
1.0000000000
40
1.0000000000
10
300.1758867902
20
214.7243336661
30
0.0000000000
10
300.1589806756
20
214.6860880673
30
0.0000000000
10
300.1230836657
20
214.6100338817
30
0.0000000000
10
300.0835730264
20
214.5357956525
30
0.0000000000
10
300.0628624460
20
214.4989735340
30
0.0000000000
11
300.1758867902
21
214.7243336661
31
0.0000000000
11
300.1223736706
21
214.6108734136
31
0.0000000000
11
300.0628624460
21
214.4989735340
31
0.0000000000
0
SPLINE
5
3DA
100
AcDbEntity
8
0
100
AcDbSpline
62
7
6
CONTINUOUS
70
0
71
3
72
9
73
5
74
3
42
0.0000001000
43
0.0000001000
44
0.0000000001
40
0.0000000000
40
0.0000000000
40
0.0000000000
40
0.0000000000
40
0.4657833286
40
1.0000000000
40
1.0000000000
40
1.0000000000
40
1.0000000000
10
300.2804044831
20
214.7806743439
30
0.0000000000
10
300.2650297608
20
214.7704761491
30
0.0000000000
10
300.2308064637
20
214.7504053054
30
0.0000000000
10
300.1951654629
20
214.7330563375
30
0.0000000000
10
300.1758867902
20
214.7243336661
30
0.0000000000
11
300.2804044831
21
214.7806743439
31
0.0000000000
11
300.2328409017
21
214.7523693424
31
0.0000000000
11
300.1758867902
21
214.7243336661
31
0.0000000000
0
SPLINE
5
3DB
100
AcDbEntity
8
0
100
AcDbSpline
62
7
6
CONTINUOUS
70
0
71
3
72
17
73
13
74
11
42
0.0000001000
43
0.0000001000
44
0.0000000001
40
0.0000000000
40
0.0000000000
40
0.0000000000
40
0.0000000000
40
0.0871537637
40
0.1756158224
40
0.2641397641
40
0.3513442056
40
0.4377449690
40
0.5319827184
40
0.6412030535
40
0.7602649387
40
0.8825351788
40
1.0000000000
40
1.0000000000
40
1.0000000000
40
1.0000000000
10
295.3771299909
20
201.7519526045
30
0.0000000000
10
295.6286253710
20
201.4543792578
30
0.0000000000
10
296.1353943513
20
200.8547633242
30
0.0000000000
10
296.9106920575
20
199.9640033652
30
0.0000000000
10
297.7120995590
20
199.0961171377
30
0.0000000000
10
298.5441844634
20
198.2703021555
30
0.0000000000
10
299.4410825548
20
197.4758600787
30
0.0000000000
10
300.4720176913
20
196.6884504868
30
0.0000000000
10
301.7004340473
20
195.9277218236
30
0.0000000000
10
303.1331268562
20
195.2790109664
30
0.0000000000
10
304.6868592975
20
194.8522416908
30
0.0000000000
10
305.7607236212
20
194.7519526045
30
0.0000000000
10
306.2858421075
20
194.7519526045
30
0.0000000000
11
295.3771299909
21
201.7519526045
31
0.0000000000
11
296.1337605385
21
200.8610493437
31
0.0000000000
11
296.9148553246
21
199.9680688602
31
0.0000000000
11
297.7223848915
21
199.0977877893
31
0.0000000000
11
298.5543691228
21
198.2758450127
31
0.0000000000
11
299.4234389132
21
197.5094179532
31
0.0000000000
11
300.4297345456
21
196.7447698279
31
0.0000000000
11
301.6774844363
21
195.9774896506
31
0.0000000000
11
303.1343138721
21
195.3237804627
31
0.0000000000
11
304.7169594269
21
194.8946128890
31
0.0000000000
11
306.2858421075
21
194.7519526045
31
0.0000000000
0
SPLINE
5
3DC
100
AcDbEntity
8
0
100
AcDbSpline
62
7
6
CONTINUOUS
70
0
71
3
72
9
73
5
74
3
42
0.0000001000
43
0.0000001000
44
0.0000000001
40
0.0000000000
40
0.0000000000
40
0.0000000000
40
0.0000000000
40
0.4727426890
40
1.0000000000
40
1.0000000000
40
1.0000000000
40
1.0000000000
10
290.2456673565
20
220.8769023128
30
0.0000000000
10
290.2869680163
20
220.6829455245
30
0.0000000000
10
290.3621902385
20
220.2700773182
30
0.0000000000
10
290.4168725615
20
219.8541215139
30
0.0000000000
10
290.4411057399
20
219.6343180734
30
0.0000000000
11
290.2456673565
21
220.8769023128
31
0.0000000000
11
290.3534991548
21
220.2918946386
31
0.0000000000
11
290.4411057399
21
219.6343180734
31
0.0000000000
0
SPLINE
5
3DD
100
AcDbEntity
8
0
100
AcDbSpline
62
7
6
CONTINUOUS
70
0
71
3
72
8
73
4
74
2
42
0.0000001000
43
0.0000001000
44
0.0000000001
40
0.0000000000
40
0.0000000000
40
0.0000000000
40
0.0000000000
40
1.0000000000
40
1.0000000000
40
1.0000000000
40
1.0000000000
10
290.4411057399
20
219.6343180734
30
0.0000000000
10
290.4525139491
20
219.5308416086
30
0.0000000000
10
290.4629030317
20
219.4272570581
30
0.0000000000
10
290.4723889663
20
219.3236030930
30
0.0000000000
11
290.4411057399
21
219.6343180734
31
0.0000000000
11
290.4723889663
21
219.3236030930
31
0.0000000000
0
SPLINE
5
3DE
100
AcDbEntity
8
0
100
AcDbSpline
62
7
6
CONTINUOUS
70
0
71
3
72
9
73
5
74
3
42
0.0000001000
43
0.0000001000
44
0.0000000001
40
0.0000000000
40
0.0000000000
40
0.0000000000
40
0.0000000000
40
0.2277681034
40
1.0000000000
40
1.0000000000
40
1.0000000000
40
1.0000000000
10
300.3749384140
20
204.2462749392
30
0.0000000000
10
300.3755043865
20
204.2253289054
30
0.0000000000
10
300.3680966179
20
204.1340299307
30
0.0000000000
10
300.3120277350
20
204.0562117917
30
0.0000000000
10
300.2613595231
20
204.0044884848
30
0.0000000000
11
300.3749384140
21
204.2462749392
31
0.0000000000
11
300.3696054233
21
204.1844382797
31
0.0000000000
11
300.2613595231
21
204.0044884848
31
0.0000000000
0
SPLINE
5
3DF
100
AcDbEntity
8
0
100
AcDbSpline
62
7
6
CONTINUOUS
70
0
71
3
72
9
73
5
74
3
42
0.0000001000
43
0.0000001000
44
0.0000000001
40
0.0000000000
40
0.0000000000
40
0.0000000000
40
0.0000000000
40
0.0739215441
40
1.0000000000
40
1.0000000000
40
1.0000000000
40
1.0000000000
10
300.2613595231
20
204.0044884848
30
0.0000000000
10
300.2548120808
20
203.9978047011
30
0.0000000000
10
300.1645743923
20
203.9092782336
30
0.0000000000
10
300.0603637255
20
203.8464609306
30
0.0000000000
10
299.9597056879
20
203.7943259938
30
0.0000000000
11
300.2613595231
21
204.0044884848
31
0.0000000000
11
300.2413947084
21
203.9848571598
31
0.0000000000
11
299.9597056879
21
203.7943259938
31
0.0000000000
0
SPLINE
5
3E0
100
AcDbEntity
8
0
100
AcDbSpline
62
7
6
CONTINUOUS
70
0
71
3
72
9
73
5
74
3
42
0.0000001000
43
0.0000001000
44
0.0000000001
40
0.0000000000
40
0.0000000000
40
0.0000000000
40
0.0000000000
40
0.2277680444
40
1.0000000000
40
1.0000000000
40
1.0000000000
40
1.0000000000
10
300.3749384161
20
204.9199039135
30
0.0000000000
10
300.3755043880
20
204.9408499558
30
0.0000000000
10
300.3680966143
20
205.0321489915
30
0.0000000000
10
300.3120276984
20
205.1099671882
30
0.0000000000
10
300.2613594555
20
205.1616905354
30
0.0000000000
11
300.3749384161
21
204.9199039135
31
0.0000000000
11
300.3696054233
21
204.9817405986
31
0.0000000000
11
300.2613594555
21
205.1616905354
31
0.0000000000
0
SPLINE
5
3E1
100
AcDbEntity
8
0
100
AcDbSpline
62
7
6
CONTINUOUS
70
0
71
3
72
9
73
5
74
3
42
0.0000001000
43
0.0000001000
44
0.0000000001
40
0.0000000000
40
0.0000000000
40
0.0000000000
40
0.0000000000
40
0.0739213177
40
1.0000000000
40
1.0000000000
40
1.0000000000
40
1.0000000000
10
300.2613594555
20
205.1616905354
30
0.0000000000
10
300.2548120349
20
205.1683742980
30
0.0000000000
10
300.1645743757
20
205.2569007656
30
0.0000000000
10
300.0603637296
20
205.3197180836
30
0.0000000000
10
299.9597056879
20
205.3718530438
30
0.0000000000
11
300.2613594555
21
205.1616905354
31
0.0000000000
11
300.2413947081
21
205.1813218002
31
0.0000000000
11
299.9597056879
21
205.3718530438
31
0.0000000000
0
SPLINE
5
3E2
100
AcDbEntity
8
0
100
AcDbSpline
62
7
6
CONTINUOUS
70
0
71
3
72
9
73
5
74
3
42
0.0000001000
43
0.0000001000
44
0.0000000001
40
0.0000000000
40
0.0000000000
40
0.0000000000
40
0.0000000000
40
0.4762244929
40
1.0000000000
40
1.0000000000
40
1.0000000000
40
1.0000000000
10
300.2626459274
20
210.2171142600
30
0.0000000000
10
300.2495646940
20
210.2270564478
30
0.0000000000
10
300.2212075574
20
210.2467742633
30
0.0000000000
10
300.1916166346
20
210.2645581431
30
0.0000000000
10
300.1758867902
20
210.2734542930
30
0.0000000000
11
300.2626459274
21
210.2171142600
31
0.0000000000
11
300.2222761579
21
210.2453980644
31
0.0000000000
11
300.1758867902
21
210.2734542930
31
0.0000000000
0
SPLINE
5
3E3
100
AcDbEntity
8
0
100
AcDbSpline
62
7
6
CONTINUOUS
70
0
71
3
72
9
73
5
74
3
42
0.0000001000
43
0.0000001000
44
0.0000000001
40
0.0000000000
40
0.0000000000
40
0.0000000000
40
0.0000000000
40
0.4974348578
40
1.0000000000
40
1.0000000000
40
1.0000000000
40
1.0000000000
10
300.1758867902
20
210.2734542930
30
0.0000000000
10
300.1589806771
20
210.3117001073
30
0.0000000000
10
300.1230836716
20
210.3877547197
30
0.0000000000
10
300.0835730284
20
210.4619933819
30
0.0000000000
10
300.0628624460
20
210.4988157147
30
0.0000000000
11
300.1758867902
21
210.2734542930
31
0.0000000000
11
300.1223736697
21
210.3869151966
31
0.0000000000
11
300.0628624460
21
210.4988157147
31
0.0000000000
0
SPLINE
5
3E4
100
AcDbEntity
8
0
100
AcDbSpline
62
7
6
CONTINUOUS
70
0
71
3
72
9
73
5
74
3
42
0.0000001000
43
0.0000001000
44
0.0000000001
40
0.0000000000
40
0.0000000000
40
0.0000000000
40
0.0000000000
40
0.5019035044
40
1.0000000000
40
1.0000000000
40
1.0000000000
40
1.0000000000
10
300.0628624460
20
210.4988157147
30
0.0000000000
10
300.0522142313
20
210.5366795444
30
0.0000000000
10
300.0304478625
20
210.6119662388
30
0.0000000000
10
300.0075802746
20
210.6869257998
30
0.0000000000
10
299.9959158070
20
210.7241764916
30
0.0000000000
11
300.0628624460
21
210.4988157147
31
0.0000000000
11
300.0300875928
21
210.6121704487
31
0.0000000000
11
299.9959158070
21
210.7241764916
31
0.0000000000
0
SPLINE
5
3E5
100
AcDbEntity
8
0
100
AcDbSpline
62
7
6
CONTINUOUS
70
0
71
3
72
9
73
5
74
3
42
0.0000001000
43
0.0000001000
44
0.0000000001
40
0.0000000000
40
0.0000000000
40
0.0000000000
40
0.0000000000
40
0.5009286478
40
1.0000000000
40
1.0000000000
40
1.0000000000
40
1.0000000000
10
299.9959158070
20
210.7241764916
30
0.0000000000
10
299.9900204444
20
210.7618303898
30
0.0000000000
10
299.9781016212
20
210.8369751770
30
0.0000000000
10
299.9658807243
20
210.9120714328
30
0.0000000000
10
299.9597056879
20
210.9495372684
30
0.0000000000
11
299.9959158070
21
210.7241764916
31
0.0000000000
11
299.9780036852
21
210.8371025652
31
0.0000000000
11
299.9597056879
21
210.9495372684
31
0.0000000000
0
SPLINE
5
3E6
100
AcDbEntity
8
0
100
AcDbSpline
62
7
6
CONTINUOUS
70
0
71
3
72
9
73
5
74
3
42
0.0000001000
43
0.0000001000
44
0.0000000001
40
0.0000000000
40
0.0000000000
40
0.0000000000
40
0.0000000000
40
0.5008545037
40
1.0000000000
40
1.0000000000
40
1.0000000000
40
1.0000000000
10
299.9959158070
20
211.5129401778
30
0.0000000000
10
299.9900226487
20
211.4658903235
30
0.0000000000
10
299.9781052773
20
211.3719700281
30
0.0000000000
10
299.9658830731
20
211.2780889116
30
0.0000000000
10
299.9597056879
20
211.2312387231
30
0.0000000000
11
299.9959158070
21
211.5129401778
31
0.0000000000
11
299.9780084415
21
211.3718193458
31
0.0000000000
11
299.9597056879
21
211.2312387231
31
0.0000000000
0
SPLINE
5
3E7
100
AcDbEntity
8
0
100
AcDbSpline
62
7
6
CONTINUOUS
70
0
71
3
72
9
73
5
74
3
42
0.0000001000
43
0.0000001000
44
0.0000000001
40
0.0000000000
40
0.0000000000
40
0.0000000000
40
0.0000000000
40
0.5002211958
40
1.0000000000
40
1.0000000000
40
1.0000000000
40
1.0000000000
10
300.0936766587
20
211.7383009547
30
0.0000000000
10
300.0785075075
20
211.7002484144
30
0.0000000000
10
300.0470349164
20
211.6246295692
30
0.0000000000
10
300.0133160869
20
211.5499855871
30
0.0000000000
10
299.9959158070
20
211.5129401778
30
0.0000000000
11
300.0936766587
21
211.7383009547
31
0.0000000000
11
300.0464589366
21
211.6248400475
31
0.0000000000
11
299.9959158070
21
211.5129401778
31
0.0000000000
0
SPLINE
5
3E8
100
AcDbEntity
8
0
100
AcDbSpline
62
7
6
CONTINUOUS
70
0
71
3
72
9
73
5
74
3
42
0.0000001000
43
0.0000001000
44
0.0000000001
40
0.0000000000
40
0.0000000000
40
0.0000000000
40
0.0000000000
40
0.4940537731
40
1.0000000000
40
1.0000000000
40
1.0000000000
40
1.0000000000
10
300.1999762345
20
211.9073216985
30
0.0000000000
10
300.1841033828
20
211.8785090983
30
0.0000000000
10
300.1502208721
20
211.8211426677
30
0.0000000000
10
300.1131549952
20
211.7657860457
30
0.0000000000
10
300.0936766587
20
211.7383009547
30
0.0000000000
11
300.1999762345
21
211.9073216985
31
0.0000000000
11
300.1498467932
21
211.8223154678
31
0.0000000000
11
300.0936766587
21
211.7383009547
31
0.0000000000
0
SPLINE
5
3E9
100
AcDbEntity
8
0
100
AcDbSpline
62
7
6
CONTINUOUS
70
0
71
3
72
9
73
5
74
3
42
0.0000001000
43
0.0000001000
44
0.0000000001
40
0.0000000000
40
0.0000000000
40
0.0000000000
40
0.0000000000
40
0.4858041676
40
1.0000000000
40
1.0000000000
40
1.0000000000
40
1.0000000000
10
300.2626459274
20
211.9636623763
30
0.0000000000
10
300.2530569227
20
211.9539449668
30
0.0000000000
10
300.2326666115
20
211.9345790491
30
0.0000000000
10
300.2112224564
20
211.9163947826
30
0.0000000000
10
300.1999762345
20
211.9073216985
30
0.0000000000
11
300.2626459274
21
211.9636623763
31
0.0000000000
11
300.2329968132
21
211.9354077562
31
0.0000000000
11
300.1999762345
21
211.9073216985
31
0.0000000000
0
SPLINE
5
3EA
100
AcDbEntity
8
0
100
AcDbSpline
62
7
6
CONTINUOUS
70
0
71
3
72
9
73
5
74
3
42
0.0000001000
43
0.0000001000
44
0.0000000001
40
0.0000000000
40
0.0000000000
40
0.0000000000
40
0.0000000000
40
0.4612616681
40
1.0000000000
40
1.0000000000
40
1.0000000000
40
1.0000000000
10
300.3362202243
20
207.4001016476
30
0.0000000000
10
300.3262692964
20
207.4103376879
30
0.0000000000
10
300.3026881854
20
207.4305831737
30
0.0000000000
10
300.2768926943
20
207.4477798045
30
0.0000000000
10
300.2626459274
20
207.4564423254
30
0.0000000000
11
300.3362202243
21
207.4001016476
31
0.0000000000
11
300.3040440346
21
207.4283659395
31
0.0000000000
11
300.2626459274
21
207.4564423254
31
0.0000000000
0
SPLINE
5
3EB
100
AcDbEntity
8
0
100
AcDbSpline
62
7
6
CONTINUOUS
70
0
71
3
72
9
73
5
74
3
42
0.0000001000
43
0.0000001000
44
0.0000000001
40
0.0000000000
40
0.0000000000
40
0.0000000000
40
0.0000000000
40
0.4885141244
40
1.0000000000
40
1.0000000000
40
1.0000000000
40
1.0000000000
10
300.2626459274
20
207.4564423254
30
0.0000000000
10
300.2499106520
20
207.4758008211
30
0.0000000000
10
300.2222632716
20
207.5144056759
30
0.0000000000
10
300.1919564262
20
207.5509457475
30
0.0000000000
10
300.1758867902
20
207.5691223915
30
0.0000000000
11
300.2626459274
21
207.4564423254
31
0.0000000000
11
300.2222637095
21
207.5130261024
31
0.0000000000
11
300.1758867902
21
207.5691223915
31
0.0000000000
0
SPLINE
5
3EC
100
AcDbEntity
8
0
100
AcDbSpline
62
7
6
CONTINUOUS
70
0
71
3
72
9
73
5
74
3
42
0.0000001000
43
0.0000001000
44
0.0000000001
40
0.0000000000
40
0.0000000000
40
0.0000000000
40
0.0000000000
40
0.4974348578
40
1.0000000000
40
1.0000000000
40
1.0000000000
40
1.0000000000
10
300.1758867902
20
207.5691223915
30
0.0000000000
10
300.1589806771
20
207.6073682057
30
0.0000000000
10
300.1230836716
20
207.6834228181
30
0.0000000000
10
300.0835730284
20
207.7576614804
30
0.0000000000
10
300.0628624460
20
207.7944838131
30
0.0000000000
11
300.1758867902
21
207.5691223915
31
0.0000000000
11
300.1223736697
21
207.6825832950
31
0.0000000000
11
300.0628624460
21
207.7944838131
31
0.0000000000
0
SPLINE
5
3ED
100
AcDbEntity
8
0
100
AcDbSpline
62
7
6
CONTINUOUS
70
0
71
3
72
9
73
5
74
3
42
0.0000001000
43
0.0000001000
44
0.0000000001
40
0.0000000000
40
0.0000000000
40
0.0000000000
40
0.0000000000
40
0.5019035044
40
1.0000000000
40
1.0000000000
40
1.0000000000
40
1.0000000000
10
300.0628624460
20
207.7944838131
30
0.0000000000
10
300.0522142313
20
207.8323476429
30
0.0000000000
10
300.0304478625
20
207.9076343373
30
0.0000000000
10
300.0075802746
20
207.9825938982
30
0.0000000000
10
299.9959158070
20
208.0198445900
30
0.0000000000
11
300.0628624460
21
207.7944838131
31
0.0000000000
11
300.0300875928
21
207.9078385471
31
0.0000000000
11
299.9959158070
21
208.0198445900
31
0.0000000000
0
SPLINE
5
3EE
100
AcDbEntity
8
0
100
AcDbSpline
62
7
6
CONTINUOUS
70
0
71
3
72
9
73
5
74
3
42
0.0000001000
43
0.0000001000
44
0.0000000001
40
0.0000000000
40
0.0000000000
40
0.0000000000
40
0.0000000000
40
0.5008545037
40
1.0000000000
40
1.0000000000
40
1.0000000000
40
1.0000000000
10
299.9959158070
20
208.0198445900
30
0.0000000000
10
299.9900226487
20
208.0668944443
30
0.0000000000
10
299.9781052773
20
208.1608147397
30
0.0000000000
10
299.9658830731
20
208.2546958561
30
0.0000000000
10
299.9597056879
20
208.3015460447
30
0.0000000000
11
299.9959158070
21
208.0198445900
31
0.0000000000
11
299.9780084415
21
208.1609654219
31
0.0000000000
11
299.9597056879
21
208.3015460447
31
0.0000000000
0
SPLINE
5
3EF
100
AcDbEntity
8
0
100
AcDbSpline
62
7
6
CONTINUOUS
70
0
71
3
72
9
73
5
74
3
42
0.0000001000
43
0.0000001000
44
0.0000000001
40
0.0000000000
40
0.0000000000
40
0.0000000000
40
0.0000000000
40
0.5008545045
40
1.0000000000
40
1.0000000000
40
1.0000000000
40
1.0000000000
10
299.9959158070
20
209.0903090861
30
0.0000000000
10
299.9900226487
20
209.0432593393
30
0.0000000000
10
299.9781052773
20
208.9493392588
30
0.0000000000
10
299.9658830730
20
208.8554583573
30
0.0000000000
10
299.9597056879
20
208.8086082762
30
0.0000000000
11
299.9959158070
21
209.0903090861
31
0.0000000000
11
299.9780084415
21
208.9491885768
31
0.0000000000
11
299.9597056879
21
208.8086082762
31
0.0000000000
0
SPLINE
5
3F0
100
AcDbEntity
8
0
100
AcDbSpline
62
7
6
CONTINUOUS
70
0
71
3
72
9
73
5
74
3
42
0.0000001000
43
0.0000001000
44
0.0000000001
40
0.0000000000
40
0.0000000000
40
0.0000000000
40
0.0000000000
40
0.5019035066
40
1.0000000000
40
1.0000000000
40
1.0000000000
40
1.0000000000
10
300.0628624460
20
209.3156705078
30
0.0000000000
10
300.0522142315
20
209.2778065704
30
0.0000000000
10
300.0304478630
20
209.2025196614
30
0.0000000000
10
300.0075802748
20
209.1275598852
30
0.0000000000
10
299.9959158070
20
209.0903090861
30
0.0000000000
11
300.0628624460
21
209.3156705078
31
0.0000000000
11
300.0300875930
21
209.2023154502
31
0.0000000000
11
299.9959158070
21
209.0903090861
31
0.0000000000
0
SPLINE
5
3F1
100
AcDbEntity
8
0
100
AcDbSpline
62
7
6
CONTINUOUS
70
0
71
3
72
9
73
5
74
3
42
0.0000001000
43
0.0000001000
44
0.0000000001
40
0.0000000000
40
0.0000000000
40
0.0000000000
40
0.0000000000
40
0.4974348262
40
1.0000000000
40
1.0000000000
40
1.0000000000
40
1.0000000000
10
300.1758867902
20
209.5410312846
30
0.0000000000
10
300.1589806763
20
209.5027855781
30
0.0000000000
10
300.1230836686
20
209.4267311791
30
0.0000000000
10
300.0835730274
20
209.3524927333
30
0.0000000000
10
300.0628624460
20
209.3156705078
30
0.0000000000
11
300.1758867902
21
209.5410312846
31
0.0000000000
11
300.1223736702
21
209.4275707066
31
0.0000000000
11
300.0628624460
21
209.3156705078
31
0.0000000000
0
SPLINE
5
3F2
100
AcDbEntity
8
0
100
AcDbSpline
62
7
6
CONTINUOUS
70
0
71
3
72
9
73
5
74
3
42
0.0000001000
43
0.0000001000
44
0.0000000001
40
0.0000000000
40
0.0000000000
40
0.0000000000
40
0.0000000000
40
0.4657831385
40
1.0000000000
40
1.0000000000
40
1.0000000000
40
1.0000000000
10
300.2804044831
20
209.5973713177
30
0.0000000000
10
300.2650297530
20
209.5871732344
30
0.0000000000
10
300.2308064440
20
209.5671026153
30
0.0000000000
10
300.1951654574
20
209.5497538537
30
0.0000000000
10
300.1758867902
20
209.5410312846
30
0.0000000000
11
300.2804044831
21
209.5973713177
31
0.0000000000
11
300.2328409017
21
209.5690666402
31
0.0000000000
11
300.1758867902
21
209.5410312846
31
0.0000000000
0
SPLINE
5
3F3
100
AcDbEntity
8
0
100
AcDbSpline
62
7
6
CONTINUOUS
70
0
71
3
72
10
73
6
74
4
42
0.0000001000
43
0.0000001000
44
0.0000000001
40
0.0000000000
40
0.0000000000
40
0.0000000000
40
0.0000000000
40
0.3379448971
40
0.6710029483
40
1.0000000000
40
1.0000000000
40
1.0000000000
40
1.0000000000
10
126.1179537218
20
105.0734291483
30
0.0000000000
10
125.9822451009
20
104.8263810149
30
0.0000000000
10
125.7515536183
20
104.3132040681
30
0.0000000000
10
125.5391574647
20
103.5029262965
30
0.0000000000
10
125.4914423769
20
102.9495572407
30
0.0000000000
10
125.4914312982
20
102.6751522552
30
0.0000000000
11
126.1179537218
21
105.0734291483
31
0.0000000000
11
125.7722390219
21
104.3017246476
31
0.0000000000
11
125.5618064451
21
103.4953535746
31
0.0000000000
11
125.4914312982
21
102.6751522552
31
0.0000000000
0
SPLINE
5
3F4
100
AcDbEntity
8
0
100
AcDbSpline
62
7
6
CONTINUOUS
70
0
71
3
72
10
73
6
74
4
42
0.0000001000
43
0.0000001000
44
0.0000000001
40
0.0000000000
40
0.0000000000
40
0.0000000000
40
0.0000000000
40
0.3379131365
40
0.6709794015
40
1.0000000000
40
1.0000000000
40
1.0000000000
40
1.0000000000
10
101.8649140947
20
105.0734203805
30
0.0000000000
10
102.0005994521
20
104.8263906664
30
0.0000000000
10
102.2312824656
20
104.3132238003
30
0.0000000000
10
102.4435434826
20
103.5029376697
30
0.0000000000
10
102.4915123176
20
102.9495545120
30
0.0000000000
10
102.4914312982
20
102.6751307300
30
0.0000000000
11
101.8649140947
21
105.0734203805
31
0.0000000000
11
102.2105638326
21
104.3017766663
31
0.0000000000
11
102.4209769444
21
103.4953818819
31
0.0000000000
11
102.4914312982
21
102.6751307300
31
0.0000000000
0
SPLINE
5
3F5
100
AcDbEntity
8
0
100
AcDbSpline
62
7
6
CONTINUOUS
70
0
71
3
72
10
73
6
74
4
42
0.0000001000
43
0.0000001000
44
0.0000000001
40
0.0000000000
40
0.0000000000
40
0.0000000000
40
0.0000000000
40
0.3379202016
40
0.6709796011
40
1.0000000000
40
1.0000000000
40
1.0000000000
40
1.0000000000
10
101.8649232124
20
120.1534903171
30
0.0000000000
10
102.0006123338
20
120.4005173559
30
0.0000000000
10
102.2312962707
20
120.9136686995
30
0.0000000000
10
102.4435762475
20
121.7239338475
30
0.0000000000
10
102.4915043081
20
122.2773010565
30
0.0000000000
10
102.4914312982
20
122.5517184180
30
0.0000000000
11
101.8649232124
21
120.1534903171
31
0.0000000000
11
102.2105845137
21
120.9251271003
31
0.0000000000
11
102.4209957213
21
121.7314849924
31
0.0000000000
11
102.4914312982
21
122.5517184180
31
0.0000000000
0
SPLINE
5
3F6
100
AcDbEntity
8
0
100
AcDbSpline
62
7
6
CONTINUOUS
70
0
71
3
72
10
73
6
74
4
42
0.0000001000
43
0.0000001000
44
0.0000000001
40
0.0000000000
40
0.0000000000
40
0.0000000000
40
0.0000000000
40
0.3379258816
40
0.6709833871
40
1.0000000000
40
1.0000000000
40
1.0000000000
40
1.0000000000
10
126.1179437506
20
120.1534824453
30
0.0000000000
10
125.9822504446
20
120.4005124294
30
0.0000000000
10
125.7515638603
20
120.9136645592
30
0.0000000000
10
125.5392641717
20
121.7239270493
30
0.0000000000
10
125.4913673198
20
122.2772909466
30
0.0000000000
10
125.4914312982
20
122.5517050152
30
0.0000000000
11
126.1179437506
21
120.1534824453
31
0.0000000000
11
125.7722706163
21
120.9251290363
31
0.0000000000
11
125.5618552474
21
121.7314805131
31
0.0000000000
11
125.4914312982
21
122.5517050152
31
0.0000000000
0
SPLINE
5
3F7
100
AcDbEntity
8
0
100
AcDbSpline
62
7
6
CONTINUOUS
70
0
71
3
72
12
73
8
74
6
42
0.0000001000
43
0.0000001000
44
0.0000000001
40
0.0000000000
40
0.0000000000
40
0.0000000000
40
0.0000000000
40
0.2726406890
40
0.5123369728
40
0.7266409746
40
0.9198091239
40
1.0000000000
40
1.0000000000
40
1.0000000000
40
1.0000000000
10
101.8649232124
20
120.1534933037
30
0.0000000000
10
101.6844499992
20
119.8249351777
30
0.0000000000
10
101.2683389388
20
119.2459451760
30
0.0000000000
10
100.5102694796
20
118.5848964787
30
0.0000000000
10
99.7399312844
20
118.1315856491
30
0.0000000000
10
99.1175508307
20
117.8774533693
30
0.0000000000
10
98.7586943602
20
117.7648627641
30
0.0000000000
10
98.6527073602
20
117.7343150292
30
0.0000000000
11
101.8649232124
21
120.1534933037
31
0.0000000000
11
101.2080571338
21
119.2406865551
31
0.0000000000
11
100.4651671336
21
118.5882808968
31
0.0000000000
11
99.7050876570
21
118.1369932686
31
0.0000000000
11
98.9683791015
21
117.8334904019
31
0.0000000000
11
98.6527073602
21
117.7343150292
31
0.0000000000
0
SPLINE
5
3F8
100
AcDbEntity
8
0
100
AcDbSpline
62
7
6
CONTINUOUS
70
0
71
3
72
8
73
4
74
2
42
0.0000001000
43
0.0000001000
44
0.0000000001
40
0.0000000000
40
0.0000000000
40
0.0000000000
40
0.0000000000
40
1.0000000000
40
1.0000000000
40
1.0000000000
40
1.0000000000
10
98.6527073602
20
117.7343150292
30
0.0000000000
10
98.6405467776
20
117.7308100875
30
0.0000000000
10
98.6283767807
20
117.7273378087
30
0.0000000000
10
98.6161975867
20
117.7238980585
30
0.0000000000
11
98.6527073602
21
117.7343150292
31
0.0000000000
11
98.6161975867
21
117.7238980585
31
0.0000000000
0
SPLINE
5
3F9
100
AcDbEntity
8
0
100
AcDbSpline
62
7
6
CONTINUOUS
70
0
71
3
72
9
73
5
74
3
42
0.0000001000
43
0.0000001000
44
0.0000000001
40
0.0000000000
40
0.0000000000
40
0.0000000000
40
0.0000000000
40
0.4071975074
40
1.0000000000
40
1.0000000000
40
1.0000000000
40
1.0000000000
10
98.6161975867
20
117.7238980585
30
0.0000000000
10
98.5041115516
20
117.6922417805
30
0.0000000000
10
98.2269364862
20
117.6212658927
30
0.0000000000
10
97.9460849754
20
117.5662755683
30
0.0000000000
10
97.7787759758
20
117.5389831980
30
0.0000000000
11
98.6161975867
21
117.7238980585
31
0.0000000000
11
98.2777719694
21
117.6370899345
31
0.0000000000
11
97.7787759758
21
117.5389831980
31
0.0000000000
0
SPLINE
5
3FA
100
AcDbEntity
8
0
100
AcDbSpline
62
7
6
CONTINUOUS
70
0
71
3
72
12
73
8
74
6
42
0.0000001000
43
0.0000001000
44
0.0000000001
40
0.0000000000
40
0.0000000000
40
0.0000000000
40
0.0000000000
40
0.2730425831
40
0.5131082414
40
0.7277363951
40
0.9211992393
40
1.0000000000
40
1.0000000000
40
1.0000000000
40
1.0000000000
10
101.8649140947
20
105.0734182088
30
0.0000000000
10
101.6844532149
20
105.4019665532
30
0.0000000000
10
101.2683607501
20
105.9809641990
30
0.0000000000
10
100.5102889750
20
106.6420049955
30
0.0000000000
10
99.7399439562
20
107.0953247899
30
0.0000000000
10
99.1194880346
20
107.3486825129
30
0.0000000000
10
98.7626607567
20
107.4608001331
30
0.0000000000
10
98.6586941656
20
107.4908617172
30
0.0000000000
11
101.8649140947
21
105.0734182088
31
0.0000000000
11
101.2080906757
21
105.9862020221
31
0.0000000000
11
100.4651804422
21
106.6386267726
31
0.0000000000
11
99.7051031676
21
107.0899176441
31
0.0000000000
11
98.9683851731
21
107.3934242043
31
0.0000000000
11
98.6586941656
21
107.4908617172
31
0.0000000000
0
SPLINE
5
3FB
100
AcDbEntity
8
0
100
AcDbSpline
62
7
6
CONTINUOUS
70
0
71
3
72
8
73
4
74
2
42
0.0000001000
43
0.0000001000
44
0.0000000001
40
0.0000000000
40
0.0000000000
40
0.0000000000
40
0.0000000000
40
1.0000000000
40
1.0000000000
40
1.0000000000
40
1.0000000000
10
98.6586941656
20
107.4908617172
30
0.0000000000
10
98.6562150443
20
107.4915785466
30
0.0000000000
10
98.6537355303
20
107.4922940180
30
0.0000000000
10
98.6512556254
20
107.4930081325
30
0.0000000000
11
98.6586941656
21
107.4908617172
31
0.0000000000
11
98.6512556254
21
107.4930081325
31
0.0000000000
0
SPLINE
5
3FC
100
AcDbEntity
8
0
100
AcDbSpline
62
7
6
CONTINUOUS
70
0
71
3
72
8
73
4
74
2
42
0.0000001000
43
0.0000001000
44
0.0000000001
40
0.0000000000
40
0.0000000000
40
0.0000000000
40
0.0000000000
40
1.0000000000
40
1.0000000000
40
1.0000000000
40
1.0000000000
10
98.6512556254
20
107.4930081325
30
0.0000000000
10
98.6395847677
20
107.4963688778
30
0.0000000000
10
98.6279052526
20
107.4996995711
30
0.0000000000
10
98.6162172730
20
107.5030003360
30
0.0000000000
11
98.6512556254
21
107.4930081325
31
0.0000000000
11
98.6162172730
21
107.5030003360
31
0.0000000000
0
SPLINE
5
3FD
100
AcDbEntity
8
0
100
AcDbSpline
62
7
6
CONTINUOUS
70
0
71
3
72
9
73
5
74
3
42
0.0000001000
43
0.0000001000
44
0.0000000001
40
0.0000000000
40
0.0000000000
40
0.0000000000
40
0.0000000000
40
0.4074026057
40
1.0000000000
40
1.0000000000
40
1.0000000000
40
1.0000000000
10
98.6162172730
20
107.5030003360
30
0.0000000000
10
98.5041023285
20
107.5346623590
30
0.0000000000
10
98.2269961442
20
107.6056197692
30
0.0000000000
10
97.9462241323
20
107.6606434708
30
0.0000000000
10
97.7790178820
20
107.6879368794
30
0.0000000000
11
98.6162172730
21
107.5030003360
31
0.0000000000
11
98.2777063228
21
107.5898341993
31
0.0000000000
11
97.7790178820
21
107.6879368794
31
0.0000000000
0
SPLINE
5
3FE
100
AcDbEntity
8
0
100
AcDbSpline
62
7
6
CONTINUOUS
70
0
71
3
72
12
73
8
74
6
42
0.0000001000
43
0.0000001000
44
0.0000000001
40
0.0000000000
40
0.0000000000
40
0.0000000000
40
0.0000000000
40
0.2731083973
40
0.5131977626
40
0.7278664321
40
0.9213539813
40
1.0000000000
40
1.0000000000
40
1.0000000000
40
1.0000000000
10
126.1179537218
20
105.0734262065
30
0.0000000000
10
126.2984410248
20
105.4019908252
30
0.0000000000
10
126.7145673620
20
105.9809638071
30
0.0000000000
10
127.4726099134
20
106.6420482232
30
0.0000000000
10
128.2429459799
20
107.0953384361
30
0.0000000000
10
128.8631861339
20
107.3485856763
30
0.0000000000
10
129.2197712412
20
107.4606746773
30
0.0000000000
10
129.3235121809
20
107.4906868855
30
0.0000000000
11
126.1179537218
21
105.0734262065
31
0.0000000000
11
126.7748574875
21
105.9862519398
31
0.0000000000
11
127.5177024938
21
106.6386456681
31
0.0000000000
11
128.2778003055
21
107.0899361138
31
0.0000000000
11
129.0144898045
21
107.3934253857
31
0.0000000000
11
129.3235121809
21
107.4906868855
31
0.0000000000
0
SPLINE
5
3FF
100
AcDbEntity
8
0
100
AcDbSpline
62
7
6
CONTINUOUS
70
0
71
3
72
8
73
4
74
2
42
0.0000001000
43
0.0000001000
44
0.0000000001
40
0.0000000000
40
0.0000000000
40
0.0000000000
40
0.0000000000
40
1.0000000000
40
1.0000000000
40
1.0000000000
40
1.0000000000
10
129.3235121809
20
107.4906868855
30
0.0000000000
10
129.3260354122
20
107.4914168551
30
0.0000000000
10
129.3285590508
20
107.4921454161
30
0.0000000000
10
129.3310830948
20
107.4928725695
30
0.0000000000
11
129.3235121809
21
107.4906868855
31
0.0000000000
11
129.3310830948
21
107.4928725695
31
0.0000000000
0
SPLINE
5
400
100
AcDbEntity
8
0
100
AcDbSpline
62
7
6
CONTINUOUS
70
0
71
3
72
8
73
4
74
2
42
0.0000001000
43
0.0000001000
44
0.0000000001
40
0.0000000000
40
0.0000000000
40
0.0000000000
40
0.0000000000
40
1.0000000000
40
1.0000000000
40
1.0000000000
40
1.0000000000
10
129.3310830948
20
107.4928725695
30
0.0000000000
10
129.3429435272
20
107.4962894489
30
0.0000000000
10
129.3548129117
20
107.4996752491
30
0.0000000000
10
129.3666910472
20
107.5030300910
30
0.0000000000
11
129.3310830948
21
107.4928725695
31
0.0000000000
11
129.3666910472
21
107.5030300910
31
0.0000000000
0
SPLINE
5
401
100
AcDbEntity
8
0
100
AcDbSpline
62
7
6
CONTINUOUS
70
0
71
3
72
9
73
5
74
3
42
0.0000001000
43
0.0000001000
44
0.0000000001
40
0.0000000000
40
0.0000000000
40
0.0000000000
40
0.0000000000
40
0.4070732047
40
1.0000000000
40
1.0000000000
40
1.0000000000
40
1.0000000000
10
129.3666910472
20
107.5030300910
30
0.0000000000
10
129.4787573762
20
107.5346819286
30
0.0000000000
10
129.7559686664
20
107.6056670727
30
0.0000000000
10
130.0368621818
20
107.6606357643
30
0.0000000000
10
130.2042289088
20
107.6879340353
30
0.0000000000
11
129.3666910472
21
107.5030300910
31
0.0000000000
11
129.7050581291
21
107.5898201650
31
0.0000000000
11
130.2042289088
21
107.6879340353
31
0.0000000000
0
SPLINE
5
402
100
AcDbEntity
8
0
100
AcDbSpline
62
7
6
CONTINUOUS
70
0
71
3
72
12
73
8
74
6
42
0.0000001000
43
0.0000001000
44
0.0000000001
40
0.0000000000
40
0.0000000000
40
0.0000000000
40
0.0000000000
40
0.2731126899
40
0.5132155430
40
0.7278917549
40
0.9213880727
40
1.0000000000
40
1.0000000000
40
1.0000000000
40
1.0000000000
10
126.1179437506
20
120.1534856088
30
0.0000000000
10
126.2984207438
20
119.8249268163
30
0.0000000000
10
126.7145328692
20
119.2459471429
30
0.0000000000
10
127.4725933335
20
118.5848945403
30
0.0000000000
10
128.2429222363
20
118.1315911470
30
0.0000000000
10
128.8631106947
20
117.8783540895
30
0.0000000000
10
129.2196467051
20
117.7662792701
30
0.0000000000
10
129.3233377465
20
117.7362796937
30
0.0000000000
11
126.1179437506
21
120.1534856088
31
0.0000000000
11
126.7748200081
21
119.2406773000
31
0.0000000000
11
127.5176861895
21
118.5882873129
31
0.0000000000
11
128.2777746864
21
118.1369940723
31
0.0000000000
11
129.0144631960
21
117.8334966746
31
0.0000000000
11
129.3233377465
21
117.7362796937
31
0.0000000000
0
SPLINE
5
403
100
AcDbEntity
8
0
100
AcDbSpline
62
7
6
CONTINUOUS
70
0
71
3
72
8
73
4
74
2
42
0.0000001000
43
0.0000001000
44
0.0000000001
40
0.0000000000
40
0.0000000000
40
0.0000000000
40
0.0000000000
40
1.0000000000
40
1.0000000000
40
1.0000000000
40
1.0000000000
10
129.3233377465
20
117.7362796937
30
0.0000000000
10
129.3259524541
20
117.7355232145
30
0.0000000000
10
129.3285675992
20
117.7347682478
30
0.0000000000
10
129.3311831796
20
117.7340147924
30
0.0000000000
11
129.3233377465
21
117.7362796937
31
0.0000000000
11
129.3311831796
21
117.7340147924
31
0.0000000000
0
SPLINE
5
404
100
AcDbEntity
8
0
100
AcDbSpline
62
7
6
CONTINUOUS
70
0
71
3
72
8
73
4
74
2
42
0.0000001000
43
0.0000001000
44
0.0000000001
40
0.0000000000
40
0.0000000000
40
0.0000000000
40
0.0000000000
40
1.0000000000
40
1.0000000000
40
1.0000000000
40
1.0000000000
10
129.3311831796
20
117.7340147924
30
0.0000000000
10
129.3429985139
20
117.7306112161
30
0.0000000000
10
129.3548227309
20
117.7272384785
30
0.0000000000
10
129.3666556316
20
117.7238964585
30
0.0000000000
11
129.3311831796
21
117.7340147924
31
0.0000000000
11
129.3666556316
21
117.7238964585
31
0.0000000000
0
SPLINE
5
405
100
AcDbEntity
8
0
100
AcDbSpline
62
7
6
CONTINUOUS
70
0
71
3
72
9
73
5
74
3
42
0.0000001000
43
0.0000001000
44
0.0000000001
40
0.0000000000
40
0.0000000000
40
0.0000000000
40
0.0000000000
40
0.4071441517
40
1.0000000000
40
1.0000000000
40
1.0000000000
40
1.0000000000
10
129.3666556316
20
117.7238964585
30
0.0000000000
10
129.4787354982
20
117.6922412323
30
0.0000000000
10
129.7559320112
20
117.6212606180
30
0.0000000000
10
130.0368081837
20
117.5662844615
30
0.0000000000
10
130.2041450134
20
117.5389862796
30
0.0000000000
11
129.3666556316
21
117.7238964585
31
0.0000000000
11
129.7050633403
21
117.6370955490
31
0.0000000000
11
130.2041450134
21
117.5389862796
31
0.0000000000
0
SPLINE
5
406
100
AcDbEntity
8
0
100
AcDbSpline
62
7
6
CONTINUOUS
70
0
71
3
72
15
73
11
74
9
42
0.0000001000
43
0.0000001000
44
0.0000000001
40
0.0000000000
40
0.0000000000
40
0.0000000000
40
0.0000000000
40
0.1221874608
40
0.2562939943
40
0.4012592979
40
0.5514958396
40
0.6967586800
40
0.8240874254
40
0.9279394767
40
1.0000000000
40
1.0000000000
40
1.0000000000
40
1.0000000000
10
100.7730650784
20
112.6134501656
30
0.0000000000
10
100.7730656946
20
112.8046768098
30
0.0000000000
10
100.8225850720
20
113.2068675552
30
0.0000000000
10
101.0278126631
20
113.8033834575
30
0.0000000000
10
101.3256109546
20
114.4065152442
30
0.0000000000
10
101.6636021465
20
115.0073691477
30
0.0000000000
10
101.9871952683
20
115.5843934030
30
0.0000000000
10
102.2529767194
20
116.1112959625
30
0.0000000000
10
102.4278729246
20
116.5517991008
30
0.0000000000
10
102.4914312936
20
116.8243951345
30
0.0000000000
10
102.4914312982
20
116.9371717808
30
0.0000000000
11
100.7730650784
21
112.6134501656
31
0.0000000000
11
100.8388207640
21
113.1833491522
31
0.0000000000
11
101.0340012990
21
113.7819744660
31
0.0000000000
11
101.3271997229
21
114.3962084193
31
0.0000000000
11
101.6672625299
21
115.0141953269
31
0.0000000000
11
101.9963319529
21
115.6115775649
31
0.0000000000
11
102.2604859117
21
116.1478702614
31
0.0000000000
11
102.4329996195
21
116.6039257959
31
0.0000000000
11
102.4914312982
21
116.9371717808
31
0.0000000000
0
SPLINE
5
407
100
AcDbEntity
8
0
100
AcDbSpline
62
7
6
CONTINUOUS
70
0
71
3
72
15
73
11
74
9
42
0.0000001000
43
0.0000001000
44
0.0000000001
40
0.0000000000
40
0.0000000000
40
0.0000000000
40
0.0000000000
40
0.0757101634
40
0.1860778332
40
0.3217018575
40
0.4705913241
40
0.6184835859
40
0.7581638321
40
0.8854603498
40
1.0000000000
40
1.0000000000
40
1.0000000000
40
1.0000000000
10
102.4914312982
20
108.2898532670
30
0.0000000000
10
102.4914312969
20
108.4083409763
30
0.0000000000
10
102.4216796204
20
108.6963723948
30
0.0000000000
10
102.2323221272
20
109.1619727606
30
0.0000000000
10
101.9493127269
20
109.7125753008
30
0.0000000000
10
101.6165950683
20
110.3015931190
30
0.0000000000
10
101.2840687960
20
110.8983779654
30
0.0000000000
10
101.0029333185
20
111.4846214361
30
0.0000000000
10
100.8166580469
20
112.0547555158
30
0.0000000000
10
100.7730700336
20
112.4341936410
30
0.0000000000
10
100.7730650784
20
112.6134501656
30
0.0000000000
11
102.4914312982
21
108.2898532670
31
0.0000000000
11
102.4280863104
21
108.6396266906
31
0.0000000000
11
102.2408458789
21
109.1227969640
31
0.0000000000
11
101.9554089307
21
109.6919993339
31
0.0000000000
11
101.6163946496
21
110.3033351362
31
0.0000000000
11
101.2842178298
21
110.9130866277
31
0.0000000000
11
101.0083827194
21
111.5080626463
31
0.0000000000
11
100.8310680664
21
112.0788177983
31
0.0000000000
11
100.7730650784
21
112.6134501656
31
0.0000000000
0
SPLINE
5
408
100
AcDbEntity
8
0
100
AcDbSpline
62
7
6
CONTINUOUS
70
0
71
3
72
15
73
11
74
9
42
0.0000001000
43
0.0000001000
44
0.0000000001
40
0.0000000000
40
0.0000000000
40
0.0000000000
40
0.0000000000
40
0.1226660799
40
0.2572252739
40
0.4006603597
40
0.5490940810
40
0.6937374427
40
0.8227287522
40
0.9276080145
40
1.0000000000
40
1.0000000000
40
1.0000000000
40
1.0000000000
10
127.2098001225
20
112.6134389263
30
0.0000000000
10
127.2097982045
20
112.4214659904
30
0.0000000000
10
127.1598776541
20
112.0178178754
30
0.0000000000
10
126.9543849571
20
111.4223995579
30
0.0000000000
10
126.6586728041
20
110.8233142508
30
0.0000000000
10
126.3239406530
20
110.2277262395
30
0.0000000000
10
126.0007536125
20
109.6518580118
30
0.0000000000
10
125.7328456550
20
109.1223981291
30
0.0000000000
10
125.5557012651
20
108.6777223991
30
0.0000000000
10
125.4914312956
20
108.4030542743
30
0.0000000000
10
125.4914312982
20
108.2897605097
30
0.0000000000
11
127.2098001225
21
112.6134389263
31
0.0000000000
11
127.1435361840
21
112.0413449099
31
0.0000000000
11
126.9471759423
21
111.4408786521
31
0.0000000000
11
126.6569673591
21
110.8331893042
31
0.0000000000
11
126.3211176390
21
110.2225567764
31
0.0000000000
11
125.9931979697
21
109.6278729993
31
0.0000000000
11
125.7249843144
21
109.0848886692
31
0.0000000000
11
125.5503041986
21
108.6245041065
31
0.0000000000
11
125.4914312982
21
108.2897605097
31
0.0000000000
0
SPLINE
5
409
100
AcDbEntity
8
0
100
AcDbSpline
62
7
6
CONTINUOUS
70
0
71
3
72
15
73
11
74
9
42
0.0000001000
43
0.0000001000
44
0.0000000001
40
0.0000000000
40
0.0000000000
40
0.0000000000
40
0.0000000000
40
0.0759611064
40
0.1861830194
40
0.3212711658
40
0.4704733788
40
0.6190227434
40
0.7586589975
40
0.8852540650
40
1.0000000000
40
1.0000000000
40
1.0000000000
40
1.0000000000
10
125.4914312982
20
116.9371978912
30
0.0000000000
10
125.4914313031
20
116.8183135542
30
0.0000000000
10
125.5613795257
20
116.5301260657
30
0.0000000000
10
125.7505081430
20
116.0651626168
30
0.0000000000
10
126.0331785705
20
115.5150109002
30
0.0000000000
10
126.3662266147
20
114.9253750728
30
0.0000000000
10
126.6994957877
20
114.3273196744
30
0.0000000000
10
126.9803777641
20
113.7410685307
30
0.0000000000
10
127.1662111564
20
113.1717006921
30
0.0000000000
10
127.2098007746
20
112.7930241778
30
0.0000000000
10
127.2098001225
20
112.6134389263
30
0.0000000000
11
125.4914312982
21
116.9371978912
31
0.0000000000
11
125.5551088286
21
116.5862754747
31
0.0000000000
11
125.7421997889
21
116.1037630161
31
0.0000000000
11
126.0264641966
21
115.5367639940
31
0.0000000000
11
126.3661685552
21
114.9241055868
31
0.0000000000
11
126.6997960460
21
114.3116051153
31
0.0000000000
11
126.9753376375
21
113.7166970367
31
0.0000000000
11
127.1515934605
21
113.1490411551
31
0.0000000000
11
127.2098001225
21
112.6134389263
31
0.0000000000
0
ENDSEC
0
SECTION
2
OBJECTS
0
DICTIONARY
5
40A
100
AcDbDictionary
3
ACAD_GROUP
350
40B
3
ACAD_MLINESTYLE
350
40C
0
DICTIONARY
5
40B
102
{ACAD_REACTORS
330
40A
102
}
100
AcDbDictionary
0
DICTIONARY
5
40C
102
{ACAD_REACTORS
330
40A
102
}
100
AcDbDictionary
3
STANDARD
350
40D
0
MLINESTYLE
5
40D
102
{ACAD_REACTORS
330
40C
102
}
100
AcDbMlineStyle
2
STANDARD
70
0
3

62
256
51
90.0
52
90.0
71
2
49
0.5
62
256
6
BYLAYER
49
-0.5
62
256
6
BYLAYER
0
ENDSEC
0
EOF
