999
DXF file: C:\Aktuell-Internet\CAD-Daten\2vv-gsch6.dxf
999
Pro/ENGINEER 2001400 by Parametric Technology Corporation
0
SECTION
2
HEADER
9
$ACADVER
1
AC1014
9
$EXTMAX
10
420.0000000000
20
297.0000000000
9
$EXTMIN
10
0.0000000000
20
0.0000000000
9
$LIMMIN
10
0.0000000000
20
0.0000000000
9
$LIMMAX
10
420.0000000000
20
297.0000000000
9
$VIEWCTR
10
210.0000000000
20
148.5000000000
9
$VIEWSIZE
40
297.0000000000
9
$CLAYER
8
0
9
$LTSCALE
40
23.1000000000
9
$CELTYPE
6
BYLAYER
9
$DIMSCALE
40
1
9
$DIMASZ
40
3.5000000000
9
$DIMEXO
40
2.6250000000
9
$DIMDLI
40
15.9600000000
9
$DIMEXE
40
7.5600000000
9
$DIMCEN
40
3.7800000000
9
$DIMLFAC
40
1.0000000000
9
$DIMTXT
40
3.5000000000
9
$DIMTOL
70
1
9
$DIMTFAC
40
0.6000000000
9
$DIMTP
40
0.0050000000
9
$DIMTM
40
0.0050000000
9
$HANDSEED
5
413
0
ENDSEC
0
SECTION
2
CLASSES
0
ENDSEC
0
SECTION
2
TABLES
0
TABLE
2
VPORT
5
8
100
AcDbSymbolTable
70
2
0
VPORT
5
1F4
100
AcDbSymbolTableRecord
100
AcDbViewportTableRecord
2
*ACTIVE
70
0
10
0.0
20
0.0
11
1.0
21
1.0
12
210.0000000000
22
148.5000000000
13
0.0
23
0.0
14
1.0
24
1.0
15
0.0
25
0.0
16
0.0
26
0.0
36
1.0
17
0.0
27
0.0
37
0.0
40
297.0000000000
41
1.4141414141
42
50.0
43
0.0
44
0.0
50
0.0
51
0.0
71
0
72
100
73
1
74
1
75
0
76
0
77
0
78
0
0
ENDTAB
0
TABLE
2
LTYPE
5
5
100
AcDbSymbolTable
70
6
0
LTYPE
5
14
100
AcDbSymbolTableRecord
100
AcDbLinetypeTableRecord
2
BYBLOCK
70
0
3

72
65
73
0
40
0.0
0
LTYPE
5
15
100
AcDbSymbolTableRecord
100
AcDbLinetypeTableRecord
2
BYLAYER
70
0
3

72
65
73
0
40
0.0
0
LTYPE
5
16
100
AcDbSymbolTableRecord
100
AcDbLinetypeTableRecord
2
CONTINUOUS
70
64
3
Solid line
72
65
73
0
40
0
0
LTYPE
5
1F5
100
AcDbSymbolTableRecord
100
AcDbLinetypeTableRecord
2
CENTER
70
64
3
____ _ ____ _ ____ _ ____ _ ____ _ ____ _ ____
72
65
73
4
40
0.6
49
0.375
74
0
49
-0.075
74
0
49
0.075
74
0
49
-0.075
74
0
0
LTYPE
5
1F6
100
AcDbSymbolTableRecord
100
AcDbLinetypeTableRecord
2
HIDDEN
70
64
3
- - - - - - - - - - - - - - - - - - - -
72
65
73
2
40
0.2
49
0.1
74
0
49
-0.1
74
0
0
LTYPE
5
1F7
100
AcDbSymbolTableRecord
100
AcDbLinetypeTableRecord
2
PHANTOM
70
64
3
_____ _ _ _____ _ _ _____ _ _ _____
72
65
73
6
40
0.8
49
0.45
74
0
49
-0.05
74
0
49
0.1
74
0
49
-0.05
74
0
49
0.1
74
0
49
-0.05
74
0
0
LTYPE
5
1F8
100
AcDbSymbolTableRecord
100
AcDbLinetypeTableRecord
2
DOT
70
64
3
. . . . . . . . . . . . . . . . . . . .
72
65
73
2
40
0.2
49
0.1
74
0
49
-0.1
74
0
0
LTYPE
5
1F9
100
AcDbSymbolTableRecord
100
AcDbLinetypeTableRecord
2
DASHED
70
64
3
- - - - - - - - - - - - - - - - - - - -
72
65
73
2
40
0.2
49
0.1
74
0
49
-0.1
74
0
0
ENDTAB
0
TABLE
2
LAYER
5
2
100
AcDbSymbolTable
70
36
0
LAYER
5
10
100
AcDbSymbolTableRecord
100
AcDbLayerTableRecord
2
0
70
0
62
7
6
CONTINUOUS
0
LAYER
5
1FA
100
AcDbSymbolTableRecord
100
AcDbLayerTableRecord
2
DEFAULT_1
70
0
62
7
6
CENTER
0
LAYER
5
1FB
100
AcDbSymbolTableRecord
100
AcDbLayerTableRecord
2
DEFAULT_2
70
0
62
8
6
HIDDEN
0
LAYER
5
1FC
100
AcDbSymbolTableRecord
100
AcDbLayerTableRecord
2
DEFAULT_3
70
0
62
7
6
PHANTOM
0
LAYER
5
1FD
100
AcDbSymbolTableRecord
100
AcDbLayerTableRecord
2
ZEICHNUNGSBEMASSUNGEN
70
0
62
7
6
CONTINUOUS
0
ENDTAB
0
TABLE
2
STYLE
5
3
100
AcDbSymbolTable
70
1
0
STYLE
5
11
100
AcDbSymbolTableRecord
100
AcDbTextStyleTableRecord
2
STANDARD
70
0
40
0.0
41
1.0
50
0.0
71
0
42
0.0
3
txt
4

0
STYLE
5
1FE
100
AcDbSymbolTableRecord
100
AcDbTextStyleTableRecord
2
TEXTSTYLE_0
70
0
40
0.0
41
0.80
50
0.0
71
0
42
0.2
3
txt
4

0
ENDTAB
0
TABLE
2
VIEW
5
6
100
AcDbSymbolTable
70
0
0
ENDTAB
0
TABLE
2
UCS
5
7
100
AcDbSymbolTable
70
0
0
ENDTAB
0
TABLE
2
APPID
5
9
100
AcDbSymbolTable
70
1
0
APPID
5
1FF
100
AcDbSymbolTableRecord
100
AcDbRegAppTableRecord
2
ACAD
70
0
0
ENDTAB
0
TABLE
2
DIMSTYLE
5
A
100
AcDbSymbolTable
70
1
0
DIMSTYLE
105
200
100
AcDbSymbolTableRecord
100
AcDbDimStyleTableRecord
2
STANDARD
70
0
3

4

5

6

7

40
1.0
41
0.18
42
0.0625
43
0.38
44
0.18
45
0.0
46
0.0
47
0.0050000000
48
0.0050000000
140
3.5000000000
141
0.09
142
0.0
143
25.4
144
1.0000000000
145
0.0
146
0.6000000000
147
0.09
71
1
72
0
73
1
74
1
75
0
76
0
77
0
78
0
170
0
171
2
172
0
173
0
174
0
175
0
176
0
177
0
178
0
270
2
271
3
272
4
273
2
274
2
340
11
275
0
280
0
281
0
282
0
283
1
284
0
285
0
286
0
287
3
288
0
0
ENDTAB
0
TABLE
2
BLOCK_RECORD
5
1
100
AcDbSymbolTable
70
0
0
BLOCK_RECORD
5
1B
100
AcDbSymbolTableRecord
100
AcDbBlockTableRecord
2
*MODEL_SPACE
0
BLOCK_RECORD
5
1C
100
AcDbSymbolTableRecord
100
AcDbBlockTableRecord
2
*PAPER_SPACE
0
ENDTAB
0
ENDSEC
0
SECTION
2
BLOCKS
0
BLOCK
5
1E
100
AcDbEntity
8
0
100
AcDbBlockBegin
2
*MODEL_SPACE
70
0
10
0.0
20
0.0
30
0.0
3
*MODEL_SPACE
1

0
ENDBLK
5
1F
100
AcDbEntity
8
0
100
AcDbBlockEnd
0
BLOCK
5
20
100
AcDbEntity
8
0
100
AcDbBlockBegin
2
*PAPER_SPACE
70
0
10
0.0
20
0.0
30
0.0
3
*PAPER_SPACE
1

0
ENDBLK
5
21
100
AcDbEntity
8
0
100
AcDbBlockEnd
0
ENDSEC
0
SECTION
2
ENTITIES
0
TEXT
5
201
100
AcDbEntity
8
0
100
AcDbText
62
2
6
CONTINUOUS
10
289.1602691887
20
225.7440317788
7
TEXTSTYLE_0
40
3.0000000000
1
VV-GSCH
50
90.0000000000
72
5
11
289.1602691887
21
242.4583173337
100
AcDbText
0
TEXT
5
202
100
AcDbEntity
8
0
100
AcDbText
62
2
6
CONTINUOUS
10
303.4785612463
20
223.2356482014
7
TEXTSTYLE_0
40
3.0000000000
1
6/VIP
50
90.0000000000
72
5
11
303.4785612463
21
234.6642195210
100
AcDbText
0
TEXT
5
203
100
AcDbEntity
8
0
100
AcDbText
62
2
6
CONTINUOUS
10
106.5325723542
20
119.1558428239
7
TEXTSTYLE_0
40
2.5000000000
1
VV-GSCH
72
5
11
120.4611437828
21
119.1558428239
100
AcDbText
0
TEXT
5
204
100
AcDbEntity
8
0
100
AcDbText
62
2
6
CONTINUOUS
10
107.2136133236
20
101.8000788309
7
TEXTSTYLE_0
40
3.5000000000
1
6/VIP
72
5
11
120.5469466570
21
101.8000788309
100
AcDbText
0
LINE
5
205
100
AcDbEntity
8
0
100
AcDbLine
62
7
6
CONTINUOUS
10
0.0000000000
20
0.0000000000
11
0.0000000000
21
297.0000000000
0
LINE
5
206
100
AcDbEntity
8
0
100
AcDbLine
62
7
6
CONTINUOUS
10
0.0000000000
20
0.0000000000
11
420.0000000000
21
0.0000000000
0
LINE
5
207
100
AcDbEntity
8
0
100
AcDbLine
62
7
6
CONTINUOUS
10
0.0000000000
20
297.0000000000
11
420.0000000000
21
297.0000000000
0
LINE
5
208
100
AcDbEntity
8
0
100
AcDbLine
62
7
6
CONTINUOUS
10
420.0000000000
20
0.0000000000
11
420.0000000000
21
297.0000000000
0
LINE
5
209
100
AcDbEntity
8
0
100
AcDbLine
62
7
6
CONTINUOUS
10
97.1438218214
20
182.0019526045
11
105.1438218214
21
182.0019526045
0
LINE
5
20A
100
AcDbEntity
8
0
100
AcDbLine
62
7
6
CONTINUOUS
10
122.1438218214
20
182.0019526045
11
136.1438218214
21
182.0019526045
0
LINE
5
20B
100
AcDbEntity
8
0
100
AcDbLine
62
7
6
CONTINUOUS
10
97.1438218214
20
183.0019526045
11
94.8938218214
21
183.0019526045
0
LINE
5
20C
100
AcDbEntity
8
0
100
AcDbLine
62
7
6
CONTINUOUS
10
130.1438218214
20
185.3875743269
11
136.1438218214
21
185.3875743269
0
LINE
5
20D
100
AcDbEntity
8
0
100
AcDbLine
62
7
6
CONTINUOUS
10
97.1438218214
20
186.8701994081
11
94.8938218214
21
186.8701994081
0
LINE
5
20E
100
AcDbEntity
8
0
100
AcDbLine
62
7
6
CONTINUOUS
10
105.1438218214
20
187.0019526045
11
122.1438218214
21
187.0019526045
0
LINE
5
20F
100
AcDbEntity
8
DEFAULT_1
100
AcDbLine
62
2
6
CENTER
10
136.6813546416
20
192.0019526045
11
84.4894052224
21
192.0019526045
0
LINE
5
210
100
AcDbEntity
8
0
100
AcDbLine
62
7
6
CONTINUOUS
10
94.8938218214
20
183.0019526045
11
94.8938218214
21
201.0019526045
0
LINE
5
211
100
AcDbEntity
8
0
100
AcDbLine
62
7
6
CONTINUOUS
10
105.1438218214
20
197.0019526045
11
122.1438218214
21
197.0019526045
0
LINE
5
212
100
AcDbEntity
8
0
100
AcDbLine
62
7
6
CONTINUOUS
10
97.1438218214
20
197.1770070712
11
94.8938218214
21
197.1770070712
0
LINE
5
213
100
AcDbEntity
8
0
100
AcDbLine
62
7
6
CONTINUOUS
10
97.1438218214
20
215.0019526045
11
97.1438218214
21
182.0019526045
0
LINE
5
214
100
AcDbEntity
8
0
100
AcDbLine
62
7
6
CONTINUOUS
10
97.1438218214
20
200.0019526045
11
105.1438218214
21
200.0019526045
0
LINE
5
215
100
AcDbEntity
8
0
100
AcDbLine
62
7
6
CONTINUOUS
10
122.1438218214
20
200.0019526045
11
136.1438218214
21
200.0019526045
0
LINE
5
216
100
AcDbEntity
8
0
100
AcDbLine
62
7
6
CONTINUOUS
10
99.8938218214
20
217.0517428352
11
99.8938218214
21
216.7982117195
0
LINE
5
217
100
AcDbEntity
8
0
100
AcDbLine
62
7
6
CONTINUOUS
10
99.8938218214
20
215.6150661902
11
99.8938218214
21
215.3615350744
0
LINE
5
218
100
AcDbEntity
8
0
100
AcDbLine
62
7
6
CONTINUOUS
10
99.8938218214
20
214.4319216280
11
99.8938218214
21
214.0516249543
0
LINE
5
219
100
AcDbEntity
8
0
100
AcDbLine
62
7
6
CONTINUOUS
10
99.8938218214
20
212.3614171935
11
99.8938218214
21
212.1501411025
0
LINE
5
21A
100
AcDbEntity
8
0
100
AcDbLine
62
7
6
CONTINUOUS
10
99.8938218214
20
210.5444443583
11
99.8938218214
21
210.1641476846
0
LINE
5
21B
100
AcDbEntity
8
0
100
AcDbLine
62
7
6
CONTINUOUS
10
99.8938218214
20
208.2204090498
11
99.8938218214
21
207.9668779340
0
LINE
5
21C
100
AcDbEntity
8
0
100
AcDbLine
62
7
6
CONTINUOUS
10
99.8938218214
20
206.7837326465
11
99.8938218214
21
206.5302015307
0
LINE
5
21D
100
AcDbEntity
8
0
100
AcDbLine
62
7
6
CONTINUOUS
10
99.8938218214
20
206.1921600027
11
99.8938218214
21
205.9386288869
0
LINE
5
21E
100
AcDbEntity
8
0
100
AcDbLine
62
7
6
CONTINUOUS
10
99.8938218214
20
204.7554837203
11
99.8938218214
21
204.5019526045
0
LINE
5
21F
100
AcDbEntity
8
0
100
AcDbLine
62
7
6
CONTINUOUS
10
100.2768004992
20
210.1641476846
11
100.2768004992
21
210.5444443583
0
LINE
5
220
100
AcDbEntity
8
0
100
AcDbLine
62
7
6
CONTINUOUS
10
100.2768004992
20
212.1501411025
11
100.2768004992
21
212.4036722182
0
LINE
5
221
100
AcDbEntity
8
0
100
AcDbLine
62
7
6
CONTINUOUS
10
100.2768004992
20
214.0516249543
11
100.2768004992
21
214.4319216280
0
LINE
5
222
100
AcDbEntity
8
0
100
AcDbLine
62
7
6
CONTINUOUS
10
100.5959493973
20
212.6572038176
11
100.5959493973
21
212.9107349334
0
LINE
5
223
100
AcDbEntity
8
0
100
AcDbLine
62
7
6
CONTINUOUS
10
100.6597793557
20
210.8824855236
11
100.6597793557
21
211.1360166394
0
LINE
5
224
100
AcDbEntity
8
0
100
AcDbLine
62
7
6
CONTINUOUS
10
100.6597793557
20
214.7699627933
11
100.6597793557
21
215.0234939091
0
LINE
5
225
100
AcDbEntity
8
0
100
AcDbLine
62
7
6
CONTINUOUS
10
99.9576516010
20
214.6431972354
11
99.8938218214
21
214.4319216280
0
LINE
5
226
100
AcDbEntity
8
0
100
AcDbLine
62
7
6
CONTINUOUS
10
99.9576516010
20
212.5726932845
11
99.8938218214
21
212.3614171935
0
LINE
5
227
100
AcDbEntity
8
0
100
AcDbLine
62
7
6
CONTINUOUS
10
100.2768004992
20
214.4319216280
11
100.3406302788
21
214.6009417271
0
LINE
5
228
100
AcDbEntity
8
0
100
AcDbLine
62
7
6
CONTINUOUS
10
97.1438218214
20
201.0019526045
11
94.8938218214
21
201.0019526045
0
LINE
5
229
100
AcDbEntity
8
0
100
AcDbLine
62
7
6
CONTINUOUS
10
99.9576516010
20
209.9528715936
11
100.0853111603
21
209.7838510110
0
LINE
5
22A
100
AcDbEntity
8
0
100
AcDbLine
62
7
6
CONTINUOUS
10
100.3406302788
20
209.9951266184
11
100.2768004992
21
210.1641476846
0
LINE
5
22B
100
AcDbEntity
8
0
100
AcDbLine
62
7
6
CONTINUOUS
10
99.8938218214
20
212.1501411025
11
99.9576516010
21
211.9811205198
0
LINE
5
22C
100
AcDbEntity
8
0
100
AcDbLine
62
7
6
CONTINUOUS
10
99.8938218214
20
210.1641476846
11
99.9576516010
21
209.9528715936
0
LINE
5
22D
100
AcDbEntity
8
0
100
AcDbLine
62
7
6
CONTINUOUS
10
99.8938218214
20
214.0516249543
11
99.9576516010
21
213.8403483798
0
LINE
5
22E
100
AcDbEntity
8
0
100
AcDbLine
62
7
6
CONTINUOUS
10
101.1065878131
20
216.7982117195
11
101.1065878131
21
215.6150661902
0
LINE
5
22F
100
AcDbEntity
8
0
100
AcDbLine
62
7
6
CONTINUOUS
10
101.1704175927
20
212.4036722182
11
101.1704175927
21
212.1501411025
0
LINE
5
230
100
AcDbEntity
8
0
100
AcDbLine
62
7
6
CONTINUOUS
10
101.2342473723
20
211.1360166394
11
101.2342473723
21
210.5021888499
0
LINE
5
231
100
AcDbEntity
8
0
100
AcDbLine
62
7
6
CONTINUOUS
10
101.4895664908
20
209.1500232215
11
101.4895664908
21
208.5584504569
0
LINE
5
232
100
AcDbEntity
8
0
100
AcDbLine
62
7
6
CONTINUOUS
10
101.4895664908
20
215.6150661902
11
101.4895664908
21
216.7982117195
0
LINE
5
233
100
AcDbEntity
8
0
100
AcDbLine
62
7
6
CONTINUOUS
10
101.5533962705
20
212.1501411025
11
101.5533962705
21
212.4036722182
0
LINE
5
234
100
AcDbEntity
8
0
100
AcDbLine
62
7
6
CONTINUOUS
10
101.6172260501
20
210.5021888499
11
101.6172260501
21
210.8824855236
0
LINE
5
235
100
AcDbEntity
8
0
100
AcDbLine
62
7
6
CONTINUOUS
10
101.8087154784
20
208.5584504569
11
101.8087154784
21
209.1500232215
0
LINE
5
236
100
AcDbEntity
8
0
100
AcDbLine
62
7
6
CONTINUOUS
10
102.0640345969
20
211.7275894040
11
102.0640345969
21
211.4740582883
0
LINE
5
237
100
AcDbEntity
8
0
100
AcDbLine
62
7
6
CONTINUOUS
10
102.1278643765
20
215.0234939091
11
102.1278643765
21
214.7699627933
0
LINE
5
238
100
AcDbEntity
8
0
100
AcDbLine
62
7
6
CONTINUOUS
10
102.5108430990
20
214.4319216280
11
102.5108430990
21
214.0516249543
0
LINE
5
239
100
AcDbEntity
8
0
100
AcDbLine
62
7
6
CONTINUOUS
10
102.5108430990
20
212.4036722182
11
102.5108430990
21
212.0656310529
0
LINE
5
23A
100
AcDbEntity
8
0
100
AcDbLine
62
7
6
CONTINUOUS
10
102.5108430990
20
210.5444443583
11
102.5108430990
21
210.1641476846
0
LINE
5
23B
100
AcDbEntity
8
0
100
AcDbLine
62
7
6
CONTINUOUS
10
102.8938218214
20
205.1780356001
11
102.8938218214
21
205.5160770676
0
LINE
5
23C
100
AcDbEntity
8
0
100
AcDbLine
62
7
6
CONTINUOUS
10
102.8938218214
20
207.2062845867
11
102.8938218214
21
207.5443259938
0
LINE
5
23D
100
AcDbEntity
8
0
100
AcDbLine
62
7
6
CONTINUOUS
10
102.8938218214
20
210.1641476846
11
102.8938218214
21
210.5444443583
0
LINE
5
23E
100
AcDbEntity
8
0
100
AcDbLine
62
7
6
CONTINUOUS
10
102.8938218214
20
212.0656310529
11
102.8938218214
21
212.4036722182
0
LINE
5
23F
100
AcDbEntity
8
0
100
AcDbLine
62
7
6
CONTINUOUS
10
102.8938218214
20
214.0516249543
11
102.8938218214
21
214.4319216280
0
LINE
5
240
100
AcDbEntity
8
0
100
AcDbLine
62
7
6
CONTINUOUS
10
102.8938218214
20
215.3615350744
11
102.8938218214
21
215.6150661902
0
LINE
5
241
100
AcDbEntity
8
0
100
AcDbLine
62
7
6
CONTINUOUS
10
102.8938218214
20
216.7982117195
11
102.8938218214
21
217.0517428352
0
LINE
5
242
100
AcDbEntity
8
0
100
AcDbLine
62
7
6
CONTINUOUS
10
99.9576516010
20
210.7557199657
11
99.8938218214
21
210.5444443583
0
LINE
5
243
100
AcDbEntity
8
0
100
AcDbLine
62
7
6
CONTINUOUS
10
101.2342473723
20
212.6149483092
11
101.1704175927
21
212.4036722182
0
LINE
5
244
100
AcDbEntity
8
0
100
AcDbLine
62
7
6
CONTINUOUS
10
102.8299920362
20
213.8403483798
11
102.8938218214
21
214.0516249543
0
LINE
5
245
100
AcDbEntity
8
0
100
AcDbLine
62
7
6
CONTINUOUS
10
100.2768004992
20
210.5444443583
11
100.3406302788
21
210.7134649409
0
LINE
5
246
100
AcDbEntity
8
0
100
AcDbLine
62
7
6
CONTINUOUS
10
101.5533962705
20
212.4036722182
11
101.6172260501
21
212.5726932845
0
LINE
5
247
100
AcDbEntity
8
0
100
AcDbLine
62
7
6
CONTINUOUS
10
101.4895664908
20
211.9811205198
11
101.5533962705
21
212.1501411025
0
LINE
5
248
100
AcDbEntity
8
0
100
AcDbLine
62
7
6
CONTINUOUS
10
102.5108430990
20
214.0516249543
11
102.4470133193
21
213.8826038881
0
LINE
5
249
100
AcDbEntity
8
0
100
AcDbLine
62
7
6
CONTINUOUS
10
102.5108430990
20
212.0656310529
11
102.4470133193
21
211.8966099867
0
LINE
5
24A
100
AcDbEntity
8
0
100
AcDbLine
62
7
6
CONTINUOUS
10
100.2768004992
20
212.4036722182
11
100.3406302788
21
212.5304377761
0
LINE
5
24B
100
AcDbEntity
8
0
100
AcDbLine
62
7
6
CONTINUOUS
10
101.1704175927
20
212.1501411025
11
101.1065878131
21
212.0233755446
0
LINE
5
24C
100
AcDbEntity
8
0
100
AcDbLine
62
7
6
CONTINUOUS
10
100.0853111603
20
214.8122183016
11
99.9576516010
21
214.6431972354
0
LINE
5
24D
100
AcDbEntity
8
0
100
AcDbLine
62
7
6
CONTINUOUS
10
100.3406302788
20
214.6009417271
11
100.4682898380
21
214.7277072850
0
LINE
5
24E
100
AcDbEntity
8
0
100
AcDbLine
62
7
6
CONTINUOUS
10
127.1916941561
20
207.8575659432
11
127.0002048173
21
207.8067640481
0
LINE
5
24F
100
AcDbEntity
8
0
100
AcDbLine
62
7
6
CONTINUOUS
10
126.6172260501
20
209.0260098223
11
126.8087154784
21
209.0768116812
0
LINE
5
250
100
AcDbEntity
8
0
100
AcDbLine
62
7
6
CONTINUOUS
10
102.8938218214
20
205.5160770676
11
99.8938218214
21
206.1921600027
0
LINE
5
251
100
AcDbEntity
8
0
100
AcDbLine
62
7
6
CONTINUOUS
10
99.8938218214
20
205.9386288869
11
102.5108430990
21
205.3470563036
0
LINE
5
252
100
AcDbEntity
8
0
100
AcDbLine
62
7
6
CONTINUOUS
10
100.0853111603
20
209.7838510110
11
100.3406302788
21
209.6148299447
0
LINE
5
253
100
AcDbEntity
8
0
100
AcDbLine
62
7
6
CONTINUOUS
10
100.4682898380
20
209.8683610605
11
100.3406302788
21
209.9951266184
0
LINE
5
254
100
AcDbEntity
8
0
100
AcDbLine
62
7
6
CONTINUOUS
10
100.4682898380
20
211.8966099867
11
100.3406302788
21
212.0233755446
0
LINE
5
255
100
AcDbEntity
8
0
100
AcDbLine
62
7
6
CONTINUOUS
10
102.3193537154
20
210.8402304988
11
102.4470133193
21
210.7134649409
0
LINE
5
256
100
AcDbEntity
8
0
100
AcDbLine
62
7
6
CONTINUOUS
10
99.9576516010
20
211.9811205198
11
100.0853111603
21
211.8120999371
0
LINE
5
257
100
AcDbEntity
8
0
100
AcDbLine
62
7
6
CONTINUOUS
10
99.9576516010
20
213.8403483798
11
100.0853111603
21
213.6713282807
0
LINE
5
258
100
AcDbEntity
8
0
100
AcDbLine
62
7
6
CONTINUOUS
10
102.8299920362
20
210.7557199657
11
102.7023324602
21
210.9247410319
0
LINE
5
259
100
AcDbEntity
8
0
100
AcDbLine
62
7
6
CONTINUOUS
10
100.3406302788
20
212.0233755446
11
100.2768004992
21
212.1501411025
0
LINE
5
25A
100
AcDbEntity
8
0
100
AcDbLine
62
7
6
CONTINUOUS
10
100.3406302788
20
213.8826038881
11
100.2768004992
21
214.0516249543
0
LINE
5
25B
100
AcDbEntity
8
0
100
AcDbLine
62
7
6
CONTINUOUS
10
102.4470133193
20
210.7134649409
11
102.5108430990
21
210.5444443583
0
LINE
5
25C
100
AcDbEntity
8
0
100
AcDbLine
62
7
6
CONTINUOUS
10
102.4470133193
20
212.5726932845
11
102.5108430990
21
212.4036722182
0
LINE
5
25D
100
AcDbEntity
8
0
100
AcDbLine
62
7
6
CONTINUOUS
10
102.8938218214
20
210.5444443583
11
102.8299920362
21
210.7557199657
0
LINE
5
25E
100
AcDbEntity
8
0
100
AcDbLine
62
7
6
CONTINUOUS
10
102.8938218214
20
212.4036722182
11
102.8299920362
21
212.6149483092
0
LINE
5
25F
100
AcDbEntity
8
0
100
AcDbLine
62
7
6
CONTINUOUS
10
105.1438218214
20
182.0019526045
11
105.1438218214
21
215.0019526045
0
LINE
5
260
100
AcDbEntity
8
0
100
AcDbLine
62
7
6
CONTINUOUS
10
102.8299920362
20
211.8543549619
11
102.8938218214
21
212.0656310529
0
LINE
5
261
100
AcDbEntity
8
0
100
AcDbLine
62
7
6
CONTINUOUS
10
102.8299920362
20
209.9528715936
11
102.8938218214
21
210.1641476846
0
LINE
5
262
100
AcDbEntity
8
0
100
AcDbLine
62
7
6
CONTINUOUS
10
102.5108430990
20
210.1641476846
11
102.4470133193
21
209.9951266184
0
LINE
5
263
100
AcDbEntity
8
0
100
AcDbLine
62
7
6
CONTINUOUS
10
101.3619069316
20
212.7839693755
11
101.2342473723
21
212.6149483092
0
LINE
5
264
100
AcDbEntity
8
0
100
AcDbLine
62
7
6
CONTINUOUS
10
100.0853111603
20
210.9247410319
11
99.9576516010
21
210.7557199657
0
LINE
5
265
100
AcDbEntity
8
0
100
AcDbLine
62
7
6
CONTINUOUS
10
102.7023324602
20
213.6713282807
11
102.8299920362
21
213.8403483798
0
LINE
5
266
100
AcDbEntity
8
0
100
AcDbLine
62
7
6
CONTINUOUS
10
101.3619069316
20
211.8120999371
11
101.4895664908
21
211.9811205198
0
LINE
5
267
100
AcDbEntity
8
0
100
AcDbLine
62
7
6
CONTINUOUS
10
102.6385026806
20
211.6430788709
11
102.8299920362
21
211.8543549619
0
LINE
5
268
100
AcDbEntity
8
0
100
AcDbLine
62
7
6
CONTINUOUS
10
102.4470133193
20
213.8826038881
11
102.3193537154
21
213.7558383302
0
LINE
5
269
100
AcDbEntity
8
0
100
AcDbLine
62
7
6
CONTINUOUS
10
101.6172260501
20
212.5726932845
11
101.7448856093
21
212.6994583588
0
LINE
5
26A
100
AcDbEntity
8
0
100
AcDbLine
62
7
6
CONTINUOUS
10
101.1065878131
20
212.0233755446
11
100.9789282538
21
211.8966099867
0
LINE
5
26B
100
AcDbEntity
8
0
100
AcDbLine
62
7
6
CONTINUOUS
10
100.3406302788
20
210.7134649409
11
100.4682898380
21
210.8402304988
0
LINE
5
26C
100
AcDbEntity
8
0
100
AcDbLine
62
7
6
CONTINUOUS
10
100.1491409399
20
212.7417138671
11
99.9576516010
21
212.5726932845
0
LINE
5
26D
100
AcDbEntity
8
0
100
AcDbLine
62
7
6
CONTINUOUS
10
100.3406302788
20
214.9812384007
11
100.0853111603
21
214.8122183016
0
LINE
5
26E
100
AcDbEntity
8
0
100
AcDbLine
62
7
6
CONTINUOUS
10
100.3406302788
20
212.5304377761
11
100.4682898380
21
212.6149483092
0
LINE
5
26F
100
AcDbEntity
8
0
100
AcDbLine
62
7
6
CONTINUOUS
10
102.4470133193
20
213.5023072144
11
102.7023324602
21
213.6713282807
0
LINE
5
270
100
AcDbEntity
8
0
100
AcDbLine
62
7
6
CONTINUOUS
10
101.6172260501
20
212.9529894746
11
101.3619069316
21
212.7839693755
0
LINE
5
271
100
AcDbEntity
8
0
100
AcDbLine
62
7
6
CONTINUOUS
10
127.5108430990
20
211.9725205403
11
124.8938218214
21
211.2612936449
0
LINE
5
272
100
AcDbEntity
8
0
100
AcDbLine
62
7
6
CONTINUOUS
10
124.8938218214
20
210.9564822013
11
127.8938218214
21
211.7693128144
0
LINE
5
273
100
AcDbEntity
8
0
100
AcDbLine
62
7
6
CONTINUOUS
10
125.5959493973
20
209.2292174029
11
125.4044600584
21
209.1784155441
0
LINE
5
274
100
AcDbEntity
8
0
100
AcDbLine
62
7
6
CONTINUOUS
10
102.5108430990
20
205.3470563036
11
99.8938218214
21
204.7554837203
0
LINE
5
275
100
AcDbEntity
8
0
100
AcDbLine
62
7
6
CONTINUOUS
10
99.8938218214
20
204.5019526045
11
102.8938218214
21
205.1780356001
0
LINE
5
276
100
AcDbEntity
8
0
100
AcDbLine
62
7
6
CONTINUOUS
10
126.6172260501
20
207.5019526045
11
127.0640345969
21
207.5527545133
0
LINE
5
277
100
AcDbEntity
8
0
100
AcDbLine
62
7
6
CONTINUOUS
10
126.1704175927
20
207.5019526045
11
126.6172260501
21
207.5019526045
0
LINE
5
278
100
AcDbEntity
8
0
100
AcDbLine
62
7
6
CONTINUOUS
10
126.2980771520
20
207.7559621348
11
126.1704175927
21
207.7559621348
0
LINE
5
279
100
AcDbEntity
8
0
100
AcDbLine
62
7
6
CONTINUOUS
10
127.0002048173
20
207.8067640481
11
126.8087154784
21
207.8067640481
0
LINE
5
27A
100
AcDbEntity
8
0
100
AcDbLine
62
7
6
CONTINUOUS
10
102.8938218214
20
207.5443259938
11
99.8938218214
21
208.2204090498
0
LINE
5
27B
100
AcDbEntity
8
0
100
AcDbLine
62
7
6
CONTINUOUS
10
99.8938218214
20
207.9668779340
11
102.5108430990
21
207.3753051694
0
LINE
5
27C
100
AcDbEntity
8
0
100
AcDbLine
62
7
6
CONTINUOUS
10
100.3406302788
20
209.6148299447
11
100.5959493973
21
209.5303198952
0
LINE
5
27D
100
AcDbEntity
8
0
100
AcDbLine
62
7
6
CONTINUOUS
10
100.6597793557
20
209.7838510110
11
100.4682898380
21
209.8683610605
0
LINE
5
27E
100
AcDbEntity
8
0
100
AcDbLine
62
7
6
CONTINUOUS
10
100.0853111603
20
211.8120999371
11
100.3406302788
21
211.6430788709
0
LINE
5
27F
100
AcDbEntity
8
0
100
AcDbLine
62
7
6
CONTINUOUS
10
102.7023324602
20
210.9247410319
11
102.4470133193
21
211.0937616146
0
LINE
5
280
100
AcDbEntity
8
0
100
AcDbLine
62
7
6
CONTINUOUS
10
100.0853111603
20
213.6713282807
11
100.3406302788
21
213.5023072144
0
LINE
5
281
100
AcDbEntity
8
0
100
AcDbLine
62
7
6
CONTINUOUS
10
100.4682898380
20
213.7558383302
11
100.3406302788
21
213.8826038881
0
LINE
5
282
100
AcDbEntity
8
0
100
AcDbLine
62
7
6
CONTINUOUS
10
102.3193537154
20
212.6994583588
11
102.4470133193
21
212.5726932845
0
LINE
5
283
100
AcDbEntity
8
0
100
AcDbLine
62
7
6
CONTINUOUS
10
102.8299920362
20
212.6149483092
11
102.7023324602
21
212.7839693755
0
LINE
5
284
100
AcDbEntity
8
0
100
AcDbLine
62
7
6
CONTINUOUS
10
102.8299920362
20
214.6431972354
11
102.7023324602
21
214.8122183016
0
LINE
5
285
100
AcDbEntity
8
0
100
AcDbLine
62
7
6
CONTINUOUS
10
102.4470133193
20
214.6009417271
11
102.5108430990
21
214.4319216280
0
LINE
5
286
100
AcDbEntity
8
0
100
AcDbLine
62
7
6
CONTINUOUS
10
102.8938218214
20
214.4319216280
11
102.8299920362
21
214.6431972354
0
LINE
5
287
100
AcDbEntity
8
0
100
AcDbLine
62
7
6
CONTINUOUS
10
106.1438218214
20
222.0563686429
11
106.1438218214
21
237.0019526045
0
LINE
5
288
100
AcDbEntity
8
0
100
AcDbLine
62
7
6
CONTINUOUS
10
102.7023324602
20
209.7838510110
11
102.8299920362
21
209.9528715936
0
LINE
5
289
100
AcDbEntity
8
0
100
AcDbLine
62
7
6
CONTINUOUS
10
102.4470133193
20
209.9951266184
11
102.3193537154
21
209.8683610605
0
LINE
5
28A
100
AcDbEntity
8
0
100
AcDbLine
62
7
6
CONTINUOUS
10
101.1065878131
20
211.6430788709
11
101.3619069316
21
211.8120999371
0
LINE
5
28B
100
AcDbEntity
8
0
100
AcDbLine
62
7
6
CONTINUOUS
10
100.3406302788
20
211.0937616146
11
100.0853111603
21
210.9247410319
0
LINE
5
28C
100
AcDbEntity
8
0
100
AcDbLine
62
7
6
CONTINUOUS
10
102.4470133193
20
211.8966099867
11
102.2555239358
21
211.7698444288
0
LINE
5
28D
100
AcDbEntity
8
0
100
AcDbLine
62
7
6
CONTINUOUS
10
100.4044600584
20
212.8684794250
11
100.1491409399
21
212.7417138671
0
LINE
5
28E
100
AcDbEntity
8
0
100
AcDbLine
62
7
6
CONTINUOUS
10
102.3193537154
20
213.7558383302
11
102.1278643765
21
213.6713282807
0
LINE
5
28F
100
AcDbEntity
8
0
100
AcDbLine
62
7
6
CONTINUOUS
10
101.7448856093
20
212.6994583588
11
101.9363750376
21
212.7839693755
0
LINE
5
290
100
AcDbEntity
8
0
100
AcDbLine
62
7
6
CONTINUOUS
10
102.1916941561
20
213.4177971649
11
102.4470133193
21
213.5023072144
0
LINE
5
291
100
AcDbEntity
8
0
100
AcDbLine
62
7
6
CONTINUOUS
10
100.4682898380
20
212.6149483092
11
100.5959493973
21
212.6572038176
0
LINE
5
292
100
AcDbEntity
8
0
100
AcDbLine
62
7
6
CONTINUOUS
10
101.8725452580
20
213.0375004912
11
101.6172260501
21
212.9529894746
0
LINE
5
293
100
AcDbEntity
8
0
100
AcDbLine
62
7
6
CONTINUOUS
10
102.5108430990
20
207.3753051694
11
99.8938218214
21
206.7837326465
0
LINE
5
294
100
AcDbEntity
8
0
100
AcDbLine
62
7
6
CONTINUOUS
10
99.8938218214
20
206.5302015307
11
102.8938218214
21
207.2062845867
0
LINE
5
295
100
AcDbEntity
8
0
100
AcDbLine
62
7
6
CONTINUOUS
10
101.4895664908
20
208.5584504569
11
101.8087154784
21
208.5584504569
0
LINE
5
296
100
AcDbEntity
8
0
100
AcDbLine
62
7
6
CONTINUOUS
10
126.8087154784
20
209.0768116812
11
127.0002048173
21
209.0768116812
0
LINE
5
297
100
AcDbEntity
8
0
100
AcDbLine
62
7
6
CONTINUOUS
10
101.8087154784
20
209.1500232215
11
101.4895664908
21
209.1500232215
0
LINE
5
298
100
AcDbEntity
8
0
100
AcDbLine
62
7
6
CONTINUOUS
10
127.0640345969
20
209.3308212659
11
126.7448856093
21
209.3308212659
0
LINE
5
299
100
AcDbEntity
8
0
100
AcDbLine
62
7
6
CONTINUOUS
10
100.9150984742
20
209.4880643869
11
101.8725452580
21
209.4880643869
0
LINE
5
29A
100
AcDbEntity
8
0
100
AcDbLine
62
7
6
CONTINUOUS
10
101.8725452580
20
209.7415955026
11
100.9150984742
21
209.7415955026
0
LINE
5
29B
100
AcDbEntity
8
0
100
AcDbLine
62
7
6
CONTINUOUS
10
101.2342473723
20
210.5021888499
11
101.6172260501
21
210.5021888499
0
LINE
5
29C
100
AcDbEntity
8
0
100
AcDbLine
62
7
6
CONTINUOUS
10
125.7236091353
20
207.5527545133
11
126.1704175927
21
207.5019526045
0
LINE
5
29D
100
AcDbEntity
8
0
100
AcDbLine
62
7
6
CONTINUOUS
10
100.5959493973
20
209.5303198952
11
100.9150984742
21
209.4880643869
0
LINE
5
29E
100
AcDbEntity
8
0
100
AcDbLine
62
7
6
CONTINUOUS
10
126.1704175927
20
207.7559621348
11
125.7874389150
21
207.8067640481
0
LINE
5
29F
100
AcDbEntity
8
0
100
AcDbLine
62
7
6
CONTINUOUS
10
100.9150984742
20
209.7415955026
11
100.6597793557
21
209.7838510110
0
LINE
5
2A0
100
AcDbEntity
8
0
100
AcDbLine
62
7
6
CONTINUOUS
10
102.4470133193
20
211.0937616146
11
102.1916941561
21
211.1360166394
0
LINE
5
2A1
100
AcDbEntity
8
0
100
AcDbLine
62
7
6
CONTINUOUS
10
100.3406302788
20
211.6430788709
11
100.5959493973
21
211.6008238461
0
LINE
5
2A2
100
AcDbEntity
8
0
100
AcDbLine
62
7
6
CONTINUOUS
10
102.1278643765
20
210.8824855236
11
102.3193537154
21
210.8402304988
0
LINE
5
2A3
100
AcDbEntity
8
0
100
AcDbLine
62
7
6
CONTINUOUS
10
100.6597793557
20
211.8543549619
11
100.4682898380
21
211.8966099867
0
LINE
5
2A4
100
AcDbEntity
8
0
100
AcDbLine
62
7
6
CONTINUOUS
10
100.3406302788
20
213.5023072144
11
100.5959493973
21
213.4177971649
0
LINE
5
2A5
100
AcDbEntity
8
0
100
AcDbLine
62
7
6
CONTINUOUS
10
102.4470133193
20
212.9529894746
11
102.1916941561
21
213.0375004912
0
LINE
5
2A6
100
AcDbEntity
8
0
100
AcDbLine
62
7
6
CONTINUOUS
10
102.1278643765
20
212.7839693755
11
102.3193537154
21
212.6994583588
0
LINE
5
2A7
100
AcDbEntity
8
0
100
AcDbLine
62
7
6
CONTINUOUS
10
100.6597793557
20
213.6713282807
11
100.4682898380
21
213.7558383302
0
LINE
5
2A8
100
AcDbEntity
8
0
100
AcDbLine
62
7
6
CONTINUOUS
10
102.7023324602
20
212.7839693755
11
102.4470133193
21
212.9529894746
0
LINE
5
2A9
100
AcDbEntity
8
0
100
AcDbLine
62
7
6
CONTINUOUS
10
102.7023324602
20
214.8122183016
11
102.4470133193
21
214.9812384007
0
LINE
5
2AA
100
AcDbEntity
8
0
100
AcDbLine
62
7
6
CONTINUOUS
10
102.3193537154
20
214.7277072850
11
102.4470133193
21
214.6009417271
0
LINE
5
2AB
100
AcDbEntity
8
0
100
AcDbLine
62
7
6
CONTINUOUS
10
102.4470133193
20
209.6148299447
11
102.7023324602
21
209.7838510110
0
LINE
5
2AC
100
AcDbEntity
8
0
100
AcDbLine
62
7
6
CONTINUOUS
10
102.3193537154
20
209.8683610605
11
102.1278643765
21
209.7838510110
0
LINE
5
2AD
100
AcDbEntity
8
0
100
AcDbLine
62
7
6
CONTINUOUS
10
102.3193537154
20
211.5163133130
11
102.6385026806
21
211.6430788709
0
LINE
5
2AE
100
AcDbEntity
8
0
100
AcDbLine
62
7
6
CONTINUOUS
10
125.4044600584
20
215.6302575724
11
125.5959493973
21
215.6810598672
0
LINE
5
2AF
100
AcDbEntity
8
0
100
AcDbLine
62
7
6
CONTINUOUS
10
125.5959493973
20
215.9858713108
11
125.4044600584
21
215.9350690159
0
LINE
5
2B0
100
AcDbEntity
8
0
100
AcDbLine
62
7
6
CONTINUOUS
10
100.4682898380
20
210.8402304988
11
100.6597793557
21
210.8824855236
0
LINE
5
2B1
100
AcDbEntity
8
0
100
AcDbLine
62
7
6
CONTINUOUS
10
102.1278643765
20
209.7838510110
11
101.8725452580
21
209.7415955026
0
LINE
5
2B2
100
AcDbEntity
8
0
100
AcDbLine
62
7
6
CONTINUOUS
10
102.0640345969
20
211.4740582883
11
102.3193537154
21
211.5163133130
0
LINE
5
2B3
100
AcDbEntity
8
0
100
AcDbLine
62
7
6
CONTINUOUS
10
100.8512686946
20
211.6008238461
11
101.1065878131
21
211.6430788709
0
LINE
5
2B4
100
AcDbEntity
8
0
100
AcDbLine
62
7
6
CONTINUOUS
10
101.8725452580
20
209.4880643869
11
102.1916941561
21
209.5303198952
0
LINE
5
2B5
100
AcDbEntity
8
0
100
AcDbLine
62
7
6
CONTINUOUS
10
100.6597793557
20
211.1360166394
11
100.3406302788
21
211.0937616146
0
LINE
5
2B6
100
AcDbEntity
8
0
100
AcDbLine
62
7
6
CONTINUOUS
10
101.6172260501
20
210.8824855236
11
102.1278643765
21
210.8824855236
0
LINE
5
2B7
100
AcDbEntity
8
0
100
AcDbLine
62
7
6
CONTINUOUS
10
102.1916941561
20
211.1360166394
11
101.2342473723
21
211.1360166394
0
LINE
5
2B8
100
AcDbEntity
8
0
100
AcDbLine
62
7
6
CONTINUOUS
10
100.5959493973
20
211.6008238461
11
100.8512686946
21
211.6008238461
0
LINE
5
2B9
100
AcDbEntity
8
0
100
AcDbLine
62
7
6
CONTINUOUS
10
100.7874389150
20
211.8543549619
11
100.6597793557
21
211.8543549619
0
LINE
5
2BA
100
AcDbEntity
8
0
100
AcDbLine
62
7
6
CONTINUOUS
10
101.9363750376
20
212.7839693755
11
102.1278643765
21
212.7839693755
0
LINE
5
2BB
100
AcDbEntity
8
0
100
AcDbLine
62
7
6
CONTINUOUS
10
102.1916941561
20
213.0375004912
11
101.8725452580
21
213.0375004912
0
LINE
5
2BC
100
AcDbEntity
8
0
100
AcDbLine
62
7
6
CONTINUOUS
10
100.5959493973
20
213.4177971649
11
100.9150984742
21
213.3755416566
0
LINE
5
2BD
100
AcDbEntity
8
0
100
AcDbLine
62
7
6
CONTINUOUS
10
100.9150984742
20
213.6290727723
11
100.6597793557
21
213.6713282807
0
LINE
5
2BE
100
AcDbEntity
8
0
100
AcDbLine
62
7
6
CONTINUOUS
10
102.1278643765
20
214.7699627933
11
102.3193537154
21
214.7277072850
0
LINE
5
2BF
100
AcDbEntity
8
0
100
AcDbLine
62
7
6
CONTINUOUS
10
125.7874389150
20
207.8067640481
11
125.5959493973
21
207.8575659432
0
LINE
5
2C0
100
AcDbEntity
8
0
100
AcDbLine
62
7
6
CONTINUOUS
10
126.8087154784
20
207.8067640481
11
126.6172260501
21
207.8575659432
0
LINE
5
2C1
100
AcDbEntity
8
0
100
AcDbLine
62
7
6
CONTINUOUS
10
127.0002048173
20
209.0768116812
11
127.1916941561
21
209.0260098223
0
LINE
5
2C2
100
AcDbEntity
8
0
100
AcDbLine
62
7
6
CONTINUOUS
10
125.4044600584
20
207.6543583263
11
125.7236091353
21
207.5527545133
0
LINE
5
2C3
100
AcDbEntity
8
DEFAULT_1
100
AcDbLine
62
2
6
CENTER
10
113.6438218214
20
236.0019526045
11
113.6438218214
21
182.7359128993
0
LINE
5
2C4
100
AcDbEntity
8
DEFAULT_1
100
AcDbLine
62
2
6
CENTER
10
113.6438218214
20
236.0019526045
11
113.6438218214
21
242.7519526045
0
LINE
5
2C5
100
AcDbEntity
8
0
100
AcDbLine
62
7
6
CONTINUOUS
10
102.1916941561
20
209.5303198952
11
102.4470133193
21
209.6148299447
0
LINE
5
2C6
100
AcDbEntity
8
0
100
AcDbLine
62
7
6
CONTINUOUS
10
102.2555239358
20
211.7698444288
11
102.0640345969
21
211.7275894040
0
LINE
5
2C7
100
AcDbEntity
8
0
100
AcDbLine
62
7
6
CONTINUOUS
10
100.9789282538
20
211.8966099867
11
100.7874389150
21
211.8543549619
0
LINE
5
2C8
100
AcDbEntity
8
0
100
AcDbLine
62
7
6
CONTINUOUS
10
100.5959493973
20
212.9107349334
11
100.4044600584
21
212.8684794250
0
LINE
5
2C9
100
AcDbEntity
8
0
100
AcDbLine
62
7
6
CONTINUOUS
10
102.1278643765
20
213.6713282807
11
101.8725452580
21
213.6290727723
0
LINE
5
2CA
100
AcDbEntity
8
0
100
AcDbLine
62
7
6
CONTINUOUS
10
101.8725452580
20
213.3755416566
11
102.1916941561
21
213.4177971649
0
LINE
5
2CB
100
AcDbEntity
8
0
100
AcDbLine
62
7
6
CONTINUOUS
10
100.9150984742
20
213.3755416566
11
101.8725452580
21
213.3755416566
0
LINE
5
2CC
100
AcDbEntity
8
0
100
AcDbLine
62
7
6
CONTINUOUS
10
124.8938218214
20
213.3949740405
11
127.8938218214
21
213.3949740405
0
LINE
5
2CD
100
AcDbEntity
8
0
100
AcDbLine
62
7
6
CONTINUOUS
10
101.8725452580
20
213.6290727723
11
100.9150984742
21
213.6290727723
0
LINE
5
2CE
100
AcDbEntity
8
0
100
AcDbLine
62
7
6
CONTINUOUS
10
127.8938218214
20
213.6997854841
11
124.8938218214
21
213.6997854841
0
LINE
5
2CF
100
AcDbEntity
8
0
100
AcDbLine
62
7
6
CONTINUOUS
10
124.8938218214
20
214.1062003546
11
127.8938218214
21
214.1062003546
0
LINE
5
2D0
100
AcDbEntity
8
0
100
AcDbLine
62
7
6
CONTINUOUS
10
127.8938218214
20
214.4110117981
11
126.5533962705
21
214.4110117981
0
LINE
5
2D1
100
AcDbEntity
8
0
100
AcDbLine
62
7
6
CONTINUOUS
10
126.1704175927
20
214.4110117981
11
125.2129707195
21
214.4110117981
0
LINE
5
2D2
100
AcDbEntity
8
0
100
AcDbLine
62
7
6
CONTINUOUS
10
99.8938218214
20
215.3615350744
11
102.8938218214
21
215.3615350744
0
LINE
5
2D3
100
AcDbEntity
8
0
100
AcDbLine
62
7
6
CONTINUOUS
10
102.8938218214
20
215.6150661902
11
101.4895664908
21
215.6150661902
0
LINE
5
2D4
100
AcDbEntity
8
0
100
AcDbLine
62
7
6
CONTINUOUS
10
101.1065878131
20
215.6150661902
11
99.8938218214
21
215.6150661902
0
LINE
5
2D5
100
AcDbEntity
8
0
100
AcDbLine
62
7
6
CONTINUOUS
10
125.5959493973
20
215.6810598672
11
125.7874389150
21
215.6810598672
0
LINE
5
2D6
100
AcDbEntity
8
0
100
AcDbLine
62
7
6
CONTINUOUS
10
125.8512686946
20
215.9858713108
11
125.5959493973
21
215.9858713108
0
LINE
5
2D7
100
AcDbEntity
8
0
100
AcDbLine
62
7
6
CONTINUOUS
10
102.4470133193
20
214.9812384007
11
102.1278643765
21
215.0234939091
0
LINE
5
2D8
100
AcDbEntity
8
0
100
AcDbLine
62
7
6
CONTINUOUS
10
127.3831835397
20
209.2292174029
11
127.0640345969
21
209.3308212659
0
LINE
5
2D9
100
AcDbEntity
8
0
100
AcDbLine
62
7
6
CONTINUOUS
10
125.5959493973
20
207.8575659432
11
125.4044600584
21
207.9591697699
0
LINE
5
2DA
100
AcDbEntity
8
0
100
AcDbLine
62
7
6
CONTINUOUS
10
125.1491409399
20
207.8067640481
11
125.4044600584
21
207.6543583263
0
LINE
5
2DB
100
AcDbEntity
8
0
100
AcDbLine
62
7
6
CONTINUOUS
10
125.4044600584
20
215.9350690159
11
125.1491409399
21
215.7826632942
0
LINE
5
2DC
100
AcDbEntity
8
0
100
AcDbLine
62
7
6
CONTINUOUS
10
100.4682898380
20
214.7277072850
11
100.6597793557
21
214.7699627933
0
LINE
5
2DD
100
AcDbEntity
8
0
100
AcDbLine
62
7
6
CONTINUOUS
10
100.6597793557
20
215.0234939091
11
100.3406302788
21
214.9812384007
0
LINE
5
2DE
100
AcDbEntity
8
0
100
AcDbLine
62
7
6
CONTINUOUS
10
99.8938218214
20
216.7982117195
11
101.1065878131
21
216.7982117195
0
LINE
5
2DF
100
AcDbEntity
8
0
100
AcDbLine
62
7
6
CONTINUOUS
10
101.4895664908
20
216.7982117195
11
102.8938218214
21
216.7982117195
0
LINE
5
2E0
100
AcDbEntity
8
0
100
AcDbLine
62
7
6
CONTINUOUS
10
102.8938218214
20
217.0517428352
11
99.8938218214
21
217.0517428352
0
LINE
5
2E1
100
AcDbEntity
8
0
100
AcDbLine
62
7
6
CONTINUOUS
10
108.1438218214
20
218.0019526045
11
119.1438218214
21
218.0019526045
0
LINE
5
2E2
100
AcDbEntity
8
0
100
AcDbLine
62
7
6
CONTINUOUS
10
127.8938218214
20
212.1757279756
11
124.8938218214
21
212.9885585886
0
LINE
5
2E3
100
AcDbEntity
8
0
100
AcDbLine
62
7
6
CONTINUOUS
10
124.8938218214
20
212.6837471451
11
127.5108430990
21
211.9725205403
0
LINE
5
2E4
100
AcDbEntity
8
0
100
AcDbLine
62
7
6
CONTINUOUS
10
125.5321196177
20
210.3976613184
11
127.1278643765
21
209.7372365724
0
LINE
5
2E5
100
AcDbEntity
8
0
100
AcDbLine
62
7
6
CONTINUOUS
10
127.2555239358
20
209.8896422942
11
125.6597793557
21
210.5500670401
0
LINE
5
2E6
100
AcDbEntity
8
0
100
AcDbLine
62
7
6
CONTINUOUS
10
127.1916941561
20
209.0260098223
11
127.3831835397
21
208.9244059594
0
LINE
5
2E7
100
AcDbEntity
8
0
100
AcDbLine
62
7
6
CONTINUOUS
10
127.6385026806
20
209.0768116812
11
127.3831835397
21
209.2292174029
0
LINE
5
2E8
100
AcDbEntity
8
0
100
AcDbLine
62
7
6
CONTINUOUS
10
125.2768004992
20
215.5286541454
11
125.4044600584
21
215.6302575724
0
LINE
5
2E9
100
AcDbEntity
8
0
100
AcDbLine
62
7
6
CONTINUOUS
10
126.7448856093
20
209.3308212659
11
126.4257367112
21
209.2292174029
0
LINE
5
2EA
100
AcDbEntity
8
0
100
AcDbLine
62
7
6
CONTINUOUS
10
125.7874389150
20
215.6810598672
11
125.9789282538
21
215.6302575724
0
LINE
5
2EB
100
AcDbEntity
8
0
100
AcDbLine
62
7
6
CONTINUOUS
10
126.0427580335
20
215.9350690159
11
125.8512686946
21
215.9858713108
0
LINE
5
2EC
100
AcDbEntity
8
0
100
AcDbLine
62
7
6
CONTINUOUS
10
126.6172260501
20
207.8575659432
11
126.4895664908
21
207.9591697699
0
LINE
5
2ED
100
AcDbEntity
8
0
100
AcDbLine
62
7
6
CONTINUOUS
10
125.4044600584
20
207.9591697699
11
125.2768004992
21
208.1115754917
0
LINE
5
2EE
100
AcDbEntity
8
0
100
AcDbLine
62
7
6
CONTINUOUS
10
124.9576516010
20
208.0607735965
11
125.1491409399
21
207.8067640481
0
LINE
5
2EF
100
AcDbEntity
8
0
100
AcDbLine
62
7
6
CONTINUOUS
10
121.1438218214
20
237.0019526045
11
121.1438218214
21
222.0563046591
0
LINE
5
2F0
100
AcDbEntity
8
0
100
AcDbLine
62
7
6
CONTINUOUS
10
125.1491409399
20
215.7826632942
11
124.9576516010
21
215.5794558589
0
LINE
5
2F1
100
AcDbEntity
8
0
100
AcDbLine
62
7
6
CONTINUOUS
10
125.4044600584
20
209.1784155441
11
125.1491409399
21
209.0260098223
0
LINE
5
2F2
100
AcDbEntity
8
0
100
AcDbLine
62
7
6
CONTINUOUS
10
125.4044600584
20
208.8736041006
11
125.5959493973
21
208.9752079635
0
LINE
5
2F3
100
AcDbEntity
8
0
100
AcDbLine
62
7
6
CONTINUOUS
10
127.0640345969
20
207.5527545133
11
127.3831835397
21
207.6543583263
0
LINE
5
2F4
100
AcDbEntity
8
0
100
AcDbLine
62
7
6
CONTINUOUS
10
126.2980771520
20
215.7826632942
11
126.0427580335
21
215.9350690159
0
LINE
5
2F5
100
AcDbEntity
8
0
100
AcDbLine
62
7
6
CONTINUOUS
10
126.0427580335
20
208.0607735965
11
126.2980771520
21
207.7559621348
0
LINE
5
2F6
100
AcDbEntity
8
0
100
AcDbLine
62
7
6
CONTINUOUS
10
126.4895664908
20
207.9591697699
11
126.3619069316
21
208.1115754917
0
LINE
5
2F7
100
AcDbEntity
8
0
100
AcDbLine
62
7
6
CONTINUOUS
10
127.3831835397
20
208.9244059594
11
127.5108430990
21
208.7720002376
0
LINE
5
2F8
100
AcDbEntity
8
0
100
AcDbLine
62
7
6
CONTINUOUS
10
127.8299920362
20
208.8228022417
11
127.6385026806
21
209.0768116812
0
LINE
5
2F9
100
AcDbEntity
8
0
100
AcDbLine
62
7
6
CONTINUOUS
10
122.1438218214
20
182.0019526045
11
122.1438218214
21
215.0019526045
0
LINE
5
2FA
100
AcDbEntity
8
0
100
AcDbLine
62
7
6
CONTINUOUS
10
124.9576516010
20
215.5794558589
11
124.8938218214
21
215.3254461288
0
LINE
5
2FB
100
AcDbEntity
8
0
100
AcDbLine
62
7
6
CONTINUOUS
10
125.2129707195
20
215.3762484237
11
125.2768004992
21
215.5286541454
0
LINE
5
2FC
100
AcDbEntity
8
0
100
AcDbLine
62
7
6
CONTINUOUS
10
125.6597793557
20
210.5500670401
11
125.5321196177
21
210.3976613184
0
LINE
5
2FD
100
AcDbEntity
8
0
100
AcDbLine
62
7
6
CONTINUOUS
10
126.4257367112
20
209.2292174029
11
126.2342473723
21
209.0768116812
0
LINE
5
2FE
100
AcDbEntity
8
0
100
AcDbLine
62
7
6
CONTINUOUS
10
126.4895664908
20
208.9244059594
11
126.6172260501
21
209.0260098223
0
LINE
5
2FF
100
AcDbEntity
8
0
100
AcDbLine
62
7
6
CONTINUOUS
10
127.3831835397
20
207.6543583263
11
127.6385026806
21
207.8067640481
0
LINE
5
300
100
AcDbEntity
8
0
100
AcDbLine
62
7
6
CONTINUOUS
10
127.3831835397
20
207.9591697699
11
127.1916941561
21
207.8575659432
0
LINE
5
301
100
AcDbEntity
8
0
100
AcDbLine
62
7
6
CONTINUOUS
10
125.9789282538
20
215.6302575724
11
126.1065878131
21
215.5286541454
0
LINE
5
302
100
AcDbEntity
8
0
100
AcDbLine
62
7
6
CONTINUOUS
10
126.4895664908
20
215.5794558589
11
126.2980771520
21
215.7826632942
0
LINE
5
303
100
AcDbEntity
8
0
100
AcDbLine
62
7
6
CONTINUOUS
10
125.2768004992
20
208.1115754917
11
125.2129707195
21
208.2639812134
0
LINE
5
304
100
AcDbEntity
8
0
100
AcDbLine
62
7
6
CONTINUOUS
10
126.3619069316
20
208.1115754917
11
126.2980771520
21
208.2639812134
0
LINE
5
305
100
AcDbEntity
8
0
100
AcDbLine
62
7
6
CONTINUOUS
10
127.5108430990
20
208.7720002376
11
127.5746728786
21
208.6195945885
0
LINE
5
306
100
AcDbEntity
8
0
100
AcDbLine
62
7
6
CONTINUOUS
10
124.8938218214
20
208.3147831449
11
124.9576516010
21
208.0607735965
0
LINE
5
307
100
AcDbEntity
8
0
100
AcDbLine
62
7
6
CONTINUOUS
10
125.9789282538
20
208.3147831449
11
126.0427580335
21
208.0607735965
0
LINE
5
308
100
AcDbEntity
8
0
100
AcDbLine
62
7
6
CONTINUOUS
10
124.8938218214
20
215.3254461288
11
124.8938218214
21
214.1062003546
0
LINE
5
309
100
AcDbEntity
8
0
100
AcDbLine
62
7
6
CONTINUOUS
10
124.8938218214
20
213.6997854841
11
124.8938218214
21
213.3949740405
0
LINE
5
30A
100
AcDbEntity
8
0
100
AcDbLine
62
7
6
CONTINUOUS
10
124.8938218214
20
212.9885585886
11
124.8938218214
21
212.6837471451
0
LINE
5
30B
100
AcDbEntity
8
0
100
AcDbLine
62
7
6
CONTINUOUS
10
124.8938218214
20
211.2612936449
11
124.8938218214
21
210.9564822013
0
LINE
5
30C
100
AcDbEntity
8
0
100
AcDbLine
62
7
6
CONTINUOUS
10
124.8938218214
20
208.5179907255
11
124.8938218214
21
208.3147831449
0
LINE
5
30D
100
AcDbEntity
8
0
100
AcDbLine
62
7
6
CONTINUOUS
10
125.2129707195
20
208.2639812134
11
125.2129707195
21
208.5687926570
0
LINE
5
30E
100
AcDbEntity
8
0
100
AcDbLine
62
7
6
CONTINUOUS
10
125.2129707195
20
214.4110117981
11
125.2129707195
21
215.3762484237
0
LINE
5
30F
100
AcDbEntity
8
0
100
AcDbLine
62
7
6
CONTINUOUS
10
125.5959493973
20
208.9752079635
11
125.5959493973
21
209.2292174029
0
LINE
5
310
100
AcDbEntity
8
0
100
AcDbLine
62
7
6
CONTINUOUS
10
125.9789282538
20
208.5687926570
11
125.9789282538
21
208.3147831449
0
LINE
5
311
100
AcDbEntity
8
0
100
AcDbLine
62
7
6
CONTINUOUS
10
126.1704175927
20
215.3762484237
11
126.1704175927
21
214.4110117981
0
LINE
5
312
100
AcDbEntity
8
0
100
AcDbLine
62
7
6
CONTINUOUS
10
126.2980771520
20
208.2639812134
11
126.2980771520
21
208.6195945885
0
LINE
5
313
100
AcDbEntity
8
0
100
AcDbLine
62
7
6
CONTINUOUS
10
126.5533962705
20
214.4110117981
11
126.5533962705
21
215.3254461288
0
LINE
5
314
100
AcDbEntity
8
0
100
AcDbLine
62
7
6
CONTINUOUS
10
124.9576516010
20
208.7720002376
11
124.8938218214
21
208.5179907255
0
LINE
5
315
100
AcDbEntity
8
0
100
AcDbLine
62
7
6
CONTINUOUS
10
126.0427580335
20
208.8228022417
11
125.9789282538
21
208.5687926570
0
LINE
5
316
100
AcDbEntity
8
0
100
AcDbLine
62
7
6
CONTINUOUS
10
125.2129707195
20
208.5687926570
11
125.2768004992
21
208.7211983788
0
LINE
5
317
100
AcDbEntity
8
0
100
AcDbLine
62
7
6
CONTINUOUS
10
126.2980771520
20
208.6195945885
11
126.3619069316
21
208.7720002376
0
LINE
5
318
100
AcDbEntity
8
0
100
AcDbLine
62
7
6
CONTINUOUS
10
125.1491409399
20
209.0260098223
11
124.9576516010
21
208.7720002376
0
LINE
5
319
100
AcDbEntity
8
0
100
AcDbLine
62
7
6
CONTINUOUS
10
126.2342473723
20
209.0768116812
11
126.0427580335
21
208.8228022417
0
LINE
5
31A
100
AcDbEntity
8
0
100
AcDbLine
62
7
6
CONTINUOUS
10
125.2768004992
20
208.7211983788
11
125.4044600584
21
208.8736041006
0
LINE
5
31B
100
AcDbEntity
8
0
100
AcDbLine
62
7
6
CONTINUOUS
10
127.1278643765
20
209.7372365724
11
127.2555239358
21
209.8896422942
0
LINE
5
31C
100
AcDbEntity
8
0
100
AcDbLine
62
7
6
CONTINUOUS
10
126.3619069316
20
208.7720002376
11
126.4895664908
21
208.9244059594
0
LINE
5
31D
100
AcDbEntity
8
0
100
AcDbLine
62
7
6
CONTINUOUS
10
127.5108430990
20
208.1115754917
11
127.3831835397
21
207.9591697699
0
LINE
5
31E
100
AcDbEntity
8
0
100
AcDbLine
62
7
6
CONTINUOUS
10
126.1065878131
20
215.5286541454
11
126.1704175927
21
215.3762484237
0
LINE
5
31F
100
AcDbEntity
8
0
100
AcDbLine
62
7
6
CONTINUOUS
10
127.8938218214
20
208.5687926570
11
127.8299920362
21
208.8228022417
0
LINE
5
320
100
AcDbEntity
8
0
100
AcDbLine
62
7
6
CONTINUOUS
10
126.5533962705
20
215.3254461288
11
126.4895664908
21
215.5794558589
0
LINE
5
321
100
AcDbEntity
8
0
100
AcDbLine
62
7
6
CONTINUOUS
10
127.5746728786
20
208.6195945885
11
127.5746728786
21
208.2639812134
0
LINE
5
322
100
AcDbEntity
8
0
100
AcDbLine
62
7
6
CONTINUOUS
10
127.8938218214
20
208.3147831449
11
127.8938218214
21
208.5687926570
0
LINE
5
323
100
AcDbEntity
8
0
100
AcDbLine
62
7
6
CONTINUOUS
10
127.8938218214
20
211.7693128144
11
127.8938218214
21
212.1757279756
0
LINE
5
324
100
AcDbEntity
8
0
100
AcDbLine
62
7
6
CONTINUOUS
10
127.8938218214
20
213.3949740405
11
127.8938218214
21
213.6997854841
0
LINE
5
325
100
AcDbEntity
8
0
100
AcDbLine
62
7
6
CONTINUOUS
10
127.8938218214
20
214.1062003546
11
127.8938218214
21
214.4110117981
0
LINE
5
326
100
AcDbEntity
8
0
100
AcDbLine
62
7
6
CONTINUOUS
10
127.8299920362
20
208.0607735965
11
127.8938218214
21
208.3147831449
0
LINE
5
327
100
AcDbEntity
8
0
100
AcDbLine
62
7
6
CONTINUOUS
10
127.5746728786
20
208.2639812134
11
127.5108430990
21
208.1115754917
0
LINE
5
328
100
AcDbEntity
8
0
100
AcDbLine
62
7
6
CONTINUOUS
10
127.6385026806
20
207.8067640481
11
127.8299920362
21
208.0607735965
0
LINE
5
329
100
AcDbEntity
8
0
100
AcDbLine
62
7
6
CONTINUOUS
10
130.1438218214
20
200.0019526045
11
130.1438218214
21
185.3875743269
0
LINE
5
32A
100
AcDbEntity
8
0
100
AcDbLine
62
7
6
CONTINUOUS
10
130.1438218214
20
205.2519526045
11
130.1438218214
21
215.0019526045
0
LINE
5
32B
100
AcDbEntity
8
DEFAULT_1
100
AcDbLine
62
2
6
CENTER
10
113.6438218214
20
236.0019526045
11
106.8938218214
21
236.0019526045
0
LINE
5
32C
100
AcDbEntity
8
DEFAULT_1
100
AcDbLine
62
2
6
CENTER
10
113.6438218214
20
236.0019526045
11
120.3938218214
21
236.0019526045
0
LINE
5
32D
100
AcDbEntity
8
0
100
AcDbLine
62
7
6
CONTINUOUS
10
136.1438218214
20
182.0019526045
11
136.1438218214
21
200.0019526045
0
LINE
5
32E
100
AcDbEntity
8
0
100
AcDbLine
62
7
6
CONTINUOUS
10
113.1438218214
20
244.0019526045
11
114.1438218214
21
244.0019526045
0
LINE
5
32F
100
AcDbEntity
8
0
100
AcDbLine
62
7
6
CONTINUOUS
10
296.3771299929
20
182.0019526045
11
294.3771299929
21
182.0019526045
0
LINE
5
330
100
AcDbEntity
8
0
100
AcDbLine
62
7
6
CONTINUOUS
10
293.5771299929
20
183.0019526045
11
297.1771299929
21
183.0019526045
0
LINE
5
331
100
AcDbEntity
8
0
100
AcDbLine
62
7
6
CONTINUOUS
10
286.8771299929
20
186.8701994081
11
293.5771299929
21
183.0019526045
0
LINE
5
332
100
AcDbEntity
8
DEFAULT_1
100
AcDbLine
62
2
6
CENTER
10
295.3771299929
20
192.0019526045
11
287.3771299929
21
192.0019526045
0
LINE
5
333
100
AcDbEntity
8
DEFAULT_1
100
AcDbLine
62
2
6
CENTER
10
295.3771299929
20
192.0019526045
11
303.3771299929
21
192.0019526045
0
LINE
5
334
100
AcDbEntity
8
0
100
AcDbLine
62
7
6
CONTINUOUS
10
281.8771299929
20
229.7961812386
11
281.8771299929
21
244.0019526045
0
LINE
5
335
100
AcDbEntity
8
0
100
AcDbLine
62
7
6
CONTINUOUS
10
284.3771299929
20
192.0019526045
11
284.3771299929
21
200.0019526045
0
LINE
5
336
100
AcDbEntity
8
0
100
AcDbLine
62
7
6
CONTINUOUS
10
284.3771299929
20
200.0019526045
11
287.0367163341
21
200.0019526045
0
LINE
5
337
100
AcDbEntity
8
0
100
AcDbLine
62
7
6
CONTINUOUS
10
303.7175436517
20
200.0019526045
11
306.3771299929
21
200.0019526045
0
LINE
5
338
100
AcDbEntity
8
0
100
AcDbLine
62
7
6
CONTINUOUS
10
293.5021299929
20
201.0019526045
11
297.2521299929
21
201.0019526045
0
LINE
5
339
100
AcDbEntity
8
0
100
AcDbLine
62
7
6
CONTINUOUS
10
303.8771299929
20
197.1770070712
11
297.2521299929
21
201.0019526045
0
LINE
5
33A
100
AcDbEntity
8
0
100
AcDbLine
62
7
6
CONTINUOUS
10
286.8771299929
20
197.1770070712
11
286.8771299929
21
186.8701994081
0
LINE
5
33B
100
AcDbEntity
8
0
100
AcDbLine
62
7
6
CONTINUOUS
10
299.2334469119
20
204.5019526045
11
299.4271299929
21
204.5019526045
0
LINE
5
33C
100
AcDbEntity
8
0
100
AcDbLine
62
7
6
CONTINUOUS
10
299.1768010313
20
206.1921600027
11
299.4271299929
21
206.1921600027
0
LINE
5
33D
100
AcDbEntity
8
0
100
AcDbLine
62
7
6
CONTINUOUS
10
299.1768010313
20
206.5302015307
11
299.4271299929
21
206.5302015307
0
LINE
5
33E
100
AcDbEntity
8
0
100
AcDbLine
62
7
6
CONTINUOUS
10
299.1768010313
20
208.2204090498
11
299.4271299929
21
208.2204090498
0
LINE
5
33F
100
AcDbEntity
8
0
100
AcDbLine
62
7
6
CONTINUOUS
10
299.3771299929
20
208.3147831449
11
299.4271299929
21
208.3147831449
0
LINE
5
340
100
AcDbEntity
8
0
100
AcDbLine
62
7
6
CONTINUOUS
10
299.3771299929
20
208.5179907255
11
299.4271299929
21
208.5179907255
0
LINE
5
341
100
AcDbEntity
8
0
100
AcDbLine
62
7
6
CONTINUOUS
10
299.3771299929
20
208.5584504569
11
299.4271299929
21
208.5584504569
0
LINE
5
342
100
AcDbEntity
8
0
100
AcDbLine
62
7
6
CONTINUOUS
10
291.3771299929
20
219.6925515278
11
291.3771299929
21
205.2519526045
0
LINE
5
343
100
AcDbEntity
8
0
100
AcDbLine
62
7
6
CONTINUOUS
10
291.8771299929
20
227.5019526045
11
291.8771299929
21
244.0019526045
0
LINE
5
344
100
AcDbEntity
8
0
100
AcDbLine
62
7
6
CONTINUOUS
10
299.3340615784
20
219.6676859671
11
304.8771299929
21
222.8679780083
0
LINE
5
345
100
AcDbEntity
8
0
100
AcDbLine
62
7
6
CONTINUOUS
10
299.3771299929
20
209.1784155441
11
299.4271299929
21
209.1784155441
0
LINE
5
346
100
AcDbEntity
8
0
100
AcDbLine
62
7
6
CONTINUOUS
10
299.3771299929
20
209.2292174029
11
299.4271299929
21
209.2292174029
0
LINE
5
347
100
AcDbEntity
8
0
100
AcDbLine
62
7
6
CONTINUOUS
10
299.3771299929
20
209.3308212659
11
299.4271299929
21
209.3308212659
0
LINE
5
348
100
AcDbEntity
8
0
100
AcDbLine
62
7
6
CONTINUOUS
10
293.5771299929
20
201.0019526045
11
293.5771299929
21
183.0019526045
0
LINE
5
349
100
AcDbEntity
8
DEFAULT_1
100
AcDbLine
62
2
6
CENTER
10
295.3771299929
20
236.0019526045
11
295.3771299929
21
188.3746209318
0
LINE
5
34A
100
AcDbEntity
8
DEFAULT_1
100
AcDbLine
62
2
6
CENTER
10
295.3771299929
20
188.3746209318
11
295.3771299929
21
184.0019526045
0
LINE
5
34B
100
AcDbEntity
8
DEFAULT_1
100
AcDbLine
62
2
6
CENTER
10
295.3771299929
20
236.0019526045
11
295.3771299929
21
245.7695047458
0
LINE
5
34C
100
AcDbEntity
8
0
100
AcDbLine
62
7
6
CONTINUOUS
10
299.3771299929
20
211.2612936449
11
299.4271299929
21
211.2612936449
0
LINE
5
34D
100
AcDbEntity
8
0
100
AcDbLine
62
7
6
CONTINUOUS
10
299.3771299929
20
213.0375004912
11
299.4271299929
21
213.0375004912
0
LINE
5
34E
100
AcDbEntity
8
0
100
AcDbLine
62
7
6
CONTINUOUS
10
297.1771299929
20
201.0019526045
11
297.1771299929
21
183.0019526045
0
LINE
5
34F
100
AcDbEntity
8
0
100
AcDbLine
62
7
6
CONTINUOUS
10
299.3771299929
20
215.3254461288
11
299.4271299929
21
215.3254461288
0
LINE
5
350
100
AcDbEntity
8
0
100
AcDbLine
62
7
6
CONTINUOUS
10
299.1742153362
20
215.3615350744
11
299.4271299929
21
215.3615350744
0
LINE
5
351
100
AcDbEntity
8
0
100
AcDbLine
62
7
6
CONTINUOUS
10
299.3814907077
20
205.0380168908
11
299.3771299929
21
205.2519526045
0
LINE
5
352
100
AcDbEntity
8
0
100
AcDbLine
62
7
6
CONTINUOUS
10
298.8771299929
20
227.5019526045
11
298.8771299929
21
244.0019526045
0
LINE
5
353
100
AcDbEntity
8
0
100
AcDbLine
62
7
6
CONTINUOUS
10
299.1768010313
20
214.4319216280
11
299.1768010313
21
214.0516249543
0
LINE
5
354
100
AcDbEntity
8
0
100
AcDbLine
62
7
6
CONTINUOUS
10
299.1768010313
20
212.3614171935
11
299.1768010313
21
212.1501411025
0
LINE
5
355
100
AcDbEntity
8
0
100
AcDbLine
62
7
6
CONTINUOUS
10
299.1768010313
20
210.5444443583
11
299.1768010313
21
210.1641476846
0
LINE
5
356
100
AcDbEntity
8
0
100
AcDbLine
62
7
6
CONTINUOUS
10
299.1768010313
20
208.2204090498
11
299.1768010313
21
207.9668779340
0
LINE
5
357
100
AcDbEntity
8
0
100
AcDbLine
62
7
6
CONTINUOUS
10
299.1768010313
20
206.7837326465
11
299.1768010313
21
206.5302015307
0
LINE
5
358
100
AcDbEntity
8
0
100
AcDbLine
62
7
6
CONTINUOUS
10
299.1768010313
20
206.1921600027
11
299.1768010313
21
205.9386288869
0
LINE
5
359
100
AcDbEntity
8
0
100
AcDbLine
62
7
6
CONTINUOUS
10
299.3771299929
20
219.6925515278
11
299.3771299929
21
217.0522378985
0
LINE
5
35A
100
AcDbEntity
8
0
100
AcDbLine
62
7
6
CONTINUOUS
10
299.3771299929
20
215.3615677279
11
299.3771299929
21
215.0234939091
0
LINE
5
35B
100
AcDbEntity
8
0
100
AcDbLine
62
7
6
CONTINUOUS
10
299.3771299929
20
213.3755416566
11
299.3771299929
21
212.9107349334
0
LINE
5
35C
100
AcDbEntity
8
0
100
AcDbLine
62
7
6
CONTINUOUS
10
299.3771299929
20
211.6008238461
11
299.3771299929
21
211.1360166394
0
LINE
5
35D
100
AcDbEntity
8
0
100
AcDbLine
62
7
6
CONTINUOUS
10
299.3771299929
20
209.4880643869
11
299.3771299929
21
208.2204090498
0
LINE
5
35E
100
AcDbEntity
8
0
100
AcDbLine
62
7
6
CONTINUOUS
10
299.3771299929
20
207.6842696057
11
299.3771299929
21
207.0663408593
0
LINE
5
35F
100
AcDbEntity
8
0
100
AcDbLine
62
7
6
CONTINUOUS
10
299.3771299929
20
206.5302015307
11
299.3771299929
21
206.1921600027
0
LINE
5
360
100
AcDbEntity
8
0
100
AcDbLine
62
7
6
CONTINUOUS
10
299.3771299929
20
205.6560195737
11
299.3771299929
21
205.2519526045
0
LINE
5
361
100
AcDbEntity
8
0
100
AcDbLine
62
7
6
CONTINUOUS
10
299.4271299929
20
217.0517428352
11
299.4271299929
21
213.3755416566
0
LINE
5
362
100
AcDbEntity
8
0
100
AcDbLine
62
7
6
CONTINUOUS
10
299.4271299929
20
213.0375004912
11
299.4271299929
21
209.4880643869
0
LINE
5
363
100
AcDbEntity
8
0
100
AcDbLine
62
7
6
CONTINUOUS
10
299.4271299929
20
209.3308212659
11
299.4271299929
21
206.5302015307
0
LINE
5
364
100
AcDbEntity
8
0
100
AcDbLine
62
7
6
CONTINUOUS
10
299.4271299929
20
206.1921600027
11
299.4271299929
21
204.5019526045
0
LINE
5
365
100
AcDbEntity
8
0
100
AcDbLine
62
7
6
CONTINUOUS
10
299.0848926792
20
217.0517428352
11
299.4271299929
21
217.0517428352
0
LINE
5
366
100
AcDbEntity
8
0
100
AcDbLine
62
7
6
CONTINUOUS
10
291.4201984257
20
219.6676859565
11
285.8771299929
21
222.8679780083
0
LINE
5
367
100
AcDbEntity
8
0
100
AcDbLine
62
7
6
CONTINUOUS
10
303.8771299929
20
186.8701994081
11
303.8771299929
21
197.1770070712
0
LINE
5
368
100
AcDbEntity
8
0
100
AcDbLine
62
7
6
CONTINUOUS
10
306.3771299929
20
200.0019526045
11
306.3771299929
21
192.0019526045
0
LINE
5
369
100
AcDbEntity
8
0
100
AcDbLine
62
7
6
CONTINUOUS
10
293.5021299929
20
201.0019526045
11
286.8771299929
21
197.1770070712
0
LINE
5
36A
100
AcDbEntity
8
0
100
AcDbLine
62
7
6
CONTINUOUS
10
308.8771299929
20
244.0019526045
11
308.8771299929
21
229.7961812386
0
LINE
5
36B
100
AcDbEntity
8
0
100
AcDbLine
62
7
6
CONTINUOUS
10
291.8771299929
20
232.2519526045
11
298.8771299929
21
232.2519526045
0
LINE
5
36C
100
AcDbEntity
8
DEFAULT_1
100
AcDbLine
62
2
6
CENTER
10
295.3771299929
20
236.0019526045
11
291.0568545785
21
236.0019526045
0
LINE
5
36D
100
AcDbEntity
8
DEFAULT_1
100
AcDbLine
62
2
6
CENTER
10
295.3771299929
20
236.0019526045
11
299.4997050212
21
236.0019526045
0
LINE
5
36E
100
AcDbEntity
8
0
100
AcDbLine
62
7
6
CONTINUOUS
10
297.1771299929
20
183.0019526045
11
303.8771299929
21
186.8701994081
0
LINE
5
36F
100
AcDbEntity
8
0
100
AcDbLine
62
7
6
CONTINUOUS
10
291.8771299929
20
239.7519526045
11
298.8771299929
21
239.7519526045
0
LINE
5
370
100
AcDbEntity
8
0
100
AcDbLine
62
7
6
CONTINUOUS
10
308.8771299929
20
244.0019526045
11
298.8771299929
21
244.0019526045
0
LINE
5
371
100
AcDbEntity
8
0
100
AcDbLine
62
7
6
CONTINUOUS
10
291.8771299929
20
244.0019526045
11
281.8771299929
21
244.0019526045
0
LINE
5
372
100
AcDbEntity
8
0
100
AcDbLine
62
7
6
CONTINUOUS
10
85.8938218214
20
114.4134590964
11
85.8938218214
21
110.8134590964
0
LINE
5
373
100
AcDbEntity
8
0
100
AcDbLine
62
7
6
CONTINUOUS
10
94.8938218214
20
104.1134590964
11
94.8938218214
21
110.8134590964
0
LINE
5
374
100
AcDbEntity
8
0
100
AcDbLine
62
7
6
CONTINUOUS
10
94.8938218214
20
114.4134590964
11
94.8938218214
21
121.1134590964
0
LINE
5
375
100
AcDbEntity
8
0
100
AcDbLine
62
7
6
CONTINUOUS
10
97.1438218214
20
123.6134590964
11
97.1438218214
21
101.6134590964
0
LINE
5
376
100
AcDbEntity
8
0
100
AcDbLine
62
7
6
CONTINUOUS
10
106.1438218214
20
99.1134590964
11
121.1438218214
21
99.1134590964
0
LINE
5
377
100
AcDbEntity
8
0
100
AcDbLine
62
7
6
CONTINUOUS
10
99.8938218214
20
108.9056964101
11
99.8938218214
21
108.5634590964
0
LINE
5
378
100
AcDbEntity
8
0
100
AcDbLine
62
7
6
CONTINUOUS
10
97.1438218214
20
101.6134590964
11
105.1438218214
21
101.6134590964
0
LINE
5
379
100
AcDbEntity
8
0
100
AcDbLine
62
7
6
CONTINUOUS
10
122.1438218214
20
101.6134590964
11
130.1438218214
21
101.6134590964
0
LINE
5
37A
100
AcDbEntity
8
0
100
AcDbLine
62
7
6
CONTINUOUS
10
136.1438218214
20
104.1134590964
11
130.1438218214
21
104.1134590964
0
LINE
5
37B
100
AcDbEntity
8
0
100
AcDbLine
62
7
6
CONTINUOUS
10
97.1438218214
20
104.1134590964
11
94.8938218214
21
104.1134590964
0
LINE
5
37C
100
AcDbEntity
8
0
100
AcDbLine
62
7
6
CONTINUOUS
10
105.1438218214
20
101.6134590964
11
105.1438218214
21
107.1014990370
0
LINE
5
37D
100
AcDbEntity
8
0
100
AcDbLine
62
7
6
CONTINUOUS
10
105.1438218214
20
118.1252965369
11
105.1438218214
21
123.6134590964
0
LINE
5
37E
100
AcDbEntity
8
0
100
AcDbLine
62
7
6
CONTINUOUS
10
106.1438218214
20
99.1134590964
11
106.1438218214
21
101.9954251076
0
LINE
5
37F
100
AcDbEntity
8
0
100
AcDbLine
62
7
6
CONTINUOUS
10
106.1438218214
20
102.1311679955
11
106.1438218214
21
104.0957501973
0
LINE
5
380
100
AcDbEntity
8
0
100
AcDbLine
62
7
6
CONTINUOUS
10
106.1438218214
20
104.2314930851
11
106.1438218214
21
109.1134590964
0
LINE
5
381
100
AcDbEntity
8
0
100
AcDbLine
62
7
6
CONTINUOUS
10
106.1438218214
20
116.1134590964
11
106.1438218214
21
126.1134590964
0
LINE
5
382
100
AcDbEntity
8
0
100
AcDbLine
62
7
6
CONTINUOUS
10
127.8938218214
20
108.5634590964
11
124.8938218214
21
108.5634590964
0
LINE
5
383
100
AcDbEntity
8
0
100
AcDbLine
62
7
6
CONTINUOUS
10
102.6933639311
20
108.5634590964
11
99.8938218214
21
108.5634590964
0
LINE
5
384
100
AcDbEntity
8
0
100
AcDbLine
62
7
6
CONTINUOUS
10
126.0846106544
20
108.6134590964
11
124.8519308751
21
108.6134590964
0
LINE
5
385
100
AcDbEntity
8
0
100
AcDbLine
62
7
6
CONTINUOUS
10
102.4352638119
20
108.6134590964
11
101.4508157544
21
108.6134590964
0
LINE
5
386
100
AcDbEntity
8
0
100
AcDbLine
62
7
6
CONTINUOUS
10
106.0966365962
20
109.1134590964
11
121.1910067522
21
109.1134590964
0
LINE
5
387
100
AcDbEntity
8
0
100
AcDbLine
62
7
6
CONTINUOUS
10
97.1438218214
20
110.7384590964
11
94.8938218214
21
110.7384590964
0
LINE
5
388
100
AcDbEntity
8
0
100
AcDbLine
62
7
6
CONTINUOUS
10
94.8938218214
20
110.8134590964
11
85.8938218214
21
110.8134590964
0
LINE
5
389
100
AcDbEntity
8
0
100
AcDbLine
62
7
6
CONTINUOUS
10
109.8938218214
20
116.1134590964
11
109.8938218214
21
109.1134590964
0
LINE
5
38A
100
AcDbEntity
8
DEFAULT_1
100
AcDbLine
62
2
6
CENTER
10
82.8938218214
20
112.6134590964
11
139.1438218214
21
112.6134590964
0
LINE
5
38B
100
AcDbEntity
8
0
100
AcDbLine
62
7
6
CONTINUOUS
10
94.8938218214
20
114.4134590964
11
85.8938218214
21
114.4134590964
0
LINE
5
38C
100
AcDbEntity
8
0
100
AcDbLine
62
7
6
CONTINUOUS
10
97.1438218214
20
114.4884590964
11
94.8938218214
21
114.4884590964
0
LINE
5
38D
100
AcDbEntity
8
DEFAULT_1
100
AcDbLine
62
2
6
CENTER
10
113.6438218214
20
108.4024957380
11
113.6438218214
21
117.0857680980
0
LINE
5
38E
100
AcDbEntity
8
0
100
AcDbLine
62
7
6
CONTINUOUS
10
106.0966362069
20
116.1134590964
11
121.1910074755
21
116.1134590964
0
LINE
5
38F
100
AcDbEntity
8
0
100
AcDbLine
62
7
6
CONTINUOUS
10
126.1438218214
20
116.6134590964
11
124.8519332384
21
116.6134590964
0
LINE
5
390
100
AcDbEntity
8
0
100
AcDbLine
62
7
6
CONTINUOUS
10
102.4352372305
20
116.6134590964
11
101.1438218214
21
116.6134590964
0
LINE
5
391
100
AcDbEntity
8
0
100
AcDbLine
62
7
6
CONTINUOUS
10
117.3938218214
20
116.1134590964
11
117.3938218214
21
109.1134590964
0
LINE
5
392
100
AcDbEntity
8
0
100
AcDbLine
62
7
6
CONTINUOUS
10
136.1438218214
20
121.1134590964
11
130.1438218214
21
121.1134590964
0
LINE
5
393
100
AcDbEntity
8
0
100
AcDbLine
62
7
6
CONTINUOUS
10
97.1438218214
20
121.1134590964
11
94.8938218214
21
121.1134590964
0
LINE
5
394
100
AcDbEntity
8
0
100
AcDbLine
62
7
6
CONTINUOUS
10
121.1438218214
20
126.1134590964
11
121.1438218214
21
116.1134590964
0
LINE
5
395
100
AcDbEntity
8
0
100
AcDbLine
62
7
6
CONTINUOUS
10
121.1438218214
20
109.1134590964
11
121.1438218214
21
104.2314930851
0
LINE
5
396
100
AcDbEntity
8
0
100
AcDbLine
62
7
6
CONTINUOUS
10
121.1438218214
20
101.9954251076
11
121.1438218214
21
99.1134590964
0
LINE
5
397
100
AcDbEntity
8
0
100
AcDbLine
62
7
6
CONTINUOUS
10
121.1438218214
20
102.1311679955
11
121.1438218214
21
104.0957501973
0
LINE
5
398
100
AcDbEntity
8
0
100
AcDbLine
62
7
6
CONTINUOUS
10
122.1438218214
20
123.6134590964
11
122.1438218214
21
118.1254204853
0
LINE
5
399
100
AcDbEntity
8
0
100
AcDbLine
62
7
6
CONTINUOUS
10
122.1438218214
20
107.1014983318
11
122.1438218214
21
101.6134590964
0
LINE
5
39A
100
AcDbEntity
8
0
100
AcDbLine
62
7
6
CONTINUOUS
10
97.1438218214
20
123.6134590964
11
105.1438218214
21
123.6134590964
0
LINE
5
39B
100
AcDbEntity
8
0
100
AcDbLine
62
7
6
CONTINUOUS
10
122.1438218214
20
123.6134590964
11
130.1438218214
21
123.6134590964
0
LINE
5
39C
100
AcDbEntity
8
0
100
AcDbLine
62
7
6
CONTINUOUS
10
106.1438218214
20
126.1134590964
11
121.1438218214
21
126.1134590964
0
LINE
5
39D
100
AcDbEntity
8
0
100
AcDbLine
62
7
6
CONTINUOUS
10
124.8938218214
20
108.6134590964
11
124.8938218214
21
108.5634590964
0
LINE
5
39E
100
AcDbEntity
8
0
100
AcDbLine
62
7
6
CONTINUOUS
10
124.9576516010
20
108.6134590964
11
124.9576516010
21
108.5634590964
0
LINE
5
39F
100
AcDbEntity
8
0
100
AcDbLine
62
7
6
CONTINUOUS
10
125.1491409399
20
108.6134590964
11
125.1491409399
21
108.5634590964
0
LINE
5
3A0
100
AcDbEntity
8
0
100
AcDbLine
62
7
6
CONTINUOUS
10
125.4044600584
20
108.6134590964
11
125.4044600584
21
108.5634590964
0
LINE
5
3A1
100
AcDbEntity
8
0
100
AcDbLine
62
7
6
CONTINUOUS
10
125.5959493973
20
108.6134590964
11
125.5959493973
21
108.5634590964
0
LINE
5
3A2
100
AcDbEntity
8
0
100
AcDbLine
62
7
6
CONTINUOUS
10
125.8512686946
20
108.6195562481
11
125.8512686946
21
108.5634590964
0
LINE
5
3A3
100
AcDbEntity
8
0
100
AcDbLine
62
7
6
CONTINUOUS
10
126.0427580335
20
108.6136419394
11
126.0427580335
21
108.5634590964
0
LINE
5
3A4
100
AcDbEntity
8
0
100
AcDbLine
62
7
6
CONTINUOUS
10
126.2980771520
20
108.6182997110
11
126.2980771520
21
108.5634590964
0
LINE
5
3A5
100
AcDbEntity
8
0
100
AcDbLine
62
7
6
CONTINUOUS
10
126.4895664908
20
108.6304610258
11
126.4895664908
21
108.5634590964
0
LINE
5
3A6
100
AcDbEntity
8
0
100
AcDbLine
62
7
6
CONTINUOUS
10
126.5533962705
20
108.6352161251
11
126.5533962705
21
108.5634590964
0
LINE
5
3A7
100
AcDbEntity
8
0
100
AcDbLine
62
7
6
CONTINUOUS
10
127.8938218214
20
109.0165854539
11
127.8938218214
21
108.5634590964
0
LINE
5
3A8
100
AcDbEntity
8
0
100
AcDbLine
62
7
6
CONTINUOUS
10
130.1438218214
20
123.6134590964
11
130.1438218214
21
121.1134590964
0
LINE
5
3A9
100
AcDbEntity
8
0
100
AcDbLine
62
7
6
CONTINUOUS
10
130.1438218214
20
101.6134590964
11
130.1438218214
21
104.1134590964
0
LINE
5
3AA
100
AcDbEntity
8
0
100
AcDbLine
62
7
6
CONTINUOUS
10
136.1438218214
20
121.1134590964
11
136.1438218214
21
104.1134590964
0
CIRCLE
5
3AB
100
AcDbEntity
8
0
100
AcDbCircle
62
7
6
CONTINUOUS
10
113.6438218214
20
236.0019526045
40
3.8000000000
0
ARC
5
3AC
100
AcDbEntity
8
0
100
AcDbCircle
62
7
6
CONTINUOUS
10
135.3938218214
20
205.2519526045
40
5.2500000000
100
AcDbArc
50
180.0000000000
51
270.0000000000
0
ARC
5
3AD
100
AcDbEntity
8
0
100
AcDbCircle
62
7
6
CONTINUOUS
10
108.1438218214
20
215.0019526045
40
3.0000000000
100
AcDbArc
50
90.0000000000
51
180.0000000000
0
ARC
5
3AE
100
AcDbEntity
8
0
100
AcDbCircle
62
7
6
CONTINUOUS
10
108.1438218214
20
215.0019526045
40
11.0000000000
100
AcDbArc
50
125.0968012276
51
180.0000000000
0
ARC
5
3AF
100
AcDbEntity
8
0
100
AcDbCircle
62
7
6
CONTINUOUS
10
119.1438218214
20
215.0019526045
40
3.0000000000
100
AcDbArc
50
0.0000000000
51
90.0000000000
0
ARC
5
3B0
100
AcDbEntity
8
0
100
AcDbCircle
62
7
6
CONTINUOUS
10
119.1438218214
20
215.0019526045
40
11.0000000000
100
AcDbArc
50
0.0000000000
51
54.9031987724
0
CIRCLE
5
3B1
100
AcDbEntity
8
0
100
AcDbCircle
62
7
6
CONTINUOUS
10
101.1438218214
20
196.7019526045
40
1.5000000000
0
ARC
5
3B2
100
AcDbEntity
8
0
100
AcDbCircle
62
7
6
CONTINUOUS
10
94.8938218214
20
192.0019526045
40
9.0000000000
100
AcDbArc
50
90.0000000000
51
270.0000000000
0
ARC
5
3B3
100
AcDbEntity
8
0
100
AcDbCircle
62
7
6
CONTINUOUS
10
113.1438218214
20
237.0019526045
40
7.0000000000
100
AcDbArc
50
90.0000000000
51
180.0000000000
0
ARC
5
3B4
100
AcDbEntity
8
0
100
AcDbCircle
62
7
6
CONTINUOUS
10
114.1438218214
20
237.0019526045
40
7.0000000000
100
AcDbArc
50
0.0000000000
51
90.0000000000
0
ARC
5
3B5
100
AcDbEntity
8
0
100
AcDbCircle
62
7
6
CONTINUOUS
10
304.6271299929
20
205.2519526045
40
5.2500000000
100
AcDbArc
50
188.2072445523
51
270.0000000000
0
ARC
5
3B6
100
AcDbEntity
8
0
100
AcDbCircle
62
7
6
CONTINUOUS
10
286.1271299929
20
205.2519526045
40
5.2500000000
100
AcDbArc
50
270.0000000000
51
360.0000000000
0
ARC
5
3B7
100
AcDbEntity
8
0
100
AcDbCircle
62
7
6
CONTINUOUS
10
296.3771299929
20
192.0019526045
40
10.0000000000
100
AcDbArc
50
270.0000000000
51
360.0000000000
0
ARC
5
3B8
100
AcDbEntity
8
0
100
AcDbCircle
62
7
6
CONTINUOUS
10
294.3771299929
20
192.0019526045
40
10.0000000000
100
AcDbArc
50
180.0000000000
51
270.0000000000
0
ARC
5
3B9
100
AcDbEntity
8
0
100
AcDbCircle
62
7
6
CONTINUOUS
10
295.3771299929
20
227.5019526045
40
3.5000000000
100
AcDbArc
50
180.0000000000
51
360.0000000000
0
CIRCLE
5
3BA
100
AcDbEntity
8
0
100
AcDbCircle
62
7
6
CONTINUOUS
10
304.8771299929
20
236.0019526045
40
1.5000000000
0
ARC
5
3BB
100
AcDbEntity
8
0
100
AcDbCircle
62
7
6
CONTINUOUS
10
300.8771299929
20
229.7961812386
40
8.0000000000
100
AcDbArc
50
300.0000000000
51
360.0000000000
0
ARC
5
3BC
100
AcDbEntity
8
0
100
AcDbCircle
62
7
6
CONTINUOUS
10
289.8771299929
20
229.7961812386
40
8.0000000000
100
AcDbArc
50
180.0000000000
51
240.0000000000
0
ARC
5
3BD
100
AcDbEntity
8
0
100
AcDbCircle
62
7
6
CONTINUOUS
10
101.1438218214
20
112.6134590964
40
4.0000000000
100
AcDbArc
50
90.0000000000
51
251.7514639462
0
ARC
5
3BE
100
AcDbEntity
8
0
100
AcDbCircle
62
7
6
CONTINUOUS
10
126.1438218214
20
112.6134590964
40
4.0000000000
100
AcDbArc
50
275.8770220632
51
90.0000000000
0
SPLINE
5
3BF
100
AcDbEntity
8
0
100
AcDbSpline
62
7
6
CONTINUOUS
70
0
71
3
72
13
73
9
74
7
42
0.0000001000
43
0.0000001000
44
0.0000000001
40
0.0000000000
40
0.0000000000
40
0.0000000000
40
0.0000000000
40
0.0285966528
40
0.1190044022
40
0.2682613625
40
0.4717212392
40
0.7174938055
40
1.0000000000
40
1.0000000000
40
1.0000000000
40
1.0000000000
10
125.4683771417
20
224.0019526045
30
0.0000000000
10
125.4531345550
20
224.0071285822
30
0.0000000000
10
125.3896802167
20
224.0286018047
30
0.0000000000
10
125.2464291892
20
224.0763810428
30
0.0000000000
10
125.0091065433
20
224.1531999329
30
0.0000000000
10
124.6872215648
20
224.2526953274
30
0.0000000000
10
124.2916306556
20
224.3675550448
30
0.0000000000
10
124.0043652772
20
224.4445520547
30
0.0000000000
10
123.8503034060
20
224.4839773513
30
0.0000000000
11
125.4683771417
21
224.0019526045
31
0.0000000000
11
125.4226330973
21
224.0174325396
31
0.0000000000
11
125.2778010594
21
224.0657375985
31
0.0000000000
11
125.0379928975
21
224.1433541954
31
0.0000000000
11
124.7097215813
21
224.2448063243
31
0.0000000000
11
124.3111283765
21
224.3605064062
31
0.0000000000
11
123.8503034060
21
224.4839773513
31
0.0000000000
0
SPLINE
5
3C0
100
AcDbEntity
8
0
100
AcDbSpline
62
7
6
CONTINUOUS
70
0
71
3
72
13
73
9
74
7
42
0.0000001000
43
0.0000001000
44
0.0000000001
40
0.0000000000
40
0.0000000000
40
0.0000000000
40
0.0000000000
40
0.2838442657
40
0.5299698989
40
0.7323639223
40
0.8810570959
40
0.9714136340
40
1.0000000000
40
1.0000000000
40
1.0000000000
40
1.0000000000
10
103.4373418867
20
224.4839779825
30
0.0000000000
10
103.2825501566
20
224.4443659241
30
0.0000000000
10
102.9943688299
20
224.3671065224
30
0.0000000000
10
102.5984529188
20
224.2521021205
30
0.0000000000
10
102.2772630487
20
224.1527907773
30
0.0000000000
10
102.0408423615
20
224.0762571904
30
0.0000000000
10
101.8979252208
20
224.0285888961
30
0.0000000000
10
101.8345036197
20
224.0071267254
30
0.0000000000
10
101.8192665011
20
224.0019526045
30
0.0000000000
11
103.4373418867
21
224.4839779825
31
0.0000000000
11
102.9743403996
21
224.3598974576
31
0.0000000000
11
102.5751877877
21
224.2439842502
31
0.0000000000
11
102.2486447287
21
224.1430347572
31
0.0000000000
11
102.0097441420
21
224.0657051309
31
0.0000000000
11
101.8649941296
21
224.0174270036
31
0.0000000000
11
101.8192665011
21
224.0019526045
31
0.0000000000
0
SPLINE
5
3C1
100
AcDbEntity
8
0
100
AcDbSpline
62
7
6
CONTINUOUS
70
0
71
3
72
14
73
10
74
8
42
0.0000001000
43
0.0000001000
44
0.0000000001
40
0.0000000000
40
0.0000000000
40
0.0000000000
40
0.0000000000
40
0.1468053666
40
0.2923822380
40
0.4329228266
40
0.5696162381
40
0.7038723238
40
0.8450286400
40
1.0000000000
40
1.0000000000
40
1.0000000000
40
1.0000000000
10
106.0966365962
20
227.5019526045
30
0.0000000000
10
106.0699852689
20
227.2925516041
30
0.0000000000
10
105.9924346094
20
226.8779427311
30
0.0000000000
10
105.7877687067
20
226.2870704104
30
0.0000000000
10
105.4856795034
20
225.7549225491
30
0.0000000000
10
105.0918775478
20
225.3075897541
30
0.0000000000
10
104.6158062978
20
224.9486640974
30
0.0000000000
10
104.0601535424
20
224.6699507547
30
0.0000000000
10
103.6532173987
20
224.5392217069
30
0.0000000000
10
103.4373418867
20
224.4839779825
30
0.0000000000
11
106.0966365962
21
227.5019526045
31
0.0000000000
11
105.9768124952
21
226.8801215704
31
0.0000000000
11
105.7674833281
21
226.2880664928
31
0.0000000000
11
105.4656511873
21
225.7622984480
31
0.0000000000
11
105.0758767081
21
225.3198461291
31
0.0000000000
11
104.6148868562
21
224.9692921152
31
0.0000000000
11
104.0723963266
21
224.6927668963
31
0.0000000000
11
103.4373418867
21
224.4839779825
31
0.0000000000
0
SPLINE
5
3C2
100
AcDbEntity
8
0
100
AcDbSpline
62
7
6
CONTINUOUS
70
0
71
3
72
10
73
6
74
4
42
0.0000001000
43
0.0000001000
44
0.0000000001
40
0.0000000000
40
0.0000000000
40
0.0000000000
40
0.0000000000
40
0.3275246090
40
0.6609776293
40
1.0000000000
40
1.0000000000
40
1.0000000000
40
1.0000000000
10
106.1438218214
20
228.2379863829
30
0.0000000000
10
106.1438218214
20
228.1574172062
30
0.0000000000
10
106.1403362709
20
227.9947993788
30
0.0000000000
10
106.1246547638
20
227.7492393613
30
0.0000000000
10
106.1071660081
20
227.5846827956
30
0.0000000000
10
106.0966365962
20
227.5019526045
30
0.0000000000
11
106.1438218214
21
228.2379863829
31
0.0000000000
11
106.1386783533
21
227.9963335850
31
0.0000000000
11
106.1230349004
21
227.7507487195
31
0.0000000000
11
106.0966365962
21
227.5019526045
31
0.0000000000
0
SPLINE
5
3C3
100
AcDbEntity
8
0
100
AcDbSpline
62
7
6
CONTINUOUS
70
0
71
3
72
14
73
10
74
8
42
0.0000001000
43
0.0000001000
44
0.0000000001
40
0.0000000000
40
0.0000000000
40
0.0000000000
40
0.0000000000
40
0.1550459233
40
0.2964639093
40
0.4308946342
40
0.5674881287
40
0.7078042876
40
0.8533318690
40
1.0000000000
40
1.0000000000
40
1.0000000000
40
1.0000000000
10
123.8503034060
20
224.4839773513
30
0.0000000000
10
123.6343239262
20
224.5392476960
30
0.0000000000
10
123.2269285708
20
224.6701370672
30
0.0000000000
10
122.6706667118
20
224.9493118430
30
0.0000000000
10
122.1944114959
20
225.3088252701
30
0.0000000000
10
121.8010739596
20
225.7562686737
30
0.0000000000
10
121.4994764487
20
226.2880552347
30
0.0000000000
10
121.2951121955
20
226.8784020469
30
0.0000000000
10
121.2176332869
20
227.2927472676
30
0.0000000000
10
121.1910067522
20
227.5019526045
30
0.0000000000
11
123.8503034060
21
224.4839773513
31
0.0000000000
11
123.2149505937
21
224.6928895914
31
0.0000000000
11
122.6715229593
21
224.9700624970
31
0.0000000000
11
122.2101437456
21
225.3213493371
31
0.0000000000
11
121.8209586798
21
225.7637466870
31
0.0000000000
11
121.5198273192
21
226.2888010059
31
0.0000000000
11
121.3106793946
21
226.8806949553
31
0.0000000000
11
121.1910067522
21
227.5019526045
31
0.0000000000
0
SPLINE
5
3C4
100
AcDbEntity
8
0
100
AcDbSpline
62
7
6
CONTINUOUS
70
0
71
3
72
10
73
6
74
4
42
0.0000001000
43
0.0000001000
44
0.0000000001
40
0.0000000000
40
0.0000000000
40
0.0000000000
40
0.0000000000
40
0.3390208532
40
0.6724738780
40
1.0000000000
40
1.0000000000
40
1.0000000000
40
1.0000000000
10
121.1910067522
20
227.5019526045
30
0.0000000000
10
121.1804773999
20
227.5846819838
30
0.0000000000
10
121.1629887508
20
227.7492373105
30
0.0000000000
10
121.1473073471
20
227.9947960352
30
0.0000000000
10
121.1438218214
20
228.1574133791
30
0.0000000000
10
121.1438218214
20
228.2379825033
30
0.0000000000
11
121.1910067522
21
227.5019526045
31
0.0000000000
11
121.1646086431
21
227.7507462879
31
0.0000000000
11
121.1489652760
21
227.9963298625
31
0.0000000000
11
121.1438218214
21
228.2379825033
31
0.0000000000
0
SPLINE
5
3C5
100
AcDbEntity
8
0
100
AcDbSpline
62
7
6
CONTINUOUS
70
0
71
3
72
14
73
10
74
8
42
0.0000001000
43
0.0000001000
44
0.0000000001
40
0.0000000000
40
0.0000000000
40
0.0000000000
40
0.0000000000
40
0.1740224274
40
0.3432343945
40
0.5048432255
40
0.6537062241
40
0.7847295646
40
0.8985353859
40
1.0000000000
40
1.0000000000
40
1.0000000000
40
1.0000000000
10
102.1630847546
20
219.6676859671
30
0.0000000000
10
102.4530745025
20
219.6862368314
30
0.0000000000
10
103.0236200325
20
219.7536476068
30
0.0000000000
10
103.8458753850
20
219.9481386893
30
0.0000000000
10
104.5975369177
20
220.2324272143
30
0.0000000000
10
105.2415171122
20
220.5989096539
30
0.0000000000
10
105.7411338606
20
221.0349843371
30
0.0000000000
10
106.0650824076
20
221.5252026696
30
0.0000000000
10
106.1438218214
20
221.8873320288
30
0.0000000000
10
106.1438218214
20
222.0567575535
30
0.0000000000
11
102.1630847546
21
219.6676859671
31
0.0000000000
11
103.0286580747
21
219.7712548977
31
0.0000000000
11
103.8529152245
21
219.9690190332
31
0.0000000000
11
104.6083942118
21
220.2599546282
31
0.0000000000
11
105.2525284998
21
220.6356942544
31
0.0000000000
11
105.7395935338
21
221.0756491675
31
0.0000000000
11
106.0423510174
21
221.5587126242
31
0.0000000000
11
106.1438218214
21
222.0567575535
31
0.0000000000
0
SPLINE
5
3C6
100
AcDbEntity
8
0
100
AcDbSpline
62
7
6
CONTINUOUS
70
0
71
3
72
14
73
10
74
8
42
0.0000001000
43
0.0000001000
44
0.0000000001
40
0.0000000000
40
0.0000000000
40
0.0000000000
40
0.0000000000
40
0.1737481349
40
0.3430651683
40
0.5050926737
40
0.6537568052
40
0.7838599649
40
0.8982071795
40
1.0000000000
40
1.0000000000
40
1.0000000000
40
1.0000000000
10
125.1245590920
20
219.6676859540
30
0.0000000000
10
124.8350275190
20
219.6862081652
30
0.0000000000
10
124.2647648558
20
219.7535358365
30
0.0000000000
10
123.4420732909
20
219.9479922311
30
0.0000000000
10
122.6898981809
20
220.2324818459
30
0.0000000000
10
122.0469952413
20
220.5985130054
30
0.0000000000
10
121.5479850500
20
221.0335893617
30
0.0000000000
10
121.2231598893
20
221.5231903399
30
0.0000000000
10
121.1438218214
20
221.8867841713
30
0.0000000000
10
121.1438218214
20
222.0567571161
30
0.0000000000
11
125.1245590920
21
219.6676859540
31
0.0000000000
11
124.2603439479
21
219.7710136915
31
0.0000000000
11
123.4355462998
21
219.9687677041
31
0.0000000000
11
122.6781253498
21
220.2604883415
31
0.0000000000
11
122.0349185532
21
220.6358354513
31
0.0000000000
11
121.5509209824
21
221.0723056568
31
0.0000000000
11
121.2459289161
21
221.5571659243
31
0.0000000000
11
121.1438218214
21
222.0567571161
31
0.0000000000
0
SPLINE
5
3C7
100
AcDbEntity
8
0
100
AcDbSpline
62
7
6
CONTINUOUS
70
0
71
3
72
10
73
6
74
4
42
0.0000001000
43
0.0000001000
44
0.0000000001
40
0.0000000000
40
0.0000000000
40
0.0000000000
40
0.0000000000
40
0.3316214815
40
0.6649548889
40
1.0000000000
40
1.0000000000
40
1.0000000000
40
1.0000000000
10
299.3684833906
20
216.7982117195
30
0.0000000000
10
299.3706134389
20
216.6674394339
30
0.0000000000
10
299.3736618834
20
216.4051995273
30
0.0000000000
10
299.3758648568
20
216.0108103526
30
0.0000000000
10
299.3764364664
20
215.7472059549
30
0.0000000000
10
299.3766196863
20
215.6150661902
30
0.0000000000
11
299.3684833906
21
216.7982117195
31
0.0000000000
11
299.3732601794
21
216.4058719022
31
0.0000000000
11
299.3756370354
21
216.0114846477
31
0.0000000000
11
299.3766196863
21
215.6150661902
31
0.0000000000
0
SPLINE
5
3C8
100
AcDbEntity
8
0
100
AcDbSpline
62
7
6
CONTINUOUS
70
0
71
3
72
9
73
5
74
3
42
0.0000001000
43
0.0000001000
44
0.0000000001
40
0.0000000000
40
0.0000000000
40
0.0000000000
40
0.0000000000
40
0.4996050593
40
1.0000000000
40
1.0000000000
40
1.0000000000
40
1.0000000000
10
299.1692408854
20
215.6150661902
30
0.0000000000
10
299.1702910104
20
215.5728491692
30
0.0000000000
10
299.1721686114
20
215.4883426594
30
0.0000000000
10
299.1736052830
20
215.4038275205
30
0.0000000000
10
299.1742153362
20
215.3615350744
30
0.0000000000
11
299.1692408854
21
215.6150661902
31
0.0000000000
11
299.1720570700
21
215.4884072557
31
0.0000000000
11
299.1742153362
21
215.3615350744
31
0.0000000000
0
SPLINE
5
3C9
100
AcDbEntity
8
0
100
AcDbSpline
62
7
6
CONTINUOUS
70
0
71
3
72
9
73
5
74
3
42
0.0000001000
43
0.0000001000
44
0.0000000001
40
0.0000000000
40
0.0000000000
40
0.0000000000
40
0.0000000000
40
0.6433967506
40
1.0000000000
40
1.0000000000
40
1.0000000000
40
1.0000000000
10
299.3705853427
20
213.3755416566
30
0.0000000000
10
299.3673406120
20
213.3830424417
30
0.0000000000
10
299.3607046820
20
213.3940249880
30
0.0000000000
10
299.3526413831
20
213.4038780377
30
0.0000000000
10
299.3496253789
20
213.4072648050
30
0.0000000000
11
299.3705853427
21
213.3755416566
31
0.0000000000
11
299.3582106677
21
213.3967071452
31
0.0000000000
11
299.3496253789
21
213.4072648050
31
0.0000000000
0
SPLINE
5
3CA
100
AcDbEntity
8
0
100
AcDbSpline
62
7
6
CONTINUOUS
70
0
71
3
72
8
73
4
74
2
42
0.0000001000
43
0.0000001000
44
0.0000000001
40
0.0000000000
40
0.0000000000
40
0.0000000000
40
0.0000000000
40
1.0000000000
40
1.0000000000
40
1.0000000000
40
1.0000000000
10
299.3496253789
20
213.4072648050
30
0.0000000000
10
299.3463738636
20
213.4109160352
30
0.0000000000
10
299.3429589263
20
213.4144198169
30
0.0000000000
10
299.3394318248
20
213.4177971649
30
0.0000000000
11
299.3496253789
21
213.4072648050
31
0.0000000000
11
299.3394318248
21
213.4177971649
31
0.0000000000
0
SPLINE
5
3CB
100
AcDbEntity
8
0
100
AcDbSpline
62
7
6
CONTINUOUS
70
0
71
3
72
8
73
4
74
2
42
0.0000001000
43
0.0000001000
44
0.0000000001
40
0.0000000000
40
0.0000000000
40
0.0000000000
40
0.0000000000
40
1.0000000000
40
1.0000000000
40
1.0000000000
40
1.0000000000
10
299.3394318248
20
213.4177971649
30
0.0000000000
10
299.3364511316
20
213.4249324347
30
0.0000000000
10
299.3333170844
20
213.4320051513
30
0.0000000000
10
299.3300398613
20
213.4390119251
30
0.0000000000
11
299.3394318248
21
213.4177971649
31
0.0000000000
11
299.3300398613
21
213.4390119251
31
0.0000000000
0
SPLINE
5
3CC
100
AcDbEntity
8
0
100
AcDbSpline
62
7
6
CONTINUOUS
70
0
71
3
72
9
73
5
74
3
42
0.0000001000
43
0.0000001000
44
0.0000000001
40
0.0000000000
40
0.0000000000
40
0.0000000000
40
0.0000000000
40
0.3272536497
40
1.0000000000
40
1.0000000000
40
1.0000000000
40
1.0000000000
10
299.3300398613
20
213.4390119251
30
0.0000000000
10
299.3267089667
20
213.4461334494
30
0.0000000000
10
299.3160786848
20
213.4676867730
30
0.0000000000
10
299.3041671317
20
213.4885707905
30
0.0000000000
10
299.2956607566
20
213.5023072144
30
0.0000000000
11
299.3300398613
21
213.4390119251
31
0.0000000000
11
299.3196141519
21
213.4601685777
31
0.0000000000
11
299.2956607566
21
213.5023072144
31
0.0000000000
0
SPLINE
5
3CD
100
AcDbEntity
8
0
100
AcDbSpline
62
7
6
CONTINUOUS
70
0
71
3
72
9
73
5
74
3
42
0.0000001000
43
0.0000001000
44
0.0000000001
40
0.0000000000
40
0.0000000000
40
0.0000000000
40
0.0000000000
40
0.4981641146
40
1.0000000000
40
1.0000000000
40
1.0000000000
40
1.0000000000
10
299.2956607566
20
213.5023072144
30
0.0000000000
10
299.2868307654
20
213.5308254008
30
0.0000000000
10
299.2677467554
20
213.5876595291
30
0.0000000000
10
299.2460486456
20
213.6435465616
30
0.0000000000
10
299.2345326398
20
213.6713282807
30
0.0000000000
11
299.2956607566
21
213.5023072144
31
0.0000000000
11
299.2671680930
21
213.5872158088
31
0.0000000000
11
299.2345326398
21
213.6713282807
31
0.0000000000
0
SPLINE
5
3CE
100
AcDbEntity
8
0
100
AcDbSpline
62
7
6
CONTINUOUS
70
0
71
3
72
9
73
5
74
3
42
0.0000001000
43
0.0000001000
44
0.0000000001
40
0.0000000000
40
0.0000000000
40
0.0000000000
40
0.0000000000
40
0.5013873641
40
1.0000000000
40
1.0000000000
40
1.0000000000
40
1.0000000000
10
299.2345326398
20
213.6713282807
30
0.0000000000
10
299.2286615231
20
213.6996555990
30
0.0000000000
10
299.2165856208
20
213.7560782078
30
0.0000000000
10
299.2037774365
20
213.8123391076
30
0.0000000000
10
299.1972085534
20
213.8403483798
30
0.0000000000
11
299.2345326398
21
213.6713282807
31
0.0000000000
11
299.2163680256
21
213.7561941133
31
0.0000000000
11
299.1972085534
21
213.8403483798
31
0.0000000000
0
SPLINE
5
3CF
100
AcDbEntity
8
0
100
AcDbSpline
62
7
6
CONTINUOUS
70
0
71
3
72
9
73
5
74
3
42
0.0000001000
43
0.0000001000
44
0.0000000001
40
0.0000000000
40
0.0000000000
40
0.0000000000
40
0.0000000000
40
0.5007572966
40
1.0000000000
40
1.0000000000
40
1.0000000000
40
1.0000000000
10
299.1972085534
20
213.8403483798
30
0.0000000000
10
299.1938993878
20
213.8756237664
30
0.0000000000
10
299.1871942702
20
213.9460587994
30
0.0000000000
10
299.1802945281
20
214.0164750347
30
0.0000000000
10
299.1768010313
20
214.0516249543
30
0.0000000000
11
299.1972085534
21
213.8403483798
31
0.0000000000
11
299.1871353110
21
213.9461607662
31
0.0000000000
11
299.1768010313
21
214.0516249543
31
0.0000000000
0
SPLINE
5
3D0
100
AcDbEntity
8
0
100
AcDbSpline
62
7
6
CONTINUOUS
70
0
71
3
72
9
73
5
74
3
42
0.0000001000
43
0.0000001000
44
0.0000000001
40
0.0000000000
40
0.0000000000
40
0.0000000000
40
0.0000000000
40
0.5007598316
40
1.0000000000
40
1.0000000000
40
1.0000000000
40
1.0000000000
10
299.1972085534
20
214.6431972354
30
0.0000000000
10
299.1938993710
20
214.6079218316
30
0.0000000000
10
299.1871942529
20
214.5374871210
30
0.0000000000
10
299.1802945103
20
214.4670712081
30
0.0000000000
10
299.1768010313
20
214.4319216280
30
0.0000000000
11
299.1972085534
21
214.6431972354
31
0.0000000000
11
299.1871352593
21
214.5373847977
31
0.0000000000
11
299.1768010313
21
214.4319216280
31
0.0000000000
0
SPLINE
5
3D1
100
AcDbEntity
8
0
100
AcDbSpline
62
7
6
CONTINUOUS
70
0
71
3
72
9
73
5
74
3
42
0.0000001000
43
0.0000001000
44
0.0000000001
40
0.0000000000
40
0.0000000000
40
0.0000000000
40
0.0000000000
40
0.5018084656
40
1.0000000000
40
1.0000000000
40
1.0000000000
40
1.0000000000
10
299.2345326398
20
214.8122183016
30
0.0000000000
10
299.2286565923
20
214.7838670307
30
0.0000000000
10
299.2165803824
20
214.7274441616
30
0.0000000000
10
299.2037718890
20
214.6711830134
30
0.0000000000
10
299.1972085534
20
214.6431972354
30
0.0000000000
11
299.2345326398
21
214.8122183016
31
0.0000000000
11
299.2163523060
21
214.7272808072
31
0.0000000000
11
299.1972085534
21
214.6431972354
31
0.0000000000
0
SPLINE
5
3D2
100
AcDbEntity
8
0
100
AcDbSpline
62
7
6
CONTINUOUS
70
0
71
3
72
9
73
5
74
3
42
0.0000001000
43
0.0000001000
44
0.0000000001
40
0.0000000000
40
0.0000000000
40
0.0000000000
40
0.0000000000
40
0.4991772120
40
1.0000000000
40
1.0000000000
40
1.0000000000
40
1.0000000000
10
299.2956607566
20
214.9812384007
30
0.0000000000
10
299.2868128068
20
214.9526623770
30
0.0000000000
10
299.2677260119
20
214.8958293660
30
0.0000000000
10
299.2460253952
20
214.8399437717
30
0.0000000000
10
299.2345326398
20
214.8122183016
30
0.0000000000
11
299.2956607566
21
214.9812384007
31
0.0000000000
11
299.2671061141
21
214.8961589643
31
0.0000000000
11
299.2345326398
21
214.8122183016
31
0.0000000000
0
SPLINE
5
3D3
100
AcDbEntity
8
0
100
AcDbSpline
62
7
6
CONTINUOUS
70
0
71
3
72
9
73
5
74
3
42
0.0000001000
43
0.0000001000
44
0.0000000001
40
0.0000000000
40
0.0000000000
40
0.0000000000
40
0.0000000000
40
0.4995649378
40
1.0000000000
40
1.0000000000
40
1.0000000000
40
1.0000000000
10
299.2015607449
20
204.7554837203
30
0.0000000000
10
299.2057924035
20
204.7131401805
30
0.0000000000
10
299.2153448693
20
204.6284839910
30
0.0000000000
10
299.2270520315
20
204.5440987972
30
0.0000000000
10
299.2334469119
20
204.5019526045
30
0.0000000000
11
299.2015607449
21
204.7554837203
31
0.0000000000
11
299.2158742946
21
204.6286252835
31
0.0000000000
11
299.2334469119
21
204.5019526045
31
0.0000000000
0
SPLINE
5
3D4
100
AcDbEntity
8
0
100
AcDbSpline
62
7
6
CONTINUOUS
70
0
71
3
72
9
73
5
74
3
42
0.0000001000
43
0.0000001000
44
0.0000000001
40
0.0000000000
40
0.0000000000
40
0.0000000000
40
0.0000000000
40
0.4829933112
40
1.0000000000
40
1.0000000000
40
1.0000000000
40
1.0000000000
10
299.3244995913
20
215.0019526045
30
0.0000000000
10
299.3200517779
20
214.9983583068
30
0.0000000000
10
299.3106076812
20
214.9912052150
30
0.0000000000
10
299.3008026180
20
214.9845597477
30
0.0000000000
10
299.2956607566
20
214.9812384007
30
0.0000000000
11
299.3244995913
21
215.0019526045
31
0.0000000000
11
299.3108446997
21
214.9915669357
31
0.0000000000
11
299.2956607566
21
214.9812384007
31
0.0000000000
0
SPLINE
5
3D5
100
AcDbEntity
8
0
100
AcDbSpline
62
7
6
CONTINUOUS
70
0
71
3
72
17
73
13
74
11
42
0.0000001000
43
0.0000001000
44
0.0000000001
40
0.0000000000
40
0.0000000000
40
0.0000000000
40
0.0000000000
40
0.0875714069
40
0.1765146599
40
0.2655469436
40
0.3532652071
40
0.4399463137
40
0.5342615093
40
0.6434144831
40
0.7621237947
40
0.8836943524
40
1.0000000000
40
1.0000000000
40
1.0000000000
40
1.0000000000
10
295.3771299914
20
205.2519526045
30
0.0000000000
10
295.5726012393
20
205.0280121571
30
0.0000000000
10
295.9666079357
20
204.5766214590
30
0.0000000000
10
296.5689518519
20
203.9059776864
30
0.0000000000
10
297.1907297473
20
203.2524497419
30
0.0000000000
10
297.8344105128
20
202.6312478317
30
0.0000000000
10
298.5253302475
20
202.0348998780
30
0.0000000000
10
299.3155830838
20
201.4453515848
30
0.0000000000
10
300.2525786167
20
200.8770918892
30
0.0000000000
10
301.3401435819
20
200.3936046566
30
0.0000000000
10
302.5137630359
20
200.0764476527
30
0.0000000000
10
303.3227572065
20
200.0019526045
30
0.0000000000
10
303.7175436517
20
200.0019526045
30
0.0000000000
11
295.3771299914
21
205.2519526045
31
0.0000000000
11
295.9651170675
21
204.5815078319
31
0.0000000000
11
296.5719453905
21
203.9091279846
31
0.0000000000
11
297.1984348496
21
203.2537736240
31
0.0000000000
11
297.8425814316
21
202.6349282607
31
0.0000000000
11
298.5120281573
21
202.0596206407
31
0.0000000000
11
299.2832462084
21
201.4872198099
31
0.0000000000
11
300.2354550510
21
200.9138259008
31
0.0000000000
11
301.3417303499
21
200.4265477346
31
0.0000000000
11
302.5379028772
21
200.1075683174
31
0.0000000000
11
303.7175436517
21
200.0019526045
31
0.0000000000
0
SPLINE
5
3D6
100
AcDbEntity
8
0
100
AcDbSpline
62
7
6
CONTINUOUS
70
0
71
3
72
9
73
5
74
3
42
0.0000001000
43
0.0000001000
44
0.0000000001
40
0.0000000000
40
0.0000000000
40
0.0000000000
40
0.0000000000
40
0.4761725726
40
1.0000000000
40
1.0000000000
40
1.0000000000
40
1.0000000000
10
299.3394318248
20
211.6008238461
30
0.0000000000
10
299.3332330873
20
211.6082432051
30
0.0000000000
10
299.3192575293
20
211.6230340816
30
0.0000000000
10
299.3039357480
20
211.6363974827
30
0.0000000000
10
299.2956607566
20
211.6430788709
30
0.0000000000
11
299.3394318248
21
211.6008238461
31
0.0000000000
11
299.3196182894
21
211.6220055583
31
0.0000000000
11
299.2956607566
21
211.6430788709
31
0.0000000000
0
SPLINE
5
3D7
100
AcDbEntity
8
0
100
AcDbSpline
62
7
6
CONTINUOUS
70
0
71
3
72
9
73
5
74
3
42
0.0000001000
43
0.0000001000
44
0.0000000001
40
0.0000000000
40
0.0000000000
40
0.0000000000
40
0.0000000000
40
0.4981641146
40
1.0000000000
40
1.0000000000
40
1.0000000000
40
1.0000000000
10
299.2956607566
20
211.6430788709
30
0.0000000000
10
299.2868307654
20
211.6715970573
30
0.0000000000
10
299.2677467554
20
211.7284311855
30
0.0000000000
10
299.2460486456
20
211.7843182181
30
0.0000000000
10
299.2345326398
20
211.8120999371
30
0.0000000000
11
299.2956607566
21
211.6430788709
31
0.0000000000
11
299.2671680930
21
211.7279874653
31
0.0000000000
11
299.2345326398
21
211.8120999371
31
0.0000000000
0
SPLINE
5
3D8
100
AcDbEntity
8
0
100
AcDbSpline
62
7
6
CONTINUOUS
70
0
71
3
72
9
73
5
74
3
42
0.0000001000
43
0.0000001000
44
0.0000000001
40
0.0000000000
40
0.0000000000
40
0.0000000000
40
0.0000000000
40
0.5013873725
40
1.0000000000
40
1.0000000000
40
1.0000000000
40
1.0000000000
10
299.2345326398
20
211.8120999371
30
0.0000000000
10
299.2286615231
20
211.8404273365
30
0.0000000000
10
299.2165856209
20
211.8968501063
30
0.0000000000
10
299.2037774365
20
211.9531111676
30
0.0000000000
10
299.1972085534
20
211.9811205198
30
0.0000000000
11
299.2345326398
21
211.8120999371
31
0.0000000000
11
299.2163680255
21
211.8969660133
31
0.0000000000
11
299.1972085534
21
211.9811205198
31
0.0000000000
0
SPLINE
5
3D9
100
AcDbEntity
8
0
100
AcDbSpline
62
7
6
CONTINUOUS
70
0
71
3
72
9
73
5
74
3
42
0.0000001000
43
0.0000001000
44
0.0000000001
40
0.0000000000
40
0.0000000000
40
0.0000000000
40
0.0000000000
40
0.5008249805
40
1.0000000000
40
1.0000000000
40
1.0000000000
40
1.0000000000
10
299.1972085534
20
211.9811205198
30
0.0000000000
10
299.1938984569
20
212.0093486543
30
0.0000000000
10
299.1871928033
20
212.0657006686
30
0.0000000000
10
299.1802935308
20
212.1220293067
30
0.0000000000
10
299.1768010313
20
212.1501411025
30
0.0000000000
11
299.1972085534
21
211.9811205198
31
0.0000000000
11
299.1871331746
21
212.0657877838
31
0.0000000000
11
299.1768010313
21
212.1501411025
31
0.0000000000
0
SPLINE
5
3DA
100
AcDbEntity
8
0
100
AcDbSpline
62
7
6
CONTINUOUS
70
0
71
3
72
17
73
13
74
11
42
0.0000001000
43
0.0000001000
44
0.0000000001
40
0.0000000000
40
0.0000000000
40
0.0000000000
40
0.0000000000
40
0.1166963405
40
0.2385764819
40
0.3574900137
40
0.4666978670
40
0.5609546851
40
0.6475076785
40
0.7350293560
40
0.8238569926
40
0.9126026718
40
1.0000000000
40
1.0000000000
40
1.0000000000
40
1.0000000000
10
287.0367163341
20
200.0019526045
30
0.0000000000
10
287.4328280634
20
200.0019526045
30
0.0000000000
10
288.2442117613
20
200.0769208149
30
0.0000000000
10
289.4205827304
20
200.3957827132
30
0.0000000000
10
290.5094483218
20
200.8811194700
30
0.0000000000
10
291.4464736271
20
201.4506314310
30
0.0000000000
10
292.2358888624
20
202.0405415143
30
0.0000000000
10
292.9254666982
20
202.6364433255
30
0.0000000000
10
293.5676205299
20
203.2566313939
30
0.0000000000
10
294.1878753321
20
203.9087972448
30
0.0000000000
10
294.7888715181
20
204.5780185276
30
0.0000000000
10
295.1820477436
20
205.0284578127
30
0.0000000000
10
295.3771299914
20
205.2519526045
30
0.0000000000
11
287.0367163341
21
200.0019526045
31
0.0000000000
11
288.2202861615
21
200.1082680905
31
0.0000000000
11
289.4192645348
21
200.4289487246
31
0.0000000000
11
290.5269712010
21
200.9181282588
31
0.0000000000
11
291.4791070212
21
201.4927209869
31
0.0000000000
11
292.2493855297
21
202.0653861521
31
0.0000000000
11
292.9174981686
21
202.6402412878
31
0.0000000000
11
293.5599648553
21
203.2579427608
31
0.0000000000
11
294.1848863036
21
203.9119102854
31
0.0000000000
11
294.7903192834
21
204.5828365896
31
0.0000000000
11
295.3771299914
21
205.2519526045
31
0.0000000000
0
SPLINE
5
3DB
100
AcDbEntity
8
0
100
AcDbSpline
62
7
6
CONTINUOUS
70
0
71
3
72
9
73
5
74
3
42
0.0000001000
43
0.0000001000
44
0.0000000001
40
0.0000000000
40
0.0000000000
40
0.0000000000
40
0.0000000000
40
0.5007585067
40
1.0000000000
40
1.0000000000
40
1.0000000000
40
1.0000000000
10
299.1972085534
20
212.5726932845
30
0.0000000000
10
299.1938993798
20
212.5374178933
30
0.0000000000
10
299.1871942619
20
212.4669830215
30
0.0000000000
10
299.1802945196
20
212.3965669474
30
0.0000000000
10
299.1768010313
20
212.3614171935
30
0.0000000000
11
299.1972085534
21
212.5726932845
31
0.0000000000
11
299.1871352863
21
212.4668808845
31
0.0000000000
11
299.1768010313
21
212.3614171935
31
0.0000000000
0
SPLINE
5
3DC
100
AcDbEntity
8
0
100
AcDbSpline
62
7
6
CONTINUOUS
70
0
71
3
72
9
73
5
74
3
42
0.0000001000
43
0.0000001000
44
0.0000000001
40
0.0000000000
40
0.0000000000
40
0.0000000000
40
0.0000000000
40
0.5001809009
40
1.0000000000
40
1.0000000000
40
1.0000000000
40
1.0000000000
10
299.2514828349
20
212.7417138671
30
0.0000000000
10
299.2432157752
20
212.7132914200
30
0.0000000000
10
299.2258979760
20
212.6566938264
30
0.0000000000
10
299.2070243702
20
212.6005960159
30
0.0000000000
10
299.1972085534
20
212.5726932845
30
0.0000000000
11
299.2514828349
21
212.7417138671
31
0.0000000000
11
299.2255024772
21
212.6567983855
31
0.0000000000
11
299.1972085534
21
212.5726932845
31
0.0000000000
0
SPLINE
5
3DD
100
AcDbEntity
8
0
100
AcDbSpline
62
7
6
CONTINUOUS
70
0
71
3
72
9
73
5
74
3
42
0.0000001000
43
0.0000001000
44
0.0000000001
40
0.0000000000
40
0.0000000000
40
0.0000000000
40
0.0000000000
40
0.4955350842
40
1.0000000000
40
1.0000000000
40
1.0000000000
40
1.0000000000
10
299.3082041697
20
212.8684794250
30
0.0000000000
10
299.3000745003
20
212.8470186663
30
0.0000000000
10
299.2823618267
20
212.8041955532
30
0.0000000000
10
299.2622136503
20
212.7624661587
30
0.0000000000
10
299.2514828349
20
212.7417138671
30
0.0000000000
11
299.3082041697
21
212.8684794250
31
0.0000000000
11
299.2819219480
21
212.8048465245
31
0.0000000000
11
299.2514828349
21
212.7417138671
31
0.0000000000
0
SPLINE
5
3DE
100
AcDbEntity
8
0
100
AcDbSpline
62
7
6
CONTINUOUS
70
0
71
3
72
9
73
5
74
3
42
0.0000001000
43
0.0000001000
44
0.0000000001
40
0.0000000000
40
0.0000000000
40
0.0000000000
40
0.0000000000
40
0.7071785374
40
1.0000000000
40
1.0000000000
40
1.0000000000
40
1.0000000000
10
299.3769422197
20
205.6560100888
30
0.0000000000
10
299.3761812702
20
205.7033405215
30
0.0000000000
10
299.3502028794
20
205.7712462414
30
0.0000000000
10
299.3083436246
20
205.8249056833
30
0.0000000000
10
299.2950688801
20
205.8396299198
30
0.0000000000
11
299.3769422197
21
205.6560100888
31
0.0000000000
11
299.3314965057
21
205.7922588721
31
0.0000000000
11
299.2950688801
21
205.8396299198
31
0.0000000000
0
SPLINE
5
3DF
100
AcDbEntity
8
0
100
AcDbSpline
62
7
6
CONTINUOUS
70
0
71
3
72
8
73
4
74
2
42
0.0000001000
43
0.0000001000
44
0.0000000001
40
0.0000000000
40
0.0000000000
40
0.0000000000
40
0.0000000000
40
1.0000000000
40
1.0000000000
40
1.0000000000
40
1.0000000000
10
299.2950688801
20
205.8396299198
30
0.0000000000
10
299.2605160756
20
205.8779556043
30
0.0000000000
10
299.2190699263
20
205.9095848042
30
0.0000000000
10
299.1768010313
20
205.9386288869
30
0.0000000000
11
299.2950688801
21
205.8396299198
31
0.0000000000
11
299.1768010313
21
205.9386288869
31
0.0000000000
0
SPLINE
5
3E0
100
AcDbEntity
8
0
100
AcDbSpline
62
7
6
CONTINUOUS
70
0
71
3
72
9
73
5
74
3
42
0.0000001000
43
0.0000001000
44
0.0000000001
40
0.0000000000
40
0.0000000000
40
0.0000000000
40
0.0000000000
40
0.4874707307
40
1.0000000000
40
1.0000000000
40
1.0000000000
40
1.0000000000
10
299.3394318248
20
212.9107349334
30
0.0000000000
10
299.3348955381
20
212.9034954539
30
0.0000000000
10
299.3249758114
20
212.8890231327
30
0.0000000000
10
299.3140308878
20
212.8753156601
30
0.0000000000
10
299.3082041697
20
212.8684794250
30
0.0000000000
11
299.3394318248
21
212.9107349334
31
0.0000000000
11
299.3249807700
21
212.8895675372
31
0.0000000000
11
299.3082041697
21
212.8684794250
31
0.0000000000
0
SPLINE
5
3E1
100
AcDbEntity
8
0
100
AcDbSpline
62
7
6
CONTINUOUS
70
0
71
3
72
9
73
5
74
3
42
0.0000001000
43
0.0000001000
44
0.0000000001
40
0.0000000000
40
0.0000000000
40
0.0000000000
40
0.0000000000
40
0.6433967506
40
1.0000000000
40
1.0000000000
40
1.0000000000
40
1.0000000000
10
299.3705853427
20
209.4880643869
30
0.0000000000
10
299.3673406120
20
209.4955651720
30
0.0000000000
10
299.3607046820
20
209.5065477183
30
0.0000000000
10
299.3526413831
20
209.5164007680
30
0.0000000000
10
299.3496253789
20
209.5197875353
30
0.0000000000
11
299.3705853427
21
209.4880643869
31
0.0000000000
11
299.3582106677
21
209.5092298755
31
0.0000000000
11
299.3496253789
21
209.5197875353
31
0.0000000000
0
SPLINE
5
3E2
100
AcDbEntity
8
0
100
AcDbSpline
62
7
6
CONTINUOUS
70
0
71
3
72
8
73
4
74
2
42
0.0000001000
43
0.0000001000
44
0.0000000001
40
0.0000000000
40
0.0000000000
40
0.0000000000
40
0.0000000000
40
1.0000000000
40
1.0000000000
40
1.0000000000
40
1.0000000000
10
299.3496253789
20
209.5197875353
30
0.0000000000
10
299.3463738636
20
209.5234387655
30
0.0000000000
10
299.3429589263
20
209.5269425472
30
0.0000000000
10
299.3394318248
20
209.5303198952
30
0.0000000000
11
299.3496253789
21
209.5197875353
31
0.0000000000
11
299.3394318248
21
209.5303198952
31
0.0000000000
0
SPLINE
5
3E3
100
AcDbEntity
8
0
100
AcDbSpline
62
7
6
CONTINUOUS
70
0
71
3
72
8
73
4
74
2
42
0.0000001000
43
0.0000001000
44
0.0000000001
40
0.0000000000
40
0.0000000000
40
0.0000000000
40
0.0000000000
40
1.0000000000
40
1.0000000000
40
1.0000000000
40
1.0000000000
10
299.3394318248
20
209.5303198952
30
0.0000000000
10
299.3364511316
20
209.5374551650
30
0.0000000000
10
299.3333170844
20
209.5445278816
30
0.0000000000
10
299.3300398613
20
209.5515346554
30
0.0000000000
11
299.3394318248
21
209.5303198952
31
0.0000000000
11
299.3300398613
21
209.5515346554
31
0.0000000000
0
SPLINE
5
3E4
100
AcDbEntity
8
0
100
AcDbSpline
62
7
6
CONTINUOUS
70
0
71
3
72
9
73
5
74
3
42
0.0000001000
43
0.0000001000
44
0.0000000001
40
0.0000000000
40
0.0000000000
40
0.0000000000
40
0.0000000000
40
0.3272536497
40
1.0000000000
40
1.0000000000
40
1.0000000000
40
1.0000000000
10
299.3300398613
20
209.5515346554
30
0.0000000000
10
299.3267089667
20
209.5586561797
30
0.0000000000
10
299.3160786848
20
209.5802095033
30
0.0000000000
10
299.3041671317
20
209.6010935208
30
0.0000000000
10
299.2956607566
20
209.6148299447
30
0.0000000000
11
299.3300398613
21
209.5515346554
31
0.0000000000
11
299.3196141519
21
209.5726913080
31
0.0000000000
11
299.2956607566
21
209.6148299447
31
0.0000000000
0
SPLINE
5
3E5
100
AcDbEntity
8
0
100
AcDbSpline
62
7
6
CONTINUOUS
70
0
71
3
72
9
73
5
74
3
42
0.0000001000
43
0.0000001000
44
0.0000000001
40
0.0000000000
40
0.0000000000
40
0.0000000000
40
0.0000000000
40
0.4981641146
40
1.0000000000
40
1.0000000000
40
1.0000000000
40
1.0000000000
10
299.2956607566
20
209.6148299447
30
0.0000000000
10
299.2868307654
20
209.6433481311
30
0.0000000000
10
299.2677467554
20
209.7001822594
30
0.0000000000
10
299.2460486456
20
209.7560692919
30
0.0000000000
10
299.2345326398
20
209.7838510110
30
0.0000000000
11
299.2956607566
21
209.6148299447
31
0.0000000000
11
299.2671680930
21
209.6997385391
31
0.0000000000
11
299.2345326398
21
209.7838510110
31
0.0000000000
0
SPLINE
5
3E6
100
AcDbEntity
8
0
100
AcDbSpline
62
7
6
CONTINUOUS
70
0
71
3
72
9
73
5
74
3
42
0.0000001000
43
0.0000001000
44
0.0000000001
40
0.0000000000
40
0.0000000000
40
0.0000000000
40
0.0000000000
40
0.5013873725
40
1.0000000000
40
1.0000000000
40
1.0000000000
40
1.0000000000
10
299.2345326398
20
209.7838510110
30
0.0000000000
10
299.2286615231
20
209.8121784103
30
0.0000000000
10
299.2165856209
20
209.8686011801
30
0.0000000000
10
299.2037774365
20
209.9248622414
30
0.0000000000
10
299.1972085534
20
209.9528715936
30
0.0000000000
11
299.2345326398
21
209.7838510110
31
0.0000000000
11
299.2163680255
21
209.8687170872
31
0.0000000000
11
299.1972085534
21
209.9528715936
31
0.0000000000
0
SPLINE
5
3E7
100
AcDbEntity
8
0
100
AcDbSpline
62
7
6
CONTINUOUS
70
0
71
3
72
9
73
5
74
3
42
0.0000001000
43
0.0000001000
44
0.0000000001
40
0.0000000000
40
0.0000000000
40
0.0000000000
40
0.0000000000
40
0.5007585067
40
1.0000000000
40
1.0000000000
40
1.0000000000
40
1.0000000000
10
299.1972085534
20
209.9528715936
30
0.0000000000
10
299.1938993798
20
209.9881469848
30
0.0000000000
10
299.1871942619
20
210.0585818566
30
0.0000000000
10
299.1802945196
20
210.1289979307
30
0.0000000000
10
299.1768010313
20
210.1641476846
30
0.0000000000
11
299.1972085534
21
209.9528715936
31
0.0000000000
11
299.1871352863
21
210.0586839936
31
0.0000000000
11
299.1768010313
21
210.1641476846
31
0.0000000000
0
SPLINE
5
3E8
100
AcDbEntity
8
0
100
AcDbSpline
62
7
6
CONTINUOUS
70
0
71
3
72
10
73
6
74
4
42
0.0000001000
43
0.0000001000
44
0.0000000001
40
0.0000000000
40
0.0000000000
40
0.0000000000
40
0.0000000000
40
0.1878315901
40
0.6262561843
40
1.0000000000
40
1.0000000000
40
1.0000000000
40
1.0000000000
10
299.3813960177
20
205.0379377513
30
0.0000000000
10
299.3819133130
20
205.0254093895
30
0.0000000000
10
299.3800878415
20
204.9835189124
30
0.0000000000
10
299.3573957394
20
204.9196441876
30
0.0000000000
10
299.3264322979
20
204.8751826432
30
0.0000000000
10
299.3105567133
20
204.8560532777
30
0.0000000000
11
299.3813960177
21
205.0379377513
31
0.0000000000
11
299.3797041273
21
205.0004510452
31
0.0000000000
11
299.3522756280
21
204.9176736344
31
0.0000000000
11
299.3105567133
21
204.8560532777
31
0.0000000000
0
SPLINE
5
3E9
100
AcDbEntity
8
0
100
AcDbSpline
62
7
6
CONTINUOUS
70
0
71
3
72
9
73
5
74
3
42
0.0000001000
43
0.0000001000
44
0.0000000001
40
0.0000000000
40
0.0000000000
40
0.0000000000
40
0.0000000000
40
0.1798712324
40
1.0000000000
40
1.0000000000
40
1.0000000000
40
1.0000000000
10
299.3105567133
20
204.8560532777
30
0.0000000000
10
299.3048561641
20
204.8491843722
30
0.0000000000
10
299.2719976296
20
204.8119505284
30
0.0000000000
10
299.2341260412
20
204.7796782522
30
0.0000000000
10
299.2015607449
20
204.7554837203
30
0.0000000000
11
299.3105567133
21
204.8560532777
31
0.0000000000
11
299.2928733633
21
204.8359503023
31
0.0000000000
11
299.2015607449
21
204.7554837203
31
0.0000000000
0
SPLINE
5
3EA
100
AcDbEntity
8
0
100
AcDbSpline
62
7
6
CONTINUOUS
70
0
71
3
72
9
73
5
74
3
42
0.0000001000
43
0.0000001000
44
0.0000000001
40
0.0000000000
40
0.0000000000
40
0.0000000000
40
0.0000000000
40
0.7083862402
40
1.0000000000
40
1.0000000000
40
1.0000000000
40
1.0000000000
10
299.3769523599
20
207.0663441061
30
0.0000000000
10
299.3762074322
20
207.0189470400
30
0.0000000000
10
299.3501749974
20
206.9510774901
30
0.0000000000
10
299.3083105346
20
206.8974356536
30
0.0000000000
10
299.2950946824
20
206.8827728854
30
0.0000000000
11
299.3769523599
21
207.0663441061
31
0.0000000000
11
299.3313807082
21
206.9299309535
31
0.0000000000
11
299.2950946824
21
206.8827728854
31
0.0000000000
0
SPLINE
5
3EB
100
AcDbEntity
8
0
100
AcDbSpline
62
7
6
CONTINUOUS
70
0
71
3
72
8
73
4
74
2
42
0.0000001000
43
0.0000001000
44
0.0000000001
40
0.0000000000
40
0.0000000000
40
0.0000000000
40
0.0000000000
40
1.0000000000
40
1.0000000000
40
1.0000000000
40
1.0000000000
10
299.2950946824
20
206.8827728854
30
0.0000000000
10
299.2605346942
20
206.8444291534
30
0.0000000000
10
299.2190843053
20
206.8127866064
30
0.0000000000
10
299.1768010313
20
206.7837326465
30
0.0000000000
11
299.2950946824
21
206.8827728854
31
0.0000000000
11
299.1768010313
21
206.7837326465
31
0.0000000000
0
SPLINE
5
3EC
100
AcDbEntity
8
0
100
AcDbSpline
62
7
6
CONTINUOUS
70
0
71
3
72
9
73
5
74
3
42
0.0000001000
43
0.0000001000
44
0.0000000001
40
0.0000000000
40
0.0000000000
40
0.0000000000
40
0.0000000000
40
0.5007585071
40
1.0000000000
40
1.0000000000
40
1.0000000000
40
1.0000000000
10
299.1972085534
20
210.7557199657
30
0.0000000000
10
299.1938993798
20
210.7204446552
30
0.0000000000
10
299.1871942619
20
210.6500099446
30
0.0000000000
10
299.1802945196
20
210.5795940317
30
0.0000000000
10
299.1768010313
20
210.5444443583
30
0.0000000000
11
299.1972085534
21
210.7557199657
31
0.0000000000
11
299.1871352863
21
210.6499078078
31
0.0000000000
11
299.1768010313
21
210.5444443583
31
0.0000000000
0
SPLINE
5
3ED
100
AcDbEntity
8
0
100
AcDbSpline
62
7
6
CONTINUOUS
70
0
71
3
72
9
73
5
74
3
42
0.0000001000
43
0.0000001000
44
0.0000000001
40
0.0000000000
40
0.0000000000
40
0.0000000000
40
0.0000000000
40
0.5013873810
40
1.0000000000
40
1.0000000000
40
1.0000000000
40
1.0000000000
10
299.2345326398
20
210.9247410319
30
0.0000000000
10
299.2286615231
20
210.8964135515
30
0.0000000000
10
299.2165856210
20
210.8399906207
30
0.0000000000
10
299.2037774365
20
210.7837293980
30
0.0000000000
10
299.1972085534
20
210.7557199657
30
0.0000000000
11
299.2345326398
21
210.9247410319
31
0.0000000000
11
299.2163680253
21
210.8398747122
31
0.0000000000
11
299.1972085534
21
210.7557199657
31
0.0000000000
0
SPLINE
5
3EE
100
AcDbEntity
8
0
100
AcDbSpline
62
7
6
CONTINUOUS
70
0
71
3
72
9
73
5
74
3
42
0.0000001000
43
0.0000001000
44
0.0000000001
40
0.0000000000
40
0.0000000000
40
0.0000000000
40
0.0000000000
40
0.4981640908
40
1.0000000000
40
1.0000000000
40
1.0000000000
40
1.0000000000
10
299.2956607566
20
211.0937616146
30
0.0000000000
10
299.2868307651
20
211.0652435089
30
0.0000000000
10
299.2677467542
20
211.0084095407
30
0.0000000000
10
299.2460486452
20
210.9525226704
30
0.0000000000
10
299.2345326398
20
210.9247410319
30
0.0000000000
11
299.2956607566
21
211.0937616146
31
0.0000000000
11
299.2671680931
21
211.0088532636
31
0.0000000000
11
299.2345326398
21
210.9247410319
31
0.0000000000
0
SPLINE
5
3EF
100
AcDbEntity
8
0
100
AcDbSpline
62
7
6
CONTINUOUS
70
0
71
3
72
8
73
4
74
2
42
0.0000001000
43
0.0000001000
44
0.0000000001
40
0.0000000000
40
0.0000000000
40
0.0000000000
40
0.0000000000
40
1.0000000000
40
1.0000000000
40
1.0000000000
40
1.0000000000
10
299.3477348450
20
211.1360166394
30
0.0000000000
10
299.3443500135
20
211.1323404742
30
0.0000000000
10
299.3408077472
20
211.1288085495
30
0.0000000000
10
299.3371436874
20
211.1254034039
30
0.0000000000
11
299.3477348450
21
211.1360166394
31
0.0000000000
11
299.3371436874
21
211.1254034039
31
0.0000000000
0
SPLINE
5
3F0
100
AcDbEntity
8
0
100
AcDbSpline
62
7
6
CONTINUOUS
70
0
71
3
72
9
73
5
74
3
42
0.0000001000
43
0.0000001000
44
0.0000000001
40
0.0000000000
40
0.0000000000
40
0.0000000000
40
0.0000000000
40
0.3091527768
40
1.0000000000
40
1.0000000000
40
1.0000000000
40
1.0000000000
10
299.3371436874
20
211.1254034039
30
0.0000000000
10
299.3331994165
20
211.1217378477
30
0.0000000000
10
299.3199845744
20
211.1103562759
30
0.0000000000
10
299.3057582343
20
211.1002839302
30
0.0000000000
10
299.2956607566
20
211.0937616146
30
0.0000000000
11
299.3371436874
21
211.1254034039
31
0.0000000000
11
299.3249319319
21
211.1148256885
31
0.0000000000
11
299.2956607566
21
211.0937616146
31
0.0000000000
0
SPLINE
5
3F1
100
AcDbEntity
8
0
100
AcDbSpline
62
7
6
CONTINUOUS
70
0
71
3
72
8
73
4
74
2
42
0.0000001000
43
0.0000001000
44
0.0000000001
40
0.0000000000
40
0.0000000000
40
0.0000000000
40
0.0000000000
40
1.0000000000
40
1.0000000000
40
1.0000000000
40
1.0000000000
10
299.3477310656
20
215.0234939091
30
0.0000000000
10
299.3460421147
20
215.0216589809
30
0.0000000000
10
299.3443132622
20
215.0198603717
30
0.0000000000
10
299.3425498644
20
215.0180958160
30
0.0000000000
11
299.3477310656
21
215.0234939091
31
0.0000000000
11
299.3425498644
21
215.0180958160
31
0.0000000000
0
SPLINE
5
3F2
100
AcDbEntity
8
0
100
AcDbSpline
62
7
6
CONTINUOUS
70
0
71
3
72
9
73
5
74
3
42
0.0000001000
43
0.0000001000
44
0.0000000001
40
0.0000000000
40
0.0000000000
40
0.0000000000
40
0.0000000000
40
0.3207547031
40
1.0000000000
40
1.0000000000
40
1.0000000000
40
1.0000000000
10
299.3425498644
20
215.0180958160
30
0.0000000000
10
299.3407187271
20
215.0162634764
30
0.0000000000
10
299.3348937535
20
215.0106653677
30
0.0000000000
10
299.3287650112
20
215.0053995092
30
0.0000000000
10
299.3244995913
20
215.0019526045
30
0.0000000000
11
299.3425498644
21
215.0180958160
31
0.0000000000
11
299.3369506989
21
215.0127064201
31
0.0000000000
11
299.3244995913
21
215.0019526045
31
0.0000000000
0
SPLINE
5
3F3
100
AcDbEntity
8
0
100
AcDbSpline
62
7
6
CONTINUOUS
70
0
71
3
72
9
73
5
74
3
42
0.0000001000
43
0.0000001000
44
0.0000000001
40
0.0000000000
40
0.0000000000
40
0.0000000000
40
0.0000000000
40
0.7083860782
40
1.0000000000
40
1.0000000000
40
1.0000000000
40
1.0000000000
10
299.3769523601
20
207.6842663589
30
0.0000000000
10
299.3762074330
20
207.7316634438
30
0.0000000000
10
299.3501749946
20
207.7995330349
30
0.0000000000
10
299.3083105126
20
207.8531749073
30
0.0000000000
10
299.2950946461
20
207.8678376933
30
0.0000000000
11
299.3769523601
21
207.6842663589
31
0.0000000000
11
299.3313807081
21
207.8206795673
31
0.0000000000
11
299.2950946461
21
207.8678376933
31
0.0000000000
0
SPLINE
5
3F4
100
AcDbEntity
8
0
100
AcDbSpline
62
7
6
CONTINUOUS
70
0
71
3
72
8
73
4
74
2
42
0.0000001000
43
0.0000001000
44
0.0000000001
40
0.0000000000
40
0.0000000000
40
0.0000000000
40
0.0000000000
40
1.0000000000
40
1.0000000000
40
1.0000000000
40
1.0000000000
10
299.2950946461
20
207.8678376933
30
0.0000000000
10
299.2605346668
20
207.9061814206
30
0.0000000000
10
299.2190842922
20
207.9378239712
30
0.0000000000
10
299.1768010313
20
207.9668779340
30
0.0000000000
11
299.2950946461
21
207.8678376933
31
0.0000000000
11
299.1768010313
21
207.9668779340
31
0.0000000000
0
SPLINE
5
3F5
100
AcDbEntity
8
0
100
AcDbSpline
62
7
6
CONTINUOUS
70
0
71
3
72
9
73
5
74
3
42
0.0000001000
43
0.0000001000
44
0.0000000001
40
0.0000000000
40
0.0000000000
40
0.0000000000
40
0.0000000000
40
0.4984173165
40
1.0000000000
40
1.0000000000
40
1.0000000000
40
1.0000000000
10
299.0848926792
20
217.0517428352
30
0.0000000000
10
299.0890009695
20
217.0096514662
30
0.0000000000
10
299.0969104722
20
216.9251685929
30
0.0000000000
10
299.1041791082
20
216.8406282597
30
0.0000000000
10
299.1076702937
20
216.7982117195
30
0.0000000000
11
299.0848926792
21
217.0517428352
31
0.0000000000
11
299.0967262317
21
216.9254217380
31
0.0000000000
11
299.1076702937
21
216.7982117195
31
0.0000000000
0
SPLINE
5
3F6
100
AcDbEntity
8
0
100
AcDbSpline
62
7
6
CONTINUOUS
70
0
71
3
72
14
73
10
74
8
42
0.0000001000
43
0.0000001000
44
0.0000000001
40
0.0000000000
40
0.0000000000
40
0.0000000000
40
0.0000000000
40
0.1193035751
40
0.2616809155
40
0.4194864646
40
0.5805150050
40
0.7383415457
40
0.8806290478
40
1.0000000000
40
1.0000000000
40
1.0000000000
40
1.0000000000
10
121.1438218214
20
101.9954251076
30
0.0000000000
10
121.1438218214
20
102.0843617769
30
0.0000000000
10
121.1397356310
20
102.2794163015
30
0.0000000000
10
121.1314746177
20
102.5920095254
30
0.0000000000
10
121.1256900880
20
102.9357926951
30
0.0000000000
10
121.1256900682
20
103.2911444280
30
0.0000000000
10
121.1314743485
20
103.6348762736
30
0.0000000000
10
121.1397341873
20
103.9474684267
30
0.0000000000
10
121.1438218214
20
104.1425061886
30
0.0000000000
10
121.1438218214
20
104.2314930851
30
0.0000000000
11
121.1438218214
21
101.9954251076
31
0.0000000000
11
121.1398741214
21
102.2622059088
31
0.0000000000
11
121.1322613622
21
102.5805269693
31
0.0000000000
11
121.1267101054
21
102.9333989654
31
0.0000000000
11
121.1267101332
21
103.2935225078
31
0.0000000000
11
121.1322624605
21
103.6464414386
31
0.0000000000
11
121.1398706325
21
103.9645616372
31
0.0000000000
11
121.1438218214
21
104.2314930851
31
0.0000000000
0
SPLINE
5
3F7
100
AcDbEntity
8
0
100
AcDbSpline
62
7
6
CONTINUOUS
70
0
71
3
72
14
73
10
74
8
42
0.0000001000
43
0.0000001000
44
0.0000000001
40
0.0000000000
40
0.0000000000
40
0.0000000000
40
0.0000000000
40
0.1193709522
40
0.2616584543
40
0.4194849950
40
0.5805135354
40
0.7383190845
40
0.8806964249
40
1.0000000000
40
1.0000000000
40
1.0000000000
40
1.0000000000
10
106.1438218214
20
104.2314930851
30
0.0000000000
10
106.1438218214
20
104.1425061886
30
0.0000000000
10
106.1479094555
20
103.9474684267
30
0.0000000000
10
106.1561692943
20
103.6348762736
30
0.0000000000
10
106.1619535747
20
103.2911444280
30
0.0000000000
10
106.1619535548
20
102.9357926951
30
0.0000000000
10
106.1561690251
20
102.5920095254
30
0.0000000000
10
106.1479080118
20
102.2794163015
30
0.0000000000
10
106.1438218214
20
102.0843617769
30
0.0000000000
10
106.1438218214
20
101.9954251076
30
0.0000000000
11
106.1438218214
21
104.2314930851
31
0.0000000000
11
106.1477730103
21
103.9645616372
31
0.0000000000
11
106.1553811823
21
103.6464414386
31
0.0000000000
11
106.1609335096
21
103.2935225078
31
0.0000000000
11
106.1609335374
21
102.9333989654
31
0.0000000000
11
106.1553822806
21
102.5805269693
31
0.0000000000
11
106.1477695214
21
102.2622059088
31
0.0000000000
11
106.1438218214
21
101.9954251076
31
0.0000000000
0
SPLINE
5
3F8
100
AcDbEntity
8
0
100
AcDbSpline
62
7
6
CONTINUOUS
70
0
71
3
72
8
73
4
74
2
42
0.0000001000
43
0.0000001000
44
0.0000000001
40
0.0000000000
40
0.0000000000
40
0.0000000000
40
0.0000000000
40
1.0000000000
40
1.0000000000
40
1.0000000000
40
1.0000000000
10
102.1630845900
20
116.5703906636
30
0.0000000000
10
102.4218304620
20
116.5990600937
30
0.0000000000
10
102.6787659080
20
116.6493592882
30
0.0000000000
10
102.9297117703
20
116.7205355424
30
0.0000000000
11
102.1630845900
21
116.5703906636
31
0.0000000000
11
102.9297117703
21
116.7205355424
31
0.0000000000
0
SPLINE
5
3F9
100
AcDbEntity
8
0
100
AcDbSpline
62
7
6
CONTINUOUS
70
0
71
3
72
14
73
10
74
8
42
0.0000001000
43
0.0000001000
44
0.0000000001
40
0.0000000000
40
0.0000000000
40
0.0000000000
40
0.0000000000
40
0.0186903033
40
0.1813345563
40
0.3466720056
40
0.5135337663
40
0.6786681746
40
0.8414945420
40
1.0000000000
40
1.0000000000
40
1.0000000000
40
1.0000000000
10
102.9297117703
20
116.7205355424
30
0.0000000000
10
102.9626348293
20
116.7298735725
30
0.0000000000
10
103.2810562880
20
116.8239581299
30
0.0000000000
10
103.8695576097
20
117.0681873825
30
0.0000000000
10
104.6274846862
20
117.5721853084
30
0.0000000000
10
105.2729455921
20
118.2210883081
30
0.0000000000
10
105.7661833964
20
118.9874601483
30
0.0000000000
10
106.0736805530
20
119.8293843615
30
0.0000000000
10
106.1438218214
20
120.4187355532
30
0.0000000000
10
106.1438218214
20
120.7083839452
30
0.0000000000
11
102.9297117703
21
116.7205355424
31
0.0000000000
11
103.0281622256
21
116.7496259631
31
0.0000000000
11
103.8516032451
21
117.0916157531
31
0.0000000000
11
104.6059101152
21
117.5941893124
31
0.0000000000
11
105.2499402514
21
118.2438065893
31
0.0000000000
11
105.7381604042
21
119.0061605380
31
0.0000000000
11
106.0422683139
21
119.8453934447
31
0.0000000000
11
106.1438218214
21
120.7083839452
31
0.0000000000
0
SPLINE
5
3FA
100
AcDbEntity
8
0
100
AcDbSpline
62
7
6
CONTINUOUS
70
0
71
3
72
8
73
4
74
2
42
0.0000001000
43
0.0000001000
44
0.0000000001
40
0.0000000000
40
0.0000000000
40
0.0000000000
40
0.0000000000
40
1.0000000000
40
1.0000000000
40
1.0000000000
40
1.0000000000
10
102.1630847546
20
108.6565275109
30
0.0000000000
10
102.4218261450
20
108.6278588083
30
0.0000000000
10
102.6787575216
20
108.5775613149
30
0.0000000000
10
102.9296999742
20
108.5063870008
30
0.0000000000
11
102.1630847546
21
108.6565275109
31
0.0000000000
11
102.9296999742
21
108.5063870008
31
0.0000000000
0
SPLINE
5
3FB
100
AcDbEntity
8
0
100
AcDbSpline
62
7
6
CONTINUOUS
70
0
71
3
72
14
73
10
74
8
42
0.0000001000
43
0.0000001000
44
0.0000000001
40
0.0000000000
40
0.0000000000
40
0.0000000000
40
0.0000000000
40
0.0191170411
40
0.1847981195
40
0.3533599809
40
0.5233233622
40
0.6911923517
40
0.8563507732
40
1.0000000000
40
1.0000000000
40
1.0000000000
40
1.0000000000
10
102.9296999742
20
108.5063870008
30
0.0000000000
10
102.9627933581
20
108.4970007894
30
0.0000000000
10
103.2816893282
20
108.4027576421
30
0.0000000000
10
103.8711402894
20
108.1579854575
30
0.0000000000
10
104.6298351127
20
107.6529190664
30
0.0000000000
10
105.2751847749
20
107.0030626655
30
0.0000000000
10
105.7672244876
20
106.2370625468
30
0.0000000000
10
106.0629325007
20
105.4262369146
30
0.0000000000
10
106.1359004644
20
104.8713216498
30
0.0000000000
10
106.1425922936
20
104.6132439347
30
0.0000000000
11
102.9296999742
21
108.5063870008
31
0.0000000000
11
103.0286580747
21
108.4771408610
31
0.0000000000
11
103.8529152245
21
108.1346033303
31
0.0000000000
11
104.6083942118
21
107.6306880981
31
0.0000000000
11
105.2525284998
21
106.9798879750
31
0.0000000000
11
105.7395935338
21
106.2178637126
31
0.0000000000
11
106.0423510174
21
105.3811732623
31
0.0000000000
11
106.1425922936
21
104.6132439347
31
0.0000000000
0
SPLINE
5
3FC
100
AcDbEntity
8
0
100
AcDbSpline
62
7
6
CONTINUOUS
70
0
71
3
72
8
73
4
74
2
42
0.0000001000
43
0.0000001000
44
0.0000000001
40
0.0000000000
40
0.0000000000
40
0.0000000000
40
0.0000000000
40
1.0000000000
40
1.0000000000
40
1.0000000000
40
1.0000000000
10
125.1245590920
20
108.6565275335
30
0.0000000000
10
124.8658134562
20
108.6278573440
30
0.0000000000
10
124.6088790965
20
108.5775600117
30
0.0000000000
10
124.3579340355
20
108.5063845158
30
0.0000000000
11
125.1245590920
21
108.6565275335
31
0.0000000000
11
124.3579340355
21
108.5063845158
31
0.0000000000
0
SPLINE
5
3FD
100
AcDbEntity
8
0
100
AcDbSpline
62
7
6
CONTINUOUS
70
0
71
3
72
14
73
10
74
8
42
0.0000001000
43
0.0000001000
44
0.0000000001
40
0.0000000000
40
0.0000000000
40
0.0000000000
40
0.0000000000
40
0.0188520641
40
0.1846250049
40
0.3536272616
40
0.5233803234
40
0.6899992109
40
0.8558425403
40
1.0000000000
40
1.0000000000
40
1.0000000000
40
1.0000000000
10
124.3579340355
20
108.5063845158
30
0.0000000000
10
124.3252996527
20
108.4971284326
30
0.0000000000
10
124.0066914476
20
108.4030223596
30
0.0000000000
10
123.4167308072
20
108.1582118873
30
0.0000000000
10
122.6575522042
20
107.6527655055
30
0.0000000000
10
122.0136436560
20
107.0040910136
30
0.0000000000
10
121.5218920363
20
106.2397335635
30
0.0000000000
10
121.2252274998
20
105.4292957100
30
0.0000000000
10
121.1517670263
20
104.8722334770
30
0.0000000000
10
121.1450513611
20
104.6132430886
30
0.0000000000
11
124.3579340355
21
108.5063845158
31
0.0000000000
11
124.2603439479
21
108.4775586424
31
0.0000000000
11
123.4355462998
21
108.1350386452
31
0.0000000000
11
122.6781253498
21
107.6297636795
31
0.0000000000
11
122.0349185532
21
106.9796434148
31
0.0000000000
11
121.5509209824
21
106.2236548430
31
0.0000000000
11
121.2459289161
21
105.3838522251
31
0.0000000000
11
121.1450513611
21
104.6132430886
31
0.0000000000
0
SPLINE
5
3FE
100
AcDbEntity
8
0
100
AcDbSpline
62
7
6
CONTINUOUS
70
0
71
3
72
14
73
10
74
8
42
0.0000001000
43
0.0000001000
44
0.0000000001
40
0.0000000000
40
0.0000000000
40
0.0000000000
40
0.0000000000
40
0.1589395630
40
0.3219192000
40
0.4856607060
40
0.6524818958
40
0.8185647733
40
0.9814740896
40
1.0000000000
40
1.0000000000
40
1.0000000000
40
1.0000000000
10
121.1438218214
20
120.7083842496
30
0.0000000000
10
121.1438218214
20
120.4179424923
30
0.0000000000
10
121.2142880842
20
119.8275028250
30
0.0000000000
10
121.5218944108
20
118.9871784976
30
0.0000000000
10
122.0136501969
20
118.2228219511
30
0.0000000000
10
122.6575571076
20
117.5741464269
30
0.0000000000
10
123.4167359505
20
117.0687033227
30
0.0000000000
10
124.0066945005
20
116.8238957449
30
0.0000000000
10
124.3253008418
20
116.7297903216
30
0.0000000000
10
124.3579342446
20
116.7205345086
30
0.0000000000
11
121.1438218214
21
120.7083842496
31
0.0000000000
11
121.2459292081
21
119.8430624534
31
0.0000000000
11
121.5509239418
21
119.0032571291
31
0.0000000000
11
122.0349247505
21
118.2472684442
31
0.0000000000
11
122.6781314355
21
117.5971482505
31
0.0000000000
11
123.4355512735
21
117.0918765385
31
0.0000000000
11
124.2603470728
21
116.7493594894
31
0.0000000000
11
124.3579342446
21
116.7205345086
31
0.0000000000
0
SPLINE
5
3FF
100
AcDbEntity
8
0
100
AcDbSpline
62
7
6
CONTINUOUS
70
0
71
3
72
8
73
4
74
2
42
0.0000001000
43
0.0000001000
44
0.0000000001
40
0.0000000000
40
0.0000000000
40
0.0000000000
40
0.0000000000
40
1.0000000000
40
1.0000000000
40
1.0000000000
40
1.0000000000
10
124.3579342446
20
116.7205345086
30
0.0000000000
10
124.6088792480
20
116.6493589698
30
0.0000000000
10
124.8658134520
20
116.5990612390
30
0.0000000000
10
125.1245590067
20
116.5703906687
30
0.0000000000
11
124.3579342446
21
116.7205345086
31
0.0000000000
11
125.1245590067
21
116.5703906687
31
0.0000000000
0
SPLINE
5
400
100
AcDbEntity
8
0
100
AcDbSpline
62
7
6
CONTINUOUS
70
0
71
3
72
13
73
9
74
7
42
0.0000001000
43
0.0000001000
44
0.0000000001
40
0.0000000000
40
0.0000000000
40
0.0000000000
40
0.0000000000
40
0.2043055262
40
0.3931074243
40
0.5669822764
40
0.7243095217
40
0.8688968874
40
1.0000000000
40
1.0000000000
40
1.0000000000
40
1.0000000000
10
103.4373418867
20
110.8409385237
30
0.0000000000
10
103.2792766832
20
110.9098101328
30
0.0000000000
10
102.9809012851
20
111.0564682048
30
0.0000000000
10
102.5783539614
20
111.3176322648
30
0.0000000000
10
102.2484796609
20
111.6102167630
30
0.0000000000
10
102.0022296948
20
111.9312410347
30
0.0000000000
10
101.8526329106
20
112.2690334146
30
0.0000000000
10
101.8192665011
20
112.5028183603
30
0.0000000000
10
101.8192665011
20
112.6134590964
30
0.0000000000
11
103.4373418867
21
110.8409385237
31
0.0000000000
11
102.9743403996
21
111.0715481218
31
0.0000000000
11
102.5751877877
21
111.3345368149
31
0.0000000000
11
102.2486447287
21
111.6297564510
31
0.0000000000
11
102.0097441420
21
111.9484754124
31
0.0000000000
11
101.8649941296
21
112.2847018359
31
0.0000000000
11
101.8192665011
21
112.6134590964
31
0.0000000000
0
SPLINE
5
401
100
AcDbEntity
8
0
100
AcDbSpline
62
7
6
CONTINUOUS
70
0
71
3
72
8
73
4
74
2
42
0.0000001000
43
0.0000001000
44
0.0000000001
40
0.0000000000
40
0.0000000000
40
0.0000000000
40
0.0000000000
40
1.0000000000
40
1.0000000000
40
1.0000000000
40
1.0000000000
10
126.4895664908
20
108.6304610258
30
0.0000000000
10
126.4736150417
20
108.6291128373
30
0.0000000000
10
126.4576560898
20
108.6278509120
30
0.0000000000
10
126.4416908096
20
108.6266731852
30
0.0000000000
11
126.4895664908
21
108.6304610258
31
0.0000000000
11
126.4416908096
21
108.6266731852
31
0.0000000000
0
SPLINE
5
402
100
AcDbEntity
8
0
100
AcDbSpline
62
7
6
CONTINUOUS
70
0
71
3
72
9
73
5
74
3
42
0.0000001000
43
0.0000001000
44
0.0000000001
40
0.0000000000
40
0.0000000000
40
0.0000000000
40
0.0000000000
40
0.3335554089
40
1.0000000000
40
1.0000000000
40
1.0000000000
40
1.0000000000
10
126.4416908096
20
108.6266731852
30
0.0000000000
10
126.4257386903
20
108.6254964293
30
0.0000000000
10
126.3778952532
20
108.6222205235
30
0.0000000000
10
126.3300055609
20
108.6196816387
30
0.0000000000
10
126.2980771520
20
108.6182997110
30
0.0000000000
11
126.4416908096
21
108.6266731852
31
0.0000000000
11
126.3938166695
21
108.6233930375
31
0.0000000000
11
126.2980771520
21
108.6182997110
31
0.0000000000
0
SPLINE
5
403
100
AcDbEntity
8
0
100
AcDbSpline
62
7
6
CONTINUOUS
70
0
71
3
72
8
73
4
74
2
42
0.0000001000
43
0.0000001000
44
0.0000000001
40
0.0000000000
40
0.0000000000
40
0.0000000000
40
0.0000000000
40
1.0000000000
40
1.0000000000
40
1.0000000000
40
1.0000000000
10
126.2980771520
20
108.6182997110
30
0.0000000000
10
126.2770786897
20
108.6173387772
30
0.0000000000
10
126.2560731093
20
108.6165231070
30
0.0000000000
10
126.2350626854
20
108.6158507603
30
0.0000000000
11
126.2980771520
21
108.6182997110
31
0.0000000000
11
126.2350626854
21
108.6158507603
31
0.0000000000
0
SPLINE
5
404
100
AcDbEntity
8
0
100
AcDbSpline
62
7
6
CONTINUOUS
70
0
71
3
72
9
73
5
74
3
42
0.0000001000
43
0.0000001000
44
0.0000000001
40
0.0000000000
40
0.0000000000
40
0.0000000000
40
0.0000000000
40
0.4229260600
40
1.0000000000
40
1.0000000000
40
1.0000000000
40
1.0000000000
10
126.2350626854
20
108.6158507603
30
0.0000000000
10
126.2138808910
20
108.6151729297
30
0.0000000000
10
126.1637853323
20
108.6139146496
30
0.0000000000
10
126.1136752799
20
108.6134596686
30
0.0000000000
10
126.0847586517
20
108.6134591139
30
0.0000000000
11
126.2350626854
21
108.6158507603
31
0.0000000000
11
126.1715048641
21
108.6142522941
31
0.0000000000
11
126.0847586517
21
108.6134591139
31
0.0000000000
0
SPLINE
5
405
100
AcDbEntity
8
0
100
AcDbSpline
62
7
6
CONTINUOUS
70
0
71
3
72
8
73
4
74
2
42
0.0000001000
43
0.0000001000
44
0.0000000001
40
0.0000000000
40
0.0000000000
40
0.0000000000
40
0.0000000000
40
1.0000000000
40
1.0000000000
40
1.0000000000
40
1.0000000000
10
106.0966365962
20
109.1134590964
30
0.0000000000
10
106.0792514023
20
109.1134590964
30
0.0000000000
10
106.0626936764
20
109.1178503801
30
0.0000000000
10
106.0467403876
20
109.1248574741
30
0.0000000000
11
106.0966365962
21
109.1134590964
31
0.0000000000
11
106.0467403876
21
109.1248574741
31
0.0000000000
0
SPLINE
5
406
100
AcDbEntity
8
0
100
AcDbSpline
62
7
6
CONTINUOUS
70
0
71
3
72
14
73
10
74
8
42
0.0000001000
43
0.0000001000
44
0.0000000001
40
0.0000000000
40
0.0000000000
40
0.0000000000
40
0.0000000000
40
0.0255482603
40
0.1100208057
40
0.2343540864
40
0.3915867172
40
0.5709999766
40
0.7735173031
40
1.0000000000
40
1.0000000000
40
1.0000000000
40
1.0000000000
10
106.0467403876
20
109.1248574741
30
0.0000000000
10
106.0222779416
20
109.1356020082
30
0.0000000000
10
105.9230532531
20
109.2083583379
30
0.0000000000
10
105.7360719420
20
109.3534287445
30
0.0000000000
10
105.4398282660
20
109.6009017508
30
0.0000000000
10
105.0600019948
20
109.8937676658
30
0.0000000000
10
104.5981266741
20
110.2163855097
30
0.0000000000
10
104.0550405218
20
110.5457408296
30
0.0000000000
10
103.6539910449
20
110.7465409407
30
0.0000000000
10
103.4373418867
20
110.8409385237
30
0.0000000000
11
106.0467403876
21
109.1248574741
31
0.0000000000
11
105.9768124952
21
109.1691411429
31
0.0000000000
11
105.7674833281
21
109.3307040785
31
0.0000000000
11
105.4656511873
21
109.5764205033
31
0.0000000000
11
105.0758767081
21
109.8769629188
31
0.0000000000
11
104.6148868562
21
110.1977540553
31
0.0000000000
11
104.0723963266
21
110.5257628405
31
0.0000000000
11
103.4373418867
21
110.8409385237
31
0.0000000000
0
SPLINE
5
407
100
AcDbEntity
8
0
100
AcDbSpline
62
7
6
CONTINUOUS
70
0
71
3
72
13
73
9
74
7
42
0.0000001000
43
0.0000001000
44
0.0000000001
40
0.0000000000
40
0.0000000000
40
0.0000000000
40
0.0000000000
40
0.2591491790
40
0.4848051414
40
0.6816920442
40
0.8396591830
40
0.9477476648
40
1.0000000000
40
1.0000000000
40
1.0000000000
40
1.0000000000
10
103.4373539028
20
114.3859858410
30
0.0000000000
10
103.6893335833
20
114.4957767355
30
0.0000000000
10
104.1482530390
20
114.7301353478
30
0.0000000000
10
104.7603474805
20
115.1174434050
30
0.0000000000
10
105.2567207495
20
115.4786635584
30
0.0000000000
10
105.6399813062
20
115.7954065018
30
0.0000000000
10
105.8964687778
20
115.9945290556
30
0.0000000000
10
106.0412161742
20
116.1134590964
30
0.0000000000
10
106.0966362069
20
116.1134590964
30
0.0000000000
11
103.4373539028
21
114.3859858410
31
0.0000000000
11
104.1732114946
21
114.7580662136
31
0.0000000000
11
104.7810166439
21
115.1403070421
31
0.0000000000
11
105.2870299651
21
115.5096485500
31
0.0000000000
11
105.6792024757
21
115.8240343359
31
0.0000000000
11
105.9485258839
21
116.0379226652
31
0.0000000000
11
106.0966362069
21
116.1134590964
31
0.0000000000
0
SPLINE
5
408
100
AcDbEntity
8
0
100
AcDbSpline
62
7
6
CONTINUOUS
70
0
71
3
72
12
73
8
74
6
42
0.0000001000
43
0.0000001000
44
0.0000000001
40
0.0000000000
40
0.0000000000
40
0.0000000000
40
0.0000000000
40
0.0223421593
40
0.2592101498
40
0.4991356257
40
0.7450943126
40
1.0000000000
40
1.0000000000
40
1.0000000000
40
1.0000000000
10
101.4507559335
20
108.6134591706
30
0.0000000000
10
101.4388897009
20
108.6134588769
30
0.0000000000
10
101.3012194380
20
108.6140157237
30
0.0000000000
10
101.0362180226
20
108.6276252805
30
0.0000000000
10
100.6556845879
20
108.6810483472
30
0.0000000000
10
100.2722420622
20
108.7710199068
30
0.0000000000
10
100.0197933303
20
108.8562101159
30
0.0000000000
10
99.8938218214
20
108.9056964101
30
0.0000000000
11
101.4507559335
21
108.6134591706
31
0.0000000000
11
101.4151575857
21
108.6136032405
31
0.0000000000
11
101.0383607832
21
108.6330314208
31
0.0000000000
11
100.6599146959
21
108.6862343003
31
0.0000000000
11
100.2785142150
21
108.7758072587
31
0.0000000000
11
99.8938218214
21
108.9056964101
31
0.0000000000
0
SPLINE
5
409
100
AcDbEntity
8
0
100
AcDbSpline
62
7
6
CONTINUOUS
70
0
71
3
72
14
73
10
74
8
42
0.0000001000
43
0.0000001000
44
0.0000000001
40
0.0000000000
40
0.0000000000
40
0.0000000000
40
0.0000000000
40
0.2228779658
40
0.4224325585
40
0.5990758623
40
0.7535140945
40
0.8755282412
40
0.9585389839
40
1.0000000000
40
1.0000000000
40
1.0000000000
40
1.0000000000
10
123.8503034060
20
110.8409395983
30
0.0000000000
10
123.6335500387
20
110.7464965083
30
0.0000000000
10
123.2320646274
20
110.5454651742
30
0.0000000000
10
122.6884368276
20
110.2157018387
30
0.0000000000
10
122.2263485133
20
109.8928140418
30
0.0000000000
10
121.8468406582
20
109.6001019471
30
0.0000000000
10
121.5510750592
20
109.3530310177
30
0.0000000000
10
121.3511325245
20
109.1979036032
30
0.0000000000
10
121.2349897282
20
109.1134590964
30
0.0000000000
10
121.1910067522
20
109.1134590964
30
0.0000000000
11
123.8503034060
21
110.8409395983
31
0.0000000000
11
123.2149505937
21
110.5255977533
31
0.0000000000
11
122.6715229593
21
110.1969466335
31
0.0000000000
11
122.2101437456
21
109.8757649224
31
0.0000000000
11
121.8209586798
21
109.5755913922
31
0.0000000000
11
121.5198273192
21
109.3304325661
31
0.0000000000
11
121.3106793946
21
109.1690376743
31
0.0000000000
11
121.1910067522
21
109.1134590964
31
0.0000000000
0
SPLINE
5
40A
100
AcDbEntity
8
0
100
AcDbSpline
62
7
6
CONTINUOUS
70
0
71
3
72
13
73
9
74
7
42
0.0000001000
43
0.0000001000
44
0.0000000001
40
0.0000000000
40
0.0000000000
40
0.0000000000
40
0.0000000000
40
0.1304850037
40
0.2733824122
40
0.4280161501
40
0.6001692145
40
0.7911963976
40
1.0000000000
40
1.0000000000
40
1.0000000000
40
1.0000000000
10
101.8192665011
20
112.6134590964
30
0.0000000000
10
101.8192665011
20
112.7235804625
30
0.0000000000
10
101.8521923007
20
112.9554058977
30
0.0000000000
10
101.9990904457
20
113.2896438588
30
0.0000000000
10
102.2404849191
20
113.6077746978
30
0.0000000000
10
102.5672763180
20
113.9010576782
30
0.0000000000
10
102.9724344727
20
114.1661122552
30
0.0000000000
10
103.2758051588
20
114.3155969072
30
0.0000000000
10
103.4373539028
20
114.3859858410
30
0.0000000000
11
101.8192665011
21
112.6134590964
31
0.0000000000
11
101.8645714485
21
112.9407019714
31
0.0000000000
11
102.0067806475
21
113.2733708312
31
0.0000000000
11
102.2400527477
21
113.5877904813
31
0.0000000000
11
102.5616679634
21
113.8819631862
31
0.0000000000
11
102.9644434551
21
114.1497040246
31
0.0000000000
11
103.4373539028
21
114.3859858410
31
0.0000000000
0
SPLINE
5
40B
100
AcDbEntity
8
0
100
AcDbSpline
62
7
6
CONTINUOUS
70
0
71
3
72
13
73
9
74
7
42
0.0000001000
43
0.0000001000
44
0.0000000001
40
0.0000000000
40
0.0000000000
40
0.0000000000
40
0.0000000000
40
0.0526485276
40
0.1615200959
40
0.3206317812
40
0.5181397408
40
0.7425105396
40
1.0000000000
40
1.0000000000
40
1.0000000000
40
1.0000000000
10
121.1910074755
20
116.1134590964
30
0.0000000000
10
121.2468476011
20
116.1134590964
30
0.0000000000
10
121.3924986930
20
115.9933281988
30
0.0000000000
10
121.6508464780
20
115.7928294773
30
0.0000000000
10
122.0363142818
20
115.4744113298
30
0.0000000000
10
122.5334026573
20
115.1133147748
30
0.0000000000
10
123.1437159474
20
114.7278268277
30
0.0000000000
10
123.5999241143
20
114.4950738486
30
0.0000000000
10
123.8502893990
20
114.3859861882
30
0.0000000000
11
121.1910074755
21
116.1134590964
31
0.0000000000
11
121.3401518725
21
116.0371765590
31
0.0000000000
11
121.6113539093
21
115.8216484496
31
0.0000000000
11
122.0064709839
21
115.5051151374
31
0.0000000000
11
122.5143735645
21
115.1350127294
31
0.0000000000
11
123.1190213112
21
114.7554358120
31
0.0000000000
11
123.8502893990
21
114.3859861882
31
0.0000000000
0
SPLINE
5
40C
100
AcDbEntity
8
0
100
AcDbSpline
62
7
6
CONTINUOUS
70
0
71
3
72
13
73
9
74
7
42
0.0000001000
43
0.0000001000
44
0.0000000001
40
0.0000000000
40
0.0000000000
40
0.0000000000
40
0.0000000000
40
0.2046477940
40
0.3949414256
40
0.5687802991
40
0.7252574184
40
0.8690627817
40
1.0000000000
40
1.0000000000
40
1.0000000000
40
1.0000000000
10
123.8502893990
20
114.3859861882
30
0.0000000000
10
124.0086211669
20
114.3169988174
30
0.0000000000
10
124.3083794509
20
114.1696315919
30
0.0000000000
10
124.7120568184
20
113.9073479134
30
0.0000000000
10
125.0418153139
20
113.6138272604
30
0.0000000000
10
125.2865719714
20
113.2934598274
30
0.0000000000
10
125.4351679871
20
112.9569432775
30
0.0000000000
10
125.4683771417
20
112.7239609619
30
0.0000000000
10
125.4683771417
20
112.6134590964
30
0.0000000000
11
123.8502893990
21
114.3859861882
31
0.0000000000
11
124.3140494793
21
114.1549441090
31
0.0000000000
11
124.7161457915
21
113.8895500829
31
0.0000000000
11
125.0420921687
21
113.5938006286
31
0.0000000000
11
125.2791181928
21
113.2763621735
31
0.0000000000
11
125.4227627155
21
112.9418114752
31
0.0000000000
11
125.4683771417
21
112.6134590964
31
0.0000000000
0
SPLINE
5
40D
100
AcDbEntity
8
0
100
AcDbSpline
62
7
6
CONTINUOUS
70
0
71
3
72
13
73
9
74
7
42
0.0000001000
43
0.0000001000
44
0.0000000001
40
0.0000000000
40
0.0000000000
40
0.0000000000
40
0.0000000000
40
0.1311273565
40
0.2757675455
40
0.4336017945
40
0.6082490683
40
0.7966819635
40
1.0000000000
40
1.0000000000
40
1.0000000000
40
1.0000000000
10
125.4683771417
20
112.6134590964
30
0.0000000000
10
125.4683771417
20
112.5027982358
30
0.0000000000
10
125.4349951017
20
112.2689482580
30
0.0000000000
10
125.2851637488
20
111.9307138512
30
0.0000000000
10
125.0380536025
20
111.6089003374
30
0.0000000000
10
124.7073008877
20
111.3161283291
30
0.0000000000
10
124.3049739379
20
111.0555618255
30
0.0000000000
10
124.0076041120
20
110.9094781821
30
0.0000000000
10
123.8503034060
20
110.8409395983
30
0.0000000000
11
125.4683771417
21
112.6134590964
31
0.0000000000
11
125.4226330973
21
112.2846431645
31
0.0000000000
11
125.2778010594
21
111.9483076607
31
0.0000000000
11
125.0379928975
21
111.6286663638
31
0.0000000000
11
124.7097215813
21
111.3324446120
31
0.0000000000
11
124.3111283765
21
111.0703078455
31
0.0000000000
11
123.8503034060
21
110.8409395983
31
0.0000000000
0
SPLINE
5
40E
100
AcDbEntity
8
0
100
AcDbSpline
62
7
6
CONTINUOUS
70
0
71
3
72
9
73
5
74
3
42
0.0000001000
43
0.0000001000
44
0.0000000001
40
0.0000000000
40
0.0000000000
40
0.0000000000
40
0.0000000000
40
0.4995663112
40
1.0000000000
40
1.0000000000
40
1.0000000000
40
1.0000000000
10
126.5533962705
20
108.6352161251
30
0.0000000000
10
126.5427771801
20
108.6342981038
30
0.0000000000
10
126.5215087390
20
108.6325952461
30
0.0000000000
10
126.5002223261
20
108.6311362045
30
0.0000000000
10
126.4895664908
20
108.6304610258
30
0.0000000000
11
126.5533962705
21
108.6352161251
31
0.0000000000
11
126.5215227016
21
108.6326575715
31
0.0000000000
11
126.4895664908
21
108.6304610258
31
0.0000000000
0
ENDSEC
0
SECTION
2
OBJECTS
0
DICTIONARY
5
40F
100
AcDbDictionary
3
ACAD_GROUP
350
410
3
ACAD_MLINESTYLE
350
411
0
DICTIONARY
5
410
102
{ACAD_REACTORS
330
40F
102
}
100
AcDbDictionary
0
DICTIONARY
5
411
102
{ACAD_REACTORS
330
40F
102
}
100
AcDbDictionary
3
STANDARD
350
412
0
MLINESTYLE
5
412
102
{ACAD_REACTORS
330
411
102
}
100
AcDbMlineStyle
2
STANDARD
70
0
3

62
256
51
90.0
52
90.0
71
2
49
0.5
62
256
6
BYLAYER
49
-0.5
62
256
6
BYLAYER
0
ENDSEC
0
EOF
