  0
SECTION
  2
HEADER
  9
$ACADVER
  1
AC1012
  9
$DWGCODEPAGE
  3
ansi_1252
  9
$INSBASE
 10
0.0
 20
0.0
 30
0.0
  9
$EXTMIN
 10
-212.4818587421
 20
-444.0
 30
0.0
  9
$EXTMAX
 10
793.2965
 20
287.0
 30
0.0
  9
$LIMMIN
 10
0.0
 20
0.0
  9
$LIMMAX
 10
12.0
 20
9.0
  9
$ORTHOMODE
 70
         0
  9
$REGENMODE
 70
         1
  9
$FILLMODE
 70
         1
  9
$QTEXTMODE
 70
         0
  9
$MIRRTEXT
 70
         1
  9
$DRAGMODE
 70
         2
  9
$LTSCALE
 40
25.4
  9
$OSMODE
 70
         0
  9
$ATTMODE
 70
         1
  9
$TEXTSIZE
 40
0.2
  9
$TRACEWID
 40
0.05
  9
$TEXTSTYLE
  7
STANDARD
  9
$CLAYER
  8
0
  9
$CELTYPE
  6
CONTINUOUS
  9
$CECOLOR
 62
       256
  9
$CELTSCALE
 40
1.0
  9
$DELOBJ
 70
         1
  9
$DISPSILH
 70
         0
  9
$DIMSCALE
 40
1.0
  9
$DIMASZ
 40
0.18
  9
$DIMEXO
 40
0.0625
  9
$DIMDLI
 40
0.38
  9
$DIMRND
 40
0.0
  9
$DIMDLE
 40
0.0
  9
$DIMEXE
 40
0.18
  9
$DIMTP
 40
0.0
  9
$DIMTM
 40
0.0
  9
$DIMTXT
 40
0.18
  9
$DIMCEN
 40
0.09
  9
$DIMTSZ
 40
0.0
  9
$DIMTOL
 70
         0
  9
$DIMLIM
 70
         0
  9
$DIMTIH
 70
         1
  9
$DIMTOH
 70
         1
  9
$DIMSE1
 70
         0
  9
$DIMSE2
 70
         0
  9
$DIMTAD
 70
         0
  9
$DIMZIN
 70
         0
  9
$DIMBLK
  1

  9
$DIMASO
 70
         1
  9
$DIMSHO
 70
         1
  9
$DIMPOST
  1

  9
$DIMAPOST
  1

  9
$DIMALT
 70
         0
  9
$DIMALTD
 70
         2
  9
$DIMALTF
 40
25.4
  9
$DIMLFAC
 40
1.0
  9
$DIMTOFL
 70
         0
  9
$DIMTVP
 40
0.0
  9
$DIMTIX
 70
         0
  9
$DIMSOXD
 70
         0
  9
$DIMSAH
 70
         0
  9
$DIMBLK1
  1

  9
$DIMBLK2
  1

  9
$DIMSTYLE
  2
STANDARD
  9
$DIMCLRD
 70
         0
  9
$DIMCLRE
 70
         0
  9
$DIMCLRT
 70
         0
  9
$DIMTFAC
 40
1.0
  9
$DIMGAP
 40
0.09
  9
$DIMJUST
 70
         0
  9
$DIMSD1
 70
         0
  9
$DIMSD2
 70
         0
  9
$DIMTOLJ
 70
         1
  9
$DIMTZIN
 70
         0
  9
$DIMALTZ
 70
         0
  9
$DIMALTTZ
 70
         0
  9
$DIMFIT
 70
         3
  9
$DIMUPT
 70
         0
  9
$DIMUNIT
 70
         2
  9
$DIMDEC
 70
         4
  9
$DIMTDEC
 70
         4
  9
$DIMALTU
 70
         2
  9
$DIMALTTD
 70
         2
  9
$DIMTXSTY
  7
STANDARD
  9
$DIMAUNIT
 70
         0
  9
$LUNITS
 70
         2
  9
$LUPREC
 70
         4
  9
$SKETCHINC
 40
0.1
  9
$FILLETRAD
 40
0.0
  9
$AUNITS
 70
         0
  9
$AUPREC
 70
         0
  9
$MENU
  1
acad
  9
$ELEVATION
 40
0.0
  9
$PELEVATION
 40
0.0
  9
$THICKNESS
 40
0.0
  9
$LIMCHECK
 70
         0
  9
$BLIPMODE
 70
         1
  9
$CHAMFERA
 40
0.0
  9
$CHAMFERB
 40
0.0
  9
$CHAMFERC
 40
0.0
  9
$CHAMFERD
 40
0.0
  9
$SKPOLY
 70
         0
  9
$TDCREATE
 40
0.000000000
  9
$TDUPDATE
 40
0.000000000
  9
$TDINDWG
 40
0.0000000000
  9
$TDUSRTIMER
 40
0.0000000000
  9
$USRTIMER
 70
         1
  9
$ANGBASE
 50
0.0
  9
$ANGDIR
 70
         0
  9
$PDMODE
 70
         0
  9
$PDSIZE
 40
0.0
  9
$PLINEWID
 40
0.0
  9
$COORDS
 70
         0
  9
$SPLFRAME
 70
         0
  9
$SPLINETYPE
 70
         6
  9
$SPLINESEGS
 70
         8
  9
$ATTDIA
 70
         0
  9
$ATTREQ
 70
         1
  9
$HANDLING
 70
         1
  9
$HANDSEED
  5
80C
  9
$SURFTAB1
 70
         6
  9
$SURFTAB2
 70
         6
  9
$SURFTYPE
 70
         6
  9
$SURFU
 70
         6
  9
$SURFV
 70
         6
  9
$UCSNAME
  2

  9
$UCSORG
 10
0.0
 20
0.0
 30
0.0
  9
$UCSXDIR
 10
1.0
 20
0.0
 30
0.0
  9
$UCSYDIR
 10
0.0
 20
1.0
 30
0.0
  9
$PUCSNAME
  2

  9
$PUCSORG
 10
0.0
 20
0.0
 30
0.0
  9
$PUCSXDIR
 10
1.0
 20
0.0
 30
0.0
  9
$PUCSYDIR
 10
0.0
 20
1.0
 30
0.0
  9
$USERI1
 70
         0
  9
$USERI2
 70
         0
  9
$USERI3
 70
         0
  9
$USERI4
 70
         0
  9
$USERI5
 70
         0
  9
$USERR1
 40
0.0
  9
$USERR2
 40
0.0
  9
$USERR3
 40
0.0
  9
$USERR4
 40
0.0
  9
$USERR5
 40
0.0
  9
$WORLDVIEW
 70
         1
  9
$SHADEDGE
 70
         3
  9
$SHADEDIF
 70
        70
  9
$TILEMODE
 70
         1
  9
$MAXACTVP
 70
        16
  9
$PINSBASE
 10
0.0
 20
0.0
 30
0.0
  9
$PLIMCHECK
 70
         0
  9
$PEXTMIN
 10
1.0000000000E+20
 20
1.0000000000E+20
 30
1.0000000000E+20
  9
$PEXTMAX
 10
-1.0000000000E+20
 20
-1.0000000000E+20
 30
-1.0000000000E+20
  9
$PLIMMIN
 10
0.0
 20
0.0
  9
$PLIMMAX
 10
12.0
 20
9.0
  9
$UNITMODE
 70
         0
  9
$VISRETAIN
 70
         0
  9
$PLINEGEN
 70
         1
  9
$PSLTSCALE
 70
         0
  9
$TREEDEPTH
 70
      3020
  9
$PICKSTYLE
 70
         1
  9
$CMLSTYLE
  2
STANDARD
  9
$CMLJUST
 70
         0
  9
$CMLSCALE
 40
1.0
  9
$SAVEIMAGES
 70
         0
  0
ENDSEC
  0
SECTION
  2
CLASSES
  0
CLASS
  1
LWPOLYLINE
  2
AcDbPolyline
  3
"AutoCAD"
 90
        0
280
         0
281
         1
  0
CLASS
  1
IMAGE
  2
AcDbRasterImage
  3
ISM
 90
      127
280
         0
281
         1
  0
CLASS
  1
OLE2FRAME
  2
AcDbOle2Frame
  3
""
 90
        0
280
         0
281
         1
  0
CLASS
  1
HATCH
  2
AcDbHatch
  3
"ACAD_SEDONA"
 90
        0
280
         0
281
         1
  0
CLASS
  1
DICTIONARYVAR
  2
AcDbDictionaryVar
  3
"AutoCAD"
 90
        0
280
         0
281
         0
  0
CLASS
  1
RASTERVARIABLES
  2
AcDbRasterVariables
  3
ISM
 90
        0
280
         0
281
         0
  0
CLASS
  1
IMAGEDEF
  2
AcDbRasterImageDef
  3
ISM
 90
        0
280
         0
281
         0
  0
CLASS
  1
IMAGEDEF_REACTOR
  2
AcDbRasterImageDefReactor
  3
ISM
 90
        1
280
         0
281
         0
  0
CLASS
  1
IDBUFFER
  2
AcDbIdBuffer
  3
"Acad"
 90
        0
280
         0
281
         0
  0
CLASS
  1
SPATIAL_FILTER
  2
AcDbSpatialFilter
  3
"Acad"
 90
        0
280
         0
281
         0
  0
CLASS
  1
XRECORD
  2
AcDbXrecord
  3
"<Built In>"
 90
        0
280
         0
281
         0
  0
ENDSEC
  0
SECTION
  2
TABLES
  0
TABLE
  2
VPORT
  5
7
100
AcDbSymbolTable
 70
         1
  0
VPORT
  5
15
100
AcDbSymbolTableRecord
100
AcDbViewportTableRecord
  2
*ACTIVE
 70
         0
 10
0.0
 20
0.0
 11
1.0
 21
1.0
 12
290.4073206289
 22
-78.5
 13
0.0
 23
0.0
 14
1.0
 24
1.0
 15
0.0
 25
0.0
 16
0.0
 26
0.0
 36
1.0
 17
0.0
 27
0.0
 37
0.0
 40
731.0
 41
1.604229
 42
50.0
 43
0.0
 44
0.0
 50
0.0
 51
0.0
 71
         0
 72
       100
 73
         1
 74
         1
 75
         0
 76
         0
 77
         0
 78
         0
  0
ENDTAB
  0
TABLE
  2
LTYPE
  5
4
100
AcDbSymbolTable
 70
         6
  0
LTYPE
  5
11
100
AcDbSymbolTableRecord
100
AcDbLinetypeTableRecord
  2
BYBLOCK
 70
         0
  3

 72
        65
 73
         0
 40
0.0
  0
LTYPE
  5
12
100
AcDbSymbolTableRecord
100
AcDbLinetypeTableRecord
  2
BYLAYER
 70
         0
  3

 72
        65
 73
         0
 40
0.0
  0
LTYPE
  5
13
100
AcDbSymbolTableRecord
100
AcDbLinetypeTableRecord
  2
CONTINUOUS
 70
         0
  3
Solid line
 72
        65
 73
         0
 40
0.0
  0
LTYPE
  5
20
100
AcDbSymbolTableRecord
100
AcDbLinetypeTableRecord
  2
HIDDEN2
 70
        64
  3
_ _ _ _ _ _ _ _ _ _ _ _ _ _ _ _ _ _ _ _ _ _ _ _
 72
        65
 73
         2
 40
0.1875
 49
0.125
 74
         0
 49
-0.0625
 74
         0
  0
LTYPE
  5
21
100
AcDbSymbolTableRecord
100
AcDbLinetypeTableRecord
  2
CENTER2
 70
        64
  3
___ _ ___ _ ___ _ ___ _ ___ _ ___ _ ___ _ ___ _
 72
        65
 73
         4
 40
1.125
 49
0.75
 74
         0
 49
-0.125
 74
         0
 49
0.125
 74
         0
 49
-0.125
 74
         0
  0
LTYPE
  5
22
100
AcDbSymbolTableRecord
100
AcDbLinetypeTableRecord
  2
DOT2
 70
        64
  3
...............................................
 72
        65
 73
         2
 40
0.125
 49
0.0
 74
         0
 49
-0.125
 74
         0
  0
ENDTAB
  0
TABLE
  2
LAYER
  5
2
100
AcDbSymbolTable
 70
        18
  0
LAYER
  5
14
100
AcDbSymbolTableRecord
100
AcDbLayerTableRecord
  2
0
 70
         0
 62
         7
  6
CONTINUOUS
  0
LAYER
  5
24
100
AcDbSymbolTableRecord
100
AcDbLayerTableRecord
  2
_ÜBERSETZUNG
 70
         0
 62
        -1
  6
CONTINUOUS
  0
LAYER
  5
26
100
AcDbSymbolTableRecord
100
AcDbLayerTableRecord
  2
DEFAULT
 70
         0
 62
         7
  6
CONTINUOUS
  0
LAYER
  5
28
100
AcDbSymbolTableRecord
100
AcDbLayerTableRecord
  2
LEVEL_10
 70
         0
 62
         7
  6
CONTINUOUS
  0
LAYER
  5
2A
100
AcDbSymbolTableRecord
100
AcDbLayerTableRecord
  2
LEVEL_11
 70
         0
 62
         7
  6
CONTINUOUS
  0
LAYER
  5
2C
100
AcDbSymbolTableRecord
100
AcDbLayerTableRecord
  2
LEVEL_12
 70
         0
 62
         7
  6
CONTINUOUS
  0
LAYER
  5
2E
100
AcDbSymbolTableRecord
100
AcDbLayerTableRecord
  2
LEVEL_13
 70
         0
 62
         7
  6
CONTINUOUS
  0
LAYER
  5
30
100
AcDbSymbolTableRecord
100
AcDbLayerTableRecord
  2
LEVEL_14
 70
         0
 62
         7
  6
CONTINUOUS
  0
LAYER
  5
32
100
AcDbSymbolTableRecord
100
AcDbLayerTableRecord
  2
LEVEL_15
 70
         0
 62
         7
  6
CONTINUOUS
  0
LAYER
  5
34
100
AcDbSymbolTableRecord
100
AcDbLayerTableRecord
  2
LEVEL_16
 70
         0
 62
         7
  6
CONTINUOUS
  0
LAYER
  5
36
100
AcDbSymbolTableRecord
100
AcDbLayerTableRecord
  2
LEVEL_2
 70
         0
 62
         7
  6
CONTINUOUS
  0
LAYER
  5
38
100
AcDbSymbolTableRecord
100
AcDbLayerTableRecord
  2
LEVEL_3
 70
         0
 62
         7
  6
CONTINUOUS
  0
LAYER
  5
3A
100
AcDbSymbolTableRecord
100
AcDbLayerTableRecord
  2
LEVEL_4
 70
         0
 62
         7
  6
CONTINUOUS
  0
LAYER
  5
3C
100
AcDbSymbolTableRecord
100
AcDbLayerTableRecord
  2
LEVEL_5
 70
         0
 62
         7
  6
CONTINUOUS
  0
LAYER
  5
3E
100
AcDbSymbolTableRecord
100
AcDbLayerTableRecord
  2
LEVEL_6
 70
         0
 62
         7
  6
CONTINUOUS
  0
LAYER
  5
40
100
AcDbSymbolTableRecord
100
AcDbLayerTableRecord
  2
LEVEL_7
 70
         0
 62
         7
  6
CONTINUOUS
  0
LAYER
  5
42
100
AcDbSymbolTableRecord
100
AcDbLayerTableRecord
  2
LEVEL_8
 70
         0
 62
         7
  6
CONTINUOUS
  0
LAYER
  5
44
100
AcDbSymbolTableRecord
100
AcDbLayerTableRecord
  2
LEVEL_9
 70
         0
 62
         7
  6
CONTINUOUS
  0
ENDTAB
  0
TABLE
  2
STYLE
  5
3
100
AcDbSymbolTable
 70
         1
  0
STYLE
  5
17
100
AcDbSymbolTableRecord
100
AcDbTextStyleTableRecord
  2
STANDARD
 70
         0
 40
0.0
 41
1.0
 50
0.0
 71
         0
 42
0.2
  3
txt
  4

  0
ENDTAB
  0
TABLE
  2
VIEW
  5
5
100
AcDbSymbolTable
 70
         0
  0
ENDTAB
  0
TABLE
  2
UCS
  5
6
100
AcDbSymbolTable
 70
         0
  0
ENDTAB
  0
TABLE
  2
APPID
  5
8
100
AcDbSymbolTable
 70
         1
  0
APPID
  5
16
100
AcDbSymbolTableRecord
100
AcDbRegAppTableRecord
  2
ACAD
 70
         0
  0
ENDTAB
  0
TABLE
  2
DIMSTYLE
  5
9
100
AcDbSymbolTable
 70
         2
  0
DIMSTYLE
105
18
100
AcDbSymbolTableRecord
100
AcDbDimStyleTableRecord
  2
STANDARD
 70
         0
  3

  4

  5

  6

  7

 40
1.0
 41
0.18
 42
0.0625
 43
0.38
 44
0.18
 45
0.0
 46
0.0
 47
0.0
 48
0.0
140
0.18
141
0.09
142
0.0
143
25.4
144
1.0
145
0.0
146
1.0
147
0.09
 71
         0
 72
         0
 73
         1
 74
         1
 75
         0
 76
         0
 77
         0
 78
         0
170
         0
171
         2
172
         0
173
         0
174
         0
175
         0
176
         0
177
         0
178
         0
270
         2
271
         4
272
         4
273
         2
274
         2
340
17
275
         0
280
         0
281
         0
282
         0
283
         1
284
         0
285
         0
286
         0
287
         0
288
         0
  0
DIMSTYLE
105
809
100
AcDbSymbolTableRecord
100
AcDbDimStyleTableRecord
  2
EXPORTED_DIMSTYLE
 70
         0
  3

  4

  5

  6
_FILLED
  7
_FILLED
 40
1.0
 41
3.5
 42
0.0
 43
0.38
 44
1.75
 45
0.0
 46
0.0
 47
0.0
 48
0.0
140
3.5
141
1.75
142
0.0
143
25.4
144
1.0
145
0.0
146
1.0
147
0.09
 71
         0
 72
         0
 73
         0
 74
         0
 75
         0
 76
         0
 77
         1
 78
         8
170
         0
171
         4
172
         1
173
         1
174
         0
175
         0
176
       136
177
       136
178
       136
270
         2
271
         3
272
         4
273
         2
274
         2
340
17
275
         0
280
         0
281
         0
282
         0
283
         1
284
         0
285
         4
286
         0
287
         0
288
         0
  0
ENDTAB
  0
TABLE
  2
BLOCK_RECORD
  5
1
100
AcDbSymbolTable
 70
         0
  0
BLOCK_RECORD
  5
A
100
AcDbSymbolTableRecord
100
AcDbBlockTableRecord
  2
*MODEL_SPACE
  0
BLOCK_RECORD
  5
B
100
AcDbSymbolTableRecord
100
AcDbBlockTableRecord
  2
*PAPER_SPACE
  0
ENDTAB
  0
ENDSEC
  0
SECTION
  2
BLOCKS
  0
BLOCK
  5
D
100
AcDbEntity
  8
0
100
AcDbBlockBegin
  2
*MODEL_SPACE
 70
         0
 10
0.0
 20
0.0
 30
0.0
  3
*MODEL_SPACE
  1

  0
ENDBLK
  5
E
100
AcDbEntity
  8
0
100
AcDbBlockEnd
  0
BLOCK
  5
F
100
AcDbEntity
 67
         1
  8
0
100
AcDbBlockBegin
  2
*PAPER_SPACE
 70
         0
 10
0.0
 20
0.0
 30
0.0
  3
*PAPER_SPACE
  1

  0
ENDBLK
  5
10
100
AcDbEntity
 67
         1
  8
0
100
AcDbBlockEnd
  0
ENDSEC
  0
SECTION
  2
ENTITIES
  0
LINE
  5
45
100
AcDbEntity
  8
LEVEL_2
  6
CONTINUOUS
 62
         2
100
AcDbLine
 10
-178.446
 20
24.3398
 30
0.0
 11
-178.2683
 21
24.0321
 31
0.0
  0
LINE
  5
46
100
AcDbEntity
  8
LEVEL_2
  6
CONTINUOUS
 62
         2
100
AcDbLine
 10
-177.7932
 20
22.7267
 30
0.0
 11
-175.763
 21
11.2125
 31
0.0
  0
ARC
  5
47
100
AcDbEntity
  8
LEVEL_2
  6
CONTINUOUS
 62
         2
100
AcDbCircle
 10
-193.9819
 20
8.0
 30
0.0
 40
18.4999587421
100
AcDbArc
 50
169.9999500675
 51
10.0000499325
  0
LINE
  5
48
100
AcDbEntity
  8
LEVEL_2
  6
CONTINUOUS
 62
         2
100
AcDbLine
 10
-212.2008
 20
11.2125
 30
0.0
 11
-210.1706
 21
22.7266
 31
0.0
  0
LINE
  5
49
100
AcDbEntity
  8
LEVEL_2
  6
CONTINUOUS
 62
         2
100
AcDbLine
 10
-209.6955
 20
24.0321
 30
0.0
 11
-209.5178
 21
24.3398
 31
0.0
  0
LINE
  5
4A
100
AcDbEntity
  8
LEVEL_2
  6
CONTINUOUS
 62
         2
100
AcDbLine
 10
-197.2819
 20
37.6517
 30
0.0
 11
-197.2819
 21
35.15
 31
0.0
  0
ARC
  5
4B
100
AcDbEntity
  8
LEVEL_2
  6
CONTINUOUS
 62
         2
100
AcDbCircle
 10
-193.9819
 20
23.8
 30
0.0
 40
3.3
100
AcDbArc
 50
180.0
 51
360.0
  0
LINE
  5
4C
100
AcDbEntity
  8
LEVEL_2
  6
CONTINUOUS
 62
         2
100
AcDbLine
 10
-190.6819
 20
23.8
 30
0.0
 11
-190.6819
 21
27.85
 31
0.0
  0
CIRCLE
  5
4D
100
AcDbEntity
  8
LEVEL_2
  6
CONTINUOUS
 62
         2
100
AcDbCircle
 10
-193.9819
 20
8.0
 30
0.0
 40
8.0
  0
ARC
  5
4E
100
AcDbEntity
  8
LEVEL_2
  6
CONTINUOUS
 62
         2
100
AcDbCircle
 10
-206.2314
 20
22.0321
 30
0.0
 40
3.9999986012
100
AcDbArc
 50
149.9999884324
 51
170.0012306847
  0
ARC
  5
4F
100
AcDbEntity
  8
LEVEL_2
  6
CONTINUOUS
 62
         2
100
AcDbCircle
 10
-181.7324
 20
22.0321
 30
0.0
 40
3.9999707249
100
AcDbArc
 50
10.0001799642
 51
30.0000115676
  0
CIRCLE
  5
50
100
AcDbEntity
  8
LEVEL_2
  6
CONTINUOUS
 62
         2
100
AcDbCircle
 10
-204.7819
 20
31.5
 30
0.0
 40
1.5
  0
LINE
  5
51
100
AcDbEntity
  8
LEVEL_2
  6
CONTINUOUS
 62
         2
100
AcDbLine
 10
-197.2819
 20
35.1
 30
0.0
 11
-197.2819
 21
27.9
 31
0.0
  0
LINE
  5
52
100
AcDbEntity
  8
LEVEL_2
  6
CONTINUOUS
 62
         2
100
AcDbLine
 10
-197.2819
 20
27.9
 30
0.0
 11
-197.2819
 21
27.85
 31
0.0
  0
LINE
  5
53
100
AcDbEntity
  8
LEVEL_2
  6
CONTINUOUS
 62
         2
100
AcDbLine
 10
-190.6819
 20
27.9
 30
0.0
 11
-190.6819
 21
35.1
 31
0.0
  0
LINE
  5
54
100
AcDbEntity
  8
LEVEL_2
  6
CONTINUOUS
 62
         2
100
AcDbLine
 10
-190.6819
 20
35.1
 30
0.0
 11
-190.6819
 21
35.15
 31
0.0
  0
LINE
  5
55
100
AcDbEntity
  8
LEVEL_2
  6
CONTINUOUS
 62
         2
100
AcDbLine
 10
-178.9819
 20
26.3398
 30
0.0
 11
-178.9819
 21
35.1541
 31
0.0
  0
LINE
  5
56
100
AcDbEntity
  8
LEVEL_2
  6
CONTINUOUS
 62
         2
100
AcDbLine
 10
-179.3328
 20
36.1183
 30
0.0
 11
-182.3082
 21
39.6642
 31
0.0
  0
LINE
  5
57
100
AcDbEntity
  8
LEVEL_2
  6
CONTINUOUS
 62
         2
100
AcDbLine
 10
-183.4573
 20
40.2
 30
0.0
 11
-185.6691
 21
40.2
 31
0.0
  0
ARC
  5
58
100
AcDbEntity
  8
LEVEL_2
  6
CONTINUOUS
 62
         2
100
AcDbCircle
 10
-193.9819
 20
60.1453
 30
0.0
 40
21.5000250363
100
AcDbArc
 50
282.0460293189
 51
291.1875710071
  0
ARC
  5
59
100
AcDbEntity
  8
LEVEL_2
  6
CONTINUOUS
 62
         2
100
AcDbCircle
 10
-193.9819
 20
60.1453
 30
0.0
 40
21.500055936
100
AcDbArc
 50
248.8124289929
 51
257.9539706811
  0
LINE
  5
5A
100
AcDbEntity
  8
LEVEL_2
  6
CONTINUOUS
 62
         2
100
AcDbLine
 10
-202.2946
 20
40.2
 30
0.0
 11
-204.5065
 21
40.2
 31
0.0
  0
LINE
  5
5B
100
AcDbEntity
  8
LEVEL_2
  6
CONTINUOUS
 62
         2
100
AcDbLine
 10
-205.6556
 20
39.6642
 30
0.0
 11
-208.631
 21
36.1183
 31
0.0
  0
LINE
  5
5C
100
AcDbEntity
  8
LEVEL_2
  6
CONTINUOUS
 62
         2
100
AcDbLine
 10
-208.9819
 20
35.1541
 30
0.0
 11
-208.9819
 21
26.3398
 31
0.0
  0
ARC
  5
5D
100
AcDbEntity
  8
LEVEL_2
  6
CONTINUOUS
 62
         2
100
AcDbCircle
 10
-180.4819
 20
35.1541
 30
0.0
 40
1.5
100
AcDbArc
 50
0.0
 51
39.9997253601
  0
ARC
  5
5E
100
AcDbEntity
  8
LEVEL_2
  6
CONTINUOUS
 62
         2
100
AcDbCircle
 10
-183.4573
 20
38.7
 30
0.0
 40
1.5000374829
100
AcDbArc
 50
39.9997253601
 51
90.0
  0
ARC
  5
5F
100
AcDbEntity
  8
LEVEL_2
  6
CONTINUOUS
 62
         2
100
AcDbCircle
 10
-185.6691
 20
38.7
 30
0.0
 40
1.5
100
AcDbArc
 50
90.0
 51
111.1899864151
  0
ARC
  5
60
100
AcDbEntity
  8
LEVEL_2
  6
CONTINUOUS
 62
         2
100
AcDbCircle
 10
-189.1819
 20
37.6517
 30
0.0
 40
1.5000193332
100
AcDbArc
 50
102.0440693866
 51
180.0
  0
ARC
  5
61
100
AcDbEntity
  8
LEVEL_2
  6
CONTINUOUS
 62
         2
100
AcDbCircle
 10
-198.7819
 20
37.6517
 30
0.0
 40
1.5
100
AcDbArc
 50
0.0
 51
77.9559306134
  0
ARC
  5
62
100
AcDbEntity
  8
LEVEL_2
  6
CONTINUOUS
 62
         2
100
AcDbCircle
 10
-202.2946
 20
38.7
 30
0.0
 40
1.4999847899
100
AcDbArc
 50
68.813575077
 51
90.0
  0
ARC
  5
63
100
AcDbEntity
  8
LEVEL_2
  6
CONTINUOUS
 62
         2
100
AcDbCircle
 10
-204.5065
 20
38.7
 30
0.0
 40
1.5
100
AcDbArc
 50
90.0
 51
140.0002746399
  0
ARC
  5
64
100
AcDbEntity
  8
LEVEL_2
  6
CONTINUOUS
 62
         2
100
AcDbCircle
 10
-207.4819
 20
35.1541
 30
0.0
 40
1.5000374829
100
AcDbArc
 50
140.0002746399
 51
180.0
  0
ARC
  5
65
100
AcDbEntity
  8
LEVEL_2
  6
CONTINUOUS
 62
         2
100
AcDbCircle
 10
-212.9819
 20
26.3398
 30
0.0
 40
3.9999986012
100
AcDbArc
 50
329.9999884324
 51
360.0
  0
ARC
  5
66
100
AcDbEntity
  8
LEVEL_2
  6
CONTINUOUS
 62
         2
100
AcDbCircle
 10
-174.9819
 20
26.3398
 30
0.0
 40
4.0
100
AcDbArc
 50
180.0
 51
210.0000115676
  0
LINE
  5
67
100
AcDbEntity
  8
LEVEL_2
  6
CONTINUOUS
 62
         2
100
AcDbLine
 10
-190.6819
 20
35.15
 30
0.0
 11
-197.2819
 21
35.15
 31
0.0
  0
LINE
  5
68
100
AcDbEntity
  8
LEVEL_2
  6
CONTINUOUS
 62
         2
100
AcDbLine
 10
-197.2819
 20
27.85
 30
0.0
 11
-190.6819
 21
27.85
 31
0.0
  0
LINE
  5
69
100
AcDbEntity
  8
LEVEL_2
  6
CONTINUOUS
 62
         2
100
AcDbLine
 10
-197.2819
 20
35.15
 30
0.0
 11
-197.2819
 21
35.1
 31
0.0
  0
LINE
  5
6A
100
AcDbEntity
  8
LEVEL_2
  6
CONTINUOUS
 62
         2
100
AcDbLine
 10
-190.6819
 20
27.85
 30
0.0
 11
-190.6819
 21
27.9
 31
0.0
  0
LINE
  5
6B
100
AcDbEntity
  8
LEVEL_2
  6
CONTINUOUS
 62
         2
100
AcDbLine
 10
-197.2819
 20
27.85
 30
0.0
 11
-197.2819
 21
23.8
 31
0.0
  0
LINE
  5
6C
100
AcDbEntity
  8
LEVEL_2
  6
CONTINUOUS
 62
         2
100
AcDbLine
 10
-190.6819
 20
35.15
 30
0.0
 11
-190.6819
 21
37.6517
 31
0.0
  0
LINE
  5
6D
100
AcDbEntity
  8
LEVEL_2
  6
CENTER2
 62
         3
100
AcDbLine
 10
-204.7819
 20
29.3565
 30
0.0
 11
-204.7819
 21
33.6435
 31
0.0
  0
LINE
  5
6E
100
AcDbEntity
  8
LEVEL_2
  6
CENTER2
 62
         3
100
AcDbLine
 10
-183.0819
 20
8.0
 30
0.0
 11
-204.8819
 21
8.0
 31
0.0
  0
LINE
  5
6F
100
AcDbEntity
  8
LEVEL_2
  6
CENTER2
 62
         3
100
AcDbLine
 10
-193.9819
 20
43.956
 30
0.0
 11
-193.9819
 21
-14.256
 31
0.0
  0
LINE
  5
70
100
AcDbEntity
  8
LEVEL_2
  6
CENTER2
 62
         3
100
AcDbLine
 10
-177.4819
 20
31.5
 30
0.0
 11
-210.4819
 21
31.5
 31
0.0
  0
LINE
  5
71
100
AcDbEntity
  8
LEVEL_2
  6
CONTINUOUS
 62
         2
100
AcDbLine
 10
-208.5714
 20
17.0
 30
0.0
 11
-208.5714
 21
21.0
 31
0.0
  0
LINE
  5
72
100
AcDbEntity
  8
LEVEL_2
  6
CONTINUOUS
 62
         2
100
AcDbLine
 10
-208.5714
 20
21.0
 30
0.0
 11
-207.4286
 21
21.0
 31
0.0
  0
LINE
  5
73
100
AcDbEntity
  8
LEVEL_2
  6
CONTINUOUS
 62
         2
100
AcDbLine
 10
-208.5714
 20
19.0
 30
0.0
 11
-207.4286
 21
19.0
 31
0.0
  0
ARC
  5
74
100
AcDbEntity
  8
LEVEL_2
  6
CONTINUOUS
 62
         2
100
AcDbCircle
 10
-207.4286
 20
20.1429
 30
0.0
 40
0.8572
100
AcDbArc
 50
0.0
 51
90.0
  0
ARC
  5
75
100
AcDbEntity
  8
LEVEL_2
  6
CONTINUOUS
 62
         2
100
AcDbCircle
 10
-207.4286
 20
19.8571
 30
0.0
 40
0.8571
100
AcDbArc
 50
270.0
 51
360.0
  0
LINE
  5
76
100
AcDbEntity
  8
LEVEL_2
  6
CONTINUOUS
 62
         2
100
AcDbLine
 10
-206.5714
 20
19.8571
 30
0.0
 11
-206.5714
 21
20.1429
 31
0.0
  0
LINE
  5
77
100
AcDbEntity
  8
LEVEL_2
  6
CONTINUOUS
 62
         2
100
AcDbLine
 10
-207.4286
 20
19.0
 30
0.0
 11
-206.5714
 21
17.0
 31
0.0
  0
ARC
  5
78
100
AcDbEntity
  8
LEVEL_2
  6
CONTINUOUS
 62
         2
100
AcDbCircle
 10
-205.1429
 20
17.8571
 30
0.0
 40
0.8571
100
AcDbArc
 50
180.0
 51
270.0
  0
LINE
  5
79
100
AcDbEntity
  8
LEVEL_2
  6
CONTINUOUS
 62
         2
100
AcDbLine
 10
-205.1429
 20
17.0
 30
0.0
 11
-204.8571
 21
17.0
 31
0.0
  0
ARC
  5
7A
100
AcDbEntity
  8
LEVEL_2
  6
CONTINUOUS
 62
         2
100
AcDbCircle
 10
-204.8571
 20
17.8571
 30
0.0
 40
0.8571
100
AcDbArc
 50
270.0
 51
360.0
  0
LINE
  5
7B
100
AcDbEntity
  8
LEVEL_2
  6
CONTINUOUS
 62
         2
100
AcDbLine
 10
-206.0
 20
17.8571
 30
0.0
 11
-206.0
 21
21.0
 31
0.0
  0
LINE
  5
7C
100
AcDbEntity
  8
LEVEL_2
  6
CONTINUOUS
 62
         2
100
AcDbLine
 10
-204.0
 20
17.8571
 30
0.0
 11
-204.0
 21
21.0
 31
0.0
  0
LINE
  5
7D
100
AcDbEntity
  8
LEVEL_2
  6
CONTINUOUS
 62
         2
100
AcDbLine
 10
-203.4286
 20
17.0
 30
0.0
 11
-203.4286
 21
21.0
 31
0.0
  0
LINE
  5
7E
100
AcDbEntity
  8
LEVEL_2
  6
CONTINUOUS
 62
         2
100
AcDbLine
 10
-203.4286
 20
17.0
 30
0.0
 11
-202.2857
 21
17.0
 31
0.0
  0
LINE
  5
7F
100
AcDbEntity
  8
LEVEL_2
  6
CONTINUOUS
 62
         2
100
AcDbLine
 10
-203.4286
 20
21.0
 30
0.0
 11
-202.2857
 21
21.0
 31
0.0
  0
ARC
  5
80
100
AcDbEntity
  8
LEVEL_2
  6
CONTINUOUS
 62
         2
100
AcDbCircle
 10
-202.2857
 20
20.1429
 30
0.0
 40
0.8571
100
AcDbArc
 50
0.0
 51
90.0
  0
ARC
  5
81
100
AcDbEntity
  8
LEVEL_2
  6
CONTINUOUS
 62
         2
100
AcDbCircle
 10
-202.2857
 20
17.8571
 30
0.0
 40
0.8571
100
AcDbArc
 50
270.0
 51
360.0
  0
LINE
  5
82
100
AcDbEntity
  8
LEVEL_2
  6
CONTINUOUS
 62
         2
100
AcDbLine
 10
-201.4286
 20
17.8571
 30
0.0
 11
-201.4286
 21
20.1429
 31
0.0
  0
LINE
  5
83
100
AcDbEntity
  8
LEVEL_2
  6
CONTINUOUS
 62
         2
100
AcDbLine
 10
-191.0
 20
20.5
 30
0.0
 11
-190.125
 21
17.0
 31
0.0
  0
LINE
  5
84
100
AcDbEntity
  8
LEVEL_2
  6
CONTINUOUS
 62
         2
100
AcDbLine
 10
-190.125
 20
17.0
 30
0.0
 11
-189.25
 21
20.5
 31
0.0
  0
LINE
  5
85
100
AcDbEntity
  8
LEVEL_2
  6
CONTINUOUS
 62
         2
100
AcDbLine
 10
-188.75
 20
17.0
 30
0.0
 11
-188.75
 21
20.5
 31
0.0
  0
LINE
  5
86
100
AcDbEntity
  8
LEVEL_2
  6
CONTINUOUS
 62
         2
100
AcDbLine
 10
-188.75
 20
17.0
 30
0.0
 11
-187.25
 21
17.0
 31
0.0
  0
LINE
  5
87
100
AcDbEntity
  8
LEVEL_2
  6
CONTINUOUS
 62
         2
100
AcDbLine
 10
-188.75
 20
20.5
 30
0.0
 11
-187.25
 21
20.5
 31
0.0
  0
LINE
  5
88
100
AcDbEntity
  8
LEVEL_2
  6
CONTINUOUS
 62
         2
100
AcDbLine
 10
-188.75
 20
18.75
 30
0.0
 11
-187.5
 21
18.75
 31
0.0
  0
LINE
  5
89
100
AcDbEntity
  8
LEVEL_2
  6
CONTINUOUS
 62
         2
100
AcDbLine
 10
-186.75
 20
17.0
 30
0.0
 11
-186.75
 21
20.5
 31
0.0
  0
LINE
  5
8A
100
AcDbEntity
  8
LEVEL_2
  6
CONTINUOUS
 62
         2
100
AcDbLine
 10
-186.75
 20
20.5
 30
0.0
 11
-185.75
 21
20.5
 31
0.0
  0
LINE
  5
8B
100
AcDbEntity
  8
LEVEL_2
  6
CONTINUOUS
 62
         2
100
AcDbLine
 10
-186.75
 20
18.75
 30
0.0
 11
-185.75
 21
18.75
 31
0.0
  0
ARC
  5
8C
100
AcDbEntity
  8
LEVEL_2
  6
CONTINUOUS
 62
         2
100
AcDbCircle
 10
-185.75
 20
19.75
 30
0.0
 40
0.75
100
AcDbArc
 50
0.0
 51
90.0
  0
ARC
  5
8D
100
AcDbEntity
  8
LEVEL_2
  6
CONTINUOUS
 62
         2
100
AcDbCircle
 10
-185.75
 20
19.5
 30
0.0
 40
0.75
100
AcDbArc
 50
270.0
 51
360.0
  0
LINE
  5
8E
100
AcDbEntity
  8
LEVEL_2
  6
CONTINUOUS
 62
         2
100
AcDbLine
 10
-185.0
 20
19.5
 30
0.0
 11
-185.0
 21
19.75
 31
0.0
  0
LINE
  5
8F
100
AcDbEntity
  8
LEVEL_2
  6
CONTINUOUS
 62
         2
100
AcDbLine
 10
-185.75
 20
18.75
 30
0.0
 11
-185.0
 21
17.0
 31
0.0
  0
ARC
  5
90
100
AcDbEntity
  8
LEVEL_2
  6
CONTINUOUS
 62
         2
100
AcDbCircle
 10
-183.75
 20
17.75
 30
0.0
 40
0.75
100
AcDbArc
 50
180.0
 51
270.0
  0
LINE
  5
91
100
AcDbEntity
  8
LEVEL_2
  6
CONTINUOUS
 62
         2
100
AcDbLine
 10
-183.75
 20
17.0
 30
0.0
 11
-183.5
 21
17.0
 31
0.0
  0
ARC
  5
92
100
AcDbEntity
  8
LEVEL_2
  6
CONTINUOUS
 62
         2
100
AcDbCircle
 10
-183.5
 20
17.75
 30
0.0
 40
0.75
100
AcDbArc
 50
270.0
 51
360.0
  0
LINE
  5
93
100
AcDbEntity
  8
LEVEL_2
  6
CONTINUOUS
 62
         2
100
AcDbLine
 10
-182.75
 20
17.75
 30
0.0
 11
-182.75
 21
18.75
 31
0.0
  0
LINE
  5
94
100
AcDbEntity
  8
LEVEL_2
  6
CONTINUOUS
 62
         2
100
AcDbLine
 10
-182.75
 20
18.75
 30
0.0
 11
-183.625
 21
18.75
 31
0.0
  0
LINE
  5
95
100
AcDbEntity
  8
LEVEL_2
  6
CONTINUOUS
 62
         2
100
AcDbLine
 10
-184.5
 20
17.75
 30
0.0
 11
-184.5
 21
19.75
 31
0.0
  0
ARC
  5
96
100
AcDbEntity
  8
LEVEL_2
  6
CONTINUOUS
 62
         2
100
AcDbCircle
 10
-183.75
 20
19.75
 30
0.0
 40
0.75
100
AcDbArc
 50
90.0
 51
180.0
  0
LINE
  5
97
100
AcDbEntity
  8
LEVEL_2
  6
CONTINUOUS
 62
         2
100
AcDbLine
 10
-183.75
 20
20.5
 30
0.0
 11
-183.5
 21
20.5
 31
0.0
  0
ARC
  5
98
100
AcDbEntity
  8
LEVEL_2
  6
CONTINUOUS
 62
         2
100
AcDbCircle
 10
-183.5
 20
19.75
 30
0.0
 40
0.75
100
AcDbArc
 50
0.0
 51
90.0
  0
LINE
  5
99
100
AcDbEntity
  8
LEVEL_2
  6
CONTINUOUS
 62
         2
100
AcDbLine
 10
-182.75
 20
19.75
 30
0.0
 11
-182.75
 21
19.5
 31
0.0
  0
ARC
  5
9A
100
AcDbEntity
  8
LEVEL_2
  6
CONTINUOUS
 62
         2
100
AcDbCircle
 10
-179.75
 20
17.75
 30
0.0
 40
0.75
100
AcDbArc
 50
180.0
 51
360.0
  0
LINE
  5
9B
100
AcDbEntity
  8
LEVEL_2
  6
CONTINUOUS
 62
         2
100
AcDbLine
 10
-179.0
 20
17.75
 30
0.0
 11
-179.0
 21
18.25
 31
0.0
  0
ARC
  5
9C
100
AcDbEntity
  8
LEVEL_2
  6
CONTINUOUS
 62
         2
100
AcDbCircle
 10
-179.75
 20
18.25
 30
0.0
 40
0.75
100
AcDbArc
 50
0.0
 51
180.0
  0
LINE
  5
9D
100
AcDbEntity
  8
LEVEL_2
  6
CONTINUOUS
 62
         2
100
AcDbLine
 10
-180.5
 20
17.75
 30
0.0
 11
-180.5
 21
18.25
 31
0.0
  0
LINE
  5
9E
100
AcDbEntity
  8
LEVEL_2
  6
CONTINUOUS
 62
         2
100
AcDbLine
 10
-180.426
 20
18.575
 30
0.0
 11
-179.5
 21
20.5
 31
0.0
  0
LINE
  5
9F
100
AcDbEntity
  8
LEVEL_3
  6
CONTINUOUS
 62
         2
100
AcDbLine
 10
-14.7677
 20
31.9945
 30
0.0
 11
-15.5017
 21
30.7232
 31
0.0
  0
LINE
  5
A0
100
AcDbEntity
  8
LEVEL_3
  6
CONTINUOUS
 62
         2
100
AcDbLine
 10
-16.2144
 20
28.7651
 30
0.0
 11
-18.3505
 21
16.6508
 31
0.0
  0
LINE
  5
A1
100
AcDbEntity
  8
LEVEL_3
  6
CONTINUOUS
 62
         2
100
AcDbLine
 10
30.6563
 20
15.3261
 30
0.0
 11
28.2866
 21
28.7651
 31
0.0
  0
LINE
  5
A2
100
AcDbEntity
  8
LEVEL_3
  6
CONTINUOUS
 62
         2
100
AcDbLine
 10
27.574
 20
30.7232
 30
0.0
 11
26.84
 21
31.9945
 31
0.0
  0
ARC
  5
A3
100
AcDbEntity
  8
LEVEL_3
  6
CONTINUOUS
 62
         2
100
AcDbCircle
 10
6.0181
 20
11.0
 30
0.0
 40
25.0151995115
100
AcDbArc
 50
166.9445070168
 51
9.9587680455
  0
CIRCLE
  5
A4
100
AcDbEntity
  8
LEVEL_3
  6
CONTINUOUS
 62
         2
100
AcDbCircle
 10
6.0361
 20
11.0
 30
0.0
 40
11.0
  0
ARC
  5
A5
100
AcDbEntity
  8
LEVEL_3
  6
CONTINUOUS
 62
         2
100
AcDbCircle
 10
6.0361
 20
31.5349
 30
0.0
 40
4.55
100
AcDbArc
 50
180.0
 51
360.0
  0
LINE
  5
A6
100
AcDbEntity
  8
LEVEL_3
  6
CONTINUOUS
 62
         2
100
AcDbLine
 10
1.4861
 20
31.5349
 30
0.0
 11
1.4861
 21
37.1349
 31
0.0
  0
LINE
  5
A7
100
AcDbEntity
  8
LEVEL_3
  6
CONTINUOUS
 62
         2
100
AcDbLine
 10
10.5861
 20
31.5349
 30
0.0
 11
10.5861
 21
37.1349
 31
0.0
  0
ARC
  5
A8
100
AcDbEntity
  8
LEVEL_3
  6
CONTINUOUS
 62
         2
100
AcDbCircle
 10
-10.3056
 20
27.7232
 30
0.0
 40
5.9999546007
100
AcDbArc
 50
149.9997496981
 51
169.9998200358
  0
ARC
  5
A9
100
AcDbEntity
  8
LEVEL_3
  6
CONTINUOUS
 62
         2
100
AcDbCircle
 10
22.3778
 20
27.7232
 30
0.0
 40
5.9999560873
100
AcDbArc
 50
10.0001799642
 51
29.9997728367
  0
LINE
  5
AA
100
AcDbEntity
  8
LEVEL_3
  6
CONTINUOUS
 62
         2
100
AcDbLine
 10
1.4861
 20
37.1349
 30
0.0
 11
1.4861
 21
37.2349
 31
0.0
  0
LINE
  5
AB
100
AcDbEntity
  8
LEVEL_3
  6
CONTINUOUS
 62
         2
100
AcDbLine
 10
1.4861
 20
46.8349
 30
0.0
 11
1.4861
 21
49.7865
 31
0.0
  0
LINE
  5
AC
100
AcDbEntity
  8
LEVEL_3
  6
CONTINUOUS
 62
         2
100
AcDbLine
 10
10.5861
 20
37.1349
 30
0.0
 11
10.5861
 21
37.2349
 31
0.0
  0
LINE
  5
AD
100
AcDbEntity
  8
LEVEL_3
  6
CONTINUOUS
 62
         2
100
AcDbLine
 10
10.5861
 20
46.8349
 30
0.0
 11
10.5861
 21
49.7865
 31
0.0
  0
CIRCLE
  5
AE
100
AcDbEntity
  8
LEVEL_3
  6
CONTINUOUS
 62
         2
100
AcDbCircle
 10
-8.4639
 20
41.9849
 30
0.0
 40
1.75
  0
LINE
  5
AF
100
AcDbEntity
  8
LEVEL_3
  6
CONTINUOUS
 62
         2
100
AcDbLine
 10
26.0361
 20
34.9945
 30
0.0
 11
26.0361
 21
46.5069
 31
0.0
  0
LINE
  5
B0
100
AcDbEntity
  8
LEVEL_3
  6
CONTINUOUS
 62
         2
100
AcDbLine
 10
25.5682
 20
47.7925
 30
0.0
 11
21.601
 21
52.5204
 31
0.0
  0
LINE
  5
B1
100
AcDbEntity
  8
LEVEL_3
  6
CONTINUOUS
 62
         2
100
AcDbLine
 10
20.0689
 20
53.2349
 30
0.0
 11
17.2438
 21
53.2349
 31
0.0
  0
ARC
  5
B2
100
AcDbEntity
  8
LEVEL_3
  6
CONTINUOUS
 62
         2
100
AcDbCircle
 10
6.0361
 20
79.0627
 30
0.0
 40
28.0000131632
100
AcDbArc
 50
282.6110845616
 51
291.9371017134
  0
ARC
  5
B3
100
AcDbEntity
  8
LEVEL_3
  6
CONTINUOUS
 62
         2
100
AcDbCircle
 10
6.0361
 20
79.0627
 30
0.0
 40
28.0000572417
100
AcDbArc
 50
248.0628982866
 51
257.3889154384
  0
LINE
  5
B4
100
AcDbEntity
  8
LEVEL_3
  6
CONTINUOUS
 62
         2
100
AcDbLine
 10
-5.1715
 20
53.2349
 30
0.0
 11
-7.9967
 21
53.2349
 31
0.0
  0
LINE
  5
B5
100
AcDbEntity
  8
LEVEL_3
  6
CONTINUOUS
 62
         2
100
AcDbLine
 10
-9.5288
 20
52.5204
 30
0.0
 11
-13.496
 21
47.7925
 31
0.0
  0
LINE
  5
B6
100
AcDbEntity
  8
LEVEL_3
  6
CONTINUOUS
 62
         2
100
AcDbLine
 10
-13.9639
 20
46.5069
 30
0.0
 11
-13.9639
 21
34.9945
 31
0.0
  0
ARC
  5
B7
100
AcDbEntity
  8
LEVEL_3
  6
CONTINUOUS
 62
         2
100
AcDbCircle
 10
-11.9639
 20
46.5069
 30
0.0
 40
2.0000244424
100
AcDbArc
 50
139.999660834
 51
180.0
  0
ARC
  5
B8
100
AcDbEntity
  8
LEVEL_3
  6
CONTINUOUS
 62
         2
100
AcDbCircle
 10
-7.9967
 20
51.2349
 30
0.0
 40
2.0
100
AcDbArc
 50
90.0
 51
140.0018554224
  0
ARC
  5
B9
100
AcDbEntity
  8
LEVEL_3
  6
CONTINUOUS
 62
         2
100
AcDbCircle
 10
-5.1715
 20
51.2349
 30
0.0
 40
1.9998886019
100
AcDbArc
 50
68.0639924696
 51
90.0
  0
ARC
  5
BA
100
AcDbEntity
  8
LEVEL_3
  6
CONTINUOUS
 62
         2
100
AcDbCircle
 10
-0.5139
 20
49.7865
 30
0.0
 40
2.0
100
AcDbArc
 50
0.0
 51
77.3876042193
  0
ARC
  5
BB
100
AcDbEntity
  8
LEVEL_3
  6
CONTINUOUS
 62
         2
100
AcDbCircle
 10
12.5861
 20
49.7865
 30
0.0
 40
1.9999599446
100
AcDbArc
 50
102.6123957807
 51
180.0
  0
ARC
  5
BC
100
AcDbEntity
  8
LEVEL_3
  6
CONTINUOUS
 62
         2
100
AcDbCircle
 10
17.2438
 20
51.2349
 30
0.0
 40
2.0
100
AcDbArc
 50
90.0
 51
111.9386650118
  0
ARC
  5
BD
100
AcDbEntity
  8
LEVEL_3
  6
CONTINUOUS
 62
         2
100
AcDbCircle
 10
20.0689
 20
51.2349
 30
0.0
 40
1.9999601646
100
AcDbArc
 50
39.9981445776
 51
90.0
  0
ARC
  5
BE
100
AcDbEntity
  8
LEVEL_3
  6
CONTINUOUS
 62
         2
100
AcDbCircle
 10
24.0361
 20
46.5069
 30
0.0
 40
2.0
100
AcDbArc
 50
0.0
 51
40.000339166
  0
ARC
  5
BF
100
AcDbEntity
  8
LEVEL_3
  6
CONTINUOUS
 62
         2
100
AcDbCircle
 10
32.0361
 20
34.9945
 30
0.0
 40
6.0
100
AcDbArc
 50
180.0
 51
210.0002503019
  0
ARC
  5
C0
100
AcDbEntity
  8
LEVEL_3
  6
CONTINUOUS
 62
         2
100
AcDbCircle
 10
-19.9639
 20
34.9945
 30
0.0
 40
6.0000412032
100
AcDbArc
 50
330.0002271633
 51
360.0
  0
LINE
  5
C1
100
AcDbEntity
  8
LEVEL_3
  6
CONTINUOUS
 62
         2
100
AcDbLine
 10
10.5861
 20
46.7349
 30
0.0
 11
1.4861
 21
46.7349
 31
0.0
  0
LINE
  5
C2
100
AcDbEntity
  8
LEVEL_3
  6
CONTINUOUS
 62
         2
100
AcDbLine
 10
1.4861
 20
37.2349
 30
0.0
 11
10.5861
 21
37.2349
 31
0.0
  0
LINE
  5
C3
100
AcDbEntity
  8
LEVEL_3
  6
CONTINUOUS
 62
         2
100
AcDbLine
 10
1.4861
 20
37.2349
 30
0.0
 11
1.4861
 21
46.7349
 31
0.0
  0
LINE
  5
C4
100
AcDbEntity
  8
LEVEL_3
  6
CONTINUOUS
 62
         2
100
AcDbLine
 10
1.4861
 20
46.7349
 30
0.0
 11
1.4861
 21
46.8349
 31
0.0
  0
LINE
  5
C5
100
AcDbEntity
  8
LEVEL_3
  6
CONTINUOUS
 62
         2
100
AcDbLine
 10
10.5861
 20
37.2349
 30
0.0
 11
10.5861
 21
46.7349
 31
0.0
  0
LINE
  5
C6
100
AcDbEntity
  8
LEVEL_3
  6
CONTINUOUS
 62
         2
100
AcDbLine
 10
10.5861
 20
46.7349
 30
0.0
 11
10.5861
 21
46.8349
 31
0.0
  0
LINE
  5
C7
100
AcDbEntity
  8
LEVEL_3
  6
CENTER2
 62
         3
100
AcDbLine
 10
-8.4639
 20
39.4841
 30
0.0
 11
-8.4639
 21
44.4856
 31
0.0
  0
LINE
  5
C8
100
AcDbEntity
  8
LEVEL_3
  6
CENTER2
 62
         3
100
AcDbLine
 10
18.9361
 20
11.0
 30
0.0
 11
-6.8639
 21
11.0
 31
0.0
  0
LINE
  5
C9
100
AcDbEntity
  8
LEVEL_3
  6
CENTER2
 62
         3
100
AcDbLine
 10
6.0361
 20
56.9649
 30
0.0
 11
6.0361
 21
-18.9951
 31
0.0
  0
LINE
  5
CA
100
AcDbEntity
  8
LEVEL_3
  6
CENTER2
 62
         3
100
AcDbLine
 10
27.9361
 20
41.9849
 30
0.0
 11
-15.8639
 21
41.9849
 31
0.0
  0
LINE
  5
CB
100
AcDbEntity
  8
LEVEL_3
  6
CONTINUOUS
 62
         2
100
AcDbLine
 10
-11.5714
 20
23.0
 30
0.0
 11
-11.5714
 21
27.0
 31
0.0
  0
LINE
  5
CC
100
AcDbEntity
  8
LEVEL_3
  6
CONTINUOUS
 62
         2
100
AcDbLine
 10
-11.5714
 20
27.0
 30
0.0
 11
-10.4286
 21
27.0
 31
0.0
  0
LINE
  5
CD
100
AcDbEntity
  8
LEVEL_3
  6
CONTINUOUS
 62
         2
100
AcDbLine
 10
-11.5714
 20
25.0
 30
0.0
 11
-10.4286
 21
25.0
 31
0.0
  0
ARC
  5
CE
100
AcDbEntity
  8
LEVEL_3
  6
CONTINUOUS
 62
         2
100
AcDbCircle
 10
-10.4286
 20
26.1429
 30
0.0
 40
0.8572
100
AcDbArc
 50
0.0
 51
90.0
  0
ARC
  5
CF
100
AcDbEntity
  8
LEVEL_3
  6
CONTINUOUS
 62
         2
100
AcDbCircle
 10
-10.4286
 20
25.8571
 30
0.0
 40
0.8571
100
AcDbArc
 50
270.0
 51
360.0
  0
LINE
  5
D0
100
AcDbEntity
  8
LEVEL_3
  6
CONTINUOUS
 62
         2
100
AcDbLine
 10
-9.5714
 20
25.8571
 30
0.0
 11
-9.5714
 21
26.1429
 31
0.0
  0
LINE
  5
D1
100
AcDbEntity
  8
LEVEL_3
  6
CONTINUOUS
 62
         2
100
AcDbLine
 10
-10.4286
 20
25.0
 30
0.0
 11
-9.5714
 21
23.0
 31
0.0
  0
ARC
  5
D2
100
AcDbEntity
  8
LEVEL_3
  6
CONTINUOUS
 62
         2
100
AcDbCircle
 10
-8.1429
 20
23.8571
 30
0.0
 40
0.8571
100
AcDbArc
 50
180.0
 51
270.0
  0
LINE
  5
D3
100
AcDbEntity
  8
LEVEL_3
  6
CONTINUOUS
 62
         2
100
AcDbLine
 10
-8.1429
 20
23.0
 30
0.0
 11
-7.8571
 21
23.0
 31
0.0
  0
ARC
  5
D4
100
AcDbEntity
  8
LEVEL_3
  6
CONTINUOUS
 62
         2
100
AcDbCircle
 10
-7.8571
 20
23.8571
 30
0.0
 40
0.8571
100
AcDbArc
 50
270.0
 51
360.0
  0
LINE
  5
D5
100
AcDbEntity
  8
LEVEL_3
  6
CONTINUOUS
 62
         2
100
AcDbLine
 10
-9.0
 20
23.8571
 30
0.0
 11
-9.0
 21
27.0
 31
0.0
  0
LINE
  5
D6
100
AcDbEntity
  8
LEVEL_3
  6
CONTINUOUS
 62
         2
100
AcDbLine
 10
-7.0
 20
23.8571
 30
0.0
 11
-7.0
 21
27.0
 31
0.0
  0
LINE
  5
D7
100
AcDbEntity
  8
LEVEL_3
  6
CONTINUOUS
 62
         2
100
AcDbLine
 10
-6.4286
 20
23.0
 30
0.0
 11
-6.4286
 21
27.0
 31
0.0
  0
LINE
  5
D8
100
AcDbEntity
  8
LEVEL_3
  6
CONTINUOUS
 62
         2
100
AcDbLine
 10
-6.4286
 20
23.0
 30
0.0
 11
-5.2857
 21
23.0
 31
0.0
  0
LINE
  5
D9
100
AcDbEntity
  8
LEVEL_3
  6
CONTINUOUS
 62
         2
100
AcDbLine
 10
-6.4286
 20
27.0
 30
0.0
 11
-5.2857
 21
27.0
 31
0.0
  0
ARC
  5
DA
100
AcDbEntity
  8
LEVEL_3
  6
CONTINUOUS
 62
         2
100
AcDbCircle
 10
-5.2857
 20
26.1429
 30
0.0
 40
0.8571
100
AcDbArc
 50
0.0
 51
90.0
  0
ARC
  5
DB
100
AcDbEntity
  8
LEVEL_3
  6
CONTINUOUS
 62
         2
100
AcDbCircle
 10
-5.2857
 20
23.8571
 30
0.0
 40
0.8571
100
AcDbArc
 50
270.0
 51
360.0
  0
LINE
  5
DC
100
AcDbEntity
  8
LEVEL_3
  6
CONTINUOUS
 62
         2
100
AcDbLine
 10
-4.4286
 20
23.8571
 30
0.0
 11
-4.4286
 21
26.1429
 31
0.0
  0
LINE
  5
DD
100
AcDbEntity
  8
LEVEL_3
  6
CONTINUOUS
 62
         2
100
AcDbLine
 10
11.1429
 20
27.0
 30
0.0
 11
12.1429
 21
23.0
 31
0.0
  0
LINE
  5
DE
100
AcDbEntity
  8
LEVEL_3
  6
CONTINUOUS
 62
         2
100
AcDbLine
 10
12.1429
 20
23.0
 30
0.0
 11
13.1429
 21
27.0
 31
0.0
  0
LINE
  5
DF
100
AcDbEntity
  8
LEVEL_3
  6
CONTINUOUS
 62
         2
100
AcDbLine
 10
13.7143
 20
23.0
 30
0.0
 11
13.7143
 21
27.0
 31
0.0
  0
LINE
  5
E0
100
AcDbEntity
  8
LEVEL_3
  6
CONTINUOUS
 62
         2
100
AcDbLine
 10
13.7143
 20
23.0
 30
0.0
 11
15.4286
 21
23.0
 31
0.0
  0
LINE
  5
E1
100
AcDbEntity
  8
LEVEL_3
  6
CONTINUOUS
 62
         2
100
AcDbLine
 10
13.7143
 20
27.0
 30
0.0
 11
15.4286
 21
27.0
 31
0.0
  0
LINE
  5
E2
100
AcDbEntity
  8
LEVEL_3
  6
CONTINUOUS
 62
         2
100
AcDbLine
 10
13.7143
 20
25.0
 30
0.0
 11
15.1429
 21
25.0
 31
0.0
  0
LINE
  5
E3
100
AcDbEntity
  8
LEVEL_3
  6
CONTINUOUS
 62
         2
100
AcDbLine
 10
16.0
 20
23.0
 30
0.0
 11
16.0
 21
27.0
 31
0.0
  0
LINE
  5
E4
100
AcDbEntity
  8
LEVEL_3
  6
CONTINUOUS
 62
         2
100
AcDbLine
 10
16.0
 20
27.0
 30
0.0
 11
17.1429
 21
27.0
 31
0.0
  0
LINE
  5
E5
100
AcDbEntity
  8
LEVEL_3
  6
CONTINUOUS
 62
         2
100
AcDbLine
 10
16.0
 20
25.0
 30
0.0
 11
17.1429
 21
25.0
 31
0.0
  0
ARC
  5
E6
100
AcDbEntity
  8
LEVEL_3
  6
CONTINUOUS
 62
         2
100
AcDbCircle
 10
17.1429
 20
26.1429
 30
0.0
 40
0.8571
100
AcDbArc
 50
0.0
 51
90.0
  0
ARC
  5
E7
100
AcDbEntity
  8
LEVEL_3
  6
CONTINUOUS
 62
         2
100
AcDbCircle
 10
17.1429
 20
25.8571
 30
0.0
 40
0.8571
100
AcDbArc
 50
270.0
 51
360.0
  0
LINE
  5
E8
100
AcDbEntity
  8
LEVEL_3
  6
CONTINUOUS
 62
         2
100
AcDbLine
 10
18.0
 20
25.8571
 30
0.0
 11
18.0
 21
26.1429
 31
0.0
  0
LINE
  5
E9
100
AcDbEntity
  8
LEVEL_3
  6
CONTINUOUS
 62
         2
100
AcDbLine
 10
17.1429
 20
25.0
 30
0.0
 11
18.0
 21
23.0
 31
0.0
  0
ARC
  5
EA
100
AcDbEntity
  8
LEVEL_3
  6
CONTINUOUS
 62
         2
100
AcDbCircle
 10
19.4286
 20
23.8571
 30
0.0
 40
0.8572
100
AcDbArc
 50
180.0
 51
270.0
  0
LINE
  5
EB
100
AcDbEntity
  8
LEVEL_3
  6
CONTINUOUS
 62
         2
100
AcDbLine
 10
19.4286
 20
23.0
 30
0.0
 11
19.7143
 21
23.0
 31
0.0
  0
ARC
  5
EC
100
AcDbEntity
  8
LEVEL_3
  6
CONTINUOUS
 62
         2
100
AcDbCircle
 10
19.7143
 20
23.8571
 30
0.0
 40
0.8571
100
AcDbArc
 50
270.0
 51
360.0
  0
LINE
  5
ED
100
AcDbEntity
  8
LEVEL_3
  6
CONTINUOUS
 62
         2
100
AcDbLine
 10
20.5714
 20
23.8571
 30
0.0
 11
20.5714
 21
25.0
 31
0.0
  0
LINE
  5
EE
100
AcDbEntity
  8
LEVEL_3
  6
CONTINUOUS
 62
         2
100
AcDbLine
 10
20.5714
 20
25.0
 30
0.0
 11
19.5714
 21
25.0
 31
0.0
  0
LINE
  5
EF
100
AcDbEntity
  8
LEVEL_3
  6
CONTINUOUS
 62
         2
100
AcDbLine
 10
18.5714
 20
23.8571
 30
0.0
 11
18.5714
 21
26.1429
 31
0.0
  0
ARC
  5
F0
100
AcDbEntity
  8
LEVEL_3
  6
CONTINUOUS
 62
         2
100
AcDbCircle
 10
19.4286
 20
26.1429
 30
0.0
 40
0.8571
100
AcDbArc
 50
90.0
 51
180.0
  0
LINE
  5
F1
100
AcDbEntity
  8
LEVEL_3
  6
CONTINUOUS
 62
         2
100
AcDbLine
 10
19.4286
 20
27.0
 30
0.0
 11
19.7143
 21
27.0
 31
0.0
  0
ARC
  5
F2
100
AcDbEntity
  8
LEVEL_3
  6
CONTINUOUS
 62
         2
100
AcDbCircle
 10
19.7143
 20
26.1429
 30
0.0
 40
0.8571
100
AcDbArc
 50
0.0
 51
90.0
  0
LINE
  5
F3
100
AcDbEntity
  8
LEVEL_3
  6
CONTINUOUS
 62
         2
100
AcDbLine
 10
20.5714
 20
26.1429
 30
0.0
 11
20.5714
 21
25.8571
 31
0.0
  0
ARC
  5
F4
100
AcDbEntity
  8
LEVEL_3
  6
CONTINUOUS
 62
         2
100
AcDbCircle
 10
24.0
 20
26.1429
 30
0.0
 40
0.8571
100
AcDbArc
 50
0.0
 51
180.0
  0
LINE
  5
F5
100
AcDbEntity
  8
LEVEL_3
  6
CONTINUOUS
 62
         2
100
AcDbLine
 10
23.1429
 20
26.1429
 30
0.0
 11
23.1429
 21
25.7143
 31
0.0
  0
LINE
  5
F6
100
AcDbEntity
  8
LEVEL_3
  6
CONTINUOUS
 62
         2
100
AcDbLine
 10
24.8571
 20
26.1429
 30
0.0
 11
24.8571
 21
25.7143
 31
0.0
  0
ARC
  5
F7
100
AcDbEntity
  8
LEVEL_3
  6
CONTINUOUS
 62
         2
100
AcDbCircle
 10
23.7143
 20
25.7143
 30
0.0
 40
0.5714
100
AcDbArc
 50
180.0
 51
270.0
  0
ARC
  5
F8
100
AcDbEntity
  8
LEVEL_3
  6
CONTINUOUS
 62
         2
100
AcDbCircle
 10
24.2857
 20
25.7143
 30
0.0
 40
0.5714
100
AcDbArc
 50
270.0
 51
360.0
  0
LINE
  5
F9
100
AcDbEntity
  8
LEVEL_3
  6
CONTINUOUS
 62
         2
100
AcDbLine
 10
23.7143
 20
25.1429
 30
0.0
 11
24.2857
 21
25.1429
 31
0.0
  0
ARC
  5
FA
100
AcDbEntity
  8
LEVEL_3
  6
CONTINUOUS
 62
         2
100
AcDbCircle
 10
23.7143
 20
24.5714
 30
0.0
 40
0.5715
100
AcDbArc
 50
90.0
 51
180.0
  0
ARC
  5
FB
100
AcDbEntity
  8
LEVEL_3
  6
CONTINUOUS
 62
         2
100
AcDbCircle
 10
24.2857
 20
24.5714
 30
0.0
 40
0.5714
100
AcDbArc
 50
0.0
 51
90.0
  0
LINE
  5
FC
100
AcDbEntity
  8
LEVEL_3
  6
CONTINUOUS
 62
         2
100
AcDbLine
 10
23.1429
 20
24.5714
 30
0.0
 11
23.1429
 21
23.8571
 31
0.0
  0
LINE
  5
FD
100
AcDbEntity
  8
LEVEL_3
  6
CONTINUOUS
 62
         2
100
AcDbLine
 10
24.8571
 20
24.5714
 30
0.0
 11
24.8571
 21
23.8571
 31
0.0
  0
ARC
  5
FE
100
AcDbEntity
  8
LEVEL_3
  6
CONTINUOUS
 62
         2
100
AcDbCircle
 10
24.0
 20
23.8571
 30
0.0
 40
0.8571
100
AcDbArc
 50
180.0
 51
360.0
  0
LINE
  5
FF
100
AcDbEntity
  8
LEVEL_4
  6
CONTINUOUS
 62
         2
100
AcDbLine
 10
181.0
 20
42.7914
 30
0.0
 11
176.702
 21
18.416
 31
0.0
  0
LINE
  5
100
100
AcDbEntity
  8
LEVEL_4
  6
CONTINUOUS
 62
         2
100
AcDbLine
 10
231.0
 20
42.7914
 30
0.0
 11
235.298
 21
18.416
 31
0.0
  0
ARC
  5
101
100
AcDbEntity
  8
LEVEL_4
  6
CONTINUOUS
 62
         2
100
AcDbCircle
 10
206.0
 20
13.25
 30
0.0
 40
29.7499640336
100
AcDbArc
 50
170.0000528802
 51
9.9999471198
  0
CIRCLE
  5
102
100
AcDbEntity
  8
LEVEL_4
  6
CONTINUOUS
 62
         2
100
AcDbCircle
 10
206.0
 20
13.25
 30
0.0
 40
13.25
  0
ARC
  5
103
100
AcDbEntity
  8
LEVEL_4
  6
CONTINUOUS
 62
         2
100
AcDbCircle
 10
206.0
 20
39.1
 30
0.0
 40
5.6
100
AcDbArc
 50
180.0
 51
360.0
  0
LINE
  5
104
100
AcDbEntity
  8
LEVEL_4
  6
CONTINUOUS
 62
         2
100
AcDbLine
 10
211.6
 20
61.7235
 30
0.0
 11
211.6
 21
58.1
 31
0.0
  0
LINE
  5
105
100
AcDbEntity
  8
LEVEL_4
  6
CONTINUOUS
 62
         2
100
AcDbLine
 10
200.4
 20
39.1
 30
0.0
 11
200.4
 21
45.9
 31
0.0
  0
LINE
  5
106
100
AcDbEntity
  8
LEVEL_4
  6
CONTINUOUS
 62
         2
100
AcDbLine
 10
211.6
 20
58.1
 30
0.0
 11
211.6
 21
58.0
 31
0.0
  0
LINE
  5
107
100
AcDbEntity
  8
LEVEL_4
  6
CONTINUOUS
 62
         2
100
AcDbLine
 10
211.6
 20
45.9
 30
0.0
 11
211.6
 21
39.1
 31
0.0
  0
LINE
  5
108
100
AcDbEntity
  8
LEVEL_4
  6
CONTINUOUS
 62
         2
100
AcDbLine
 10
200.4
 20
45.9
 30
0.0
 11
200.4
 21
46.0
 31
0.0
  0
LINE
  5
109
100
AcDbEntity
  8
LEVEL_4
  6
CONTINUOUS
 62
         2
100
AcDbLine
 10
200.4
 20
58.1
 30
0.0
 11
200.4
 21
61.7235
 31
0.0
  0
CIRCLE
  5
10A
100
AcDbEntity
  8
LEVEL_4
  6
CONTINUOUS
 62
         2
100
AcDbCircle
 10
188.5
 20
52.0
 30
0.0
 40
2.5
  0
LINE
  5
10B
100
AcDbEntity
  8
LEVEL_4
  6
CONTINUOUS
 62
         2
100
AcDbLine
 10
231.0
 20
42.7914
 30
0.0
 11
231.0
 21
58.0901
 31
0.0
  0
LINE
  5
10C
100
AcDbEntity
  8
LEVEL_4
  6
CONTINUOUS
 62
         2
100
AcDbLine
 10
230.4151
 20
59.697
 30
0.0
 11
225.8756
 21
65.107
 31
0.0
  0
LINE
  5
10D
100
AcDbEntity
  8
LEVEL_4
  6
CONTINUOUS
 62
         2
100
AcDbLine
 10
223.9605
 20
66.0
 30
0.0
 11
220.0065
 21
66.0
 31
0.0
  0
ARC
  5
10E
100
AcDbEntity
  8
LEVEL_4
  6
CONTINUOUS
 62
         2
100
AcDbCircle
 10
206.0
 20
99.3618
 30
0.0
 40
36.000058729
100
AcDbArc
 50
282.1451229784
 51
291.3340912605
  0
ARC
  5
10F
100
AcDbEntity
  8
LEVEL_4
  6
CONTINUOUS
 62
         2
100
AcDbCircle
 10
206.0
 20
99.3618
 30
0.0
 40
36.0000028418
100
AcDbArc
 50
248.6659087395
 51
257.8548770216
  0
LINE
  5
110
100
AcDbEntity
  8
LEVEL_4
  6
CONTINUOUS
 62
         2
100
AcDbLine
 10
191.9935
 20
66.0
 30
0.0
 11
188.0395
 21
66.0
 31
0.0
  0
LINE
  5
111
100
AcDbEntity
  8
LEVEL_4
  6
CONTINUOUS
 62
         2
100
AcDbLine
 10
186.1244
 20
65.107
 30
0.0
 11
181.5849
 21
59.697
 31
0.0
  0
LINE
  5
112
100
AcDbEntity
  8
LEVEL_4
  6
CONTINUOUS
 62
         2
100
AcDbLine
 10
181.0
 20
58.0901
 30
0.0
 11
181.0
 21
42.7914
 31
0.0
  0
ARC
  5
113
100
AcDbEntity
  8
LEVEL_4
  6
CONTINUOUS
 62
         2
100
AcDbCircle
 10
197.9
 20
61.7235
 30
0.0
 40
2.5
100
AcDbArc
 50
0.0
 51
77.8540202472
  0
ARC
  5
114
100
AcDbEntity
  8
LEVEL_4
  6
CONTINUOUS
 62
         2
100
AcDbCircle
 10
191.9935
 20
63.5
 30
0.0
 40
2.500006788
100
AcDbArc
 50
68.6663094587
 51
90.0
  0
ARC
  5
115
100
AcDbEntity
  8
LEVEL_4
  6
CONTINUOUS
 62
         2
100
AcDbCircle
 10
188.0395
 20
63.5
 30
0.0
 40
2.5
100
AcDbArc
 50
90.0
 51
139.9992925429
  0
ARC
  5
116
100
AcDbEntity
  8
LEVEL_4
  6
CONTINUOUS
 62
         2
100
AcDbCircle
 10
183.5
 20
58.0901
 30
0.0
 40
2.4999471234
100
AcDbArc
 50
140.0010482063
 51
180.0
  0
ARC
  5
117
100
AcDbEntity
  8
LEVEL_4
  6
CONTINUOUS
 62
         2
100
AcDbCircle
 10
214.1
 20
61.7235
 30
0.0
 40
2.4999623997
100
AcDbArc
 50
102.1459797528
 51
180.0
  0
ARC
  5
118
100
AcDbEntity
  8
LEVEL_4
  6
CONTINUOUS
 62
         2
100
AcDbCircle
 10
220.0065
 20
63.5
 30
0.0
 40
2.5
100
AcDbArc
 50
90.0
 51
111.3336905413
  0
ARC
  5
119
100
AcDbEntity
  8
LEVEL_4
  6
CONTINUOUS
 62
         2
100
AcDbCircle
 10
223.9605
 20
63.5
 30
0.0
 40
2.500011402
100
AcDbArc
 50
40.0007074571
 51
90.0
  0
ARC
  5
11A
100
AcDbEntity
  8
LEVEL_4
  6
CONTINUOUS
 62
         2
100
AcDbCircle
 10
228.5
 20
58.0901
 30
0.0
 40
2.5
100
AcDbArc
 50
0.0
 51
39.9989517936
  0
LINE
  5
11B
100
AcDbEntity
  8
LEVEL_4
  6
CONTINUOUS
 62
         2
100
AcDbLine
 10
211.6
 20
58.0
 30
0.0
 11
200.4
 21
58.0
 31
0.0
  0
LINE
  5
11C
100
AcDbEntity
  8
LEVEL_4
  6
CONTINUOUS
 62
         2
100
AcDbLine
 10
200.4
 20
46.0
 30
0.0
 11
211.6
 21
46.0
 31
0.0
  0
LINE
  5
11D
100
AcDbEntity
  8
LEVEL_4
  6
CONTINUOUS
 62
         2
100
AcDbLine
 10
211.6
 20
58.0
 30
0.0
 11
211.6
 21
46.0
 31
0.0
  0
LINE
  5
11E
100
AcDbEntity
  8
LEVEL_4
  6
CONTINUOUS
 62
         2
100
AcDbLine
 10
211.6
 20
46.0
 30
0.0
 11
211.6
 21
45.9
 31
0.0
  0
LINE
  5
11F
100
AcDbEntity
  8
LEVEL_4
  6
CONTINUOUS
 62
         2
100
AcDbLine
 10
200.4
 20
46.0
 30
0.0
 11
200.4
 21
58.0
 31
0.0
  0
LINE
  5
120
100
AcDbEntity
  8
LEVEL_4
  6
CONTINUOUS
 62
         2
100
AcDbLine
 10
200.4
 20
58.0
 30
0.0
 11
200.4
 21
58.1
 31
0.0
  0
LINE
  5
121
100
AcDbEntity
  8
LEVEL_4
  6
CENTER2
 62
         3
100
AcDbLine
 10
188.5
 20
48.4275
 30
0.0
 11
188.5
 21
55.5725
 31
0.0
  0
LINE
  5
122
100
AcDbEntity
  8
LEVEL_4
  6
CENTER2
 62
         3
100
AcDbLine
 10
221.6
 20
13.25
 30
0.0
 11
190.4
 21
13.25
 31
0.0
  0
LINE
  5
123
100
AcDbEntity
  8
LEVEL_4
  6
CENTER2
 62
         3
100
AcDbLine
 10
206.0
 20
70.6075
 30
0.0
 11
206.0
 21
-22.6746
 31
0.0
  0
LINE
  5
124
100
AcDbEntity
  8
LEVEL_4
  6
CENTER2
 62
         3
100
AcDbLine
 10
232.38
 20
52.0
 30
0.0
 11
179.62
 21
52.0
 31
0.0
  0
LINE
  5
125
100
AcDbEntity
  8
LEVEL_4
  6
CONTINUOUS
 62
         2
100
AcDbLine
 10
184.5357
 20
28.0
 30
0.0
 11
184.5357
 21
33.0
 31
0.0
  0
LINE
  5
126
100
AcDbEntity
  8
LEVEL_4
  6
CONTINUOUS
 62
         2
100
AcDbLine
 10
184.5357
 20
33.0
 30
0.0
 11
185.9643
 21
33.0
 31
0.0
  0
LINE
  5
127
100
AcDbEntity
  8
LEVEL_4
  6
CONTINUOUS
 62
         2
100
AcDbLine
 10
184.5357
 20
30.5
 30
0.0
 11
185.9643
 21
30.5
 31
0.0
  0
ARC
  5
128
100
AcDbEntity
  8
LEVEL_4
  6
CONTINUOUS
 62
         2
100
AcDbCircle
 10
185.9643
 20
31.9286
 30
0.0
 40
1.0714
100
AcDbArc
 50
0.0
 51
90.0
  0
ARC
  5
129
100
AcDbEntity
  8
LEVEL_4
  6
CONTINUOUS
 62
         2
100
AcDbCircle
 10
185.9643
 20
31.5714
 30
0.0
 40
1.0714
100
AcDbArc
 50
270.0
 51
360.0
  0
LINE
  5
12A
100
AcDbEntity
  8
LEVEL_4
  6
CONTINUOUS
 62
         2
100
AcDbLine
 10
187.0357
 20
31.5714
 30
0.0
 11
187.0357
 21
31.9286
 31
0.0
  0
LINE
  5
12B
100
AcDbEntity
  8
LEVEL_4
  6
CONTINUOUS
 62
         2
100
AcDbLine
 10
185.9643
 20
30.5
 30
0.0
 11
187.0357
 21
28.0
 31
0.0
  0
ARC
  5
12C
100
AcDbEntity
  8
LEVEL_4
  6
CONTINUOUS
 62
         2
100
AcDbCircle
 10
188.8214
 20
29.0714
 30
0.0
 40
1.0714
100
AcDbArc
 50
180.0
 51
270.0
  0
LINE
  5
12D
100
AcDbEntity
  8
LEVEL_4
  6
CONTINUOUS
 62
         2
100
AcDbLine
 10
188.8214
 20
28.0
 30
0.0
 11
189.1786
 21
28.0
 31
0.0
  0
ARC
  5
12E
100
AcDbEntity
  8
LEVEL_4
  6
CONTINUOUS
 62
         2
100
AcDbCircle
 10
189.1786
 20
29.0714
 30
0.0
 40
1.0714
100
AcDbArc
 50
270.0
 51
360.0
  0
LINE
  5
12F
100
AcDbEntity
  8
LEVEL_4
  6
CONTINUOUS
 62
         2
100
AcDbLine
 10
187.75
 20
29.0714
 30
0.0
 11
187.75
 21
33.0
 31
0.0
  0
LINE
  5
130
100
AcDbEntity
  8
LEVEL_4
  6
CONTINUOUS
 62
         2
100
AcDbLine
 10
190.25
 20
29.0714
 30
0.0
 11
190.25
 21
33.0
 31
0.0
  0
LINE
  5
131
100
AcDbEntity
  8
LEVEL_4
  6
CONTINUOUS
 62
         2
100
AcDbLine
 10
190.9643
 20
28.0
 30
0.0
 11
190.9643
 21
33.0
 31
0.0
  0
LINE
  5
132
100
AcDbEntity
  8
LEVEL_4
  6
CONTINUOUS
 62
         2
100
AcDbLine
 10
190.9643
 20
28.0
 30
0.0
 11
192.3929
 21
28.0
 31
0.0
  0
LINE
  5
133
100
AcDbEntity
  8
LEVEL_4
  6
CONTINUOUS
 62
         2
100
AcDbLine
 10
190.9643
 20
33.0
 30
0.0
 11
192.3929
 21
33.0
 31
0.0
  0
ARC
  5
134
100
AcDbEntity
  8
LEVEL_4
  6
CONTINUOUS
 62
         2
100
AcDbCircle
 10
192.3929
 20
31.9286
 30
0.0
 40
1.0714
100
AcDbArc
 50
0.0
 51
90.0
  0
ARC
  5
135
100
AcDbEntity
  8
LEVEL_4
  6
CONTINUOUS
 62
         2
100
AcDbCircle
 10
192.3929
 20
29.0714
 30
0.0
 40
1.0714
100
AcDbArc
 50
270.0
 51
360.0
  0
LINE
  5
136
100
AcDbEntity
  8
LEVEL_4
  6
CONTINUOUS
 62
         2
100
AcDbLine
 10
193.4643
 20
29.0714
 30
0.0
 11
193.4643
 21
31.9286
 31
0.0
  0
LINE
  5
137
100
AcDbEntity
  8
LEVEL_4
  6
CONTINUOUS
 62
         2
100
AcDbLine
 10
211.3571
 20
33.0
 30
0.0
 11
212.6071
 21
28.0
 31
0.0
  0
LINE
  5
138
100
AcDbEntity
  8
LEVEL_4
  6
CONTINUOUS
 62
         2
100
AcDbLine
 10
212.6071
 20
28.0
 30
0.0
 11
213.8571
 21
33.0
 31
0.0
  0
LINE
  5
139
100
AcDbEntity
  8
LEVEL_4
  6
CONTINUOUS
 62
         2
100
AcDbLine
 10
214.5714
 20
28.0
 30
0.0
 11
214.5714
 21
33.0
 31
0.0
  0
LINE
  5
13A
100
AcDbEntity
  8
LEVEL_4
  6
CONTINUOUS
 62
         2
100
AcDbLine
 10
214.5714
 20
28.0
 30
0.0
 11
216.7143
 21
28.0
 31
0.0
  0
LINE
  5
13B
100
AcDbEntity
  8
LEVEL_4
  6
CONTINUOUS
 62
         2
100
AcDbLine
 10
214.5714
 20
33.0
 30
0.0
 11
216.7143
 21
33.0
 31
0.0
  0
LINE
  5
13C
100
AcDbEntity
  8
LEVEL_4
  6
CONTINUOUS
 62
         2
100
AcDbLine
 10
214.5714
 20
30.5
 30
0.0
 11
216.3571
 21
30.5
 31
0.0
  0
LINE
  5
13D
100
AcDbEntity
  8
LEVEL_4
  6
CONTINUOUS
 62
         2
100
AcDbLine
 10
217.4286
 20
28.0
 30
0.0
 11
217.4286
 21
33.0
 31
0.0
  0
LINE
  5
13E
100
AcDbEntity
  8
LEVEL_4
  6
CONTINUOUS
 62
         2
100
AcDbLine
 10
217.4286
 20
33.0
 30
0.0
 11
218.8571
 21
33.0
 31
0.0
  0
LINE
  5
13F
100
AcDbEntity
  8
LEVEL_4
  6
CONTINUOUS
 62
         2
100
AcDbLine
 10
217.4286
 20
30.5
 30
0.0
 11
218.8571
 21
30.5
 31
0.0
  0
ARC
  5
140
100
AcDbEntity
  8
LEVEL_4
  6
CONTINUOUS
 62
         2
100
AcDbCircle
 10
218.8571
 20
31.9286
 30
0.0
 40
1.0715
100
AcDbArc
 50
0.0
 51
90.0
  0
ARC
  5
141
100
AcDbEntity
  8
LEVEL_4
  6
CONTINUOUS
 62
         2
100
AcDbCircle
 10
218.8571
 20
31.5714
 30
0.0
 40
1.0714
100
AcDbArc
 50
270.0
 51
360.0
  0
LINE
  5
142
100
AcDbEntity
  8
LEVEL_4
  6
CONTINUOUS
 62
         2
100
AcDbLine
 10
219.9286
 20
31.5714
 30
0.0
 11
219.9286
 21
31.9286
 31
0.0
  0
LINE
  5
143
100
AcDbEntity
  8
LEVEL_4
  6
CONTINUOUS
 62
         2
100
AcDbLine
 10
218.8571
 20
30.5
 30
0.0
 11
219.9286
 21
28.0
 31
0.0
  0
ARC
  5
144
100
AcDbEntity
  8
LEVEL_4
  6
CONTINUOUS
 62
         2
100
AcDbCircle
 10
221.7143
 20
29.0714
 30
0.0
 40
1.0714
100
AcDbArc
 50
180.0
 51
270.0
  0
LINE
  5
145
100
AcDbEntity
  8
LEVEL_4
  6
CONTINUOUS
 62
         2
100
AcDbLine
 10
221.7143
 20
28.0
 30
0.0
 11
222.0714
 21
28.0
 31
0.0
  0
ARC
  5
146
100
AcDbEntity
  8
LEVEL_4
  6
CONTINUOUS
 62
         2
100
AcDbCircle
 10
222.0714
 20
29.0714
 30
0.0
 40
1.0714
100
AcDbArc
 50
270.0
 51
360.0
  0
LINE
  5
147
100
AcDbEntity
  8
LEVEL_4
  6
CONTINUOUS
 62
         2
100
AcDbLine
 10
223.1429
 20
29.0714
 30
0.0
 11
223.1429
 21
30.5
 31
0.0
  0
LINE
  5
148
100
AcDbEntity
  8
LEVEL_4
  6
CONTINUOUS
 62
         2
100
AcDbLine
 10
223.1429
 20
30.5
 30
0.0
 11
221.8929
 21
30.5
 31
0.0
  0
LINE
  5
149
100
AcDbEntity
  8
LEVEL_4
  6
CONTINUOUS
 62
         2
100
AcDbLine
 10
220.6429
 20
29.0714
 30
0.0
 11
220.6429
 21
31.9286
 31
0.0
  0
ARC
  5
14A
100
AcDbEntity
  8
LEVEL_4
  6
CONTINUOUS
 62
         2
100
AcDbCircle
 10
221.7143
 20
31.9286
 30
0.0
 40
1.0714
100
AcDbArc
 50
90.0
 51
180.0
  0
LINE
  5
14B
100
AcDbEntity
  8
LEVEL_4
  6
CONTINUOUS
 62
         2
100
AcDbLine
 10
221.7143
 20
33.0
 30
0.0
 11
222.0714
 21
33.0
 31
0.0
  0
ARC
  5
14C
100
AcDbEntity
  8
LEVEL_4
  6
CONTINUOUS
 62
         2
100
AcDbCircle
 10
222.0714
 20
31.9286
 30
0.0
 40
1.0715
100
AcDbArc
 50
0.0
 51
90.0
  0
LINE
  5
14D
100
AcDbEntity
  8
LEVEL_4
  6
CONTINUOUS
 62
         2
100
AcDbLine
 10
223.1429
 20
31.9286
 30
0.0
 11
223.1429
 21
31.5714
 31
0.0
  0
LINE
  5
14E
100
AcDbEntity
  8
LEVEL_4
  6
CONTINUOUS
 62
         2
100
AcDbLine
 10
227.7857
 20
28.0
 30
0.0
 11
227.7857
 21
33.0
 31
0.0
  0
LINE
  5
14F
100
AcDbEntity
  8
LEVEL_4
  6
CONTINUOUS
 62
         2
100
AcDbLine
 10
226.3571
 20
31.9286
 30
0.0
 11
227.7857
 21
33.0
 31
0.0
  0
ARC
  5
150
100
AcDbEntity
  8
LEVEL_4
  6
CONTINUOUS
 62
         2
100
AcDbCircle
 10
229.5714
 20
29.0714
 30
0.0
 40
1.0714
100
AcDbArc
 50
180.0
 51
360.0
  0
LINE
  5
151
100
AcDbEntity
  8
LEVEL_4
  6
CONTINUOUS
 62
         2
100
AcDbLine
 10
228.5
 20
29.0714
 30
0.0
 11
228.5
 21
31.9286
 31
0.0
  0
LINE
  5
152
100
AcDbEntity
  8
LEVEL_4
  6
CONTINUOUS
 62
         2
100
AcDbLine
 10
230.6429
 20
29.0714
 30
0.0
 11
230.6429
 21
31.9286
 31
0.0
  0
ARC
  5
153
100
AcDbEntity
  8
LEVEL_4
  6
CONTINUOUS
 62
         2
100
AcDbCircle
 10
229.5714
 20
31.9286
 30
0.0
 40
1.0715
100
AcDbArc
 50
0.0
 51
180.0
  0
LINE
  5
154
100
AcDbEntity
  8
LEVEL_5
  6
CONTINUOUS
 62
         2
100
AcDbLine
 10
394.0
 20
57.7568
 30
0.0
 11
388.865
 21
21.219
 31
0.0
  0
LINE
  5
155
100
AcDbEntity
  8
LEVEL_5
  6
CONTINUOUS
 62
         2
100
AcDbLine
 10
463.1351
 20
21.219
 30
0.0
 11
458.0
 21
57.7568
 31
0.0
  0
ARC
  5
156
100
AcDbEntity
  8
LEVEL_5
  6
CONTINUOUS
 62
         2
100
AcDbCircle
 10
426.0
 20
16.0
 30
0.0
 40
37.4999491466
100
AcDbArc
 50
171.9999756353
 51
8.0000031005
  0
ARC
  5
157
100
AcDbEntity
  8
LEVEL_5
  6
CONTINUOUS
 62
         2
100
AcDbCircle
 10
426.0
 20
48.6
 30
0.0
 40
7.1
100
AcDbArc
 50
180.0
 51
360.0
  0
CIRCLE
  5
158
100
AcDbEntity
  8
LEVEL_5
  6
CONTINUOUS
 62
         2
100
AcDbCircle
 10
426.0
 20
16.0
 30
0.0
 40
16.0
  0
LINE
  5
159
100
AcDbEntity
  8
LEVEL_5
  6
CONTINUOUS
 62
         2
100
AcDbLine
 10
418.9
 20
77.7102
 30
0.0
 11
418.9
 21
73.85
 31
0.0
  0
LINE
  5
15A
100
AcDbEntity
  8
LEVEL_5
  6
CONTINUOUS
 62
         2
100
AcDbLine
 10
433.1
 20
48.6
 30
0.0
 11
433.1
 21
58.15
 31
0.0
  0
LINE
  5
15B
100
AcDbEntity
  8
LEVEL_5
  6
CONTINUOUS
 62
         2
100
AcDbLine
 10
418.9
 20
73.85
 30
0.0
 11
418.9
 21
73.75
 31
0.0
  0
LINE
  5
15C
100
AcDbEntity
  8
LEVEL_5
  6
CONTINUOUS
 62
         2
100
AcDbLine
 10
418.9
 20
58.15
 30
0.0
 11
418.9
 21
48.6
 31
0.0
  0
LINE
  5
15D
100
AcDbEntity
  8
LEVEL_5
  6
CONTINUOUS
 62
         2
100
AcDbLine
 10
433.1
 20
58.15
 30
0.0
 11
433.1
 21
58.25
 31
0.0
  0
LINE
  5
15E
100
AcDbEntity
  8
LEVEL_5
  6
CONTINUOUS
 62
         2
100
AcDbLine
 10
433.1
 20
73.85
 30
0.0
 11
433.1
 21
77.7102
 31
0.0
  0
CIRCLE
  5
15F
100
AcDbEntity
  8
LEVEL_5
  6
CONTINUOUS
 62
         2
100
AcDbCircle
 10
403.0
 20
66.0
 30
0.0
 40
3.0
  0
LINE
  5
160
100
AcDbEntity
  8
LEVEL_5
  6
CONTINUOUS
 62
         2
100
AcDbLine
 10
458.0
 20
57.7568
 30
0.0
 11
458.0
 21
73.7783
 31
0.0
  0
LINE
  5
161
100
AcDbEntity
  8
LEVEL_5
  6
CONTINUOUS
 62
         2
100
AcDbLine
 10
457.3174
 20
76.0132
 30
0.0
 11
453.126
 21
82.2349
 31
0.0
  0
LINE
  5
162
100
AcDbEntity
  8
LEVEL_5
  6
CONTINUOUS
 62
         2
100
AcDbLine
 10
449.8085
 20
84.0
 30
0.0
 11
444.345
 21
84.0
 31
0.0
  0
ARC
  5
163
100
AcDbEntity
  8
LEVEL_5
  6
CONTINUOUS
 62
         2
100
AcDbCircle
 10
426.0
 20
125.4364
 30
0.0
 40
45.0000225472
100
AcDbArc
 50
283.092922673
 51
291.9863961642
  0
ARC
  5
164
100
AcDbEntity
  8
LEVEL_5
  6
CONTINUOUS
 62
         2
100
AcDbCircle
 10
426.0
 20
125.4364
 30
0.0
 40
45.000027245
100
AcDbArc
 50
248.0136038358
 51
256.907077327
  0
LINE
  5
165
100
AcDbEntity
  8
LEVEL_5
  6
CONTINUOUS
 62
         2
100
AcDbLine
 10
407.655
 20
84.0
 30
0.0
 11
403.4171
 21
84.0
 31
0.0
  0
LINE
  5
166
100
AcDbEntity
  8
LEVEL_5
  6
CONTINUOUS
 62
         2
100
AcDbLine
 10
400.353
 20
82.5712
 30
0.0
 11
394.9358
 21
76.1153
 31
0.0
  0
LINE
  5
167
100
AcDbEntity
  8
LEVEL_5
  6
CONTINUOUS
 62
         2
100
AcDbLine
 10
394.0
 20
73.5441
 30
0.0
 11
394.0
 21
57.7568
 31
0.0
  0
ARC
  5
168
100
AcDbEntity
  8
LEVEL_5
  6
CONTINUOUS
 62
         2
100
AcDbCircle
 10
454.0
 20
73.7783
 30
0.0
 40
4.0
100
AcDbArc
 50
0.0
 51
33.9677643522
  0
ARC
  5
169
100
AcDbEntity
  8
LEVEL_5
  6
CONTINUOUS
 62
         2
100
AcDbCircle
 10
449.8085
 20
80.0
 30
0.0
 40
4.0000730318
100
AcDbArc
 50
33.9669640502
 51
90.0
  0
ARC
  5
16A
100
AcDbEntity
  8
LEVEL_5
  6
CONTINUOUS
 62
         2
100
AcDbCircle
 10
444.345
 20
80.0
 30
0.0
 40
4.0
100
AcDbArc
 50
90.0
 51
111.9870687923
  0
ARC
  5
16B
100
AcDbEntity
  8
LEVEL_5
  6
CONTINUOUS
 62
         2
100
AcDbCircle
 10
437.1
 20
77.7102
 30
0.0
 40
3.9999791512
100
AcDbArc
 50
103.0926393186
 51
180.0
  0
ARC
  5
16C
100
AcDbEntity
  8
LEVEL_5
  6
CONTINUOUS
 62
         2
100
AcDbCircle
 10
414.9
 20
77.7102
 30
0.0
 40
4.0
100
AcDbArc
 50
0.0
 51
76.9073606814
  0
ARC
  5
16D
100
AcDbEntity
  8
LEVEL_5
  6
CONTINUOUS
 62
         2
100
AcDbCircle
 10
407.655
 20
80.0
 30
0.0
 40
4.0000285711
100
AcDbArc
 50
68.0129312077
 51
90.0
  0
ARC
  5
16E
100
AcDbEntity
  8
LEVEL_5
  6
CONTINUOUS
 62
         2
100
AcDbCircle
 10
403.4171
 20
80.0
 30
0.0
 40
4.0
100
AcDbArc
 50
90.0
 51
139.9987400957
  0
ARC
  5
16F
100
AcDbEntity
  8
LEVEL_5
  6
CONTINUOUS
 62
         2
100
AcDbCircle
 10
398.0
 20
73.5441
 30
0.0
 40
4.0000488847
100
AcDbArc
 50
139.999660834
 51
180.0
  0
LINE
  5
170
100
AcDbEntity
  8
LEVEL_5
  6
CONTINUOUS
 62
         2
100
AcDbLine
 10
433.1
 20
73.75
 30
0.0
 11
418.9
 21
73.75
 31
0.0
  0
LINE
  5
171
100
AcDbEntity
  8
LEVEL_5
  6
CONTINUOUS
 62
         2
100
AcDbLine
 10
418.9
 20
58.25
 30
0.0
 11
433.1
 21
58.25
 31
0.0
  0
LINE
  5
172
100
AcDbEntity
  8
LEVEL_5
  6
CONTINUOUS
 62
         2
100
AcDbLine
 10
418.9
 20
73.75
 30
0.0
 11
418.9
 21
58.25
 31
0.0
  0
LINE
  5
173
100
AcDbEntity
  8
LEVEL_5
  6
CONTINUOUS
 62
         2
100
AcDbLine
 10
418.9
 20
58.25
 30
0.0
 11
418.9
 21
58.15
 31
0.0
  0
LINE
  5
174
100
AcDbEntity
  8
LEVEL_5
  6
CONTINUOUS
 62
         2
100
AcDbLine
 10
433.1
 20
58.25
 30
0.0
 11
433.1
 21
73.75
 31
0.0
  0
LINE
  5
175
100
AcDbEntity
  8
LEVEL_5
  6
CONTINUOUS
 62
         2
100
AcDbLine
 10
433.1
 20
73.75
 30
0.0
 11
433.1
 21
73.85
 31
0.0
  0
LINE
  5
176
100
AcDbEntity
  8
LEVEL_5
  6
CENTER2
 62
         3
100
AcDbLine
 10
460.5
 20
66.0
 30
0.0
 11
391.5
 21
66.0
 31
0.0
  0
LINE
  5
177
100
AcDbEntity
  8
LEVEL_5
  6
CENTER2
 62
         3
100
AcDbLine
 10
444.9
 20
16.0
 30
0.0
 11
407.1
 21
16.0
 31
0.0
  0
LINE
  5
178
100
AcDbEntity
  8
LEVEL_5
  6
CENTER2
 62
         3
100
AcDbLine
 10
426.0
 20
90.7333
 30
0.0
 11
426.0
 21
-28.2333
 31
0.0
  0
LINE
  5
179
100
AcDbEntity
  8
LEVEL_5
  6
CENTER2
 62
         3
100
AcDbLine
 10
403.0
 20
70.287
 30
0.0
 11
403.0
 21
61.713
 31
0.0
  0
LINE
  5
17A
100
AcDbEntity
  8
LEVEL_5
  6
CONTINUOUS
 62
         2
100
AcDbLine
 10
398.75
 20
35.0
 30
0.0
 11
398.75
 21
42.0
 31
0.0
  0
LINE
  5
17B
100
AcDbEntity
  8
LEVEL_5
  6
CONTINUOUS
 62
         2
100
AcDbLine
 10
398.75
 20
42.0
 30
0.0
 11
400.75
 21
42.0
 31
0.0
  0
LINE
  5
17C
100
AcDbEntity
  8
LEVEL_5
  6
CONTINUOUS
 62
         2
100
AcDbLine
 10
398.75
 20
38.5
 30
0.0
 11
400.75
 21
38.5
 31
0.0
  0
ARC
  5
17D
100
AcDbEntity
  8
LEVEL_5
  6
CONTINUOUS
 62
         2
100
AcDbCircle
 10
400.75
 20
40.5
 30
0.0
 40
1.5
100
AcDbArc
 50
0.0
 51
90.0
  0
ARC
  5
17E
100
AcDbEntity
  8
LEVEL_5
  6
CONTINUOUS
 62
         2
100
AcDbCircle
 10
400.75
 20
40.0
 30
0.0
 40
1.5
100
AcDbArc
 50
270.0
 51
360.0
  0
LINE
  5
17F
100
AcDbEntity
  8
LEVEL_5
  6
CONTINUOUS
 62
         2
100
AcDbLine
 10
402.25
 20
40.0
 30
0.0
 11
402.25
 21
40.5
 31
0.0
  0
LINE
  5
180
100
AcDbEntity
  8
LEVEL_5
  6
CONTINUOUS
 62
         2
100
AcDbLine
 10
400.75
 20
38.5
 30
0.0
 11
402.25
 21
35.0
 31
0.0
  0
ARC
  5
181
100
AcDbEntity
  8
LEVEL_5
  6
CONTINUOUS
 62
         2
100
AcDbCircle
 10
404.75
 20
36.5
 30
0.0
 40
1.5
100
AcDbArc
 50
180.0
 51
270.0
  0
LINE
  5
182
100
AcDbEntity
  8
LEVEL_5
  6
CONTINUOUS
 62
         2
100
AcDbLine
 10
404.75
 20
35.0
 30
0.0
 11
405.25
 21
35.0
 31
0.0
  0
ARC
  5
183
100
AcDbEntity
  8
LEVEL_5
  6
CONTINUOUS
 62
         2
100
AcDbCircle
 10
405.25
 20
36.5
 30
0.0
 40
1.5
100
AcDbArc
 50
270.0
 51
360.0
  0
LINE
  5
184
100
AcDbEntity
  8
LEVEL_5
  6
CONTINUOUS
 62
         2
100
AcDbLine
 10
403.25
 20
36.5
 30
0.0
 11
403.25
 21
42.0
 31
0.0
  0
LINE
  5
185
100
AcDbEntity
  8
LEVEL_5
  6
CONTINUOUS
 62
         2
100
AcDbLine
 10
406.75
 20
36.5
 30
0.0
 11
406.75
 21
42.0
 31
0.0
  0
LINE
  5
186
100
AcDbEntity
  8
LEVEL_5
  6
CONTINUOUS
 62
         2
100
AcDbLine
 10
407.75
 20
35.0
 30
0.0
 11
407.75
 21
42.0
 31
0.0
  0
LINE
  5
187
100
AcDbEntity
  8
LEVEL_5
  6
CONTINUOUS
 62
         2
100
AcDbLine
 10
407.75
 20
35.0
 30
0.0
 11
409.75
 21
35.0
 31
0.0
  0
LINE
  5
188
100
AcDbEntity
  8
LEVEL_5
  6
CONTINUOUS
 62
         2
100
AcDbLine
 10
407.75
 20
42.0
 30
0.0
 11
409.75
 21
42.0
 31
0.0
  0
ARC
  5
189
100
AcDbEntity
  8
LEVEL_5
  6
CONTINUOUS
 62
         2
100
AcDbCircle
 10
409.75
 20
40.5
 30
0.0
 40
1.5
100
AcDbArc
 50
0.0
 51
90.0
  0
ARC
  5
18A
100
AcDbEntity
  8
LEVEL_5
  6
CONTINUOUS
 62
         2
100
AcDbCircle
 10
409.75
 20
36.5
 30
0.0
 40
1.5
100
AcDbArc
 50
270.0
 51
360.0
  0
LINE
  5
18B
100
AcDbEntity
  8
LEVEL_5
  6
CONTINUOUS
 62
         2
100
AcDbLine
 10
411.25
 20
36.5
 30
0.0
 11
411.25
 21
40.5
 31
0.0
  0
LINE
  5
18C
100
AcDbEntity
  8
LEVEL_5
  6
CONTINUOUS
 62
         2
100
AcDbLine
 10
431.5
 20
42.0
 30
0.0
 11
433.25
 21
35.0
 31
0.0
  0
LINE
  5
18D
100
AcDbEntity
  8
LEVEL_5
  6
CONTINUOUS
 62
         2
100
AcDbLine
 10
433.25
 20
35.0
 30
0.0
 11
435.0
 21
42.0
 31
0.0
  0
LINE
  5
18E
100
AcDbEntity
  8
LEVEL_5
  6
CONTINUOUS
 62
         2
100
AcDbLine
 10
436.0
 20
35.0
 30
0.0
 11
436.0
 21
42.0
 31
0.0
  0
LINE
  5
18F
100
AcDbEntity
  8
LEVEL_5
  6
CONTINUOUS
 62
         2
100
AcDbLine
 10
436.0
 20
35.0
 30
0.0
 11
439.0
 21
35.0
 31
0.0
  0
LINE
  5
190
100
AcDbEntity
  8
LEVEL_5
  6
CONTINUOUS
 62
         2
100
AcDbLine
 10
436.0
 20
42.0
 30
0.0
 11
439.0
 21
42.0
 31
0.0
  0
LINE
  5
191
100
AcDbEntity
  8
LEVEL_5
  6
CONTINUOUS
 62
         2
100
AcDbLine
 10
436.0
 20
38.5
 30
0.0
 11
438.5
 21
38.5
 31
0.0
  0
LINE
  5
192
100
AcDbEntity
  8
LEVEL_5
  6
CONTINUOUS
 62
         2
100
AcDbLine
 10
440.0
 20
35.0
 30
0.0
 11
440.0
 21
42.0
 31
0.0
  0
LINE
  5
193
100
AcDbEntity
  8
LEVEL_5
  6
CONTINUOUS
 62
         2
100
AcDbLine
 10
440.0
 20
42.0
 30
0.0
 11
442.0
 21
42.0
 31
0.0
  0
LINE
  5
194
100
AcDbEntity
  8
LEVEL_5
  6
CONTINUOUS
 62
         2
100
AcDbLine
 10
440.0
 20
38.5
 30
0.0
 11
442.0
 21
38.5
 31
0.0
  0
ARC
  5
195
100
AcDbEntity
  8
LEVEL_5
  6
CONTINUOUS
 62
         2
100
AcDbCircle
 10
442.0
 20
40.5
 30
0.0
 40
1.5
100
AcDbArc
 50
0.0
 51
90.0
  0
ARC
  5
196
100
AcDbEntity
  8
LEVEL_5
  6
CONTINUOUS
 62
         2
100
AcDbCircle
 10
442.0
 20
40.0
 30
0.0
 40
1.5
100
AcDbArc
 50
270.0
 51
360.0
  0
LINE
  5
197
100
AcDbEntity
  8
LEVEL_5
  6
CONTINUOUS
 62
         2
100
AcDbLine
 10
443.5
 20
40.0
 30
0.0
 11
443.5
 21
40.5
 31
0.0
  0
LINE
  5
198
100
AcDbEntity
  8
LEVEL_5
  6
CONTINUOUS
 62
         2
100
AcDbLine
 10
442.0
 20
38.5
 30
0.0
 11
443.5
 21
35.0
 31
0.0
  0
ARC
  5
199
100
AcDbEntity
  8
LEVEL_5
  6
CONTINUOUS
 62
         2
100
AcDbCircle
 10
446.0
 20
36.5
 30
0.0
 40
1.5
100
AcDbArc
 50
180.0
 51
270.0
  0
LINE
  5
19A
100
AcDbEntity
  8
LEVEL_5
  6
CONTINUOUS
 62
         2
100
AcDbLine
 10
446.0
 20
35.0
 30
0.0
 11
446.5
 21
35.0
 31
0.0
  0
ARC
  5
19B
100
AcDbEntity
  8
LEVEL_5
  6
CONTINUOUS
 62
         2
100
AcDbCircle
 10
446.5
 20
36.5
 30
0.0
 40
1.5
100
AcDbArc
 50
270.0
 51
360.0
  0
LINE
  5
19C
100
AcDbEntity
  8
LEVEL_5
  6
CONTINUOUS
 62
         2
100
AcDbLine
 10
448.0
 20
36.5
 30
0.0
 11
448.0
 21
38.5
 31
0.0
  0
LINE
  5
19D
100
AcDbEntity
  8
LEVEL_5
  6
CONTINUOUS
 62
         2
100
AcDbLine
 10
448.0
 20
38.5
 30
0.0
 11
446.25
 21
38.5
 31
0.0
  0
LINE
  5
19E
100
AcDbEntity
  8
LEVEL_5
  6
CONTINUOUS
 62
         2
100
AcDbLine
 10
444.5
 20
36.5
 30
0.0
 11
444.5
 21
40.5
 31
0.0
  0
ARC
  5
19F
100
AcDbEntity
  8
LEVEL_5
  6
CONTINUOUS
 62
         2
100
AcDbCircle
 10
446.0
 20
40.5
 30
0.0
 40
1.5
100
AcDbArc
 50
90.0
 51
180.0
  0
LINE
  5
1A0
100
AcDbEntity
  8
LEVEL_5
  6
CONTINUOUS
 62
         2
100
AcDbLine
 10
446.0
 20
42.0
 30
0.0
 11
446.5
 21
42.0
 31
0.0
  0
ARC
  5
1A1
100
AcDbEntity
  8
LEVEL_5
  6
CONTINUOUS
 62
         2
100
AcDbCircle
 10
446.5
 20
40.5
 30
0.0
 40
1.5
100
AcDbArc
 50
0.0
 51
90.0
  0
LINE
  5
1A2
100
AcDbEntity
  8
LEVEL_5
  6
CONTINUOUS
 62
         2
100
AcDbLine
 10
448.0
 20
40.5
 30
0.0
 11
448.0
 21
40.0
 31
0.0
  0
LINE
  5
1A3
100
AcDbEntity
  8
LEVEL_5
  6
CONTINUOUS
 62
         2
100
AcDbLine
 10
454.5
 20
35.0
 30
0.0
 11
454.5
 21
42.0
 31
0.0
  0
LINE
  5
1A4
100
AcDbEntity
  8
LEVEL_5
  6
CONTINUOUS
 62
         2
100
AcDbLine
 10
452.5
 20
40.5
 30
0.0
 11
454.5
 21
42.0
 31
0.0
  0
LINE
  5
1A5
100
AcDbEntity
  8
LEVEL_5
  6
CONTINUOUS
 62
         2
100
AcDbLine
 10
455.5
 20
40.0
 30
0.0
 11
455.5
 21
40.5
 31
0.0
  0
ARC
  5
1A6
100
AcDbEntity
  8
LEVEL_5
  6
CONTINUOUS
 62
         2
100
AcDbCircle
 10
457.0
 20
40.5
 30
0.0
 40
1.5
100
AcDbArc
 50
0.0
 51
180.0
  0
LINE
  5
1A7
100
AcDbEntity
  8
LEVEL_5
  6
CONTINUOUS
 62
         2
100
AcDbLine
 10
458.5
 20
40.5
 30
0.0
 11
458.5
 21
39.75
 31
0.0
  0
ARC
  5
1A8
100
AcDbEntity
  8
LEVEL_5
  6
CONTINUOUS
 62
         2
100
AcDbCircle
 10
457.5
 20
39.75
 30
0.0
 40
1.0
100
AcDbArc
 50
270.0
 51
360.0
  0
LINE
  5
1A9
100
AcDbEntity
  8
LEVEL_5
  6
CONTINUOUS
 62
         2
100
AcDbLine
 10
456.5
 20
38.75
 30
0.0
 11
457.5
 21
38.75
 31
0.0
  0
ARC
  5
1AA
100
AcDbEntity
  8
LEVEL_5
  6
CONTINUOUS
 62
         2
100
AcDbCircle
 10
457.5
 20
37.75
 30
0.0
 40
1.0
100
AcDbArc
 50
0.0
 51
90.0
  0
LINE
  5
1AB
100
AcDbEntity
  8
LEVEL_5
  6
CONTINUOUS
 62
         2
100
AcDbLine
 10
458.5
 20
37.75
 30
0.0
 11
458.5
 21
36.5
 31
0.0
  0
ARC
  5
1AC
100
AcDbEntity
  8
LEVEL_5
  6
CONTINUOUS
 62
         2
100
AcDbCircle
 10
457.0
 20
36.5
 30
0.0
 40
1.5
100
AcDbArc
 50
180.0
 51
360.0
  0
LINE
  5
1AD
100
AcDbEntity
  8
LEVEL_5
  6
CONTINUOUS
 62
         2
100
AcDbLine
 10
455.5
 20
36.5
 30
0.0
 11
455.5
 21
37.0
 31
0.0
  0
LINE
  5
1AE
100
AcDbEntity
  8
LEVEL_6
  6
CONTINUOUS
 62
         2
100
AcDbLine
 10
627.8301
 20
66.4965
 30
0.0
 11
626.0087
 21
63.3418
 31
0.0
  0
LINE
  5
1AF
100
AcDbEntity
  8
LEVEL_6
  6
CONTINUOUS
 62
         2
100
AcDbLine
 10
625.3875
 20
61.5376
 30
0.0
 11
620.594
 21
27.4301
 31
0.0
  0
LINE
  5
1B0
100
AcDbEntity
  8
LEVEL_6
  6
CONTINUOUS
 62
         2
100
AcDbLine
 10
711.3709
 20
27.68
 30
0.0
 11
706.6124
 21
61.5376
 31
0.0
  0
LINE
  5
1B1
100
AcDbEntity
  8
LEVEL_6
  6
CONTINUOUS
 62
         2
100
AcDbLine
 10
705.9913
 20
63.3418
 30
0.0
 11
704.1699
 21
66.4965
 31
0.0
  0
ARC
  5
1B2
100
AcDbEntity
  8
LEVEL_6
  6
CONTINUOUS
 62
         2
100
AcDbCircle
 10
666.0032
 20
20.0
 30
0.0
 40
46.0130615222
100
AcDbArc
 50
170.7073013635
 51
9.6081375274
  0
CIRCLE
  5
1B3
100
AcDbEntity
  8
LEVEL_6
  6
CONTINUOUS
 62
         2
100
AcDbCircle
 10
666.0032
 20
20.0
 30
0.0
 40
20.0
  0
ARC
  5
1B4
100
AcDbEntity
  8
LEVEL_6
  6
CONTINUOUS
 62
         2
100
AcDbCircle
 10
666.0
 20
63.7869
 30
0.0
 40
8.8
100
AcDbArc
 50
180.0
 51
360.0
  0
LINE
  5
1B5
100
AcDbEntity
  8
LEVEL_6
  6
CONTINUOUS
 62
         2
100
AcDbLine
 10
657.2
 20
63.7869
 30
0.0
 11
657.2
 21
74.3619
 31
0.0
  0
LINE
  5
1B6
100
AcDbEntity
  8
LEVEL_6
  6
CONTINUOUS
 62
         2
100
AcDbLine
 10
674.7999
 20
63.7869
 30
0.0
 11
674.7999
 21
74.3619
 31
0.0
  0
ARC
  5
1B7
100
AcDbEntity
  8
LEVEL_6
  6
CONTINUOUS
 62
         2
100
AcDbCircle
 10
630.3387
 20
60.8418
 30
0.0
 40
4.9998899988
100
AcDbArc
 50
149.9992722192
 51
172.000519519
  0
ARC
  5
1B8
100
AcDbEntity
  8
LEVEL_6
  6
CONTINUOUS
 62
         2
100
AcDbCircle
 10
701.6611
 20
60.8418
 30
0.0
 40
4.9999509328
100
AcDbArc
 50
7.9993210091
 51
29.9995818545
  0
LINE
  5
1B9
100
AcDbEntity
  8
LEVEL_6
  6
CONTINUOUS
 62
         2
100
AcDbLine
 10
657.2
 20
74.3619
 30
0.0
 11
657.2
 21
74.4869
 31
0.0
  0
LINE
  5
1BA
100
AcDbEntity
  8
LEVEL_6
  6
CONTINUOUS
 62
         2
100
AcDbLine
 10
657.2
 20
93.6119
 30
0.0
 11
657.2
 21
100.1724
 31
0.0
  0
LINE
  5
1BB
100
AcDbEntity
  8
LEVEL_6
  6
CONTINUOUS
 62
         2
100
AcDbLine
 10
674.7999
 20
74.3619
 30
0.0
 11
674.7999
 21
74.4869
 31
0.0
  0
LINE
  5
1BC
100
AcDbEntity
  8
LEVEL_6
  6
CONTINUOUS
 62
         2
100
AcDbLine
 10
674.7999
 20
93.6119
 30
0.0
 11
674.7999
 21
100.1724
 31
0.0
  0
CIRCLE
  5
1BD
100
AcDbEntity
  8
LEVEL_6
  6
CONTINUOUS
 62
         2
100
AcDbCircle
 10
639.0
 20
83.9869
 30
0.0
 40
3.0
  0
ARC
  5
1BE
100
AcDbEntity
  8
LEVEL_6
  6
CONTINUOUS
 62
         2
100
AcDbCircle
 10
666.0
 20
158.7912
 30
0.0
 40
56.000055533
100
AcDbArc
 50
282.3177884843
 51
292.8185271222
  0
LINE
  5
1BF
100
AcDbEntity
  8
LEVEL_6
  6
CONTINUOUS
 62
         2
100
AcDbLine
 10
689.2689
 20
107.4869
 30
0.0
 11
691.5656
 21
107.4869
 31
0.0
  0
LINE
  5
1C0
100
AcDbEntity
  8
LEVEL_6
  6
CONTINUOUS
 62
         2
100
AcDbLine
 10
694.6298
 20
106.058
 30
0.0
 11
702.5641
 21
96.6022
 31
0.0
  0
LINE
  5
1C1
100
AcDbEntity
  8
LEVEL_6
  6
CONTINUOUS
 62
         2
100
AcDbLine
 10
703.5
 20
94.031
 30
0.0
 11
703.5
 21
68.9965
 31
0.0
  0
ARC
  5
1C2
100
AcDbEntity
  8
LEVEL_6
  6
CONTINUOUS
 62
         2
100
AcDbCircle
 10
666.0
 20
158.7912
 30
0.0
 40
56.0001292503
100
AcDbArc
 50
247.1813785714
 51
257.6822115157
  0
LINE
  5
1C3
100
AcDbEntity
  8
LEVEL_6
  6
CONTINUOUS
 62
         2
100
AcDbLine
 10
642.7311
 20
107.4869
 30
0.0
 11
640.4344
 21
107.4869
 31
0.0
  0
LINE
  5
1C4
100
AcDbEntity
  8
LEVEL_6
  6
CONTINUOUS
 62
         2
100
AcDbLine
 10
637.3702
 20
106.058
 30
0.0
 11
629.4358
 21
96.6022
 31
0.0
  0
LINE
  5
1C5
100
AcDbEntity
  8
LEVEL_6
  6
CONTINUOUS
 62
         2
100
AcDbLine
 10
628.5
 20
94.031
 30
0.0
 11
628.5
 21
68.9965
 31
0.0
  0
ARC
  5
1C6
100
AcDbEntity
  8
LEVEL_6
  6
CONTINUOUS
 62
         2
100
AcDbCircle
 10
623.5
 20
68.9965
 30
0.0
 40
4.9999766009
100
AcDbArc
 50
329.9998451923
 51
360.0
  0
ARC
  5
1C7
100
AcDbEntity
  8
LEVEL_6
  6
CONTINUOUS
 62
         2
100
AcDbCircle
 10
708.5
 20
68.9965
 30
0.0
 40
5.0
100
AcDbArc
 50
180.0
 51
210.0001548077
  0
ARC
  5
1C8
100
AcDbEntity
  8
LEVEL_6
  6
CONTINUOUS
 62
         2
100
AcDbCircle
 10
699.5
 20
94.031
 30
0.0
 40
4.0
100
AcDbArc
 50
0.0
 51
40.0012599043
  0
ARC
  5
1C9
100
AcDbEntity
  8
LEVEL_6
  6
CONTINUOUS
 62
         2
100
AcDbCircle
 10
691.5656
 20
103.4869
 30
0.0
 40
3.9999846062
100
AcDbArc
 50
39.9992418894
 51
90.0
  0
ARC
  5
1CA
100
AcDbEntity
  8
LEVEL_6
  6
CONTINUOUS
 62
         2
100
AcDbCircle
 10
689.2689
 20
103.4869
 30
0.0
 40
4.0
100
AcDbArc
 50
90.0
 51
112.819410398
  0
ARC
  5
1CB
100
AcDbEntity
  8
LEVEL_6
  6
CONTINUOUS
 62
         2
100
AcDbCircle
 10
678.7999
 20
100.1724
 30
0.0
 40
3.999954081
100
AcDbArc
 50
102.3159547315
 51
180.0
  0
ARC
  5
1CC
100
AcDbEntity
  8
LEVEL_6
  6
CONTINUOUS
 62
         2
100
AcDbCircle
 10
653.2
 20
100.1724
 30
0.0
 40
4.0
100
AcDbArc
 50
0.0
 51
77.6826458302
  0
ARC
  5
1CD
100
AcDbEntity
  8
LEVEL_6
  6
CONTINUOUS
 62
         2
100
AcDbCircle
 10
642.7311
 20
103.4869
 30
0.0
 40
3.9999316307
100
AcDbArc
 50
67.1819099081
 51
90.0
  0
ARC
  5
1CE
100
AcDbEntity
  8
LEVEL_6
  6
CONTINUOUS
 62
         2
100
AcDbCircle
 10
640.4344
 20
103.4869
 30
0.0
 40
4.0
100
AcDbArc
 50
90.0
 51
140.0007581106
  0
ARC
  5
1CF
100
AcDbEntity
  8
LEVEL_6
  6
CONTINUOUS
 62
         2
100
AcDbCircle
 10
632.5
 20
94.031
 30
0.0
 40
4.0000488847
100
AcDbArc
 50
139.999660834
 51
180.0
  0
LINE
  5
1D0
100
AcDbEntity
  8
LEVEL_6
  6
CONTINUOUS
 62
         2
100
AcDbLine
 10
674.7999
 20
93.4869
 30
0.0
 11
657.2
 21
93.4869
 31
0.0
  0
LINE
  5
1D1
100
AcDbEntity
  8
LEVEL_6
  6
CONTINUOUS
 62
         2
100
AcDbLine
 10
657.2
 20
74.4869
 30
0.0
 11
674.7999
 21
74.4869
 31
0.0
  0
LINE
  5
1D2
100
AcDbEntity
  8
LEVEL_6
  6
CONTINUOUS
 62
         2
100
AcDbLine
 10
657.2
 20
74.4869
 30
0.0
 11
657.2
 21
93.4869
 31
0.0
  0
LINE
  5
1D3
100
AcDbEntity
  8
LEVEL_6
  6
CONTINUOUS
 62
         2
100
AcDbLine
 10
657.2
 20
93.4869
 30
0.0
 11
657.2
 21
93.6119
 31
0.0
  0
LINE
  5
1D4
100
AcDbEntity
  8
LEVEL_6
  6
CONTINUOUS
 62
         2
100
AcDbLine
 10
674.7999
 20
74.4869
 30
0.0
 11
674.7999
 21
93.4869
 31
0.0
  0
LINE
  5
1D5
100
AcDbEntity
  8
LEVEL_6
  6
CONTINUOUS
 62
         2
100
AcDbLine
 10
674.7999
 20
93.4869
 30
0.0
 11
674.7999
 21
93.6119
 31
0.0
  0
LINE
  5
1D6
100
AcDbEntity
  8
LEVEL_6
  6
CENTER2
 62
         3
100
AcDbLine
 10
639.0
 20
79.6999
 30
0.0
 11
639.0
 21
88.2739
 31
0.0
  0
LINE
  5
1D7
100
AcDbEntity
  8
LEVEL_6
  6
CENTER2
 62
         3
100
AcDbLine
 10
706.3
 20
83.9869
 30
0.0
 11
625.7
 21
83.9869
 31
0.0
  0
LINE
  5
1D8
100
AcDbEntity
  8
LEVEL_6
  6
CENTER2
 62
         3
100
AcDbLine
 10
666.0
 20
116.0869
 30
0.0
 11
666.0
 21
-34.6131
 31
0.0
  0
LINE
  5
1D9
100
AcDbEntity
  8
LEVEL_6
  6
CENTER2
 62
         3
100
AcDbLine
 10
689.7032
 20
20.0
 30
0.0
 11
642.3032
 21
20.0
 31
0.0
  0
LINE
  5
1DA
100
AcDbEntity
  8
LEVEL_6
  6
CONTINUOUS
 62
         2
100
AcDbLine
 10
633.8571
 20
43.0
 30
0.0
 11
633.8571
 21
51.0
 31
0.0
  0
LINE
  5
1DB
100
AcDbEntity
  8
LEVEL_6
  6
CONTINUOUS
 62
         2
100
AcDbLine
 10
633.8571
 20
51.0
 30
0.0
 11
636.1429
 21
51.0
 31
0.0
  0
LINE
  5
1DC
100
AcDbEntity
  8
LEVEL_6
  6
CONTINUOUS
 62
         2
100
AcDbLine
 10
633.8571
 20
47.0
 30
0.0
 11
636.1429
 21
47.0
 31
0.0
  0
ARC
  5
1DD
100
AcDbEntity
  8
LEVEL_6
  6
CONTINUOUS
 62
         2
100
AcDbCircle
 10
636.1429
 20
49.2857
 30
0.0
 40
1.7142
100
AcDbArc
 50
0.0
 51
90.0
  0
ARC
  5
1DE
100
AcDbEntity
  8
LEVEL_6
  6
CONTINUOUS
 62
         2
100
AcDbCircle
 10
636.1429
 20
48.7143
 30
0.0
 40
1.7143
100
AcDbArc
 50
270.0
 51
360.0
  0
LINE
  5
1DF
100
AcDbEntity
  8
LEVEL_6
  6
CONTINUOUS
 62
         2
100
AcDbLine
 10
637.8571
 20
48.7143
 30
0.0
 11
637.8571
 21
49.2857
 31
0.0
  0
LINE
  5
1E0
100
AcDbEntity
  8
LEVEL_6
  6
CONTINUOUS
 62
         2
100
AcDbLine
 10
636.1429
 20
47.0
 30
0.0
 11
637.8571
 21
43.0
 31
0.0
  0
ARC
  5
1E1
100
AcDbEntity
  8
LEVEL_6
  6
CONTINUOUS
 62
         2
100
AcDbCircle
 10
640.7142
 20
44.7143
 30
0.0
 40
1.7142
100
AcDbArc
 50
180.0
 51
270.0
  0
LINE
  5
1E2
100
AcDbEntity
  8
LEVEL_6
  6
CONTINUOUS
 62
         2
100
AcDbLine
 10
640.7142
 20
43.0
 30
0.0
 11
641.2856
 21
43.0
 31
0.0
  0
ARC
  5
1E3
100
AcDbEntity
  8
LEVEL_6
  6
CONTINUOUS
 62
         2
100
AcDbCircle
 10
641.2856
 20
44.7143
 30
0.0
 40
1.7143
100
AcDbArc
 50
270.0
 51
360.0
  0
LINE
  5
1E4
100
AcDbEntity
  8
LEVEL_6
  6
CONTINUOUS
 62
         2
100
AcDbLine
 10
639.0
 20
44.7143
 30
0.0
 11
639.0
 21
51.0
 31
0.0
  0
LINE
  5
1E5
100
AcDbEntity
  8
LEVEL_6
  6
CONTINUOUS
 62
         2
100
AcDbLine
 10
643.0
 20
44.7143
 30
0.0
 11
643.0
 21
51.0
 31
0.0
  0
LINE
  5
1E6
100
AcDbEntity
  8
LEVEL_6
  6
CONTINUOUS
 62
         2
100
AcDbLine
 10
644.1429
 20
43.0
 30
0.0
 11
644.1429
 21
51.0
 31
0.0
  0
LINE
  5
1E7
100
AcDbEntity
  8
LEVEL_6
  6
CONTINUOUS
 62
         2
100
AcDbLine
 10
644.1429
 20
43.0
 30
0.0
 11
646.4286
 21
43.0
 31
0.0
  0
LINE
  5
1E8
100
AcDbEntity
  8
LEVEL_6
  6
CONTINUOUS
 62
         2
100
AcDbLine
 10
644.1429
 20
51.0
 30
0.0
 11
646.4286
 21
51.0
 31
0.0
  0
ARC
  5
1E9
100
AcDbEntity
  8
LEVEL_6
  6
CONTINUOUS
 62
         2
100
AcDbCircle
 10
646.4286
 20
49.2857
 30
0.0
 40
1.7143
100
AcDbArc
 50
0.0
 51
90.0
  0
ARC
  5
1EA
100
AcDbEntity
  8
LEVEL_6
  6
CONTINUOUS
 62
         2
100
AcDbCircle
 10
646.4286
 20
44.7143
 30
0.0
 40
1.7143
100
AcDbArc
 50
270.0
 51
360.0
  0
LINE
  5
1EB
100
AcDbEntity
  8
LEVEL_6
  6
CONTINUOUS
 62
         2
100
AcDbLine
 10
648.1429
 20
44.7143
 30
0.0
 11
648.1429
 21
49.2857
 31
0.0
  0
LINE
  5
1EC
100
AcDbEntity
  8
LEVEL_6
  6
CONTINUOUS
 62
         2
100
AcDbLine
 10
671.5714
 20
51.0
 30
0.0
 11
673.5714
 21
43.0
 31
0.0
  0
LINE
  5
1ED
100
AcDbEntity
  8
LEVEL_6
  6
CONTINUOUS
 62
         2
100
AcDbLine
 10
673.5714
 20
43.0
 30
0.0
 11
675.5714
 21
51.0
 31
0.0
  0
LINE
  5
1EE
100
AcDbEntity
  8
LEVEL_6
  6
CONTINUOUS
 62
         2
100
AcDbLine
 10
676.7142
 20
43.0
 30
0.0
 11
676.7142
 21
51.0
 31
0.0
  0
LINE
  5
1EF
100
AcDbEntity
  8
LEVEL_6
  6
CONTINUOUS
 62
         2
100
AcDbLine
 10
676.7142
 20
43.0
 30
0.0
 11
680.1429
 21
43.0
 31
0.0
  0
LINE
  5
1F0
100
AcDbEntity
  8
LEVEL_6
  6
CONTINUOUS
 62
         2
100
AcDbLine
 10
676.7142
 20
51.0
 30
0.0
 11
680.1429
 21
51.0
 31
0.0
  0
LINE
  5
1F1
100
AcDbEntity
  8
LEVEL_6
  6
CONTINUOUS
 62
         2
100
AcDbLine
 10
676.7142
 20
47.0
 30
0.0
 11
679.5714
 21
47.0
 31
0.0
  0
LINE
  5
1F2
100
AcDbEntity
  8
LEVEL_6
  6
CONTINUOUS
 62
         2
100
AcDbLine
 10
681.2856
 20
43.0
 30
0.0
 11
681.2856
 21
51.0
 31
0.0
  0
LINE
  5
1F3
100
AcDbEntity
  8
LEVEL_6
  6
CONTINUOUS
 62
         2
100
AcDbLine
 10
681.2856
 20
51.0
 30
0.0
 11
683.5714
 21
51.0
 31
0.0
  0
LINE
  5
1F4
100
AcDbEntity
  8
LEVEL_6
  6
CONTINUOUS
 62
         2
100
AcDbLine
 10
681.2856
 20
47.0
 30
0.0
 11
683.5714
 21
47.0
 31
0.0
  0
ARC
  5
1F5
100
AcDbEntity
  8
LEVEL_6
  6
CONTINUOUS
 62
         2
100
AcDbCircle
 10
683.5714
 20
49.2857
 30
0.0
 40
1.7142
100
AcDbArc
 50
0.0
 51
90.0
  0
ARC
  5
1F6
100
AcDbEntity
  8
LEVEL_6
  6
CONTINUOUS
 62
         2
100
AcDbCircle
 10
683.5714
 20
48.7143
 30
0.0
 40
1.7143
100
AcDbArc
 50
270.0
 51
360.0
  0
LINE
  5
1F7
100
AcDbEntity
  8
LEVEL_6
  6
CONTINUOUS
 62
         2
100
AcDbLine
 10
685.2856
 20
48.7143
 30
0.0
 11
685.2856
 21
49.2857
 31
0.0
  0
LINE
  5
1F8
100
AcDbEntity
  8
LEVEL_6
  6
CONTINUOUS
 62
         2
100
AcDbLine
 10
683.5714
 20
47.0
 30
0.0
 11
685.2856
 21
43.0
 31
0.0
  0
ARC
  5
1F9
100
AcDbEntity
  8
LEVEL_6
  6
CONTINUOUS
 62
         2
100
AcDbCircle
 10
688.1429
 20
44.7143
 30
0.0
 40
1.7144
100
AcDbArc
 50
180.0
 51
270.0
  0
LINE
  5
1FA
100
AcDbEntity
  8
LEVEL_6
  6
CONTINUOUS
 62
         2
100
AcDbLine
 10
688.1429
 20
43.0
 30
0.0
 11
688.7142
 21
43.0
 31
0.0
  0
ARC
  5
1FB
100
AcDbEntity
  8
LEVEL_6
  6
CONTINUOUS
 62
         2
100
AcDbCircle
 10
688.7142
 20
44.7143
 30
0.0
 40
1.7143
100
AcDbArc
 50
270.0
 51
360.0
  0
LINE
  5
1FC
100
AcDbEntity
  8
LEVEL_6
  6
CONTINUOUS
 62
         2
100
AcDbLine
 10
690.4285
 20
44.7143
 30
0.0
 11
690.4285
 21
47.0
 31
0.0
  0
LINE
  5
1FD
100
AcDbEntity
  8
LEVEL_6
  6
CONTINUOUS
 62
         2
100
AcDbLine
 10
690.4285
 20
47.0
 30
0.0
 11
688.4285
 21
47.0
 31
0.0
  0
LINE
  5
1FE
100
AcDbEntity
  8
LEVEL_6
  6
CONTINUOUS
 62
         2
100
AcDbLine
 10
686.4285
 20
44.7143
 30
0.0
 11
686.4285
 21
49.2857
 31
0.0
  0
ARC
  5
1FF
100
AcDbEntity
  8
LEVEL_6
  6
CONTINUOUS
 62
         2
100
AcDbCircle
 10
688.1429
 20
49.2857
 30
0.0
 40
1.7143
100
AcDbArc
 50
90.0
 51
180.0
  0
LINE
  5
200
100
AcDbEntity
  8
LEVEL_6
  6
CONTINUOUS
 62
         2
100
AcDbLine
 10
688.1429
 20
51.0
 30
0.0
 11
688.7142
 21
51.0
 31
0.0
  0
ARC
  5
201
100
AcDbEntity
  8
LEVEL_6
  6
CONTINUOUS
 62
         2
100
AcDbCircle
 10
688.7142
 20
49.2857
 30
0.0
 40
1.7143
100
AcDbArc
 50
0.0
 51
90.0
  0
LINE
  5
202
100
AcDbEntity
  8
LEVEL_6
  6
CONTINUOUS
 62
         2
100
AcDbLine
 10
690.4285
 20
49.2857
 30
0.0
 11
690.4285
 21
48.7143
 31
0.0
  0
LINE
  5
203
100
AcDbEntity
  8
LEVEL_6
  6
CONTINUOUS
 62
         2
100
AcDbLine
 10
697.8571
 20
43.0
 30
0.0
 11
697.8571
 21
51.0
 31
0.0
  0
LINE
  5
204
100
AcDbEntity
  8
LEVEL_6
  6
CONTINUOUS
 62
         2
100
AcDbLine
 10
695.5714
 20
49.2857
 30
0.0
 11
697.8571
 21
51.0
 31
0.0
  0
ARC
  5
205
100
AcDbEntity
  8
LEVEL_6
  6
CONTINUOUS
 62
         2
100
AcDbCircle
 10
700.7142
 20
44.7143
 30
0.0
 40
1.7142
100
AcDbArc
 50
180.0
 51
360.0
  0
LINE
  5
206
100
AcDbEntity
  8
LEVEL_6
  6
CONTINUOUS
 62
         2
100
AcDbLine
 10
702.4285
 20
44.7143
 30
0.0
 11
702.4285
 21
45.8571
 31
0.0
  0
ARC
  5
207
100
AcDbEntity
  8
LEVEL_6
  6
CONTINUOUS
 62
         2
100
AcDbCircle
 10
700.7142
 20
45.8571
 30
0.0
 40
1.7143
100
AcDbArc
 50
0.0
 51
180.0
  0
LINE
  5
208
100
AcDbEntity
  8
LEVEL_6
  6
CONTINUOUS
 62
         2
100
AcDbLine
 10
699.0
 20
44.7143
 30
0.0
 11
699.0
 21
45.8571
 31
0.0
  0
LINE
  5
209
100
AcDbEntity
  8
LEVEL_6
  6
CONTINUOUS
 62
         2
100
AcDbLine
 10
699.1691
 20
46.6
 30
0.0
 11
701.2856
 21
51.0
 31
0.0
  0
LINE
  5
20A
100
AcDbEntity
  8
LEVEL_7
  6
HIDDEN2
 62
         5
100
AcDbLine
 10
-189.2473
 20
-158.4085
 30
0.0
 11
-189.3883
 21
-158.4308
 31
0.0
  0
LINE
  5
20B
100
AcDbEntity
  8
LEVEL_7
  6
CONTINUOUS
 62
         2
100
AcDbLine
 10
-190.2319
 20
-162.2978
 30
0.0
 11
-190.2319
 21
-177.5
 31
0.0
  0
ARC
  5
20C
100
AcDbEntity
  8
LEVEL_7
  6
CONTINUOUS
 62
         2
100
AcDbCircle
 10
-192.7319
 20
-177.5
 30
0.0
 40
2.4999653058
100
AcDbArc
 50
345.5885494156
 51
360.0
  0
LINE
  5
20D
100
AcDbEntity
  8
LEVEL_7
  6
CONTINUOUS
 62
         2
100
AcDbLine
 10
-190.3106
 20
-178.1222
 30
0.0
 11
-190.7887
 21
-179.9827
 31
0.0
  0
ARC
  5
20E
100
AcDbEntity
  8
LEVEL_7
  6
CONTINUOUS
 62
         2
100
AcDbCircle
 10
-192.9819
 20
-184.5
 30
0.0
 40
1.0
100
AcDbArc
 50
270.0
 51
345.5871543191
  0
LINE
  5
20F
100
AcDbEntity
  8
LEVEL_7
  6
CONTINUOUS
 62
         2
100
AcDbLine
 10
-192.9819
 20
-185.5
 30
0.0
 11
-194.9819
 21
-185.5
 31
0.0
  0
ARC
  5
210
100
AcDbEntity
  8
LEVEL_7
  6
CONTINUOUS
 62
         2
100
AcDbCircle
 10
-194.9819
 20
-184.5
 30
0.0
 40
0.9999717296
100
AcDbArc
 50
194.4128456809
 51
270.0
  0
LINE
  5
211
100
AcDbEntity
  8
LEVEL_7
  6
CONTINUOUS
 62
         2
100
AcDbLine
 10
-195.9504
 20
-184.7489
 30
0.0
 11
-196.4285
 21
-182.8883
 31
0.0
  0
ARC
  5
212
100
AcDbEntity
  8
LEVEL_7
  6
CONTINUOUS
 62
         2
100
AcDbCircle
 10
-195.2319
 20
-177.5
 30
0.0
 40
2.5
100
AcDbArc
 50
180.0
 51
194.4114505844
  0
LINE
  5
213
100
AcDbEntity
  8
LEVEL_7
  6
CONTINUOUS
 62
         2
100
AcDbLine
 10
-197.7319
 20
-177.5
 30
0.0
 11
-197.7319
 21
-162.2978
 31
0.0
  0
LINE
  5
214
100
AcDbEntity
  8
LEVEL_7
  6
HIDDEN2
 62
         5
100
AcDbLine
 10
-198.5755
 20
-158.4308
 30
0.0
 11
-198.7165
 21
-158.4085
 31
0.0
  0
LINE
  5
215
100
AcDbEntity
  8
LEVEL_7
  6
HIDDEN2
 62
         5
100
AcDbLine
 10
-199.9819
 20
-156.927
 30
0.0
 11
-199.9819
 21
-156.573
 31
0.0
  0
ARC
  5
216
100
AcDbEntity
  8
LEVEL_7
  6
HIDDEN2
 62
         5
100
AcDbCircle
 10
-195.2319
 20
-177.5
 30
0.0
 40
2.5
100
AcDbArc
 50
90.0
 51
180.0
  0
ARC
  5
217
100
AcDbEntity
  8
LEVEL_7
  6
HIDDEN2
 62
         5
100
AcDbCircle
 10
-192.7319
 20
-177.5
 30
0.0
 40
2.5
100
AcDbArc
 50
0.0
 51
90.0
  0
LINE
  5
218
100
AcDbEntity
  8
LEVEL_7
  6
HIDDEN2
 62
         5
100
AcDbLine
 10
-192.7319
 20
-175.0
 30
0.0
 11
-193.9819
 21
-175.0
 31
0.0
  0
LINE
  5
219
100
AcDbEntity
  8
LEVEL_7
  6
HIDDEN2
 62
         5
100
AcDbLine
 10
-189.2473
 20
-155.0915
 30
0.0
 11
-192.9819
 21
-154.5
 31
0.0
  0
LINE
  5
21A
100
AcDbEntity
  8
LEVEL_7
  6
HIDDEN2
 62
         5
100
AcDbLine
 10
-192.9819
 20
-154.5
 30
0.0
 11
-193.9819
 21
-154.5
 31
0.0
  0
LINE
  5
21B
100
AcDbEntity
  8
LEVEL_7
  6
HIDDEN2
 62
         5
100
AcDbLine
 10
-194.9819
 20
-154.5
 30
0.0
 11
-198.7165
 21
-155.0915
 31
0.0
  0
LINE
  5
21C
100
AcDbEntity
  8
LEVEL_7
  6
HIDDEN2
 62
         5
100
AcDbLine
 10
-194.9819
 20
-159.0
 30
0.0
 11
-193.9819
 21
-159.0
 31
0.0
  0
LINE
  5
21D
100
AcDbEntity
  8
LEVEL_7
  6
HIDDEN2
 62
         5
100
AcDbLine
 10
-192.9819
 20
-159.0
 30
0.0
 11
-189.3883
 21
-158.4308
 31
0.0
  0
ARC
  5
21E
100
AcDbEntity
  8
LEVEL_7
  6
HIDDEN2
 62
         5
100
AcDbCircle
 10
-189.4819
 20
-156.573
 30
0.0
 40
1.5
100
AcDbArc
 50
0.0
 51
81.0017561724
  0
ARC
  5
21F
100
AcDbEntity
  8
LEVEL_7
  6
HIDDEN2
 62
         5
100
AcDbCircle
 10
-198.4819
 20
-156.573
 30
0.0
 40
1.4999754465
100
AcDbArc
 50
99.0020165992
 51
180.0
  0
ARC
  5
220
100
AcDbEntity
  8
LEVEL_7
  6
HIDDEN2
 62
         5
100
AcDbCircle
 10
-189.4819
 20
-156.927
 30
0.0
 40
1.4999598028
100
AcDbArc
 50
278.9982438276
 51
329.9992722192
  0
ARC
  5
221
100
AcDbEntity
  8
LEVEL_7
  6
HIDDEN2
 62
         5
100
AcDbCircle
 10
-198.4819
 20
-156.927
 30
0.0
 40
1.4999669996
100
AcDbArc
 50
210.0007277808
 51
260.9979834008
  0
LINE
  5
222
100
AcDbEntity
  8
LEVEL_7
  6
HIDDEN2
 62
         5
100
AcDbLine
 10
-198.5755
 20
-158.4308
 30
0.0
 11
-194.9819
 21
-159.0
 31
0.0
  0
LINE
  5
223
100
AcDbEntity
  8
LEVEL_7
  6
HIDDEN2
 62
         5
100
AcDbLine
 10
-187.9819
 20
-156.573
 30
0.0
 11
-187.9819
 21
-156.927
 31
0.0
  0
LINE
  5
224
100
AcDbEntity
  8
LEVEL_7
  6
CONTINUOUS
 62
         2
100
AcDbLine
 10
-196.4285
 20
-182.8883
 30
0.0
 11
-197.1751
 21
-179.9827
 31
0.0
  0
LINE
  5
225
100
AcDbEntity
  8
LEVEL_7
  6
CONTINUOUS
 62
         2
100
AcDbLine
 10
-197.1751
 20
-179.9827
 30
0.0
 11
-197.6532
 21
-178.1222
 31
0.0
  0
LINE
  5
226
100
AcDbEntity
  8
LEVEL_7
  6
CONTINUOUS
 62
         2
100
AcDbLine
 10
-190.7887
 20
-179.9827
 30
0.0
 11
-190.8573
 21
-180.25
 31
0.0
  0
LINE
  5
227
100
AcDbEntity
  8
LEVEL_7
  6
CONTINUOUS
 62
         2
100
AcDbLine
 10
-191.5353
 20
-182.8883
 30
0.0
 11
-192.0134
 21
-184.7489
 31
0.0
  0
ARC
  5
228
100
AcDbEntity
  8
LEVEL_7
  6
CONTINUOUS
 62
         2
100
AcDbCircle
 10
-193.9819
 20
-143.5
 30
0.0
 40
3.7
100
AcDbArc
 50
90.0
 51
150.0000465024
  0
ARC
  5
229
100
AcDbEntity
  8
LEVEL_7
  6
CONTINUOUS
 62
         2
100
AcDbCircle
 10
-193.9819
 20
-143.5
 30
0.0
 40
3.7000052013
100
AcDbArc
 50
150.0000465024
 51
209.9999534976
  0
ARC
  5
22A
100
AcDbEntity
  8
LEVEL_7
  6
CONTINUOUS
 62
         2
100
AcDbCircle
 10
-193.9819
 20
-143.5
 30
0.0
 40
3.7000052013
100
AcDbArc
 50
209.9999534976
 51
330.0000465024
  0
ARC
  5
22B
100
AcDbEntity
  8
LEVEL_7
  6
CONTINUOUS
 62
         2
100
AcDbCircle
 10
-193.9819
 20
-143.5
 30
0.0
 40
3.7000052013
100
AcDbArc
 50
330.0000465024
 51
29.9999534976
  0
ARC
  5
22C
100
AcDbEntity
  8
LEVEL_7
  6
CONTINUOUS
 62
         2
100
AcDbCircle
 10
-193.9819
 20
-143.5
 30
0.0
 40
3.7000052013
100
AcDbArc
 50
29.9999534976
 51
90.0
  0
LINE
  5
22D
100
AcDbEntity
  8
LEVEL_7
  6
CONTINUOUS
 62
         2
100
AcDbLine
 10
-189.696
 20
-160.2978
 30
0.0
 11
-188.1829
 21
-157.677
 31
0.0
  0
LINE
  5
22E
100
AcDbEntity
  8
LEVEL_7
  6
CONTINUOUS
 62
         2
100
AcDbLine
 10
-185.4819
 20
-151.927
 30
0.0
 11
-185.4819
 21
-141.0941
 31
0.0
  0
LINE
  5
22F
100
AcDbEntity
  8
LEVEL_7
  6
CONTINUOUS
 62
         2
100
AcDbLine
 10
-185.6411
 20
-140.5527
 30
0.0
 11
-186.8354
 21
-138.6981
 31
0.0
  0
ARC
  5
230
100
AcDbEntity
  8
LEVEL_7
  6
CONTINUOUS
 62
         2
100
AcDbCircle
 10
-193.9819
 20
-143.3
 30
0.0
 40
8.4999968153
100
AcDbArc
 50
32.7790076798
 51
147.2209923202
  0
LINE
  5
231
100
AcDbEntity
  8
LEVEL_7
  6
CONTINUOUS
 62
         2
100
AcDbLine
 10
-201.1284
 20
-138.6981
 30
0.0
 11
-202.3227
 21
-140.5527
 31
0.0
  0
LINE
  5
232
100
AcDbEntity
  8
LEVEL_7
  6
CONTINUOUS
 62
         2
100
AcDbLine
 10
-202.4819
 20
-141.0941
 30
0.0
 11
-202.4819
 21
-151.927
 31
0.0
  0
LINE
  5
233
100
AcDbEntity
  8
LEVEL_7
  6
CONTINUOUS
 62
         2
100
AcDbLine
 10
-201.946
 20
-153.927
 30
0.0
 11
-199.7809
 21
-157.677
 31
0.0
  0
ARC
  5
234
100
AcDbEntity
  8
LEVEL_7
  6
CONTINUOUS
 62
         2
100
AcDbCircle
 10
-201.7319
 20
-162.2978
 30
0.0
 40
4.0
100
AcDbArc
 50
0.0
 51
30.0000115676
  0
ARC
  5
235
100
AcDbEntity
  8
LEVEL_7
  6
CONTINUOUS
 62
         2
100
AcDbCircle
 10
-198.4819
 20
-151.927
 30
0.0
 40
4.0
100
AcDbArc
 50
180.0
 51
210.0000115676
  0
ARC
  5
236
100
AcDbEntity
  8
LEVEL_7
  6
CONTINUOUS
 62
         2
100
AcDbCircle
 10
-189.4819
 20
-151.927
 30
0.0
 40
3.9999721449
100
AcDbArc
 50
332.8865947698
 51
360.0
  0
ARC
  5
237
100
AcDbEntity
  8
LEVEL_7
  6
CONTINUOUS
 62
         2
100
AcDbCircle
 10
-186.2319
 20
-162.2978
 30
0.0
 40
3.9999986012
100
AcDbArc
 50
149.9999884324
 51
180.0
  0
ARC
  5
238
100
AcDbEntity
  8
LEVEL_7
  6
CONTINUOUS
 62
         2
100
AcDbCircle
 10
-186.4819
 20
-141.0941
 30
0.0
 40
1.0
100
AcDbArc
 50
0.0
 51
32.7779128902
  0
ARC
  5
239
100
AcDbEntity
  8
LEVEL_7
  6
CONTINUOUS
 62
         2
100
AcDbCircle
 10
-201.4819
 20
-141.0941
 30
0.0
 40
1.0000292996
100
AcDbArc
 50
147.2220871098
 51
180.0
  0
LINE
  5
23A
100
AcDbEntity
  8
LEVEL_7
  6
CONTINUOUS
 62
         2
100
AcDbLine
 10
-188.1829
 20
-157.677
 30
0.0
 11
-186.0178
 21
-153.927
 31
0.0
  0
ARC
  5
23B
100
AcDbEntity
  8
LEVEL_7
  6
HIDDEN2
 62
         5
100
AcDbCircle
 10
-189.4819
 20
-156.927
 30
0.0
 40
1.4999669996
100
AcDbArc
 50
329.9992722192
 51
360.0
  0
LINE
  5
23C
100
AcDbEntity
  8
LEVEL_7
  6
CONTINUOUS
 62
         2
100
AcDbLine
 10
-199.7809
 20
-157.677
 30
0.0
 11
-198.2678
 21
-160.2978
 31
0.0
  0
ARC
  5
23D
100
AcDbEntity
  8
LEVEL_7
  6
HIDDEN2
 62
         5
100
AcDbCircle
 10
-198.4819
 20
-156.927
 30
0.0
 40
1.5
100
AcDbArc
 50
180.0
 51
210.0007277808
  0
LINE
  5
23E
100
AcDbEntity
  8
LEVEL_7
  6
CONTINUOUS
 62
         2
100
AcDbLine
 10
-182.9819
 20
-167.0
 30
0.0
 11
-182.9819
 21
-158.5
 31
0.0
  0
LINE
  5
23F
100
AcDbEntity
  8
LEVEL_7
  6
CONTINUOUS
 62
         2
100
AcDbLine
 10
-182.9819
 20
-153.75
 30
0.0
 11
-185.9215
 21
-153.75
 31
0.0
  0
LINE
  5
240
100
AcDbEntity
  8
LEVEL_7
  6
CONTINUOUS
 62
         2
100
AcDbLine
 10
-182.9819
 20
-180.25
 30
0.0
 11
-182.9819
 21
-175.5
 31
0.0
  0
LINE
  5
241
100
AcDbEntity
  8
LEVEL_7
  6
HIDDEN2
 62
         5
100
AcDbLine
 10
-193.9819
 20
-175.0
 30
0.0
 11
-195.2319
 21
-175.0
 31
0.0
  0
LINE
  5
242
100
AcDbEntity
  8
LEVEL_7
  6
HIDDEN2
 62
         5
100
AcDbLine
 10
-193.9819
 20
-154.5
 30
0.0
 11
-194.9819
 21
-154.5
 31
0.0
  0
LINE
  5
243
100
AcDbEntity
  8
LEVEL_7
  6
HIDDEN2
 62
         5
100
AcDbLine
 10
-193.9819
 20
-159.0
 30
0.0
 11
-192.9819
 21
-159.0
 31
0.0
  0
LINE
  5
244
100
AcDbEntity
  8
LEVEL_7
  6
CONTINUOUS
 62
         2
100
AcDbLine
 10
-190.8573
 20
-180.25
 30
0.0
 11
-191.5353
 21
-182.8883
 31
0.0
  0
ARC
  5
245
100
AcDbEntity
  8
LEVEL_7
  6
CONTINUOUS
 62
         2
100
AcDbCircle
 10
-189.4819
 20
-151.927
 30
0.0
 40
3.9999986012
100
AcDbArc
 50
329.9999884324
 51
332.8865947698
  0
LINE
  5
246
100
AcDbEntity
  8
LEVEL_7
  6
CONTINUOUS
 62
         2
100
AcDbLine
 10
-182.9819
 20
-175.5
 30
0.0
 11
-149.9819
 21
-175.5
 31
0.0
  0
LINE
  5
247
100
AcDbEntity
  8
LEVEL_7
  6
CONTINUOUS
 62
         2
100
AcDbLine
 10
-149.9819
 20
-175.5
 30
0.0
 11
-148.9819
 21
-174.5
 31
0.0
  0
LINE
  5
248
100
AcDbEntity
  8
LEVEL_7
  6
CONTINUOUS
 62
         2
100
AcDbLine
 10
-148.9819
 20
-174.5
 30
0.0
 11
-148.9819
 21
-159.5
 31
0.0
  0
LINE
  5
249
100
AcDbEntity
  8
LEVEL_7
  6
CONTINUOUS
 62
         2
100
AcDbLine
 10
-148.9819
 20
-159.5
 30
0.0
 11
-149.9819
 21
-158.5
 31
0.0
  0
LINE
  5
24A
100
AcDbEntity
  8
LEVEL_7
  6
CONTINUOUS
 62
         2
100
AcDbLine
 10
-149.9819
 20
-158.5
 30
0.0
 11
-182.9819
 21
-158.5
 31
0.0
  0
LINE
  5
24B
100
AcDbEntity
  8
LEVEL_7
  6
CONTINUOUS
 62
         2
100
AcDbLine
 10
-149.9819
 20
-175.5
 30
0.0
 11
-149.9819
 21
-158.5
 31
0.0
  0
LINE
  5
24C
100
AcDbEntity
  8
LEVEL_7
  6
CONTINUOUS
 62
         2
100
AcDbLine
 10
-182.9819
 20
-158.5
 30
0.0
 11
-182.9819
 21
-153.75
 31
0.0
  0
LINE
  5
24D
100
AcDbEntity
  8
LEVEL_7
  6
CONTINUOUS
 62
         2
100
AcDbLine
 10
-182.9819
 20
-175.5
 30
0.0
 11
-182.9819
 21
-167.0
 31
0.0
  0
LINE
  5
24E
100
AcDbEntity
  8
LEVEL_7
  6
CENTER2
 62
         3
100
AcDbLine
 10
-193.9819
 20
-187.05
 30
0.0
 11
-193.9819
 21
-165.45
 31
0.0
  0
LINE
  5
24F
100
AcDbEntity
  8
LEVEL_7
  6
CENTER2
 62
         3
100
AcDbLine
 10
-193.9819
 20
-163.2
 30
0.0
 11
-193.9819
 21
-133.8
 31
0.0
  0
LINE
  5
250
100
AcDbEntity
  8
LEVEL_7
  6
CENTER2
 62
         3
100
AcDbLine
 10
-182.3819
 20
-143.5
 30
0.0
 11
-205.5819
 21
-143.5
 31
0.0
  0
LINE
  5
251
100
AcDbEntity
  8
LEVEL_7
  6
CENTER2
 62
         3
100
AcDbLine
 10
-197.2819
 20
-167.0
 30
0.0
 11
-145.6819
 21
-167.0
 31
0.0
  0
LINE
  5
252
100
AcDbEntity
  8
LEVEL_7
  6
CONTINUOUS
 62
         2
100
AcDbLine
 10
-182.9819
 20
-180.25
 30
0.0
 11
-190.8574
 21
-180.25
 31
0.0
  0
LINE
  5
253
100
AcDbEntity
  8
LEVEL_7
  6
CONTINUOUS
 62
         2
100
AcDbLine
 10
-179.7143
 20
-166.0
 30
0.0
 11
-179.7143
 21
-162.0
 31
0.0
  0
LINE
  5
254
100
AcDbEntity
  8
LEVEL_7
  6
CONTINUOUS
 62
         2
100
AcDbLine
 10
-179.7143
 20
-162.0
 30
0.0
 11
-178.5714
 21
-162.0
 31
0.0
  0
LINE
  5
255
100
AcDbEntity
  8
LEVEL_7
  6
CONTINUOUS
 62
         2
100
AcDbLine
 10
-179.7143
 20
-164.0
 30
0.0
 11
-178.5714
 21
-164.0
 31
0.0
  0
ARC
  5
256
100
AcDbEntity
  8
LEVEL_7
  6
CONTINUOUS
 62
         2
100
AcDbCircle
 10
-178.5714
 20
-162.8571
 30
0.0
 40
0.8571
100
AcDbArc
 50
0.0
 51
90.0
  0
ARC
  5
257
100
AcDbEntity
  8
LEVEL_7
  6
CONTINUOUS
 62
         2
100
AcDbCircle
 10
-178.5714
 20
-163.1429
 30
0.0
 40
0.8571
100
AcDbArc
 50
270.0
 51
360.0
  0
LINE
  5
258
100
AcDbEntity
  8
LEVEL_7
  6
CONTINUOUS
 62
         2
100
AcDbLine
 10
-177.7143
 20
-163.1429
 30
0.0
 11
-177.7143
 21
-162.8571
 31
0.0
  0
LINE
  5
259
100
AcDbEntity
  8
LEVEL_7
  6
CONTINUOUS
 62
         2
100
AcDbLine
 10
-178.5714
 20
-164.0
 30
0.0
 11
-177.7143
 21
-166.0
 31
0.0
  0
ARC
  5
25A
100
AcDbEntity
  8
LEVEL_7
  6
CONTINUOUS
 62
         2
100
AcDbCircle
 10
-176.2857
 20
-165.1429
 30
0.0
 40
0.8572
100
AcDbArc
 50
180.0
 51
270.0
  0
LINE
  5
25B
100
AcDbEntity
  8
LEVEL_7
  6
CONTINUOUS
 62
         2
100
AcDbLine
 10
-176.2857
 20
-166.0
 30
0.0
 11
-176.0
 21
-166.0
 31
0.0
  0
ARC
  5
25C
100
AcDbEntity
  8
LEVEL_7
  6
CONTINUOUS
 62
         2
100
AcDbCircle
 10
-176.0
 20
-165.1429
 30
0.0
 40
0.8571
100
AcDbArc
 50
270.0
 51
360.0
  0
LINE
  5
25D
100
AcDbEntity
  8
LEVEL_7
  6
CONTINUOUS
 62
         2
100
AcDbLine
 10
-177.1429
 20
-165.1429
 30
0.0
 11
-177.1429
 21
-162.0
 31
0.0
  0
LINE
  5
25E
100
AcDbEntity
  8
LEVEL_7
  6
CONTINUOUS
 62
         2
100
AcDbLine
 10
-175.1429
 20
-165.1429
 30
0.0
 11
-175.1429
 21
-162.0
 31
0.0
  0
LINE
  5
25F
100
AcDbEntity
  8
LEVEL_7
  6
CONTINUOUS
 62
         2
100
AcDbLine
 10
-174.5714
 20
-166.0
 30
0.0
 11
-174.5714
 21
-162.0
 31
0.0
  0
LINE
  5
260
100
AcDbEntity
  8
LEVEL_7
  6
CONTINUOUS
 62
         2
100
AcDbLine
 10
-174.5714
 20
-166.0
 30
0.0
 11
-173.4286
 21
-166.0
 31
0.0
  0
LINE
  5
261
100
AcDbEntity
  8
LEVEL_7
  6
CONTINUOUS
 62
         2
100
AcDbLine
 10
-174.5714
 20
-162.0
 30
0.0
 11
-173.4286
 21
-162.0
 31
0.0
  0
ARC
  5
262
100
AcDbEntity
  8
LEVEL_7
  6
CONTINUOUS
 62
         2
100
AcDbCircle
 10
-173.4286
 20
-162.8571
 30
0.0
 40
0.8572
100
AcDbArc
 50
0.0
 51
90.0
  0
ARC
  5
263
100
AcDbEntity
  8
LEVEL_7
  6
CONTINUOUS
 62
         2
100
AcDbCircle
 10
-173.4286
 20
-165.1429
 30
0.0
 40
0.8571
100
AcDbArc
 50
270.0
 51
360.0
  0
LINE
  5
264
100
AcDbEntity
  8
LEVEL_7
  6
CONTINUOUS
 62
         2
100
AcDbLine
 10
-172.5714
 20
-165.1429
 30
0.0
 11
-172.5714
 21
-162.8571
 31
0.0
  0
LINE
  5
265
100
AcDbEntity
  8
LEVEL_7
  6
CONTINUOUS
 62
         2
100
AcDbLine
 10
-168.0
 20
-162.0
 30
0.0
 11
-167.0
 21
-166.0
 31
0.0
  0
LINE
  5
266
100
AcDbEntity
  8
LEVEL_7
  6
CONTINUOUS
 62
         2
100
AcDbLine
 10
-167.0
 20
-166.0
 30
0.0
 11
-166.0
 21
-162.0
 31
0.0
  0
LINE
  5
267
100
AcDbEntity
  8
LEVEL_7
  6
CONTINUOUS
 62
         2
100
AcDbLine
 10
-165.4286
 20
-166.0
 30
0.0
 11
-165.4286
 21
-162.0
 31
0.0
  0
LINE
  5
268
100
AcDbEntity
  8
LEVEL_7
  6
CONTINUOUS
 62
         2
100
AcDbLine
 10
-165.4286
 20
-166.0
 30
0.0
 11
-163.7143
 21
-166.0
 31
0.0
  0
LINE
  5
269
100
AcDbEntity
  8
LEVEL_7
  6
CONTINUOUS
 62
         2
100
AcDbLine
 10
-165.4286
 20
-162.0
 30
0.0
 11
-163.7143
 21
-162.0
 31
0.0
  0
LINE
  5
26A
100
AcDbEntity
  8
LEVEL_7
  6
CONTINUOUS
 62
         2
100
AcDbLine
 10
-165.4286
 20
-164.0
 30
0.0
 11
-164.0
 21
-164.0
 31
0.0
  0
LINE
  5
26B
100
AcDbEntity
  8
LEVEL_7
  6
CONTINUOUS
 62
         2
100
AcDbLine
 10
-163.1429
 20
-166.0
 30
0.0
 11
-163.1429
 21
-162.0
 31
0.0
  0
LINE
  5
26C
100
AcDbEntity
  8
LEVEL_7
  6
CONTINUOUS
 62
         2
100
AcDbLine
 10
-163.1429
 20
-162.0
 30
0.0
 11
-162.0
 21
-162.0
 31
0.0
  0
LINE
  5
26D
100
AcDbEntity
  8
LEVEL_7
  6
CONTINUOUS
 62
         2
100
AcDbLine
 10
-163.1429
 20
-164.0
 30
0.0
 11
-162.0
 21
-164.0
 31
0.0
  0
ARC
  5
26E
100
AcDbEntity
  8
LEVEL_7
  6
CONTINUOUS
 62
         2
100
AcDbCircle
 10
-162.0
 20
-162.8571
 30
0.0
 40
0.8571
100
AcDbArc
 50
0.0
 51
90.0
  0
ARC
  5
26F
100
AcDbEntity
  8
LEVEL_7
  6
CONTINUOUS
 62
         2
100
AcDbCircle
 10
-162.0
 20
-163.1429
 30
0.0
 40
0.8571
100
AcDbArc
 50
270.0
 51
360.0
  0
LINE
  5
270
100
AcDbEntity
  8
LEVEL_7
  6
CONTINUOUS
 62
         2
100
AcDbLine
 10
-161.1429
 20
-163.1429
 30
0.0
 11
-161.1429
 21
-162.8571
 31
0.0
  0
LINE
  5
271
100
AcDbEntity
  8
LEVEL_7
  6
CONTINUOUS
 62
         2
100
AcDbLine
 10
-162.0
 20
-164.0
 30
0.0
 11
-161.1429
 21
-166.0
 31
0.0
  0
ARC
  5
272
100
AcDbEntity
  8
LEVEL_7
  6
CONTINUOUS
 62
         2
100
AcDbCircle
 10
-159.7143
 20
-165.1429
 30
0.0
 40
0.8571
100
AcDbArc
 50
180.0
 51
270.0
  0
LINE
  5
273
100
AcDbEntity
  8
LEVEL_7
  6
CONTINUOUS
 62
         2
100
AcDbLine
 10
-159.7143
 20
-166.0
 30
0.0
 11
-159.4286
 21
-166.0
 31
0.0
  0
ARC
  5
274
100
AcDbEntity
  8
LEVEL_7
  6
CONTINUOUS
 62
         2
100
AcDbCircle
 10
-159.4286
 20
-165.1429
 30
0.0
 40
0.8571
100
AcDbArc
 50
270.0
 51
360.0
  0
LINE
  5
275
100
AcDbEntity
  8
LEVEL_7
  6
CONTINUOUS
 62
         2
100
AcDbLine
 10
-158.5714
 20
-165.1429
 30
0.0
 11
-158.5714
 21
-164.0
 31
0.0
  0
LINE
  5
276
100
AcDbEntity
  8
LEVEL_7
  6
CONTINUOUS
 62
         2
100
AcDbLine
 10
-158.5714
 20
-164.0
 30
0.0
 11
-159.5714
 21
-164.0
 31
0.0
  0
LINE
  5
277
100
AcDbEntity
  8
LEVEL_7
  6
CONTINUOUS
 62
         2
100
AcDbLine
 10
-160.5714
 20
-165.1429
 30
0.0
 11
-160.5714
 21
-162.8571
 31
0.0
  0
ARC
  5
278
100
AcDbEntity
  8
LEVEL_7
  6
CONTINUOUS
 62
         2
100
AcDbCircle
 10
-159.7143
 20
-162.8571
 30
0.0
 40
0.8571
100
AcDbArc
 50
90.0
 51
180.0
  0
LINE
  5
279
100
AcDbEntity
  8
LEVEL_7
  6
CONTINUOUS
 62
         2
100
AcDbLine
 10
-159.7143
 20
-162.0
 30
0.0
 11
-159.4286
 21
-162.0
 31
0.0
  0
ARC
  5
27A
100
AcDbEntity
  8
LEVEL_7
  6
CONTINUOUS
 62
         2
100
AcDbCircle
 10
-159.4286
 20
-162.8571
 30
0.0
 40
0.8572
100
AcDbArc
 50
0.0
 51
90.0
  0
LINE
  5
27B
100
AcDbEntity
  8
LEVEL_7
  6
CONTINUOUS
 62
         2
100
AcDbLine
 10
-158.5714
 20
-162.8571
 30
0.0
 11
-158.5714
 21
-163.1429
 31
0.0
  0
ARC
  5
27C
100
AcDbEntity
  8
LEVEL_7
  6
CONTINUOUS
 62
         2
100
AcDbCircle
 10
-155.1429
 20
-165.1429
 30
0.0
 40
0.8571
100
AcDbArc
 50
180.0
 51
360.0
  0
LINE
  5
27D
100
AcDbEntity
  8
LEVEL_7
  6
CONTINUOUS
 62
         2
100
AcDbLine
 10
-154.2857
 20
-165.1429
 30
0.0
 11
-154.2857
 21
-164.5714
 31
0.0
  0
ARC
  5
27E
100
AcDbEntity
  8
LEVEL_7
  6
CONTINUOUS
 62
         2
100
AcDbCircle
 10
-155.1429
 20
-164.5714
 30
0.0
 40
0.8572
100
AcDbArc
 50
0.0
 51
180.0
  0
LINE
  5
27F
100
AcDbEntity
  8
LEVEL_7
  6
CONTINUOUS
 62
         2
100
AcDbLine
 10
-156.0
 20
-165.1429
 30
0.0
 11
-156.0
 21
-164.5714
 31
0.0
  0
LINE
  5
280
100
AcDbEntity
  8
LEVEL_7
  6
CONTINUOUS
 62
         2
100
AcDbLine
 10
-155.9154
 20
-164.2
 30
0.0
 11
-154.8571
 21
-162.0
 31
0.0
  0
LINE
  5
281
100
AcDbEntity
  8
LEVEL_7
  6
CONTINUOUS
 62
         2
100
AcDbLine
 10
-176.5714
 20
-174.0
 30
0.0
 11
-176.5714
 21
-170.0
 31
0.0
  0
LINE
  5
282
100
AcDbEntity
  8
LEVEL_7
  6
CONTINUOUS
 62
         2
100
AcDbLine
 10
-176.5714
 20
-174.0
 30
0.0
 11
-175.4286
 21
-174.0
 31
0.0
  0
LINE
  5
283
100
AcDbEntity
  8
LEVEL_7
  6
CONTINUOUS
 62
         2
100
AcDbLine
 10
-176.5714
 20
-170.0
 30
0.0
 11
-175.4286
 21
-170.0
 31
0.0
  0
ARC
  5
284
100
AcDbEntity
  8
LEVEL_7
  6
CONTINUOUS
 62
         2
100
AcDbCircle
 10
-175.4286
 20
-170.8571
 30
0.0
 40
0.8572
100
AcDbArc
 50
0.0
 51
90.0
  0
ARC
  5
285
100
AcDbEntity
  8
LEVEL_7
  6
CONTINUOUS
 62
         2
100
AcDbCircle
 10
-175.4286
 20
-173.1429
 30
0.0
 40
0.8571
100
AcDbArc
 50
270.0
 51
360.0
  0
LINE
  5
286
100
AcDbEntity
  8
LEVEL_7
  6
CONTINUOUS
 62
         2
100
AcDbLine
 10
-174.5714
 20
-173.1429
 30
0.0
 11
-174.5714
 21
-170.8571
 31
0.0
  0
LINE
  5
287
100
AcDbEntity
  8
LEVEL_7
  6
CONTINUOUS
 62
         2
100
AcDbLine
 10
-174.0
 20
-173.0
 30
0.0
 11
-172.2857
 21
-173.0
 31
0.0
  0
LINE
  5
288
100
AcDbEntity
  8
LEVEL_7
  6
CONTINUOUS
 62
         2
100
AcDbLine
 10
-174.0
 20
-172.1429
 30
0.0
 11
-172.2857
 21
-172.1429
 31
0.0
  0
LINE
  5
289
100
AcDbEntity
  8
LEVEL_7
  6
CONTINUOUS
 62
         2
100
AcDbLine
 10
-170.5714
 20
-174.0
 30
0.0
 11
-170.5714
 21
-170.0
 31
0.0
  0
LINE
  5
28A
100
AcDbEntity
  8
LEVEL_7
  6
CONTINUOUS
 62
         2
100
AcDbLine
 10
-171.7143
 20
-170.8571
 30
0.0
 11
-170.5714
 21
-170.0
 31
0.0
  0
LINE
  5
28B
100
AcDbEntity
  8
LEVEL_7
  6
CONTINUOUS
 62
         2
100
AcDbLine
 10
-170.0
 20
-170.8571
 30
0.0
 11
-170.0
 21
-170.0
 31
0.0
  0
LINE
  5
28C
100
AcDbEntity
  8
LEVEL_7
  6
CONTINUOUS
 62
         2
100
AcDbLine
 10
-170.0
 20
-170.0
 30
0.0
 11
-168.2857
 21
-170.0
 31
0.0
  0
LINE
  5
28D
100
AcDbEntity
  8
LEVEL_7
  6
CONTINUOUS
 62
         2
100
AcDbLine
 10
-168.2857
 20
-170.0
 30
0.0
 11
-169.7143
 21
-174.0
 31
0.0
  0
LINE
  5
28E
100
AcDbEntity
  8
LEVEL_7
  6
CONTINUOUS
 62
         2
100
AcDbLine
 10
-167.7143
 20
-172.5714
 30
0.0
 11
-166.0
 21
-172.5714
 31
0.0
  0
LINE
  5
28F
100
AcDbEntity
  8
LEVEL_7
  6
CONTINUOUS
 62
         2
100
AcDbLine
 10
-165.4286
 20
-171.1429
 30
0.0
 11
-165.4286
 21
-170.8571
 31
0.0
  0
ARC
  5
290
100
AcDbEntity
  8
LEVEL_7
  6
CONTINUOUS
 62
         2
100
AcDbCircle
 10
-164.5714
 20
-170.8571
 30
0.0
 40
0.8571467144
100
AcDbArc
 50
329.3629630936
 51
180.0
  0
LINE
  5
291
100
AcDbEntity
  8
LEVEL_7
  6
CONTINUOUS
 62
         2
100
AcDbLine
 10
-163.776
 20
-171.2943
 30
0.0
 11
-165.4286
 21
-174.0
 31
0.0
  0
LINE
  5
292
100
AcDbEntity
  8
LEVEL_7
  6
CONTINUOUS
 62
         2
100
AcDbLine
 10
-165.4286
 20
-174.0
 30
0.0
 11
-163.7143
 21
-174.0
 31
0.0
  0
LINE
  5
293
100
AcDbEntity
  8
LEVEL_7
  6
CONTINUOUS
 62
         2
100
AcDbLine
 10
-163.1429
 20
-173.1429
 30
0.0
 11
-161.4286
 21
-173.1429
 31
0.0
  0
LINE
  5
294
100
AcDbEntity
  8
LEVEL_7
  6
CONTINUOUS
 62
         2
100
AcDbLine
 10
-161.5714
 20
-174.0
 30
0.0
 11
-161.5714
 21
-171.7143
 31
0.0
  0
LINE
  5
295
100
AcDbEntity
  8
LEVEL_7
  6
CONTINUOUS
 62
         2
100
AcDbLine
 10
-163.1429
 20
-173.1429
 30
0.0
 11
-162.0
 21
-170.0
 31
0.0
  0
LINE
  5
296
100
AcDbEntity
  8
LEVEL_7
  6
CONTINUOUS
 62
         2
100
AcDbLine
 10
-160.2857
 20
-174.2857
 30
0.0
 11
-160.2857
 21
-173.4286
 31
0.0
  0
ARC
  5
297
100
AcDbEntity
  8
LEVEL_7
  6
CONTINUOUS
 62
         2
100
AcDbCircle
 10
-158.2857
 20
-170.8571
 30
0.0
 40
0.8571
100
AcDbArc
 50
0.0
 51
180.0
  0
LINE
  5
298
100
AcDbEntity
  8
LEVEL_7
  6
CONTINUOUS
 62
         2
100
AcDbLine
 10
-159.1429
 20
-170.8571
 30
0.0
 11
-159.1429
 21
-171.4286
 31
0.0
  0
LINE
  5
299
100
AcDbEntity
  8
LEVEL_7
  6
CONTINUOUS
 62
         2
100
AcDbLine
 10
-157.4286
 20
-170.8571
 30
0.0
 11
-157.4286
 21
-171.4286
 31
0.0
  0
ARC
  5
29A
100
AcDbEntity
  8
LEVEL_7
  6
CONTINUOUS
 62
         2
100
AcDbCircle
 10
-158.2857
 20
-171.4286
 30
0.0
 40
0.8572
100
AcDbArc
 50
180.0
 51
360.0
  0
LINE
  5
29B
100
AcDbEntity
  8
LEVEL_7
  6
CONTINUOUS
 62
         2
100
AcDbLine
 10
-158.5714
 20
-174.0
 30
0.0
 11
-157.5131
 21
-171.8
 31
0.0
  0
LINE
  5
29C
100
AcDbEntity
  8
LEVEL_8
  6
CONTINUOUS
 62
         2
100
AcDbLine
 10
-4.964
 20
-142.3143
 30
0.0
 11
-2.7858
 21
-146.0871
 31
0.0
  0
LINE
  5
29D
100
AcDbEntity
  8
LEVEL_8
  6
CONTINUOUS
 62
         2
100
AcDbLine
 10
17.0001
 20
-142.3143
 30
0.0
 11
14.8219
 21
-146.0871
 31
0.0
  0
LINE
  5
29E
100
AcDbEntity
  8
LEVEL_8
  6
HIDDEN2
 62
         5
100
AcDbLine
 10
7.518
 20
-151.0153
 30
0.0
 11
10.5786
 21
-151.5
 31
0.0
  0
LINE
  5
29F
100
AcDbEntity
  8
LEVEL_8
  6
HIDDEN2
 62
         5
100
AcDbLine
 10
12.3309
 20
-155.2378
 30
0.0
 11
7.518
 21
-156.0001
 31
0.0
  0
LINE
  5
2A0
100
AcDbEntity
  8
LEVEL_8
  6
HIDDEN2
 62
         5
100
AcDbLine
 10
7.518
 20
-156.0001
 30
0.0
 11
6.018
 21
-156.0001
 31
0.0
  0
LINE
  5
2A1
100
AcDbEntity
  8
LEVEL_8
  6
HIDDEN2
 62
         5
100
AcDbLine
 10
4.518
 20
-156.0001
 30
0.0
 11
-0.2948
 21
-155.2378
 31
0.0
  0
LINE
  5
2A2
100
AcDbEntity
  8
LEVEL_8
  6
HIDDEN2
 62
         5
100
AcDbLine
 10
-0.3585
 20
-151.7876
 30
0.0
 11
4.518
 21
-151.0153
 31
0.0
  0
LINE
  5
2A3
100
AcDbEntity
  8
LEVEL_8
  6
HIDDEN2
 62
         5
100
AcDbLine
 10
4.518
 20
-151.0153
 30
0.0
 11
7.518
 21
-151.0153
 31
0.0
  0
ARC
  5
2A4
100
AcDbEntity
  8
LEVEL_8
  6
CONTINUOUS
 62
         2
100
AcDbCircle
 10
0.018
 20
-153.2625
 30
0.0
 40
2.0000080625
100
AcDbArc
 50
255.5225474508
 51
261.0016068109
  0
ARC
  5
2A5
100
AcDbEntity
  8
LEVEL_8
  6
CONTINUOUS
 62
         2
100
AcDbCircle
 10
12.0181
 20
-153.2625
 30
0.0
 40
1.9999134806
100
AcDbArc
 50
278.9983931891
 51
284.4774525492
  0
ARC
  5
2A6
100
AcDbEntity
  8
LEVEL_8
  6
HIDDEN2
 62
         5
100
AcDbCircle
 10
12.0817
 20
-153.763
 30
0.0
 40
1.9999394841
100
AcDbArc
 50
14.4927545048
 51
80.9992253853
  0
ARC
  5
2A7
100
AcDbEntity
  8
LEVEL_8
  6
HIDDEN2
 62
         5
100
AcDbCircle
 10
-0.0456
 20
-153.763
 30
0.0
 40
2.0000278923
100
AcDbArc
 50
99.0007746147
 51
165.5072454952
  0
LINE
  5
2A8
100
AcDbEntity
  8
LEVEL_8
  6
CONTINUOUS
 62
         2
100
AcDbLine
 10
-1.982
 20
-149.0871
 30
0.0
 11
-1.982
 21
-153.2625
 31
0.0
  0
LINE
  5
2A9
100
AcDbEntity
  8
LEVEL_8
  6
CONTINUOUS
 62
         2
100
AcDbLine
 10
14.0181
 20
-149.0871
 30
0.0
 11
14.0181
 21
-151.5
 31
0.0
  0
LINE
  5
2AA
100
AcDbEntity
  8
LEVEL_8
  6
CONTINUOUS
 62
         2
100
AcDbLine
 10
9.4868
 20
-190.3676
 30
0.0
 11
10.8947
 21
-182.5
 31
0.0
  0
LINE
  5
2AB
100
AcDbEntity
  8
LEVEL_8
  6
CONTINUOUS
 62
         2
100
AcDbLine
 10
2.5493
 20
-190.3676
 30
0.0
 11
1.0728
 21
-182.1166
 31
0.0
  0
LINE
  5
2AC
100
AcDbEntity
  8
LEVEL_8
  6
CONTINUOUS
 62
         2
100
AcDbLine
 10
4.518
 20
-192.0153
 30
0.0
 11
7.518
 21
-192.0153
 31
0.0
  0
LINE
  5
2AD
100
AcDbEntity
  8
LEVEL_8
  6
HIDDEN2
 62
         5
100
AcDbLine
 10
4.518
 20
-178.0001
 30
0.0
 11
6.018
 21
-178.0001
 31
0.0
  0
ARC
  5
2AE
100
AcDbEntity
  8
LEVEL_8
  6
HIDDEN2
 62
         5
100
AcDbCircle
 10
4.518
 20
-181.5001
 30
0.0
 40
3.5
100
AcDbArc
 50
90.0
 51
180.0
  0
ARC
  5
2AF
100
AcDbEntity
  8
LEVEL_8
  6
CONTINUOUS
 62
         2
100
AcDbCircle
 10
7.518
 20
-181.5001
 30
0.0
 40
3.5000234771
100
AcDbArc
 50
349.8548965847
 51
360.0
  0
ARC
  5
2B0
100
AcDbEntity
  8
LEVEL_8
  6
CONTINUOUS
 62
         2
100
AcDbCircle
 10
4.518
 20
-190.0153
 30
0.0
 40
1.9999737448
100
AcDbArc
 50
190.1457225411
 51
270.0
  0
ARC
  5
2B1
100
AcDbEntity
  8
LEVEL_8
  6
CONTINUOUS
 62
         2
100
AcDbCircle
 10
7.518
 20
-190.0153
 30
0.0
 40
2.0
100
AcDbArc
 50
270.0
 51
349.8547820799
  0
LINE
  5
2B2
100
AcDbEntity
  8
LEVEL_8
  6
CONTINUOUS
 62
         2
100
AcDbLine
 10
1.018
 20
-181.5001
 30
0.0
 11
1.018
 21
-157.1355
 31
0.0
  0
LINE
  5
2B3
100
AcDbEntity
  8
LEVEL_8
  6
CONTINUOUS
 62
         2
100
AcDbLine
 10
11.0181
 20
-181.5001
 30
0.0
 11
11.0181
 21
-157.1355
 31
0.0
  0
ARC
  5
2B4
100
AcDbEntity
  8
LEVEL_8
  6
CONTINUOUS
 62
         2
100
AcDbCircle
 10
-0.982
 20
-157.1355
 30
0.0
 40
2.0
100
AcDbArc
 50
0.0
 51
75.5225474508
  0
ARC
  5
2B5
100
AcDbEntity
  8
LEVEL_8
  6
CONTINUOUS
 62
         2
100
AcDbCircle
 10
13.0181
 20
-157.1355
 30
0.0
 40
2.0000080625
100
AcDbArc
 50
104.4774525492
 51
180.0
  0
ARC
  5
2B6
100
AcDbEntity
  8
LEVEL_8
  6
CONTINUOUS
 62
         2
100
AcDbCircle
 10
12.0181
 20
-153.2625
 30
0.0
 40
2.0000080625
100
AcDbArc
 50
284.4774525492
 51
360.0
  0
ARC
  5
2B7
100
AcDbEntity
  8
LEVEL_8
  6
CONTINUOUS
 62
         2
100
AcDbCircle
 10
0.018
 20
-153.2625
 30
0.0
 40
2.0
100
AcDbArc
 50
180.0
 51
255.5225474508
  0
ARC
  5
2B8
100
AcDbEntity
  8
LEVEL_8
  6
CONTINUOUS
 62
         2
100
AcDbCircle
 10
4.518
 20
-181.5001
 30
0.0
 40
3.5
100
AcDbArc
 50
180.0
 51
190.1453917693
  0
ARC
  5
2B9
100
AcDbEntity
  8
LEVEL_8
  6
HIDDEN2
 62
         5
100
AcDbCircle
 10
7.518
 20
-181.5001
 30
0.0
 40
3.5
100
AcDbArc
 50
0.0
 51
90.0
  0
ARC
  5
2BA
100
AcDbEntity
  8
LEVEL_8
  6
CONTINUOUS
 62
         2
100
AcDbCircle
 10
-7.982
 20
-149.0871
 30
0.0
 40
6.0
100
AcDbArc
 50
0.0
 51
29.9997728367
  0
ARC
  5
2BB
100
AcDbEntity
  8
LEVEL_8
  6
CONTINUOUS
 62
         2
100
AcDbCircle
 10
20.0181
 20
-149.0871
 30
0.0
 40
6.0000412032
100
AcDbArc
 50
150.0002271633
 51
180.0
  0
CIRCLE
  5
2BC
100
AcDbEntity
  8
LEVEL_8
  6
CONTINUOUS
 62
         2
100
AcDbCircle
 10
6.0206
 20
-136.0191
 30
0.0
 40
4.8
  0
LINE
  5
2BD
100
AcDbEntity
  8
LEVEL_8
  6
CONTINUOUS
 62
         2
100
AcDbLine
 10
17.2681
 20
-141.3143
 30
0.0
 11
17.2681
 21
-133.3431
 31
0.0
  0
LINE
  5
2BE
100
AcDbEntity
  8
LEVEL_8
  6
CONTINUOUS
 62
         2
100
AcDbLine
 10
16.9599
 20
-132.2765
 30
0.0
 11
15.5349
 21
-130.0159
 31
0.0
  0
ARC
  5
2BF
100
AcDbEntity
  8
LEVEL_8
  6
CONTINUOUS
 62
         2
100
AcDbCircle
 10
6.018
 20
-136.0153
 30
0.0
 40
11.2500749318
100
AcDbArc
 50
32.2270997012
 51
147.7726287031
  0
LINE
  5
2C0
100
AcDbEntity
  8
LEVEL_8
  6
CONTINUOUS
 62
         2
100
AcDbLine
 10
-3.4988
 20
-130.0159
 30
0.0
 11
-4.9238
 21
-132.2765
 31
0.0
  0
LINE
  5
2C1
100
AcDbEntity
  8
LEVEL_8
  6
CONTINUOUS
 62
         2
100
AcDbLine
 10
-5.232
 20
-133.3431
 30
0.0
 11
-5.232
 21
-141.3143
 31
0.0
  0
ARC
  5
2C2
100
AcDbEntity
  8
LEVEL_8
  6
CONTINUOUS
 62
         2
100
AcDbCircle
 10
-3.232
 20
-141.3143
 30
0.0
 40
2.0
100
AcDbArc
 50
180.0
 51
210.0007277808
  0
ARC
  5
2C3
100
AcDbEntity
  8
LEVEL_8
  6
CONTINUOUS
 62
         2
100
AcDbCircle
 10
15.2681
 20
-141.3143
 30
0.0
 40
1.9999559995
100
AcDbArc
 50
329.9992722192
 51
360.0
  0
ARC
  5
2C4
100
AcDbEntity
  8
LEVEL_8
  6
CONTINUOUS
 62
         2
100
AcDbCircle
 10
15.2681
 20
-133.3431
 30
0.0
 40
2.0
100
AcDbArc
 50
0.0
 51
32.2294950075
  0
ARC
  5
2C5
100
AcDbEntity
  8
LEVEL_8
  6
CONTINUOUS
 62
         2
100
AcDbCircle
 10
-3.232
 20
-133.3431
 30
0.0
 40
1.9999556995
100
AcDbArc
 50
147.7705049925
 51
180.0
  0
LINE
  5
2C6
100
AcDbEntity
  8
LEVEL_8
  6
CONTINUOUS
 62
         2
100
AcDbLine
 10
21.018
 20
-167.0
 30
0.0
 11
21.018
 21
-156.0
 31
0.0
  0
LINE
  5
2C7
100
AcDbEntity
  8
LEVEL_8
  6
CONTINUOUS
 62
         2
100
AcDbLine
 10
21.018
 20
-151.5
 30
0.0
 11
14.0181
 21
-151.5
 31
0.0
  0
LINE
  5
2C8
100
AcDbEntity
  8
LEVEL_8
  6
CONTINUOUS
 62
         2
100
AcDbLine
 10
6.018
 20
-151.5
 30
0.0
 11
6.018
 21
-156.0001
 31
0.0
  0
LINE
  5
2C9
100
AcDbEntity
  8
LEVEL_8
  6
CONTINUOUS
 62
         2
100
AcDbLine
 10
21.018
 20
-182.5
 30
0.0
 11
21.018
 21
-178.0
 31
0.0
  0
LINE
  5
2CA
100
AcDbEntity
  8
LEVEL_8
  6
HIDDEN2
 62
         5
100
AcDbLine
 10
10.5786
 20
-151.5
 30
0.0
 11
12.3946
 21
-151.7876
 31
0.0
  0
LINE
  5
2CB
100
AcDbEntity
  8
LEVEL_8
  6
HIDDEN2
 62
         5
100
AcDbLine
 10
6.018
 20
-156.0001
 30
0.0
 11
4.518
 21
-156.0001
 31
0.0
  0
LINE
  5
2CC
100
AcDbEntity
  8
LEVEL_8
  6
CONTINUOUS
 62
         2
100
AcDbLine
 10
14.0181
 20
-151.5
 30
0.0
 11
14.0181
 21
-153.2625
 31
0.0
  0
LINE
  5
2CD
100
AcDbEntity
  8
LEVEL_8
  6
CONTINUOUS
 62
         2
100
AcDbLine
 10
10.8947
 20
-182.5
 30
0.0
 11
10.9633
 21
-182.1166
 31
0.0
  0
LINE
  5
2CE
100
AcDbEntity
  8
LEVEL_8
  6
HIDDEN2
 62
         5
100
AcDbLine
 10
6.018
 20
-178.0001
 30
0.0
 11
7.518
 21
-178.0001
 31
0.0
  0
LINE
  5
2CF
100
AcDbEntity
  8
LEVEL_8
  6
CONTINUOUS
 62
         2
100
AcDbLine
 10
21.018
 20
-182.5
 30
0.0
 11
10.8947
 21
-182.5
 31
0.0
  0
LINE
  5
2D0
100
AcDbEntity
  8
LEVEL_8
  6
CONTINUOUS
 62
         2
100
AcDbLine
 10
21.018
 20
-178.0
 30
0.0
 11
64.0181
 21
-178.0
 31
0.0
  0
LINE
  5
2D1
100
AcDbEntity
  8
LEVEL_8
  6
CONTINUOUS
 62
         2
100
AcDbLine
 10
64.0181
 20
-178.0
 30
0.0
 11
65.0181
 21
-177.0
 31
0.0
  0
LINE
  5
2D2
100
AcDbEntity
  8
LEVEL_8
  6
CONTINUOUS
 62
         2
100
AcDbLine
 10
65.0181
 20
-177.0
 30
0.0
 11
65.0181
 21
-157.0
 31
0.0
  0
LINE
  5
2D3
100
AcDbEntity
  8
LEVEL_8
  6
CONTINUOUS
 62
         2
100
AcDbLine
 10
65.0181
 20
-157.0
 30
0.0
 11
64.0181
 21
-156.0
 31
0.0
  0
LINE
  5
2D4
100
AcDbEntity
  8
LEVEL_8
  6
CONTINUOUS
 62
         2
100
AcDbLine
 10
64.0181
 20
-156.0
 30
0.0
 11
21.018
 21
-156.0
 31
0.0
  0
LINE
  5
2D5
100
AcDbEntity
  8
LEVEL_8
  6
CONTINUOUS
 62
         2
100
AcDbLine
 10
64.0181
 20
-178.0
 30
0.0
 11
64.0181
 21
-156.0
 31
0.0
  0
LINE
  5
2D6
100
AcDbEntity
  8
LEVEL_8
  6
CONTINUOUS
 62
         2
100
AcDbLine
 10
21.018
 20
-156.0
 30
0.0
 11
21.018
 21
-151.5
 31
0.0
  0
LINE
  5
2D7
100
AcDbEntity
  8
LEVEL_8
  6
CONTINUOUS
 62
         2
100
AcDbLine
 10
21.018
 20
-178.0
 30
0.0
 11
21.018
 21
-167.0
 31
0.0
  0
LINE
  5
2D8
100
AcDbEntity
  8
LEVEL_8
  6
CENTER2
 62
         3
100
AcDbLine
 10
17.7181
 20
-136.0153
 30
0.0
 11
-5.682
 21
-136.0153
 31
0.0
  0
LINE
  5
2D9
100
AcDbEntity
  8
LEVEL_8
  6
CENTER2
 62
         3
100
AcDbLine
 10
6.018
 20
-119.6853
 30
0.0
 11
6.018
 21
-197.0953
 31
0.0
  0
LINE
  5
2DA
100
AcDbEntity
  8
LEVEL_8
  6
CENTER2
 62
         3
100
AcDbLine
 10
1.598
 20
-167.0
 30
0.0
 11
69.438
 21
-167.0
 31
0.0
  0
LINE
  5
2DB
100
AcDbEntity
  8
LEVEL_8
  6
CONTINUOUS
 62
         2
100
AcDbLine
 10
23.8571
 20
-165.0
 30
0.0
 11
23.8571
 21
-160.0
 31
0.0
  0
LINE
  5
2DC
100
AcDbEntity
  8
LEVEL_8
  6
CONTINUOUS
 62
         2
100
AcDbLine
 10
23.8571
 20
-160.0
 30
0.0
 11
25.2857
 21
-160.0
 31
0.0
  0
LINE
  5
2DD
100
AcDbEntity
  8
LEVEL_8
  6
CONTINUOUS
 62
         2
100
AcDbLine
 10
23.8571
 20
-162.5
 30
0.0
 11
25.2857
 21
-162.5
 31
0.0
  0
ARC
  5
2DE
100
AcDbEntity
  8
LEVEL_8
  6
CONTINUOUS
 62
         2
100
AcDbCircle
 10
25.2857
 20
-161.0714
 30
0.0
 40
1.0714
100
AcDbArc
 50
0.0
 51
90.0
  0
ARC
  5
2DF
100
AcDbEntity
  8
LEVEL_8
  6
CONTINUOUS
 62
         2
100
AcDbCircle
 10
25.2857
 20
-161.4286
 30
0.0
 40
1.0714
100
AcDbArc
 50
270.0
 51
360.0
  0
LINE
  5
2E0
100
AcDbEntity
  8
LEVEL_8
  6
CONTINUOUS
 62
         2
100
AcDbLine
 10
26.3571
 20
-161.4286
 30
0.0
 11
26.3571
 21
-161.0714
 31
0.0
  0
LINE
  5
2E1
100
AcDbEntity
  8
LEVEL_8
  6
CONTINUOUS
 62
         2
100
AcDbLine
 10
25.2857
 20
-162.5
 30
0.0
 11
26.3571
 21
-165.0
 31
0.0
  0
ARC
  5
2E2
100
AcDbEntity
  8
LEVEL_8
  6
CONTINUOUS
 62
         2
100
AcDbCircle
 10
28.1429
 20
-163.9286
 30
0.0
 40
1.0715
100
AcDbArc
 50
180.0
 51
270.0
  0
LINE
  5
2E3
100
AcDbEntity
  8
LEVEL_8
  6
CONTINUOUS
 62
         2
100
AcDbLine
 10
28.1429
 20
-165.0
 30
0.0
 11
28.5
 21
-165.0
 31
0.0
  0
ARC
  5
2E4
100
AcDbEntity
  8
LEVEL_8
  6
CONTINUOUS
 62
         2
100
AcDbCircle
 10
28.5
 20
-163.9286
 30
0.0
 40
1.0714
100
AcDbArc
 50
270.0
 51
360.0
  0
LINE
  5
2E5
100
AcDbEntity
  8
LEVEL_8
  6
CONTINUOUS
 62
         2
100
AcDbLine
 10
27.0714
 20
-163.9286
 30
0.0
 11
27.0714
 21
-160.0
 31
0.0
  0
LINE
  5
2E6
100
AcDbEntity
  8
LEVEL_8
  6
CONTINUOUS
 62
         2
100
AcDbLine
 10
29.5714
 20
-163.9286
 30
0.0
 11
29.5714
 21
-160.0
 31
0.0
  0
LINE
  5
2E7
100
AcDbEntity
  8
LEVEL_8
  6
CONTINUOUS
 62
         2
100
AcDbLine
 10
30.2857
 20
-165.0
 30
0.0
 11
30.2857
 21
-160.0
 31
0.0
  0
LINE
  5
2E8
100
AcDbEntity
  8
LEVEL_8
  6
CONTINUOUS
 62
         2
100
AcDbLine
 10
30.2857
 20
-165.0
 30
0.0
 11
31.7143
 21
-165.0
 31
0.0
  0
LINE
  5
2E9
100
AcDbEntity
  8
LEVEL_8
  6
CONTINUOUS
 62
         2
100
AcDbLine
 10
30.2857
 20
-160.0
 30
0.0
 11
31.7143
 21
-160.0
 31
0.0
  0
ARC
  5
2EA
100
AcDbEntity
  8
LEVEL_8
  6
CONTINUOUS
 62
         2
100
AcDbCircle
 10
31.7143
 20
-161.0714
 30
0.0
 40
1.0714
100
AcDbArc
 50
0.0
 51
90.0
  0
ARC
  5
2EB
100
AcDbEntity
  8
LEVEL_8
  6
CONTINUOUS
 62
         2
100
AcDbCircle
 10
31.7143
 20
-163.9286
 30
0.0
 40
1.0714
100
AcDbArc
 50
270.0
 51
360.0
  0
LINE
  5
2EC
100
AcDbEntity
  8
LEVEL_8
  6
CONTINUOUS
 62
         2
100
AcDbLine
 10
32.7857
 20
-163.9286
 30
0.0
 11
32.7857
 21
-161.0714
 31
0.0
  0
LINE
  5
2ED
100
AcDbEntity
  8
LEVEL_8
  6
CONTINUOUS
 62
         2
100
AcDbLine
 10
41.0
 20
-160.0
 30
0.0
 11
42.25
 21
-165.0
 31
0.0
  0
LINE
  5
2EE
100
AcDbEntity
  8
LEVEL_8
  6
CONTINUOUS
 62
         2
100
AcDbLine
 10
42.25
 20
-165.0
 30
0.0
 11
43.5
 21
-160.0
 31
0.0
  0
LINE
  5
2EF
100
AcDbEntity
  8
LEVEL_8
  6
CONTINUOUS
 62
         2
100
AcDbLine
 10
44.2143
 20
-165.0
 30
0.0
 11
44.2143
 21
-160.0
 31
0.0
  0
LINE
  5
2F0
100
AcDbEntity
  8
LEVEL_8
  6
CONTINUOUS
 62
         2
100
AcDbLine
 10
44.2143
 20
-165.0
 30
0.0
 11
46.3571
 21
-165.0
 31
0.0
  0
LINE
  5
2F1
100
AcDbEntity
  8
LEVEL_8
  6
CONTINUOUS
 62
         2
100
AcDbLine
 10
44.2143
 20
-160.0
 30
0.0
 11
46.3571
 21
-160.0
 31
0.0
  0
LINE
  5
2F2
100
AcDbEntity
  8
LEVEL_8
  6
CONTINUOUS
 62
         2
100
AcDbLine
 10
44.2143
 20
-162.5
 30
0.0
 11
46.0
 21
-162.5
 31
0.0
  0
LINE
  5
2F3
100
AcDbEntity
  8
LEVEL_8
  6
CONTINUOUS
 62
         2
100
AcDbLine
 10
47.0714
 20
-165.0
 30
0.0
 11
47.0714
 21
-160.0
 31
0.0
  0
LINE
  5
2F4
100
AcDbEntity
  8
LEVEL_8
  6
CONTINUOUS
 62
         2
100
AcDbLine
 10
47.0714
 20
-160.0
 30
0.0
 11
48.5
 21
-160.0
 31
0.0
  0
LINE
  5
2F5
100
AcDbEntity
  8
LEVEL_8
  6
CONTINUOUS
 62
         2
100
AcDbLine
 10
47.0714
 20
-162.5
 30
0.0
 11
48.5
 21
-162.5
 31
0.0
  0
ARC
  5
2F6
100
AcDbEntity
  8
LEVEL_8
  6
CONTINUOUS
 62
         2
100
AcDbCircle
 10
48.5
 20
-161.0714
 30
0.0
 40
1.0714
100
AcDbArc
 50
0.0
 51
90.0
  0
ARC
  5
2F7
100
AcDbEntity
  8
LEVEL_8
  6
CONTINUOUS
 62
         2
100
AcDbCircle
 10
48.5
 20
-161.4286
 30
0.0
 40
1.0714
100
AcDbArc
 50
270.0
 51
360.0
  0
LINE
  5
2F8
100
AcDbEntity
  8
LEVEL_8
  6
CONTINUOUS
 62
         2
100
AcDbLine
 10
49.5714
 20
-161.4286
 30
0.0
 11
49.5714
 21
-161.0714
 31
0.0
  0
LINE
  5
2F9
100
AcDbEntity
  8
LEVEL_8
  6
CONTINUOUS
 62
         2
100
AcDbLine
 10
48.5
 20
-162.5
 30
0.0
 11
49.5714
 21
-165.0
 31
0.0
  0
ARC
  5
2FA
100
AcDbEntity
  8
LEVEL_8
  6
CONTINUOUS
 62
         2
100
AcDbCircle
 10
51.3571
 20
-163.9286
 30
0.0
 40
1.0714
100
AcDbArc
 50
180.0
 51
270.0
  0
LINE
  5
2FB
100
AcDbEntity
  8
LEVEL_8
  6
CONTINUOUS
 62
         2
100
AcDbLine
 10
51.3571
 20
-165.0
 30
0.0
 11
51.7143
 21
-165.0
 31
0.0
  0
ARC
  5
2FC
100
AcDbEntity
  8
LEVEL_8
  6
CONTINUOUS
 62
         2
100
AcDbCircle
 10
51.7143
 20
-163.9286
 30
0.0
 40
1.0714
100
AcDbArc
 50
270.0
 51
360.0
  0
LINE
  5
2FD
100
AcDbEntity
  8
LEVEL_8
  6
CONTINUOUS
 62
         2
100
AcDbLine
 10
52.7857
 20
-163.9286
 30
0.0
 11
52.7857
 21
-162.5
 31
0.0
  0
LINE
  5
2FE
100
AcDbEntity
  8
LEVEL_8
  6
CONTINUOUS
 62
         2
100
AcDbLine
 10
52.7857
 20
-162.5
 30
0.0
 11
51.5357
 21
-162.5
 31
0.0
  0
LINE
  5
2FF
100
AcDbEntity
  8
LEVEL_8
  6
CONTINUOUS
 62
         2
100
AcDbLine
 10
50.2857
 20
-163.9286
 30
0.0
 11
50.2857
 21
-161.0714
 31
0.0
  0
ARC
  5
300
100
AcDbEntity
  8
LEVEL_8
  6
CONTINUOUS
 62
         2
100
AcDbCircle
 10
51.3571
 20
-161.0714
 30
0.0
 40
1.0714
100
AcDbArc
 50
90.0
 51
180.0
  0
LINE
  5
301
100
AcDbEntity
  8
LEVEL_8
  6
CONTINUOUS
 62
         2
100
AcDbLine
 10
51.3571
 20
-160.0
 30
0.0
 11
51.7143
 21
-160.0
 31
0.0
  0
ARC
  5
302
100
AcDbEntity
  8
LEVEL_8
  6
CONTINUOUS
 62
         2
100
AcDbCircle
 10
51.7143
 20
-161.0714
 30
0.0
 40
1.0714
100
AcDbArc
 50
0.0
 51
90.0
  0
LINE
  5
303
100
AcDbEntity
  8
LEVEL_8
  6
CONTINUOUS
 62
         2
100
AcDbLine
 10
52.7857
 20
-161.0714
 30
0.0
 11
52.7857
 21
-161.4286
 31
0.0
  0
ARC
  5
304
100
AcDbEntity
  8
LEVEL_8
  6
CONTINUOUS
 62
         2
100
AcDbCircle
 10
57.0714
 20
-161.0714
 30
0.0
 40
1.0715
100
AcDbArc
 50
0.0
 51
180.0
  0
LINE
  5
305
100
AcDbEntity
  8
LEVEL_8
  6
CONTINUOUS
 62
         2
100
AcDbLine
 10
56.0
 20
-161.0714
 30
0.0
 11
56.0
 21
-161.6071
 31
0.0
  0
LINE
  5
306
100
AcDbEntity
  8
LEVEL_8
  6
CONTINUOUS
 62
         2
100
AcDbLine
 10
58.1429
 20
-161.0714
 30
0.0
 11
58.1429
 21
-161.6071
 31
0.0
  0
ARC
  5
307
100
AcDbEntity
  8
LEVEL_8
  6
CONTINUOUS
 62
         2
100
AcDbCircle
 10
56.7143
 20
-161.6071
 30
0.0
 40
0.7143
100
AcDbArc
 50
180.0
 51
270.0
  0
ARC
  5
308
100
AcDbEntity
  8
LEVEL_8
  6
CONTINUOUS
 62
         2
100
AcDbCircle
 10
57.4286
 20
-161.6071
 30
0.0
 40
0.7143
100
AcDbArc
 50
270.0
 51
360.0
  0
LINE
  5
309
100
AcDbEntity
  8
LEVEL_8
  6
CONTINUOUS
 62
         2
100
AcDbLine
 10
56.7143
 20
-162.3214
 30
0.0
 11
57.4286
 21
-162.3214
 31
0.0
  0
ARC
  5
30A
100
AcDbEntity
  8
LEVEL_8
  6
CONTINUOUS
 62
         2
100
AcDbCircle
 10
56.7143
 20
-163.0357
 30
0.0
 40
0.7143
100
AcDbArc
 50
90.0
 51
180.0
  0
ARC
  5
30B
100
AcDbEntity
  8
LEVEL_8
  6
CONTINUOUS
 62
         2
100
AcDbCircle
 10
57.4286
 20
-163.0357
 30
0.0
 40
0.7143
100
AcDbArc
 50
0.0
 51
90.0
  0
LINE
  5
30C
100
AcDbEntity
  8
LEVEL_8
  6
CONTINUOUS
 62
         2
100
AcDbLine
 10
56.0
 20
-163.0357
 30
0.0
 11
56.0
 21
-163.9286
 31
0.0
  0
LINE
  5
30D
100
AcDbEntity
  8
LEVEL_8
  6
CONTINUOUS
 62
         2
100
AcDbLine
 10
58.1429
 20
-163.0357
 30
0.0
 11
58.1429
 21
-163.9286
 31
0.0
  0
ARC
  5
30E
100
AcDbEntity
  8
LEVEL_8
  6
CONTINUOUS
 62
         2
100
AcDbCircle
 10
57.0714
 20
-163.9286
 30
0.0
 40
1.0714
100
AcDbArc
 50
180.0
 51
360.0
  0
LINE
  5
30F
100
AcDbEntity
  8
LEVEL_8
  6
CONTINUOUS
 62
         2
100
AcDbLine
 10
28.6786
 20
-175.0
 30
0.0
 11
28.6786
 21
-170.0
 31
0.0
  0
LINE
  5
310
100
AcDbEntity
  8
LEVEL_8
  6
CONTINUOUS
 62
         2
100
AcDbLine
 10
28.6786
 20
-175.0
 30
0.0
 11
30.1071
 21
-175.0
 31
0.0
  0
LINE
  5
311
100
AcDbEntity
  8
LEVEL_8
  6
CONTINUOUS
 62
         2
100
AcDbLine
 10
28.6786
 20
-170.0
 30
0.0
 11
30.1071
 21
-170.0
 31
0.0
  0
ARC
  5
312
100
AcDbEntity
  8
LEVEL_8
  6
CONTINUOUS
 62
         2
100
AcDbCircle
 10
30.1071
 20
-171.0714
 30
0.0
 40
1.0715
100
AcDbArc
 50
0.0
 51
90.0
  0
ARC
  5
313
100
AcDbEntity
  8
LEVEL_8
  6
CONTINUOUS
 62
         2
100
AcDbCircle
 10
30.1071
 20
-173.9286
 30
0.0
 40
1.0714
100
AcDbArc
 50
270.0
 51
360.0
  0
LINE
  5
314
100
AcDbEntity
  8
LEVEL_8
  6
CONTINUOUS
 62
         2
100
AcDbLine
 10
31.1786
 20
-173.9286
 30
0.0
 11
31.1786
 21
-171.0714
 31
0.0
  0
LINE
  5
315
100
AcDbEntity
  8
LEVEL_8
  6
CONTINUOUS
 62
         2
100
AcDbLine
 10
31.8929
 20
-173.75
 30
0.0
 11
34.0357
 21
-173.75
 31
0.0
  0
LINE
  5
316
100
AcDbEntity
  8
LEVEL_8
  6
CONTINUOUS
 62
         2
100
AcDbLine
 10
31.8929
 20
-172.6786
 30
0.0
 11
34.0357
 21
-172.6786
 31
0.0
  0
LINE
  5
317
100
AcDbEntity
  8
LEVEL_8
  6
CONTINUOUS
 62
         2
100
AcDbLine
 10
34.75
 20
-171.4286
 30
0.0
 11
34.75
 21
-171.0714
 31
0.0
  0
ARC
  5
318
100
AcDbEntity
  8
LEVEL_8
  6
CONTINUOUS
 62
         2
100
AcDbCircle
 10
35.8214
 20
-171.0714
 30
0.0
 40
1.0714899953
100
AcDbArc
 50
329.370970193
 51
180.0
  0
LINE
  5
319
100
AcDbEntity
  8
LEVEL_8
  6
CONTINUOUS
 62
         2
100
AcDbLine
 10
36.8157
 20
-171.6179
 30
0.0
 11
34.75
 21
-175.0
 31
0.0
  0
LINE
  5
31A
100
AcDbEntity
  8
LEVEL_8
  6
CONTINUOUS
 62
         2
100
AcDbLine
 10
34.75
 20
-175.0
 30
0.0
 11
36.8929
 21
-175.0
 31
0.0
  0
LINE
  5
31B
100
AcDbEntity
  8
LEVEL_8
  6
CONTINUOUS
 62
         2
100
AcDbLine
 10
37.6071
 20
-171.4286
 30
0.0
 11
37.6071
 21
-171.0714
 31
0.0
  0
ARC
  5
31C
100
AcDbEntity
  8
LEVEL_8
  6
CONTINUOUS
 62
         2
100
AcDbCircle
 10
38.6786
 20
-171.0714
 30
0.0
 40
1.0714039481
100
AcDbArc
 50
329.3682456456
 51
180.0
  0
LINE
  5
31D
100
AcDbEntity
  8
LEVEL_8
  6
CONTINUOUS
 62
         2
100
AcDbLine
 10
39.6729
 20
-171.6179
 30
0.0
 11
37.6071
 21
-175.0
 31
0.0
  0
LINE
  5
31E
100
AcDbEntity
  8
LEVEL_8
  6
CONTINUOUS
 62
         2
100
AcDbLine
 10
37.6071
 20
-175.0
 30
0.0
 11
39.75
 21
-175.0
 31
0.0
  0
LINE
  5
31F
100
AcDbEntity
  8
LEVEL_8
  6
CONTINUOUS
 62
         2
100
AcDbLine
 10
40.4643
 20
-173.2143
 30
0.0
 11
42.6071
 21
-173.2143
 31
0.0
  0
LINE
  5
320
100
AcDbEntity
  8
LEVEL_8
  6
CONTINUOUS
 62
         2
100
AcDbLine
 10
43.3214
 20
-171.4286
 30
0.0
 11
43.3214
 21
-171.0714
 31
0.0
  0
ARC
  5
321
100
AcDbEntity
  8
LEVEL_8
  6
CONTINUOUS
 62
         2
100
AcDbCircle
 10
44.3929
 20
-171.0714
 30
0.0
 40
1.0714039481
100
AcDbArc
 50
329.3682456456
 51
180.0
  0
LINE
  5
322
100
AcDbEntity
  8
LEVEL_8
  6
CONTINUOUS
 62
         2
100
AcDbLine
 10
45.3871
 20
-171.6179
 30
0.0
 11
43.3214
 21
-175.0
 31
0.0
  0
LINE
  5
323
100
AcDbEntity
  8
LEVEL_8
  6
CONTINUOUS
 62
         2
100
AcDbLine
 10
43.3214
 20
-175.0
 30
0.0
 11
45.4643
 21
-175.0
 31
0.0
  0
LINE
  5
324
100
AcDbEntity
  8
LEVEL_8
  6
CONTINUOUS
 62
         2
100
AcDbLine
 10
46.1786
 20
-170.0
 30
0.0
 11
48.3214
 21
-170.0
 31
0.0
  0
LINE
  5
325
100
AcDbEntity
  8
LEVEL_8
  6
CONTINUOUS
 62
         2
100
AcDbLine
 10
46.1786
 20
-170.0
 30
0.0
 11
46.1786
 21
-172.5
 31
0.0
  0
ARC
  5
326
100
AcDbEntity
  8
LEVEL_8
  6
CONTINUOUS
 62
         2
100
AcDbCircle
 10
46.8929
 20
-172.5
 30
0.0
 40
0.7143
100
AcDbArc
 50
90.0
 51
180.0
  0
LINE
  5
327
100
AcDbEntity
  8
LEVEL_8
  6
CONTINUOUS
 62
         2
100
AcDbLine
 10
46.8929
 20
-171.7857
 30
0.0
 11
47.25
 21
-171.7857
 31
0.0
  0
ARC
  5
328
100
AcDbEntity
  8
LEVEL_8
  6
CONTINUOUS
 62
         2
100
AcDbCircle
 10
47.25
 20
-172.8571
 30
0.0
 40
1.0714
100
AcDbArc
 50
0.0
 51
90.0
  0
LINE
  5
329
100
AcDbEntity
  8
LEVEL_8
  6
CONTINUOUS
 62
         2
100
AcDbLine
 10
48.3214
 20
-172.8571
 30
0.0
 11
48.3214
 21
-173.9286
 31
0.0
  0
ARC
  5
32A
100
AcDbEntity
  8
LEVEL_8
  6
CONTINUOUS
 62
         2
100
AcDbCircle
 10
47.25
 20
-173.9286
 30
0.0
 40
1.0714
100
AcDbArc
 50
180.0
 51
360.0
  0
LINE
  5
32B
100
AcDbEntity
  8
LEVEL_8
  6
CONTINUOUS
 62
         2
100
AcDbLine
 10
46.1786
 20
-173.9286
 30
0.0
 11
46.1786
 21
-173.5714
 31
0.0
  0
LINE
  5
32C
100
AcDbEntity
  8
LEVEL_8
  6
CONTINUOUS
 62
         2
100
AcDbLine
 10
49.75
 20
-175.3571
 30
0.0
 11
49.75
 21
-174.2857
 31
0.0
  0
ARC
  5
32D
100
AcDbEntity
  8
LEVEL_8
  6
CONTINUOUS
 62
         2
100
AcDbCircle
 10
52.25
 20
-171.0714
 30
0.0
 40
1.0714
100
AcDbArc
 50
0.0
 51
180.0
  0
LINE
  5
32E
100
AcDbEntity
  8
LEVEL_8
  6
CONTINUOUS
 62
         2
100
AcDbLine
 10
51.1786
 20
-171.0714
 30
0.0
 11
51.1786
 21
-171.7857
 31
0.0
  0
LINE
  5
32F
100
AcDbEntity
  8
LEVEL_8
  6
CONTINUOUS
 62
         2
100
AcDbLine
 10
53.3214
 20
-171.0714
 30
0.0
 11
53.3214
 21
-171.7857
 31
0.0
  0
ARC
  5
330
100
AcDbEntity
  8
LEVEL_8
  6
CONTINUOUS
 62
         2
100
AcDbCircle
 10
52.25
 20
-171.7857
 30
0.0
 40
1.0714
100
AcDbArc
 50
180.0
 51
360.0
  0
LINE
  5
331
100
AcDbEntity
  8
LEVEL_8
  6
CONTINUOUS
 62
         2
100
AcDbLine
 10
51.8929
 20
-175.0
 30
0.0
 11
53.2157
 21
-172.25
 31
0.0
  0
LINE
  5
332
100
AcDbEntity
  8
LEVEL_9
  6
CONTINUOUS
 62
         2
100
AcDbLine
 10
192.8038
 20
-137.5442
 30
0.0
 11
195.1962
 21
-141.6878
 31
0.0
  0
LINE
  5
333
100
AcDbEntity
  8
LEVEL_9
  6
CONTINUOUS
 62
         2
100
AcDbLine
 10
219.1962
 20
-137.5442
 30
0.0
 11
216.8038
 21
-141.6878
 31
0.0
  0
LINE
  5
334
100
AcDbEntity
  8
LEVEL_9
  6
HIDDEN2
 62
         5
100
AcDbLine
 10
207.5
 20
-153.75
 30
0.0
 11
213.9371
 21
-152.7305
 31
0.0
  0
LINE
  5
335
100
AcDbEntity
  8
LEVEL_9
  6
CONTINUOUS
 62
         2
100
AcDbLine
 10
216.0
 20
-150.6956
 30
0.0
 11
216.0
 21
-149.8044
 31
0.0
  0
LINE
  5
336
100
AcDbEntity
  8
LEVEL_9
  6
HIDDEN2
 62
         5
100
AcDbLine
 10
214.3129
 20
-147.829
 30
0.0
 11
207.5
 21
-146.75
 31
0.0
  0
LINE
  5
337
100
AcDbEntity
  8
LEVEL_9
  6
HIDDEN2
 62
         5
100
AcDbLine
 10
207.5
 20
-146.75
 30
0.0
 11
204.5
 21
-146.75
 31
0.0
  0
LINE
  5
338
100
AcDbEntity
  8
LEVEL_9
  6
HIDDEN2
 62
         5
100
AcDbLine
 10
204.5
 20
-146.75
 30
0.0
 11
197.6871
 21
-147.829
 31
0.0
  0
LINE
  5
339
100
AcDbEntity
  8
LEVEL_9
  6
CONTINUOUS
 62
         2
100
AcDbLine
 10
196.0
 20
-149.8044
 30
0.0
 11
196.0
 21
-150.6956
 31
0.0
  0
LINE
  5
33A
100
AcDbEntity
  8
LEVEL_9
  6
CONTINUOUS
 62
         2
100
AcDbLine
 10
197.6871
 20
-152.671
 30
0.0
 11
198.0629
 21
-152.7305
 31
0.0
  0
LINE
  5
33B
100
AcDbEntity
  8
LEVEL_9
  6
HIDDEN2
 62
         5
100
AcDbLine
 10
204.5
 20
-153.75
 30
0.0
 11
206.0
 21
-153.75
 31
0.0
  0
ARC
  5
33C
100
AcDbEntity
  8
LEVEL_9
  6
HIDDEN2
 62
         5
100
AcDbCircle
 10
198.0
 20
-149.8044
 30
0.0
 40
2.0000278923
100
AcDbArc
 50
99.0007746147
 51
180.0
  0
ARC
  5
33D
100
AcDbEntity
  8
LEVEL_9
  6
CONTINUOUS
 62
         2
100
AcDbCircle
 10
198.0
 20
-150.6956
 30
0.0
 40
2.0
100
AcDbArc
 50
180.0
 51
260.9992253853
  0
ARC
  5
33E
100
AcDbEntity
  8
LEVEL_9
  6
CONTINUOUS
 62
         2
100
AcDbCircle
 10
214.0
 20
-150.6956
 30
0.0
 40
2.0000278923
100
AcDbArc
 50
279.0007746147
 51
360.0
  0
ARC
  5
33F
100
AcDbEntity
  8
LEVEL_9
  6
HIDDEN2
 62
         5
100
AcDbCircle
 10
214.0
 20
-149.8044
 30
0.0
 40
2.0
100
AcDbArc
 50
0.0
 51
40.7075641165
  0
LINE
  5
340
100
AcDbEntity
  8
LEVEL_9
  6
CONTINUOUS
 62
         2
100
AcDbLine
 10
196.0
 20
-144.6878
 30
0.0
 11
196.0
 21
-149.8044
 31
0.0
  0
LINE
  5
341
100
AcDbEntity
  8
LEVEL_9
  6
CONTINUOUS
 62
         2
100
AcDbLine
 10
216.0
 20
-144.6878
 30
0.0
 11
216.0
 21
-148.5
 31
0.0
  0
LINE
  5
342
100
AcDbEntity
  8
LEVEL_9
  6
CONTINUOUS
 62
         2
100
AcDbLine
 10
202.5863
 20
-195.3312
 30
0.0
 11
199.9658
 21
-186.703
 31
0.0
  0
LINE
  5
343
100
AcDbEntity
  8
LEVEL_9
  6
CONTINUOUS
 62
         2
100
AcDbLine
 10
209.4137
 20
-195.3312
 30
0.0
 11
212.0342
 21
-186.703
 31
0.0
  0
ARC
  5
344
100
AcDbEntity
  8
LEVEL_9
  6
CONTINUOUS
 62
         2
100
AcDbCircle
 10
207.25
 20
-185.25
 30
0.0
 40
4.999977864
100
AcDbArc
 50
343.106042405
 51
357.1339896102
  0
ARC
  5
345
100
AcDbEntity
  8
LEVEL_9
  6
HIDDEN2
 62
         5
100
AcDbCircle
 10
204.75
 20
-185.25
 30
0.0
 40
5.0
100
AcDbArc
 50
90.0
 51
180.0
  0
LINE
  5
346
100
AcDbEntity
  8
LEVEL_9
  6
HIDDEN2
 62
         5
100
AcDbLine
 10
204.75
 20
-180.25
 30
0.0
 11
206.0
 21
-180.25
 31
0.0
  0
ARC
  5
347
100
AcDbEntity
  8
LEVEL_9
  6
CONTINUOUS
 62
         2
100
AcDbCircle
 10
204.5
 20
-194.75
 30
0.0
 40
2.0000102825
100
AcDbArc
 50
196.8937910936
 51
270.0
  0
ARC
  5
348
100
AcDbEntity
  8
LEVEL_9
  6
CONTINUOUS
 62
         2
100
AcDbCircle
 10
207.5
 20
-194.75
 30
0.0
 40
2.0
100
AcDbArc
 50
270.0
 51
343.1062089064
  0
LINE
  5
349
100
AcDbEntity
  8
LEVEL_9
  6
CONTINUOUS
 62
         2
100
AcDbLine
 10
204.5
 20
-196.75
 30
0.0
 11
207.5
 21
-196.75
 31
0.0
  0
LINE
  5
34A
100
AcDbEntity
  8
LEVEL_9
  6
CONTINUOUS
 62
         2
100
AcDbLine
 10
199.75
 20
-154.7058
 30
0.0
 11
199.75
 21
-185.25
 31
0.0
  0
LINE
  5
34B
100
AcDbEntity
  8
LEVEL_9
  6
CONTINUOUS
 62
         2
100
AcDbLine
 10
212.25
 20
-185.25
 30
0.0
 11
212.25
 21
-154.7058
 31
0.0
  0
LINE
  5
34C
100
AcDbEntity
  8
LEVEL_9
  6
CONTINUOUS
 62
         2
100
AcDbLine
 10
213.9371
 20
-152.7305
 30
0.0
 11
214.3129
 21
-152.671
 31
0.0
  0
LINE
  5
34D
100
AcDbEntity
  8
LEVEL_9
  6
HIDDEN2
 62
         5
100
AcDbLine
 10
198.0629
 20
-152.7305
 30
0.0
 11
204.5
 21
-153.75
 31
0.0
  0
ARC
  5
34E
100
AcDbEntity
  8
LEVEL_9
  6
CONTINUOUS
 62
         2
100
AcDbCircle
 10
204.75
 20
-185.25
 30
0.0
 40
5.0
100
AcDbArc
 50
180.0
 51
196.893957595
  0
ARC
  5
34F
100
AcDbEntity
  8
LEVEL_9
  6
HIDDEN2
 62
         5
100
AcDbCircle
 10
207.25
 20
-185.25
 30
0.0
 40
5.0
100
AcDbArc
 50
0.0
 51
90.0
  0
ARC
  5
350
100
AcDbEntity
  8
LEVEL_9
  6
CONTINUOUS
 62
         2
100
AcDbCircle
 10
214.25
 20
-154.7058
 30
0.0
 40
1.9999291237
100
AcDbArc
 50
99.0012228206
 51
180.0
  0
ARC
  5
351
100
AcDbEntity
  8
LEVEL_9
  6
CONTINUOUS
 62
         2
100
AcDbCircle
 10
197.75
 20
-154.7058
 30
0.0
 40
2.0
100
AcDbArc
 50
0.0
 51
80.9987771794
  0
ARC
  5
352
100
AcDbEntity
  8
LEVEL_9
  6
CONTINUOUS
 62
         2
100
AcDbCircle
 10
190.0
 20
-144.6878
 30
0.0
 40
6.0
100
AcDbArc
 50
0.0
 51
29.9997728367
  0
ARC
  5
353
100
AcDbEntity
  8
LEVEL_9
  6
CONTINUOUS
 62
         2
100
AcDbCircle
 10
222.0
 20
-144.6878
 30
0.0
 40
6.0000412032
100
AcDbArc
 50
150.0002271633
 51
180.0
  0
ARC
  5
354
100
AcDbEntity
  8
LEVEL_9
  6
CONTINUOUS
 62
         2
100
AcDbCircle
 10
206.0
 20
-128.25
 30
0.0
 40
6.05
100
AcDbArc
 50
90.0
 51
152.96440535
  0
ARC
  5
355
100
AcDbEntity
  8
LEVEL_9
  6
CONTINUOUS
 62
         2
100
AcDbCircle
 10
206.0
 20
-128.25
 30
0.0
 40
6.0500201
100
AcDbArc
 50
152.96440535
 51
207.03559465
  0
ARC
  5
356
100
AcDbEntity
  8
LEVEL_9
  6
CONTINUOUS
 62
         2
100
AcDbCircle
 10
206.0
 20
-128.25
 30
0.0
 40
6.0500201
100
AcDbArc
 50
207.03559465
 51
332.96440535
  0
ARC
  5
357
100
AcDbEntity
  8
LEVEL_9
  6
CONTINUOUS
 62
         2
100
AcDbCircle
 10
206.0
 20
-128.25
 30
0.0
 40
6.0500201
100
AcDbArc
 50
332.96440535
 51
27.03559465
  0
ARC
  5
358
100
AcDbEntity
  8
LEVEL_9
  6
CONTINUOUS
 62
         2
100
AcDbCircle
 10
206.0
 20
-128.25
 30
0.0
 40
6.0500201
100
AcDbArc
 50
27.03559465
 51
90.0
  0
LINE
  5
359
100
AcDbEntity
  8
LEVEL_9
  6
CONTINUOUS
 62
         2
100
AcDbLine
 10
220.0
 20
-134.5442
 30
0.0
 11
220.0
 21
-124.25
 31
0.0
  0
LINE
  5
35A
100
AcDbEntity
  8
LEVEL_9
  6
CONTINUOUS
 62
         2
100
AcDbLine
 10
220.0
 20
-124.25
 30
0.0
 11
217.8868
 21
-120.8538
 31
0.0
  0
ARC
  5
35B
100
AcDbEntity
  8
LEVEL_9
  6
CONTINUOUS
 62
         2
100
AcDbCircle
 10
206.0
 20
-128.25
 30
0.0
 40
13.9999924529
100
AcDbArc
 50
31.8906836965
 51
148.1093163035
  0
LINE
  5
35C
100
AcDbEntity
  8
LEVEL_9
  6
CONTINUOUS
 62
         2
100
AcDbLine
 10
194.1132
 20
-120.8538
 30
0.0
 11
192.0
 21
-124.25
 31
0.0
  0
LINE
  5
35D
100
AcDbEntity
  8
LEVEL_9
  6
CONTINUOUS
 62
         2
100
AcDbLine
 10
192.0
 20
-124.25
 30
0.0
 11
192.0
 21
-134.5442
 31
0.0
  0
ARC
  5
35E
100
AcDbEntity
  8
LEVEL_9
  6
CONTINUOUS
 62
         2
100
AcDbCircle
 10
214.0
 20
-134.5442
 30
0.0
 40
6.0000412032
100
AcDbArc
 50
330.0002271633
 51
360.0
  0
ARC
  5
35F
100
AcDbEntity
  8
LEVEL_9
  6
CONTINUOUS
 62
         2
100
AcDbCircle
 10
198.0
 20
-134.5442
 30
0.0
 40
6.0
100
AcDbArc
 50
180.0
 51
209.9997728367
  0
LINE
  5
360
100
AcDbEntity
  8
LEVEL_9
  6
CONTINUOUS
 62
         2
100
AcDbLine
 10
224.0
 20
-167.0
 30
0.0
 11
224.0
 21
-153.0
 31
0.0
  0
LINE
  5
361
100
AcDbEntity
  8
LEVEL_9
  6
CONTINUOUS
 62
         2
100
AcDbLine
 10
224.0
 20
-148.5
 30
0.0
 11
216.0
 21
-148.5
 31
0.0
  0
LINE
  5
362
100
AcDbEntity
  8
LEVEL_9
  6
CONTINUOUS
 62
         2
100
AcDbLine
 10
224.0
 20
-185.5
 30
0.0
 11
224.0
 21
-181.0
 31
0.0
  0
LINE
  5
363
100
AcDbEntity
  8
LEVEL_9
  6
HIDDEN2
 62
         5
100
AcDbLine
 10
206.0
 20
-153.75
 30
0.0
 11
207.5
 21
-153.75
 31
0.0
  0
ARC
  5
364
100
AcDbEntity
  8
LEVEL_9
  6
HIDDEN2
 62
         5
100
AcDbCircle
 10
214.0
 20
-149.8044
 30
0.0
 40
2.0000046425
100
AcDbArc
 50
40.7075641165
 51
80.9992253853
  0
LINE
  5
365
100
AcDbEntity
  8
LEVEL_9
  6
CONTINUOUS
 62
         2
100
AcDbLine
 10
216.0
 20
-148.5
 30
0.0
 11
216.0
 21
-149.8044
 31
0.0
  0
ARC
  5
366
100
AcDbEntity
  8
LEVEL_9
  6
CONTINUOUS
 62
         2
100
AcDbCircle
 10
207.25
 20
-185.25
 30
0.0
 40
4.9999539688
100
AcDbArc
 50
357.1339896102
 51
360.0
  0
LINE
  5
367
100
AcDbEntity
  8
LEVEL_9
  6
HIDDEN2
 62
         5
100
AcDbLine
 10
206.0
 20
-180.25
 30
0.0
 11
207.25
 21
-180.25
 31
0.0
  0
LINE
  5
368
100
AcDbEntity
  8
LEVEL_9
  6
CONTINUOUS
 62
         2
100
AcDbLine
 10
224.0
 20
-181.0
 30
0.0
 11
278.0
 21
-181.0
 31
0.0
  0
LINE
  5
369
100
AcDbEntity
  8
LEVEL_9
  6
CONTINUOUS
 62
         2
100
AcDbLine
 10
278.0
 20
-181.0
 30
0.0
 11
280.0
 21
-179.0
 31
0.0
  0
LINE
  5
36A
100
AcDbEntity
  8
LEVEL_9
  6
CONTINUOUS
 62
         2
100
AcDbLine
 10
280.0
 20
-179.0
 30
0.0
 11
280.0
 21
-155.0
 31
0.0
  0
LINE
  5
36B
100
AcDbEntity
  8
LEVEL_9
  6
CONTINUOUS
 62
         2
100
AcDbLine
 10
280.0
 20
-155.0
 30
0.0
 11
278.0
 21
-153.0
 31
0.0
  0
LINE
  5
36C
100
AcDbEntity
  8
LEVEL_9
  6
CONTINUOUS
 62
         2
100
AcDbLine
 10
278.0
 20
-153.0
 30
0.0
 11
224.0
 21
-153.0
 31
0.0
  0
LINE
  5
36D
100
AcDbEntity
  8
LEVEL_9
  6
CONTINUOUS
 62
         2
100
AcDbLine
 10
278.0
 20
-181.0
 30
0.0
 11
278.0
 21
-153.0
 31
0.0
  0
LINE
  5
36E
100
AcDbEntity
  8
LEVEL_9
  6
CONTINUOUS
 62
         2
100
AcDbLine
 10
224.0
 20
-153.0
 30
0.0
 11
224.0
 21
-148.5
 31
0.0
  0
LINE
  5
36F
100
AcDbEntity
  8
LEVEL_9
  6
CONTINUOUS
 62
         2
100
AcDbLine
 10
224.0
 20
-181.0
 30
0.0
 11
224.0
 21
-167.0
 31
0.0
  0
LINE
  5
370
100
AcDbEntity
  8
LEVEL_9
  6
CENTER2
 62
         3
100
AcDbLine
 10
220.7
 20
-128.25
 30
0.0
 11
191.3
 21
-128.25
 31
0.0
  0
LINE
  5
371
100
AcDbEntity
  8
LEVEL_9
  6
CENTER2
 62
         3
100
AcDbLine
 10
206.0
 20
-107.95
 30
0.0
 11
206.0
 21
-203.05
 31
0.0
  0
LINE
  5
372
100
AcDbEntity
  8
LEVEL_9
  6
CENTER2
 62
         3
100
AcDbLine
 10
193.63
 20
-167.0
 30
0.0
 11
286.12
 21
-167.0
 31
0.0
  0
LINE
  5
373
100
AcDbEntity
  8
LEVEL_9
  6
CONTINUOUS
 62
         2
100
AcDbLine
 10
224.0
 20
-185.5
 30
0.0
 11
212.2437
 21
-185.5
 31
0.0
  0
LINE
  5
374
100
AcDbEntity
  8
LEVEL_9
  6
CONTINUOUS
 62
         2
100
AcDbLine
 10
230.1429
 20
-164.0
 30
0.0
 11
230.1429
 21
-158.0
 31
0.0
  0
LINE
  5
375
100
AcDbEntity
  8
LEVEL_9
  6
CONTINUOUS
 62
         2
100
AcDbLine
 10
230.1429
 20
-158.0
 30
0.0
 11
231.8571
 21
-158.0
 31
0.0
  0
LINE
  5
376
100
AcDbEntity
  8
LEVEL_9
  6
CONTINUOUS
 62
         2
100
AcDbLine
 10
230.1429
 20
-161.0
 30
0.0
 11
231.8571
 21
-161.0
 31
0.0
  0
ARC
  5
377
100
AcDbEntity
  8
LEVEL_9
  6
CONTINUOUS
 62
         2
100
AcDbCircle
 10
231.8571
 20
-159.2857
 30
0.0
 40
1.2858
100
AcDbArc
 50
0.0
 51
90.0
  0
ARC
  5
378
100
AcDbEntity
  8
LEVEL_9
  6
CONTINUOUS
 62
         2
100
AcDbCircle
 10
231.8571
 20
-159.7143
 30
0.0
 40
1.2857
100
AcDbArc
 50
270.0
 51
360.0
  0
LINE
  5
379
100
AcDbEntity
  8
LEVEL_9
  6
CONTINUOUS
 62
         2
100
AcDbLine
 10
233.1429
 20
-159.7143
 30
0.0
 11
233.1429
 21
-159.2857
 31
0.0
  0
LINE
  5
37A
100
AcDbEntity
  8
LEVEL_9
  6
CONTINUOUS
 62
         2
100
AcDbLine
 10
231.8571
 20
-161.0
 30
0.0
 11
233.1429
 21
-164.0
 31
0.0
  0
ARC
  5
37B
100
AcDbEntity
  8
LEVEL_9
  6
CONTINUOUS
 62
         2
100
AcDbCircle
 10
235.2857
 20
-162.7143
 30
0.0
 40
1.2857
100
AcDbArc
 50
180.0
 51
270.0
  0
LINE
  5
37C
100
AcDbEntity
  8
LEVEL_9
  6
CONTINUOUS
 62
         2
100
AcDbLine
 10
235.2857
 20
-164.0
 30
0.0
 11
235.7143
 21
-164.0
 31
0.0
  0
ARC
  5
37D
100
AcDbEntity
  8
LEVEL_9
  6
CONTINUOUS
 62
         2
100
AcDbCircle
 10
235.7143
 20
-162.7143
 30
0.0
 40
1.2857
100
AcDbArc
 50
270.0
 51
360.0
  0
LINE
  5
37E
100
AcDbEntity
  8
LEVEL_9
  6
CONTINUOUS
 62
         2
100
AcDbLine
 10
234.0
 20
-162.7143
 30
0.0
 11
234.0
 21
-158.0
 31
0.0
  0
LINE
  5
37F
100
AcDbEntity
  8
LEVEL_9
  6
CONTINUOUS
 62
         2
100
AcDbLine
 10
237.0
 20
-162.7143
 30
0.0
 11
237.0
 21
-158.0
 31
0.0
  0
LINE
  5
380
100
AcDbEntity
  8
LEVEL_9
  6
CONTINUOUS
 62
         2
100
AcDbLine
 10
237.8571
 20
-164.0
 30
0.0
 11
237.8571
 21
-158.0
 31
0.0
  0
LINE
  5
381
100
AcDbEntity
  8
LEVEL_9
  6
CONTINUOUS
 62
         2
100
AcDbLine
 10
237.8571
 20
-164.0
 30
0.0
 11
239.5714
 21
-164.0
 31
0.0
  0
LINE
  5
382
100
AcDbEntity
  8
LEVEL_9
  6
CONTINUOUS
 62
         2
100
AcDbLine
 10
237.8571
 20
-158.0
 30
0.0
 11
239.5714
 21
-158.0
 31
0.0
  0
ARC
  5
383
100
AcDbEntity
  8
LEVEL_9
  6
CONTINUOUS
 62
         2
100
AcDbCircle
 10
239.5714
 20
-159.2857
 30
0.0
 40
1.2857
100
AcDbArc
 50
0.0
 51
90.0
  0
ARC
  5
384
100
AcDbEntity
  8
LEVEL_9
  6
CONTINUOUS
 62
         2
100
AcDbCircle
 10
239.5714
 20
-162.7143
 30
0.0
 40
1.2857
100
AcDbArc
 50
270.0
 51
360.0
  0
LINE
  5
385
100
AcDbEntity
  8
LEVEL_9
  6
CONTINUOUS
 62
         2
100
AcDbLine
 10
240.8571
 20
-162.7143
 30
0.0
 11
240.8571
 21
-159.2857
 31
0.0
  0
LINE
  5
386
100
AcDbEntity
  8
LEVEL_9
  6
CONTINUOUS
 62
         2
100
AcDbLine
 10
250.7143
 20
-158.0
 30
0.0
 11
252.2143
 21
-164.0
 31
0.0
  0
LINE
  5
387
100
AcDbEntity
  8
LEVEL_9
  6
CONTINUOUS
 62
         2
100
AcDbLine
 10
252.2143
 20
-164.0
 30
0.0
 11
253.7143
 21
-158.0
 31
0.0
  0
LINE
  5
388
100
AcDbEntity
  8
LEVEL_9
  6
CONTINUOUS
 62
         2
100
AcDbLine
 10
254.5714
 20
-164.0
 30
0.0
 11
254.5714
 21
-158.0
 31
0.0
  0
LINE
  5
389
100
AcDbEntity
  8
LEVEL_9
  6
CONTINUOUS
 62
         2
100
AcDbLine
 10
254.5714
 20
-164.0
 30
0.0
 11
257.1429
 21
-164.0
 31
0.0
  0
LINE
  5
38A
100
AcDbEntity
  8
LEVEL_9
  6
CONTINUOUS
 62
         2
100
AcDbLine
 10
254.5714
 20
-158.0
 30
0.0
 11
257.1429
 21
-158.0
 31
0.0
  0
LINE
  5
38B
100
AcDbEntity
  8
LEVEL_9
  6
CONTINUOUS
 62
         2
100
AcDbLine
 10
254.5714
 20
-161.0
 30
0.0
 11
256.7143
 21
-161.0
 31
0.0
  0
LINE
  5
38C
100
AcDbEntity
  8
LEVEL_9
  6
CONTINUOUS
 62
         2
100
AcDbLine
 10
258.0
 20
-164.0
 30
0.0
 11
258.0
 21
-158.0
 31
0.0
  0
LINE
  5
38D
100
AcDbEntity
  8
LEVEL_9
  6
CONTINUOUS
 62
         2
100
AcDbLine
 10
258.0
 20
-158.0
 30
0.0
 11
259.7143
 21
-158.0
 31
0.0
  0
LINE
  5
38E
100
AcDbEntity
  8
LEVEL_9
  6
CONTINUOUS
 62
         2
100
AcDbLine
 10
258.0
 20
-161.0
 30
0.0
 11
259.7143
 21
-161.0
 31
0.0
  0
ARC
  5
38F
100
AcDbEntity
  8
LEVEL_9
  6
CONTINUOUS
 62
         2
100
AcDbCircle
 10
259.7143
 20
-159.2857
 30
0.0
 40
1.2857
100
AcDbArc
 50
0.0
 51
90.0
  0
ARC
  5
390
100
AcDbEntity
  8
LEVEL_9
  6
CONTINUOUS
 62
         2
100
AcDbCircle
 10
259.7143
 20
-159.7143
 30
0.0
 40
1.2857
100
AcDbArc
 50
270.0
 51
360.0
  0
LINE
  5
391
100
AcDbEntity
  8
LEVEL_9
  6
CONTINUOUS
 62
         2
100
AcDbLine
 10
261.0
 20
-159.7143
 30
0.0
 11
261.0
 21
-159.2857
 31
0.0
  0
LINE
  5
392
100
AcDbEntity
  8
LEVEL_9
  6
CONTINUOUS
 62
         2
100
AcDbLine
 10
259.7143
 20
-161.0
 30
0.0
 11
261.0
 21
-164.0
 31
0.0
  0
ARC
  5
393
100
AcDbEntity
  8
LEVEL_9
  6
CONTINUOUS
 62
         2
100
AcDbCircle
 10
263.1429
 20
-162.7143
 30
0.0
 40
1.2858
100
AcDbArc
 50
180.0
 51
270.0
  0
LINE
  5
394
100
AcDbEntity
  8
LEVEL_9
  6
CONTINUOUS
 62
         2
100
AcDbLine
 10
263.1429
 20
-164.0
 30
0.0
 11
263.5714
 21
-164.0
 31
0.0
  0
ARC
  5
395
100
AcDbEntity
  8
LEVEL_9
  6
CONTINUOUS
 62
         2
100
AcDbCircle
 10
263.5714
 20
-162.7143
 30
0.0
 40
1.2857
100
AcDbArc
 50
270.0
 51
360.0
  0
LINE
  5
396
100
AcDbEntity
  8
LEVEL_9
  6
CONTINUOUS
 62
         2
100
AcDbLine
 10
264.8571
 20
-162.7143
 30
0.0
 11
264.8571
 21
-161.0
 31
0.0
  0
LINE
  5
397
100
AcDbEntity
  8
LEVEL_9
  6
CONTINUOUS
 62
         2
100
AcDbLine
 10
264.8571
 20
-161.0
 30
0.0
 11
263.3571
 21
-161.0
 31
0.0
  0
LINE
  5
398
100
AcDbEntity
  8
LEVEL_9
  6
CONTINUOUS
 62
         2
100
AcDbLine
 10
261.8571
 20
-162.7143
 30
0.0
 11
261.8571
 21
-159.2857
 31
0.0
  0
ARC
  5
399
100
AcDbEntity
  8
LEVEL_9
  6
CONTINUOUS
 62
         2
100
AcDbCircle
 10
263.1429
 20
-159.2857
 30
0.0
 40
1.2857
100
AcDbArc
 50
90.0
 51
180.0
  0
LINE
  5
39A
100
AcDbEntity
  8
LEVEL_9
  6
CONTINUOUS
 62
         2
100
AcDbLine
 10
263.1429
 20
-158.0
 30
0.0
 11
263.5714
 21
-158.0
 31
0.0
  0
ARC
  5
39B
100
AcDbEntity
  8
LEVEL_9
  6
CONTINUOUS
 62
         2
100
AcDbCircle
 10
263.5714
 20
-159.2857
 30
0.0
 40
1.2857
100
AcDbArc
 50
0.0
 51
90.0
  0
LINE
  5
39C
100
AcDbEntity
  8
LEVEL_9
  6
CONTINUOUS
 62
         2
100
AcDbLine
 10
264.8571
 20
-159.2857
 30
0.0
 11
264.8571
 21
-159.7143
 31
0.0
  0
LINE
  5
39D
100
AcDbEntity
  8
LEVEL_9
  6
CONTINUOUS
 62
         2
100
AcDbLine
 10
270.4286
 20
-164.0
 30
0.0
 11
270.4286
 21
-158.0
 31
0.0
  0
LINE
  5
39E
100
AcDbEntity
  8
LEVEL_9
  6
CONTINUOUS
 62
         2
100
AcDbLine
 10
268.7143
 20
-159.2857
 30
0.0
 11
270.4286
 21
-158.0
 31
0.0
  0
ARC
  5
39F
100
AcDbEntity
  8
LEVEL_9
  6
CONTINUOUS
 62
         2
100
AcDbCircle
 10
272.5714
 20
-162.7143
 30
0.0
 40
1.2857
100
AcDbArc
 50
180.0
 51
360.0
  0
LINE
  5
3A0
100
AcDbEntity
  8
LEVEL_9
  6
CONTINUOUS
 62
         2
100
AcDbLine
 10
271.2857
 20
-162.7143
 30
0.0
 11
271.2857
 21
-159.2857
 31
0.0
  0
LINE
  5
3A1
100
AcDbEntity
  8
LEVEL_9
  6
CONTINUOUS
 62
         2
100
AcDbLine
 10
273.8571
 20
-162.7143
 30
0.0
 11
273.8571
 21
-159.2857
 31
0.0
  0
ARC
  5
3A2
100
AcDbEntity
  8
LEVEL_9
  6
CONTINUOUS
 62
         2
100
AcDbCircle
 10
272.5714
 20
-159.2857
 30
0.0
 40
1.2857
100
AcDbArc
 50
0.0
 51
180.0
  0
LINE
  5
3A3
100
AcDbEntity
  8
LEVEL_9
  6
CONTINUOUS
 62
         2
100
AcDbLine
 10
237.6429
 20
-177.0
 30
0.0
 11
237.6429
 21
-171.0
 31
0.0
  0
LINE
  5
3A4
100
AcDbEntity
  8
LEVEL_9
  6
CONTINUOUS
 62
         2
100
AcDbLine
 10
237.6429
 20
-177.0
 30
0.0
 11
239.3571
 21
-177.0
 31
0.0
  0
LINE
  5
3A5
100
AcDbEntity
  8
LEVEL_9
  6
CONTINUOUS
 62
         2
100
AcDbLine
 10
237.6429
 20
-171.0
 30
0.0
 11
239.3571
 21
-171.0
 31
0.0
  0
ARC
  5
3A6
100
AcDbEntity
  8
LEVEL_9
  6
CONTINUOUS
 62
         2
100
AcDbCircle
 10
239.3571
 20
-172.2857
 30
0.0
 40
1.2858
100
AcDbArc
 50
0.0
 51
90.0
  0
ARC
  5
3A7
100
AcDbEntity
  8
LEVEL_9
  6
CONTINUOUS
 62
         2
100
AcDbCircle
 10
239.3571
 20
-175.7143
 30
0.0
 40
1.2857
100
AcDbArc
 50
270.0
 51
360.0
  0
LINE
  5
3A8
100
AcDbEntity
  8
LEVEL_9
  6
CONTINUOUS
 62
         2
100
AcDbLine
 10
240.6429
 20
-175.7143
 30
0.0
 11
240.6429
 21
-172.2857
 31
0.0
  0
LINE
  5
3A9
100
AcDbEntity
  8
LEVEL_9
  6
CONTINUOUS
 62
         2
100
AcDbLine
 10
241.5
 20
-175.5
 30
0.0
 11
244.0714
 21
-175.5
 31
0.0
  0
LINE
  5
3AA
100
AcDbEntity
  8
LEVEL_9
  6
CONTINUOUS
 62
         2
100
AcDbLine
 10
241.5
 20
-174.2143
 30
0.0
 11
244.0714
 21
-174.2143
 31
0.0
  0
LINE
  5
3AB
100
AcDbEntity
  8
LEVEL_9
  6
CONTINUOUS
 62
         2
100
AcDbLine
 10
244.9286
 20
-172.7143
 30
0.0
 11
244.9286
 21
-172.2857
 31
0.0
  0
ARC
  5
3AC
100
AcDbEntity
  8
LEVEL_9
  6
CONTINUOUS
 62
         2
100
AcDbCircle
 10
246.2143
 20
-172.2857
 30
0.0
 40
1.2857121373
100
AcDbArc
 50
329.3679328624
 51
180.0
  0
LINE
  5
3AD
100
AcDbEntity
  8
LEVEL_9
  6
CONTINUOUS
 62
         2
100
AcDbLine
 10
247.4074
 20
-172.9414
 30
0.0
 11
244.9286
 21
-177.0
 31
0.0
  0
LINE
  5
3AE
100
AcDbEntity
  8
LEVEL_9
  6
CONTINUOUS
 62
         2
100
AcDbLine
 10
244.9286
 20
-177.0
 30
0.0
 11
247.5
 21
-177.0
 31
0.0
  0
ARC
  5
3AF
100
AcDbEntity
  8
LEVEL_9
  6
CONTINUOUS
 62
         2
100
AcDbCircle
 10
249.6429
 20
-172.2857
 30
0.0
 40
1.2857
100
AcDbArc
 50
0.0
 51
180.0
  0
LINE
  5
3B0
100
AcDbEntity
  8
LEVEL_9
  6
CONTINUOUS
 62
         2
100
AcDbLine
 10
248.3571
 20
-172.2857
 30
0.0
 11
248.3571
 21
-172.9286
 31
0.0
  0
LINE
  5
3B1
100
AcDbEntity
  8
LEVEL_9
  6
CONTINUOUS
 62
         2
100
AcDbLine
 10
250.9286
 20
-172.2857
 30
0.0
 11
250.9286
 21
-172.9286
 31
0.0
  0
ARC
  5
3B2
100
AcDbEntity
  8
LEVEL_9
  6
CONTINUOUS
 62
         2
100
AcDbCircle
 10
249.2143
 20
-172.9286
 30
0.0
 40
0.8572
100
AcDbArc
 50
180.0
 51
270.0
  0
ARC
  5
3B3
100
AcDbEntity
  8
LEVEL_9
  6
CONTINUOUS
 62
         2
100
AcDbCircle
 10
250.0714
 20
-172.9286
 30
0.0
 40
0.8571
100
AcDbArc
 50
270.0
 51
360.0
  0
LINE
  5
3B4
100
AcDbEntity
  8
LEVEL_9
  6
CONTINUOUS
 62
         2
100
AcDbLine
 10
249.2143
 20
-173.7857
 30
0.0
 11
250.0714
 21
-173.7857
 31
0.0
  0
ARC
  5
3B5
100
AcDbEntity
  8
LEVEL_9
  6
CONTINUOUS
 62
         2
100
AcDbCircle
 10
249.2143
 20
-174.6429
 30
0.0
 40
0.8572
100
AcDbArc
 50
90.0
 51
180.0
  0
ARC
  5
3B6
100
AcDbEntity
  8
LEVEL_9
  6
CONTINUOUS
 62
         2
100
AcDbCircle
 10
250.0714
 20
-174.6429
 30
0.0
 40
0.8572
100
AcDbArc
 50
0.0
 51
90.0
  0
LINE
  5
3B7
100
AcDbEntity
  8
LEVEL_9
  6
CONTINUOUS
 62
         2
100
AcDbLine
 10
248.3571
 20
-174.6429
 30
0.0
 11
248.3571
 21
-175.7143
 31
0.0
  0
LINE
  5
3B8
100
AcDbEntity
  8
LEVEL_9
  6
CONTINUOUS
 62
         2
100
AcDbLine
 10
250.9286
 20
-174.6429
 30
0.0
 11
250.9286
 21
-175.7143
 31
0.0
  0
ARC
  5
3B9
100
AcDbEntity
  8
LEVEL_9
  6
CONTINUOUS
 62
         2
100
AcDbCircle
 10
249.6429
 20
-175.7143
 30
0.0
 40
1.2858
100
AcDbArc
 50
180.0
 51
360.0
  0
LINE
  5
3BA
100
AcDbEntity
  8
LEVEL_9
  6
CONTINUOUS
 62
         2
100
AcDbLine
 10
251.7857
 20
-174.8571
 30
0.0
 11
254.3571
 21
-174.8571
 31
0.0
  0
LINE
  5
3BB
100
AcDbEntity
  8
LEVEL_9
  6
CONTINUOUS
 62
         2
100
AcDbLine
 10
255.2143
 20
-172.7143
 30
0.0
 11
255.2143
 21
-172.2857
 31
0.0
  0
ARC
  5
3BC
100
AcDbEntity
  8
LEVEL_9
  6
CONTINUOUS
 62
         2
100
AcDbCircle
 10
256.5
 20
-172.2857
 30
0.0
 40
1.2857
100
AcDbArc
 50
0.0
 51
180.0
  0
LINE
  5
3BD
100
AcDbEntity
  8
LEVEL_9
  6
CONTINUOUS
 62
         2
100
AcDbLine
 10
257.7857
 20
-172.2857
 30
0.0
 11
257.7857
 21
-172.9286
 31
0.0
  0
ARC
  5
3BE
100
AcDbEntity
  8
LEVEL_9
  6
CONTINUOUS
 62
         2
100
AcDbCircle
 10
256.9286
 20
-172.9286
 30
0.0
 40
0.8571
100
AcDbArc
 50
270.0
 51
360.0
  0
LINE
  5
3BF
100
AcDbEntity
  8
LEVEL_9
  6
CONTINUOUS
 62
         2
100
AcDbLine
 10
256.0714
 20
-173.7857
 30
0.0
 11
256.9286
 21
-173.7857
 31
0.0
  0
ARC
  5
3C0
100
AcDbEntity
  8
LEVEL_9
  6
CONTINUOUS
 62
         2
100
AcDbCircle
 10
256.9286
 20
-174.6429
 30
0.0
 40
0.8571
100
AcDbArc
 50
0.0
 51
90.0
  0
LINE
  5
3C1
100
AcDbEntity
  8
LEVEL_9
  6
CONTINUOUS
 62
         2
100
AcDbLine
 10
257.7857
 20
-174.6429
 30
0.0
 11
257.7857
 21
-175.7143
 31
0.0
  0
ARC
  5
3C2
100
AcDbEntity
  8
LEVEL_9
  6
CONTINUOUS
 62
         2
100
AcDbCircle
 10
256.5
 20
-175.7143
 30
0.0
 40
1.2857
100
AcDbArc
 50
180.0
 51
360.0
  0
LINE
  5
3C3
100
AcDbEntity
  8
LEVEL_9
  6
CONTINUOUS
 62
         2
100
AcDbLine
 10
255.2143
 20
-175.7143
 30
0.0
 11
255.2143
 21
-175.2857
 31
0.0
  0
LINE
  5
3C4
100
AcDbEntity
  8
LEVEL_9
  6
CONTINUOUS
 62
         2
100
AcDbLine
 10
260.3571
 20
-177.0
 30
0.0
 11
260.3571
 21
-171.0
 31
0.0
  0
LINE
  5
3C5
100
AcDbEntity
  8
LEVEL_9
  6
CONTINUOUS
 62
         2
100
AcDbLine
 10
258.6429
 20
-172.2857
 30
0.0
 11
260.3571
 21
-171.0
 31
0.0
  0
LINE
  5
3C6
100
AcDbEntity
  8
LEVEL_9
  6
CONTINUOUS
 62
         2
100
AcDbLine
 10
262.0714
 20
-177.4286
 30
0.0
 11
262.0714
 21
-176.1429
 31
0.0
  0
ARC
  5
3C7
100
AcDbEntity
  8
LEVEL_9
  6
CONTINUOUS
 62
         2
100
AcDbCircle
 10
265.0714
 20
-172.2857
 30
0.0
 40
1.2857
100
AcDbArc
 50
0.0
 51
180.0
  0
LINE
  5
3C8
100
AcDbEntity
  8
LEVEL_9
  6
CONTINUOUS
 62
         2
100
AcDbLine
 10
263.7857
 20
-172.2857
 30
0.0
 11
263.7857
 21
-173.1429
 31
0.0
  0
LINE
  5
3C9
100
AcDbEntity
  8
LEVEL_9
  6
CONTINUOUS
 62
         2
100
AcDbLine
 10
266.3571
 20
-172.2857
 30
0.0
 11
266.3571
 21
-173.1429
 31
0.0
  0
ARC
  5
3CA
100
AcDbEntity
  8
LEVEL_9
  6
CONTINUOUS
 62
         2
100
AcDbCircle
 10
265.0714
 20
-173.1429
 30
0.0
 40
1.2857
100
AcDbArc
 50
180.0
 51
360.0
  0
LINE
  5
3CB
100
AcDbEntity
  8
LEVEL_9
  6
CONTINUOUS
 62
         2
100
AcDbLine
 10
264.6429
 20
-177.0
 30
0.0
 11
266.2303
 21
-173.7
 31
0.0
  0
LINE
  5
3CC
100
AcDbEntity
  8
LEVEL_10
  6
HIDDEN2
 62
         5
100
AcDbLine
 10
424.5
 20
-141.5
 30
0.0
 11
426.0
 21
-141.5
 31
0.0
  0
LINE
  5
3CD
100
AcDbEntity
  8
LEVEL_10
  6
HIDDEN2
 62
         5
100
AcDbLine
 10
424.5
 20
-141.5
 30
0.0
 11
416.2484
 21
-142.8069
 31
0.0
  0
LINE
  5
3CE
100
AcDbEntity
  8
LEVEL_10
  6
HIDDEN2
 62
         5
100
AcDbLine
 10
424.5
 20
-151.0
 30
0.0
 11
426.0
 21
-151.0
 31
0.0
  0
LINE
  5
3CF
100
AcDbEntity
  8
LEVEL_10
  6
HIDDEN2
 62
         5
100
AcDbLine
 10
435.7516
 20
-142.8069
 30
0.0
 11
427.5
 21
-141.5
 31
0.0
  0
ARC
  5
3D0
100
AcDbEntity
  8
LEVEL_10
  6
CONTINUOUS
 62
         2
100
AcDbCircle
 10
417.0
 20
-145.7623
 30
0.0
 40
4.0
100
AcDbArc
 50
180.0
 51
210.0000115676
  0
ARC
  5
3D1
100
AcDbEntity
  8
LEVEL_10
  6
HIDDEN2
 62
         5
100
AcDbCircle
 10
435.0
 20
-145.7623
 30
0.0
 40
3.9999619723
100
AcDbArc
 50
288.7493096475
 51
329.9999884324
  0
ARC
  5
3D2
100
AcDbEntity
  8
LEVEL_10
  6
HIDDEN2
 62
         5
100
AcDbCircle
 10
416.8742
 20
-146.7577
 30
0.0
 40
4.000040141
100
AcDbArc
 50
98.9993598726
 51
165.5906419849
  0
ARC
  5
3D3
100
AcDbEntity
  8
LEVEL_10
  6
HIDDEN2
 62
         5
100
AcDbCircle
 10
435.1258
 20
-146.7577
 30
0.0
 40
4.0000308499
100
AcDbArc
 50
14.4093580151
 51
81.0006401274
  0
LINE
  5
3D4
100
AcDbEntity
  8
LEVEL_10
  6
CONTINUOUS
 62
         2
100
AcDbLine
 10
431.3858
 20
-201.4491
 30
0.0
 11
433.4494
 21
-193.0
 31
0.0
  0
LINE
  5
3D5
100
AcDbEntity
  8
LEVEL_10
  6
CONTINUOUS
 62
         2
100
AcDbLine
 10
420.6142
 20
-201.4491
 30
0.0
 11
417.9213
 21
-190.4236
 31
0.0
  0
LINE
  5
3D6
100
AcDbEntity
  8
LEVEL_10
  6
CONTINUOUS
 62
         2
100
AcDbLine
 10
424.5
 20
-204.5
 30
0.0
 11
427.5
 21
-204.5
 31
0.0
  0
LINE
  5
3D7
100
AcDbEntity
  8
LEVEL_10
  6
HIDDEN2
 62
         5
100
AcDbLine
 10
428.25
 20
-183.0
 30
0.0
 11
426.0
 21
-183.0
 31
0.0
  0
ARC
  5
3D8
100
AcDbEntity
  8
LEVEL_10
  6
HIDDEN2
 62
         5
100
AcDbCircle
 10
423.75
 20
-189.0
 30
0.0
 40
6.0
100
AcDbArc
 50
90.0
 51
180.0
  0
ARC
  5
3D9
100
AcDbEntity
  8
LEVEL_10
  6
CONTINUOUS
 62
         2
100
AcDbCircle
 10
428.25
 20
-189.0
 30
0.0
 40
6.0000317207
100
AcDbArc
 50
346.2748012074
 51
360.0
  0
ARC
  5
3DA
100
AcDbEntity
  8
LEVEL_10
  6
CONTINUOUS
 62
         2
100
AcDbCircle
 10
424.5
 20
-200.5
 30
0.0
 40
4.0000290561
100
AcDbArc
 50
193.72566262
 51
270.0
  0
ARC
  5
3DB
100
AcDbEntity
  8
LEVEL_10
  6
CONTINUOUS
 62
         2
100
AcDbCircle
 10
427.5
 20
-200.5
 30
0.0
 40
4.0
100
AcDbArc
 50
270.0
 51
346.27433738
  0
LINE
  5
3DC
100
AcDbEntity
  8
LEVEL_10
  6
CONTINUOUS
 62
         2
100
AcDbLine
 10
417.75
 20
-189.0
 30
0.0
 11
417.75
 21
-157.7408
 31
0.0
  0
LINE
  5
3DD
100
AcDbEntity
  8
LEVEL_10
  6
CONTINUOUS
 62
         2
100
AcDbLine
 10
434.25
 20
-157.7408
 30
0.0
 11
434.25
 21
-189.0
 31
0.0
  0
ARC
  5
3DE
100
AcDbEntity
  8
LEVEL_10
  6
HIDDEN2
 62
         5
100
AcDbCircle
 10
428.25
 20
-189.0
 30
0.0
 40
6.0
100
AcDbArc
 50
0.0
 51
90.0
  0
ARC
  5
3DF
100
AcDbEntity
  8
LEVEL_10
  6
CONTINUOUS
 62
         2
100
AcDbCircle
 10
423.75
 20
-189.0
 30
0.0
 40
6.0
100
AcDbArc
 50
180.0
 51
193.7251987926
  0
ARC
  5
3E0
100
AcDbEntity
  8
LEVEL_10
  6
CONTINUOUS
 62
         2
100
AcDbCircle
 10
426.0
 20
-117.0
 30
0.0
 40
7.8
100
AcDbArc
 50
90.0
 51
154.6229027943
  0
ARC
  5
3E1
100
AcDbEntity
  8
LEVEL_10
  6
CONTINUOUS
 62
         2
100
AcDbCircle
 10
426.0
 20
-117.0
 30
0.0
 40
7.8000530235
100
AcDbArc
 50
154.6229027943
 51
205.3770972057
  0
ARC
  5
3E2
100
AcDbEntity
  8
LEVEL_10
  6
CONTINUOUS
 62
         2
100
AcDbCircle
 10
426.0
 20
-117.0
 30
0.0
 40
7.8000530235
100
AcDbArc
 50
205.3770972057
 51
334.6229027943
  0
ARC
  5
3E3
100
AcDbEntity
  8
LEVEL_10
  6
CONTINUOUS
 62
         2
100
AcDbCircle
 10
426.0
 20
-117.0
 30
0.0
 40
7.8000530235
100
AcDbArc
 50
334.6229027943
 51
25.3770972057
  0
ARC
  5
3E4
100
AcDbEntity
  8
LEVEL_10
  6
CONTINUOUS
 62
         2
100
AcDbCircle
 10
426.0
 20
-117.0
 30
0.0
 40
7.8000530235
100
AcDbArc
 50
25.3770972057
 51
90.0
  0
LINE
  5
3E5
100
AcDbEntity
  8
LEVEL_10
  6
CONTINUOUS
 62
         2
100
AcDbLine
 10
435.5897
 20
-152.7408
 30
0.0
 11
438.4641
 21
-147.7623
 31
0.0
  0
LINE
  5
3E6
100
AcDbEntity
  8
LEVEL_10
  6
CONTINUOUS
 62
         2
100
AcDbLine
 10
444.0
 20
-124.426
 30
0.0
 11
444.0
 21
-112.0
 31
0.0
  0
LINE
  5
3E7
100
AcDbEntity
  8
LEVEL_10
  6
CONTINUOUS
 62
         2
100
AcDbLine
 10
444.0
 20
-112.0
 30
0.0
 11
441.4212
 21
-107.7163
 31
0.0
  0
ARC
  5
3E8
100
AcDbEntity
  8
LEVEL_10
  6
CONTINUOUS
 62
         2
100
AcDbCircle
 10
426.0
 20
-117.0
 30
0.0
 40
18.0000137536
100
AcDbArc
 50
31.0483159359
 51
148.9516840641
  0
LINE
  5
3E9
100
AcDbEntity
  8
LEVEL_10
  6
CONTINUOUS
 62
         2
100
AcDbLine
 10
410.5788
 20
-107.7163
 30
0.0
 11
408.0
 21
-112.0
 31
0.0
  0
LINE
  5
3EA
100
AcDbEntity
  8
LEVEL_10
  6
CONTINUOUS
 62
         2
100
AcDbLine
 10
408.0
 20
-112.0
 30
0.0
 11
408.0
 21
-124.426
 31
0.0
  0
LINE
  5
3EB
100
AcDbEntity
  8
LEVEL_10
  6
CONTINUOUS
 62
         2
100
AcDbLine
 10
413.5359
 20
-147.7623
 30
0.0
 11
416.4103
 21
-152.7408
 31
0.0
  0
LINE
  5
3EC
100
AcDbEntity
  8
LEVEL_10
  6
CONTINUOUS
 62
         2
100
AcDbLine
 10
442.6603
 20
-129.426
 30
0.0
 11
439.5359
 21
-134.8376
 31
0.0
  0
LINE
  5
3ED
100
AcDbEntity
  8
LEVEL_10
  6
CONTINUOUS
 62
         2
100
AcDbLine
 10
439.0
 20
-136.8376
 30
0.0
 11
439.0
 21
-141.0
 31
0.0
  0
LINE
  5
3EE
100
AcDbEntity
  8
LEVEL_10
  6
CONTINUOUS
 62
         2
100
AcDbLine
 10
413.0
 20
-145.7623
 30
0.0
 11
413.0
 21
-136.8376
 31
0.0
  0
LINE
  5
3EF
100
AcDbEntity
  8
LEVEL_10
  6
CONTINUOUS
 62
         2
100
AcDbLine
 10
412.4641
 20
-134.8376
 30
0.0
 11
409.3398
 21
-129.426
 31
0.0
  0
ARC
  5
3F0
100
AcDbEntity
  8
LEVEL_10
  6
CONTINUOUS
 62
         2
100
AcDbCircle
 10
409.0
 20
-136.8376
 30
0.0
 40
4.0
100
AcDbArc
 50
0.0
 51
30.0000115676
  0
ARC
  5
3F1
100
AcDbEntity
  8
LEVEL_10
  6
CONTINUOUS
 62
         2
100
AcDbCircle
 10
443.0
 20
-136.8376
 30
0.0
 40
3.9999986012
100
AcDbArc
 50
149.9999884324
 51
180.0
  0
ARC
  5
3F2
100
AcDbEntity
  8
LEVEL_10
  6
CONTINUOUS
 62
         2
100
AcDbCircle
 10
418.0
 20
-124.426
 30
0.0
 40
10.0
100
AcDbArc
 50
180.0
 51
210.0001548077
  0
ARC
  5
3F3
100
AcDbEntity
  8
LEVEL_10
  6
CONTINUOUS
 62
         2
100
AcDbCircle
 10
407.75
 20
-157.7408
 30
0.0
 40
10.0
100
AcDbArc
 50
0.0
 51
29.9998683286
  0
ARC
  5
3F4
100
AcDbEntity
  8
LEVEL_10
  6
CONTINUOUS
 62
         2
100
AcDbCircle
 10
444.25
 20
-157.7408
 30
0.0
 40
10.0000398044
100
AcDbArc
 50
150.0001316714
 51
180.0
  0
ARC
  5
3F5
100
AcDbEntity
  8
LEVEL_10
  6
CONTINUOUS
 62
         2
100
AcDbCircle
 10
434.0
 20
-124.426
 30
0.0
 40
10.0000398044
100
AcDbArc
 50
330.0001316714
 51
360.0
  0
ARC
  5
3F6
100
AcDbEntity
  8
LEVEL_10
  6
CONTINUOUS
 62
         2
100
AcDbCircle
 10
435.0
 20
-145.7623
 30
0.0
 40
3.9999986012
100
AcDbArc
 50
329.9999884324
 51
360.0
  0
LINE
  5
3F7
100
AcDbEntity
  8
LEVEL_10
  6
HIDDEN2
 62
         5
100
AcDbLine
 10
436.2857
 20
-149.55
 30
0.0
 11
427.2131
 21
-151.0
 31
0.0
  0
LINE
  5
3F8
100
AcDbEntity
  8
LEVEL_10
  6
HIDDEN2
 62
         5
100
AcDbLine
 10
427.2131
 20
-151.0
 30
0.0
 11
427.5
 21
-151.0
 31
0.0
  0
LINE
  5
3F9
100
AcDbEntity
  8
LEVEL_10
  6
HIDDEN2
 62
         5
100
AcDbLine
 10
415.7143
 20
-149.55
 30
0.0
 11
424.7869
 21
-151.0
 31
0.0
  0
ARC
  5
3FA
100
AcDbEntity
  8
LEVEL_10
  6
HIDDEN2
 62
         5
100
AcDbCircle
 10
417.0
 20
-145.7623
 30
0.0
 40
3.9999986012
100
AcDbArc
 50
210.0000115676
 51
251.2506903525
  0
LINE
  5
3FB
100
AcDbEntity
  8
LEVEL_10
  6
CONTINUOUS
 62
         2
100
AcDbLine
 10
450.0
 20
-167.0
 30
0.0
 11
450.0
 21
-149.0
 31
0.0
  0
LINE
  5
3FC
100
AcDbEntity
  8
LEVEL_10
  6
CONTINUOUS
 62
         2
100
AcDbLine
 10
450.0
 20
-141.0
 30
0.0
 11
439.0
 21
-141.0
 31
0.0
  0
LINE
  5
3FD
100
AcDbEntity
  8
LEVEL_10
  6
CONTINUOUS
 62
         2
100
AcDbLine
 10
426.0
 20
-141.5
 30
0.0
 11
426.0
 21
-151.0
 31
0.0
  0
LINE
  5
3FE
100
AcDbEntity
  8
LEVEL_10
  6
CONTINUOUS
 62
         2
100
AcDbLine
 10
450.0
 20
-193.0
 30
0.0
 11
450.0
 21
-185.0
 31
0.0
  0
LINE
  5
3FF
100
AcDbEntity
  8
LEVEL_10
  6
HIDDEN2
 62
         5
100
AcDbLine
 10
426.0
 20
-141.5
 30
0.0
 11
427.5
 21
-141.5
 31
0.0
  0
LINE
  5
400
100
AcDbEntity
  8
LEVEL_10
  6
HIDDEN2
 62
         5
100
AcDbLine
 10
426.0
 20
-151.0
 30
0.0
 11
427.2131
 21
-151.0
 31
0.0
  0
LINE
  5
401
100
AcDbEntity
  8
LEVEL_10
  6
CONTINUOUS
 62
         2
100
AcDbLine
 10
433.4494
 20
-193.0
 30
0.0
 11
434.0787
 21
-190.4236
 31
0.0
  0
LINE
  5
402
100
AcDbEntity
  8
LEVEL_10
  6
HIDDEN2
 62
         5
100
AcDbLine
 10
426.0
 20
-183.0
 30
0.0
 11
423.75
 21
-183.0
 31
0.0
  0
LINE
  5
403
100
AcDbEntity
  8
LEVEL_10
  6
CONTINUOUS
 62
         2
100
AcDbLine
 10
439.0
 20
-141.0
 30
0.0
 11
439.0
 21
-145.7622
 31
0.0
  0
LINE
  5
404
100
AcDbEntity
  8
LEVEL_10
  6
CONTINUOUS
 62
         2
100
AcDbLine
 10
450.0
 20
-185.0
 30
0.0
 11
519.0
 21
-185.0
 31
0.0
  0
LINE
  5
405
100
AcDbEntity
  8
LEVEL_10
  6
CONTINUOUS
 62
         2
100
AcDbLine
 10
519.0
 20
-185.0
 30
0.0
 11
522.0
 21
-182.0
 31
0.0
  0
LINE
  5
406
100
AcDbEntity
  8
LEVEL_10
  6
CONTINUOUS
 62
         2
100
AcDbLine
 10
522.0
 20
-182.0
 30
0.0
 11
522.0
 21
-152.0
 31
0.0
  0
LINE
  5
407
100
AcDbEntity
  8
LEVEL_10
  6
CONTINUOUS
 62
         2
100
AcDbLine
 10
522.0
 20
-152.0
 30
0.0
 11
519.0
 21
-149.0
 31
0.0
  0
LINE
  5
408
100
AcDbEntity
  8
LEVEL_10
  6
CONTINUOUS
 62
         2
100
AcDbLine
 10
519.0
 20
-149.0
 30
0.0
 11
450.0
 21
-149.0
 31
0.0
  0
LINE
  5
409
100
AcDbEntity
  8
LEVEL_10
  6
CONTINUOUS
 62
         2
100
AcDbLine
 10
519.0
 20
-185.0
 30
0.0
 11
519.0
 21
-149.0
 31
0.0
  0
LINE
  5
40A
100
AcDbEntity
  8
LEVEL_10
  6
CONTINUOUS
 62
         2
100
AcDbLine
 10
450.0
 20
-149.0
 30
0.0
 11
450.0
 21
-141.0
 31
0.0
  0
LINE
  5
40B
100
AcDbEntity
  8
LEVEL_10
  6
CONTINUOUS
 62
         2
100
AcDbLine
 10
450.0
 20
-185.0
 30
0.0
 11
450.0
 21
-167.0
 31
0.0
  0
LINE
  5
40C
100
AcDbEntity
  8
LEVEL_10
  6
CENTER2
 62
         3
100
AcDbLine
 10
445.5
 20
-117.0
 30
0.0
 11
406.5
 21
-117.0
 31
0.0
  0
LINE
  5
40D
100
AcDbEntity
  8
LEVEL_10
  6
CENTER2
 62
         3
100
AcDbLine
 10
426.0
 20
-92.2667
 30
0.0
 11
426.0
 21
-211.2333
 31
0.0
  0
LINE
  5
40E
100
AcDbEntity
  8
LEVEL_10
  6
CENTER2
 62
         3
100
AcDbLine
 10
411.1
 20
-167.0
 30
0.0
 11
528.65
 21
-167.0
 31
0.0
  0
LINE
  5
40F
100
AcDbEntity
  8
LEVEL_10
  6
CONTINUOUS
 62
         2
100
AcDbLine
 10
450.0
 20
-193.0
 30
0.0
 11
433.4494
 21
-193.0
 31
0.0
  0
LINE
  5
410
100
AcDbEntity
  8
LEVEL_10
  6
CONTINUOUS
 62
         2
100
AcDbLine
 10
454.8571
 20
-163.0
 30
0.0
 11
454.8571
 21
-155.0
 31
0.0
  0
LINE
  5
411
100
AcDbEntity
  8
LEVEL_10
  6
CONTINUOUS
 62
         2
100
AcDbLine
 10
454.8571
 20
-155.0
 30
0.0
 11
457.1429
 21
-155.0
 31
0.0
  0
LINE
  5
412
100
AcDbEntity
  8
LEVEL_10
  6
CONTINUOUS
 62
         2
100
AcDbLine
 10
454.8571
 20
-159.0
 30
0.0
 11
457.1429
 21
-159.0
 31
0.0
  0
ARC
  5
413
100
AcDbEntity
  8
LEVEL_10
  6
CONTINUOUS
 62
         2
100
AcDbCircle
 10
457.1429
 20
-156.7143
 30
0.0
 40
1.7142
100
AcDbArc
 50
0.0
 51
90.0
  0
ARC
  5
414
100
AcDbEntity
  8
LEVEL_10
  6
CONTINUOUS
 62
         2
100
AcDbCircle
 10
457.1429
 20
-157.2857
 30
0.0
 40
1.7143
100
AcDbArc
 50
270.0
 51
360.0
  0
LINE
  5
415
100
AcDbEntity
  8
LEVEL_10
  6
CONTINUOUS
 62
         2
100
AcDbLine
 10
458.8571
 20
-157.2857
 30
0.0
 11
458.8571
 21
-156.7143
 31
0.0
  0
LINE
  5
416
100
AcDbEntity
  8
LEVEL_10
  6
CONTINUOUS
 62
         2
100
AcDbLine
 10
457.1429
 20
-159.0
 30
0.0
 11
458.8571
 21
-163.0
 31
0.0
  0
ARC
  5
417
100
AcDbEntity
  8
LEVEL_10
  6
CONTINUOUS
 62
         2
100
AcDbCircle
 10
461.7143
 20
-161.2857
 30
0.0
 40
1.7143
100
AcDbArc
 50
180.0
 51
270.0
  0
LINE
  5
418
100
AcDbEntity
  8
LEVEL_10
  6
CONTINUOUS
 62
         2
100
AcDbLine
 10
461.7143
 20
-163.0
 30
0.0
 11
462.2857
 21
-163.0
 31
0.0
  0
ARC
  5
419
100
AcDbEntity
  8
LEVEL_10
  6
CONTINUOUS
 62
         2
100
AcDbCircle
 10
462.2857
 20
-161.2857
 30
0.0
 40
1.7143
100
AcDbArc
 50
270.0
 51
360.0
  0
LINE
  5
41A
100
AcDbEntity
  8
LEVEL_10
  6
CONTINUOUS
 62
         2
100
AcDbLine
 10
460.0
 20
-161.2857
 30
0.0
 11
460.0
 21
-155.0
 31
0.0
  0
LINE
  5
41B
100
AcDbEntity
  8
LEVEL_10
  6
CONTINUOUS
 62
         2
100
AcDbLine
 10
464.0
 20
-161.2857
 30
0.0
 11
464.0
 21
-155.0
 31
0.0
  0
LINE
  5
41C
100
AcDbEntity
  8
LEVEL_10
  6
CONTINUOUS
 62
         2
100
AcDbLine
 10
465.1429
 20
-163.0
 30
0.0
 11
465.1429
 21
-155.0
 31
0.0
  0
LINE
  5
41D
100
AcDbEntity
  8
LEVEL_10
  6
CONTINUOUS
 62
         2
100
AcDbLine
 10
465.1429
 20
-163.0
 30
0.0
 11
467.4286
 21
-163.0
 31
0.0
  0
LINE
  5
41E
100
AcDbEntity
  8
LEVEL_10
  6
CONTINUOUS
 62
         2
100
AcDbLine
 10
465.1429
 20
-155.0
 30
0.0
 11
467.4286
 21
-155.0
 31
0.0
  0
ARC
  5
41F
100
AcDbEntity
  8
LEVEL_10
  6
CONTINUOUS
 62
         2
100
AcDbCircle
 10
467.4286
 20
-156.7143
 30
0.0
 40
1.7143
100
AcDbArc
 50
0.0
 51
90.0
  0
ARC
  5
420
100
AcDbEntity
  8
LEVEL_10
  6
CONTINUOUS
 62
         2
100
AcDbCircle
 10
467.4286
 20
-161.2857
 30
0.0
 40
1.7143
100
AcDbArc
 50
270.0
 51
360.0
  0
LINE
  5
421
100
AcDbEntity
  8
LEVEL_10
  6
CONTINUOUS
 62
         2
100
AcDbLine
 10
469.1429
 20
-161.2857
 30
0.0
 11
469.1429
 21
-156.7143
 31
0.0
  0
LINE
  5
422
100
AcDbEntity
  8
LEVEL_10
  6
CONTINUOUS
 62
         2
100
AcDbLine
 10
482.2857
 20
-155.0
 30
0.0
 11
484.2857
 21
-163.0
 31
0.0
  0
LINE
  5
423
100
AcDbEntity
  8
LEVEL_10
  6
CONTINUOUS
 62
         2
100
AcDbLine
 10
484.2857
 20
-163.0
 30
0.0
 11
486.2857
 21
-155.0
 31
0.0
  0
LINE
  5
424
100
AcDbEntity
  8
LEVEL_10
  6
CONTINUOUS
 62
         2
100
AcDbLine
 10
487.4286
 20
-163.0
 30
0.0
 11
487.4286
 21
-155.0
 31
0.0
  0
LINE
  5
425
100
AcDbEntity
  8
LEVEL_10
  6
CONTINUOUS
 62
         2
100
AcDbLine
 10
487.4286
 20
-163.0
 30
0.0
 11
490.8571
 21
-163.0
 31
0.0
  0
LINE
  5
426
100
AcDbEntity
  8
LEVEL_10
  6
CONTINUOUS
 62
         2
100
AcDbLine
 10
487.4286
 20
-155.0
 30
0.0
 11
490.8571
 21
-155.0
 31
0.0
  0
LINE
  5
427
100
AcDbEntity
  8
LEVEL_10
  6
CONTINUOUS
 62
         2
100
AcDbLine
 10
487.4286
 20
-159.0
 30
0.0
 11
490.2857
 21
-159.0
 31
0.0
  0
LINE
  5
428
100
AcDbEntity
  8
LEVEL_10
  6
CONTINUOUS
 62
         2
100
AcDbLine
 10
492.0
 20
-163.0
 30
0.0
 11
492.0
 21
-155.0
 31
0.0
  0
LINE
  5
429
100
AcDbEntity
  8
LEVEL_10
  6
CONTINUOUS
 62
         2
100
AcDbLine
 10
492.0
 20
-155.0
 30
0.0
 11
494.2857
 21
-155.0
 31
0.0
  0
LINE
  5
42A
100
AcDbEntity
  8
LEVEL_10
  6
CONTINUOUS
 62
         2
100
AcDbLine
 10
492.0
 20
-159.0
 30
0.0
 11
494.2857
 21
-159.0
 31
0.0
  0
ARC
  5
42B
100
AcDbEntity
  8
LEVEL_10
  6
CONTINUOUS
 62
         2
100
AcDbCircle
 10
494.2857
 20
-156.7143
 30
0.0
 40
1.7143
100
AcDbArc
 50
0.0
 51
90.0
  0
ARC
  5
42C
100
AcDbEntity
  8
LEVEL_10
  6
CONTINUOUS
 62
         2
100
AcDbCircle
 10
494.2857
 20
-157.2857
 30
0.0
 40
1.7143
100
AcDbArc
 50
270.0
 51
360.0
  0
LINE
  5
42D
100
AcDbEntity
  8
LEVEL_10
  6
CONTINUOUS
 62
         2
100
AcDbLine
 10
496.0
 20
-157.2857
 30
0.0
 11
496.0
 21
-156.7143
 31
0.0
  0
LINE
  5
42E
100
AcDbEntity
  8
LEVEL_10
  6
CONTINUOUS
 62
         2
100
AcDbLine
 10
494.2857
 20
-159.0
 30
0.0
 11
496.0
 21
-163.0
 31
0.0
  0
ARC
  5
42F
100
AcDbEntity
  8
LEVEL_10
  6
CONTINUOUS
 62
         2
100
AcDbCircle
 10
498.8571
 20
-161.2857
 30
0.0
 40
1.7142
100
AcDbArc
 50
180.0
 51
270.0
  0
LINE
  5
430
100
AcDbEntity
  8
LEVEL_10
  6
CONTINUOUS
 62
         2
100
AcDbLine
 10
498.8571
 20
-163.0
 30
0.0
 11
499.4286
 21
-163.0
 31
0.0
  0
ARC
  5
431
100
AcDbEntity
  8
LEVEL_10
  6
CONTINUOUS
 62
         2
100
AcDbCircle
 10
499.4286
 20
-161.2857
 30
0.0
 40
1.7143
100
AcDbArc
 50
270.0
 51
360.0
  0
LINE
  5
432
100
AcDbEntity
  8
LEVEL_10
  6
CONTINUOUS
 62
         2
100
AcDbLine
 10
501.1429
 20
-161.2857
 30
0.0
 11
501.1429
 21
-159.0
 31
0.0
  0
LINE
  5
433
100
AcDbEntity
  8
LEVEL_10
  6
CONTINUOUS
 62
         2
100
AcDbLine
 10
501.1429
 20
-159.0
 30
0.0
 11
499.1429
 21
-159.0
 31
0.0
  0
LINE
  5
434
100
AcDbEntity
  8
LEVEL_10
  6
CONTINUOUS
 62
         2
100
AcDbLine
 10
497.1429
 20
-161.2857
 30
0.0
 11
497.1429
 21
-156.7143
 31
0.0
  0
ARC
  5
435
100
AcDbEntity
  8
LEVEL_10
  6
CONTINUOUS
 62
         2
100
AcDbCircle
 10
498.8571
 20
-156.7143
 30
0.0
 40
1.7143
100
AcDbArc
 50
90.0
 51
180.0
  0
LINE
  5
436
100
AcDbEntity
  8
LEVEL_10
  6
CONTINUOUS
 62
         2
100
AcDbLine
 10
498.8571
 20
-155.0
 30
0.0
 11
499.4286
 21
-155.0
 31
0.0
  0
ARC
  5
437
100
AcDbEntity
  8
LEVEL_10
  6
CONTINUOUS
 62
         2
100
AcDbCircle
 10
499.4286
 20
-156.7143
 30
0.0
 40
1.7143
100
AcDbArc
 50
0.0
 51
90.0
  0
LINE
  5
438
100
AcDbEntity
  8
LEVEL_10
  6
CONTINUOUS
 62
         2
100
AcDbLine
 10
501.1429
 20
-156.7143
 30
0.0
 11
501.1429
 21
-157.2857
 31
0.0
  0
LINE
  5
439
100
AcDbEntity
  8
LEVEL_10
  6
CONTINUOUS
 62
         2
100
AcDbLine
 10
508.5714
 20
-163.0
 30
0.0
 11
508.5714
 21
-155.0
 31
0.0
  0
LINE
  5
43A
100
AcDbEntity
  8
LEVEL_10
  6
CONTINUOUS
 62
         2
100
AcDbLine
 10
506.2857
 20
-156.7143
 30
0.0
 11
508.5714
 21
-155.0
 31
0.0
  0
LINE
  5
43B
100
AcDbEntity
  8
LEVEL_10
  6
CONTINUOUS
 62
         2
100
AcDbLine
 10
509.7143
 20
-157.2857
 30
0.0
 11
509.7143
 21
-156.7143
 31
0.0
  0
ARC
  5
43C
100
AcDbEntity
  8
LEVEL_10
  6
CONTINUOUS
 62
         2
100
AcDbCircle
 10
511.4286
 20
-156.7143
 30
0.0
 40
1.7143
100
AcDbArc
 50
0.0
 51
180.0
  0
LINE
  5
43D
100
AcDbEntity
  8
LEVEL_10
  6
CONTINUOUS
 62
         2
100
AcDbLine
 10
513.1429
 20
-156.7143
 30
0.0
 11
513.1429
 21
-157.5714
 31
0.0
  0
ARC
  5
43E
100
AcDbEntity
  8
LEVEL_10
  6
CONTINUOUS
 62
         2
100
AcDbCircle
 10
512.0
 20
-157.5714
 30
0.0
 40
1.1429
100
AcDbArc
 50
270.0
 51
360.0
  0
LINE
  5
43F
100
AcDbEntity
  8
LEVEL_10
  6
CONTINUOUS
 62
         2
100
AcDbLine
 10
510.8571
 20
-158.7143
 30
0.0
 11
512.0
 21
-158.7143
 31
0.0
  0
ARC
  5
440
100
AcDbEntity
  8
LEVEL_10
  6
CONTINUOUS
 62
         2
100
AcDbCircle
 10
512.0
 20
-159.8571
 30
0.0
 40
1.1429
100
AcDbArc
 50
0.0
 51
90.0
  0
LINE
  5
441
100
AcDbEntity
  8
LEVEL_10
  6
CONTINUOUS
 62
         2
100
AcDbLine
 10
513.1429
 20
-159.8571
 30
0.0
 11
513.1429
 21
-161.2857
 31
0.0
  0
ARC
  5
442
100
AcDbEntity
  8
LEVEL_10
  6
CONTINUOUS
 62
         2
100
AcDbCircle
 10
511.4286
 20
-161.2857
 30
0.0
 40
1.7143
100
AcDbArc
 50
180.0
 51
360.0
  0
LINE
  5
443
100
AcDbEntity
  8
LEVEL_10
  6
CONTINUOUS
 62
         2
100
AcDbLine
 10
509.7143
 20
-161.2857
 30
0.0
 11
509.7143
 21
-160.7143
 31
0.0
  0
LINE
  5
444
100
AcDbEntity
  8
LEVEL_10
  6
CONTINUOUS
 62
         2
100
AcDbLine
 10
468.2857
 20
-181.0
 30
0.0
 11
468.2857
 21
-173.0
 31
0.0
  0
LINE
  5
445
100
AcDbEntity
  8
LEVEL_10
  6
CONTINUOUS
 62
         2
100
AcDbLine
 10
468.2857
 20
-181.0
 30
0.0
 11
470.5714
 21
-181.0
 31
0.0
  0
LINE
  5
446
100
AcDbEntity
  8
LEVEL_10
  6
CONTINUOUS
 62
         2
100
AcDbLine
 10
468.2857
 20
-173.0
 30
0.0
 11
470.5714
 21
-173.0
 31
0.0
  0
ARC
  5
447
100
AcDbEntity
  8
LEVEL_10
  6
CONTINUOUS
 62
         2
100
AcDbCircle
 10
470.5714
 20
-174.7143
 30
0.0
 40
1.7143
100
AcDbArc
 50
0.0
 51
90.0
  0
ARC
  5
448
100
AcDbEntity
  8
LEVEL_10
  6
CONTINUOUS
 62
         2
100
AcDbCircle
 10
470.5714
 20
-179.2857
 30
0.0
 40
1.7143
100
AcDbArc
 50
270.0
 51
360.0
  0
LINE
  5
449
100
AcDbEntity
  8
LEVEL_10
  6
CONTINUOUS
 62
         2
100
AcDbLine
 10
472.2857
 20
-179.2857
 30
0.0
 11
472.2857
 21
-174.7143
 31
0.0
  0
LINE
  5
44A
100
AcDbEntity
  8
LEVEL_10
  6
CONTINUOUS
 62
         2
100
AcDbLine
 10
473.4286
 20
-179.0
 30
0.0
 11
476.8571
 21
-179.0
 31
0.0
  0
LINE
  5
44B
100
AcDbEntity
  8
LEVEL_10
  6
CONTINUOUS
 62
         2
100
AcDbLine
 10
473.4286
 20
-177.2857
 30
0.0
 11
476.8571
 21
-177.2857
 31
0.0
  0
LINE
  5
44C
100
AcDbEntity
  8
LEVEL_10
  6
CONTINUOUS
 62
         2
100
AcDbLine
 10
478.0
 20
-175.2857
 30
0.0
 11
478.0
 21
-174.7143
 31
0.0
  0
ARC
  5
44D
100
AcDbEntity
  8
LEVEL_10
  6
CONTINUOUS
 62
         2
100
AcDbCircle
 10
479.7143
 20
-174.7143
 30
0.0
 40
1.7143
100
AcDbArc
 50
0.0
 51
180.0
  0
LINE
  5
44E
100
AcDbEntity
  8
LEVEL_10
  6
CONTINUOUS
 62
         2
100
AcDbLine
 10
481.4286
 20
-174.7143
 30
0.0
 11
481.4286
 21
-175.5714
 31
0.0
  0
ARC
  5
44F
100
AcDbEntity
  8
LEVEL_10
  6
CONTINUOUS
 62
         2
100
AcDbCircle
 10
480.2857
 20
-175.5714
 30
0.0
 40
1.1429
100
AcDbArc
 50
270.0
 51
360.0
  0
LINE
  5
450
100
AcDbEntity
  8
LEVEL_10
  6
CONTINUOUS
 62
         2
100
AcDbLine
 10
479.1429
 20
-176.7143
 30
0.0
 11
480.2857
 21
-176.7143
 31
0.0
  0
ARC
  5
451
100
AcDbEntity
  8
LEVEL_10
  6
CONTINUOUS
 62
         2
100
AcDbCircle
 10
480.2857
 20
-177.8571
 30
0.0
 40
1.1429
100
AcDbArc
 50
0.0
 51
90.0
  0
LINE
  5
452
100
AcDbEntity
  8
LEVEL_10
  6
CONTINUOUS
 62
         2
100
AcDbLine
 10
481.4286
 20
-177.8571
 30
0.0
 11
481.4286
 21
-179.2857
 31
0.0
  0
ARC
  5
453
100
AcDbEntity
  8
LEVEL_10
  6
CONTINUOUS
 62
         2
100
AcDbCircle
 10
479.7143
 20
-179.2857
 30
0.0
 40
1.7143
100
AcDbArc
 50
180.0
 51
360.0
  0
LINE
  5
454
100
AcDbEntity
  8
LEVEL_10
  6
CONTINUOUS
 62
         2
100
AcDbLine
 10
478.0
 20
-179.2857
 30
0.0
 11
478.0
 21
-178.7143
 31
0.0
  0
ARC
  5
455
100
AcDbEntity
  8
LEVEL_10
  6
CONTINUOUS
 62
         2
100
AcDbCircle
 10
484.2857
 20
-179.2857
 30
0.0
 40
1.7143
100
AcDbArc
 50
180.0
 51
360.0
  0
LINE
  5
456
100
AcDbEntity
  8
LEVEL_10
  6
CONTINUOUS
 62
         2
100
AcDbLine
 10
486.0
 20
-179.2857
 30
0.0
 11
486.0
 21
-178.1429
 31
0.0
  0
ARC
  5
457
100
AcDbEntity
  8
LEVEL_10
  6
CONTINUOUS
 62
         2
100
AcDbCircle
 10
484.2857
 20
-178.1429
 30
0.0
 40
1.7143
100
AcDbArc
 50
0.0
 51
180.0
  0
LINE
  5
458
100
AcDbEntity
  8
LEVEL_10
  6
CONTINUOUS
 62
         2
100
AcDbLine
 10
482.5714
 20
-179.2857
 30
0.0
 11
482.5714
 21
-178.1429
 31
0.0
  0
LINE
  5
459
100
AcDbEntity
  8
LEVEL_10
  6
CONTINUOUS
 62
         2
100
AcDbLine
 10
482.7406
 20
-177.4
 30
0.0
 11
484.8571
 21
-173.0
 31
0.0
  0
LINE
  5
45A
100
AcDbEntity
  8
LEVEL_10
  6
CONTINUOUS
 62
         2
100
AcDbLine
 10
487.1429
 20
-178.1429
 30
0.0
 11
490.5714
 21
-178.1429
 31
0.0
  0
LINE
  5
45B
100
AcDbEntity
  8
LEVEL_10
  6
CONTINUOUS
 62
         2
100
AcDbLine
 10
491.7143
 20
-179.2857
 30
0.0
 11
495.1429
 21
-179.2857
 31
0.0
  0
LINE
  5
45C
100
AcDbEntity
  8
LEVEL_10
  6
CONTINUOUS
 62
         2
100
AcDbLine
 10
494.8571
 20
-181.0
 30
0.0
 11
494.8571
 21
-176.4286
 31
0.0
  0
LINE
  5
45D
100
AcDbEntity
  8
LEVEL_10
  6
CONTINUOUS
 62
         2
100
AcDbLine
 10
491.7143
 20
-179.2857
 30
0.0
 11
494.0
 21
-173.0
 31
0.0
  0
ARC
  5
45E
100
AcDbEntity
  8
LEVEL_10
  6
CONTINUOUS
 62
         2
100
AcDbCircle
 10
498.0
 20
-174.7143
 30
0.0
 40
1.7143
100
AcDbArc
 50
0.0
 51
180.0
  0
LINE
  5
45F
100
AcDbEntity
  8
LEVEL_10
  6
CONTINUOUS
 62
         2
100
AcDbLine
 10
496.2857
 20
-174.7143
 30
0.0
 11
496.2857
 21
-175.5714
 31
0.0
  0
LINE
  5
460
100
AcDbEntity
  8
LEVEL_10
  6
CONTINUOUS
 62
         2
100
AcDbLine
 10
499.7143
 20
-174.7143
 30
0.0
 11
499.7143
 21
-175.5714
 31
0.0
  0
ARC
  5
461
100
AcDbEntity
  8
LEVEL_10
  6
CONTINUOUS
 62
         2
100
AcDbCircle
 10
497.4286
 20
-175.5714
 30
0.0
 40
1.1429
100
AcDbArc
 50
180.0
 51
270.0
  0
ARC
  5
462
100
AcDbEntity
  8
LEVEL_10
  6
CONTINUOUS
 62
         2
100
AcDbCircle
 10
498.5714
 20
-175.5714
 30
0.0
 40
1.1429
100
AcDbArc
 50
270.0
 51
360.0
  0
LINE
  5
463
100
AcDbEntity
  8
LEVEL_10
  6
CONTINUOUS
 62
         2
100
AcDbLine
 10
497.4286
 20
-176.7143
 30
0.0
 11
498.5714
 21
-176.7143
 31
0.0
  0
ARC
  5
464
100
AcDbEntity
  8
LEVEL_10
  6
CONTINUOUS
 62
         2
100
AcDbCircle
 10
497.4286
 20
-177.8571
 30
0.0
 40
1.1428
100
AcDbArc
 50
90.0
 51
180.0
  0
ARC
  5
465
100
AcDbEntity
  8
LEVEL_10
  6
CONTINUOUS
 62
         2
100
AcDbCircle
 10
498.5714
 20
-177.8571
 30
0.0
 40
1.1429
100
AcDbArc
 50
0.0
 51
90.0
  0
LINE
  5
466
100
AcDbEntity
  8
LEVEL_10
  6
CONTINUOUS
 62
         2
100
AcDbLine
 10
496.2857
 20
-177.8571
 30
0.0
 11
496.2857
 21
-179.2857
 31
0.0
  0
LINE
  5
467
100
AcDbEntity
  8
LEVEL_10
  6
CONTINUOUS
 62
         2
100
AcDbLine
 10
499.7143
 20
-177.8571
 30
0.0
 11
499.7143
 21
-179.2857
 31
0.0
  0
ARC
  5
468
100
AcDbEntity
  8
LEVEL_10
  6
CONTINUOUS
 62
         2
100
AcDbCircle
 10
498.0
 20
-179.2857
 30
0.0
 40
1.7143
100
AcDbArc
 50
180.0
 51
360.0
  0
LINE
  5
469
100
AcDbEntity
  8
LEVEL_11
  6
CONTINUOUS
 62
         2
100
AcDbLine
 10
645.1077
 20
-117.4676
 30
0.0
 11
650.3301
 21
-126.5132
 31
0.0
  0
LINE
  5
46A
100
AcDbEntity
  8
LEVEL_11
  6
CONTINUOUS
 62
         2
100
AcDbLine
 10
681.6699
 20
-126.5132
 30
0.0
 11
686.8923
 21
-117.4676
 31
0.0
  0
LINE
  5
46B
100
AcDbEntity
  8
LEVEL_11
  6
HIDDEN2
 62
         5
100
AcDbLine
 10
664.0
 20
-147.0
 30
0.0
 11
654.1378
 21
-145.438
 31
0.0
  0
LINE
  5
46C
100
AcDbEntity
  8
LEVEL_11
  6
CONTINUOUS
 62
         2
100
AcDbLine
 10
651.0
 20
-140.6706
 30
0.0
 11
651.0
 21
-138.3425
 31
0.0
  0
LINE
  5
46D
100
AcDbEntity
  8
LEVEL_11
  6
HIDDEN2
 62
         5
100
AcDbLine
 10
655.2178
 20
-133.4041
 30
0.0
 11
664.0
 21
-132.0132
 31
0.0
  0
LINE
  5
46E
100
AcDbEntity
  8
LEVEL_11
  6
HIDDEN2
 62
         5
100
AcDbLine
 10
664.0
 20
-132.0132
 30
0.0
 11
668.0
 21
-132.0132
 31
0.0
  0
LINE
  5
46F
100
AcDbEntity
  8
LEVEL_11
  6
HIDDEN2
 62
         5
100
AcDbLine
 10
668.0
 20
-132.0132
 30
0.0
 11
676.7822
 21
-133.4041
 31
0.0
  0
LINE
  5
470
100
AcDbEntity
  8
LEVEL_11
  6
CONTINUOUS
 62
         2
100
AcDbLine
 10
681.0
 20
-138.3425
 30
0.0
 11
681.0
 21
-140.6706
 31
0.0
  0
LINE
  5
471
100
AcDbEntity
  8
LEVEL_11
  6
HIDDEN2
 62
         5
100
AcDbLine
 10
677.8622
 20
-145.438
 30
0.0
 11
668.0
 21
-147.0
 31
0.0
  0
LINE
  5
472
100
AcDbEntity
  8
LEVEL_11
  6
HIDDEN2
 62
         5
100
AcDbLine
 10
668.0
 20
-147.0
 30
0.0
 11
666.0
 21
-147.0
 31
0.0
  0
ARC
  5
473
100
AcDbEntity
  8
LEVEL_11
  6
CONTINUOUS
 62
         2
100
AcDbCircle
 10
656.0
 20
-140.6706
 30
0.0
 40
5.0
100
AcDbArc
 50
180.0
 51
239.9998451923
  0
ARC
  5
474
100
AcDbEntity
  8
LEVEL_11
  6
HIDDEN2
 62
         5
100
AcDbCircle
 10
656.0
 20
-138.3425
 30
0.0
 40
4.9999631399
100
AcDbArc
 50
99.0003879853
 51
180.0
  0
ARC
  5
475
100
AcDbEntity
  8
LEVEL_11
  6
HIDDEN2
 62
         5
100
AcDbCircle
 10
676.0
 20
-138.3425
 30
0.0
 40
5.0
100
AcDbArc
 50
0.0
 51
80.9996120147
  0
ARC
  5
476
100
AcDbEntity
  8
LEVEL_11
  6
CONTINUOUS
 62
         2
100
AcDbCircle
 10
676.0
 20
-140.6706
 30
0.0
 40
4.9999623169
100
AcDbArc
 50
356.2225897519
 51
360.0
  0
LINE
  5
477
100
AcDbEntity
  8
LEVEL_11
  6
CONTINUOUS
 62
         2
100
AcDbLine
 10
651.0
 20
-129.0132
 30
0.0
 11
651.0
 21
-138.3425
 31
0.0
  0
LINE
  5
478
100
AcDbEntity
  8
LEVEL_11
  6
CONTINUOUS
 62
         2
100
AcDbLine
 10
681.0
 20
-129.0132
 30
0.0
 11
681.0
 21
-138.3425
 31
0.0
  0
LINE
  5
479
100
AcDbEntity
  8
LEVEL_11
  6
CONTINUOUS
 62
         2
100
AcDbLine
 10
659.1346
 20
-209.1658
 30
0.0
 11
656.2155
 21
-196.8443
 31
0.0
  0
LINE
  5
47A
100
AcDbEntity
  8
LEVEL_11
  6
CONTINUOUS
 62
         2
100
AcDbLine
 10
672.8654
 20
-209.1659
 30
0.0
 11
675.7845
 21
-196.8443
 31
0.0
  0
LINE
  5
47B
100
AcDbEntity
  8
LEVEL_11
  6
CONTINUOUS
 62
         2
100
AcDbLine
 10
664.0
 20
-213.0131
 30
0.0
 11
668.0
 21
-213.0132
 31
0.0
  0
LINE
  5
47C
100
AcDbEntity
  8
LEVEL_11
  6
HIDDEN2
 62
         5
100
AcDbLine
 10
664.0
 20
-187.0
 30
0.0
 11
666.0
 21
-187.0
 31
0.0
  0
ARC
  5
47D
100
AcDbEntity
  8
LEVEL_11
  6
HIDDEN2
 62
         5
100
AcDbCircle
 10
664.0
 20
-195.0
 30
0.0
 40
8.0
100
AcDbArc
 50
90.0
 51
180.0
  0
ARC
  5
47E
100
AcDbEntity
  8
LEVEL_11
  6
CONTINUOUS
 62
         2
100
AcDbCircle
 10
664.0
 20
-208.0131
 30
0.0
 40
5.0000834443
100
AcDbArc
 50
193.3286393381
 51
270.0
  0
ARC
  5
47F
100
AcDbEntity
  8
LEVEL_11
  6
CONTINUOUS
 62
         2
100
AcDbCircle
 10
668.0
 20
-208.0132
 30
0.0
 40
5.0
100
AcDbArc
 50
270.0
 51
346.6713606619
  0
ARC
  5
480
100
AcDbEntity
  8
LEVEL_11
  6
CONTINUOUS
 62
         2
100
AcDbCircle
 10
668.0
 20
-195.0
 30
0.0
 40
7.9999926712
100
AcDbArc
 50
346.6712688898
 51
360.0
  0
LINE
  5
481
100
AcDbEntity
  8
LEVEL_11
  6
CONTINUOUS
 62
         2
100
AcDbLine
 10
656.0
 20
-149.3309
 30
0.0
 11
656.0
 21
-195.0
 31
0.0
  0
LINE
  5
482
100
AcDbEntity
  8
LEVEL_11
  6
CONTINUOUS
 62
         2
100
AcDbLine
 10
676.0
 20
-149.3309
 30
0.0
 11
676.0
 21
-193.0
 31
0.0
  0
ARC
  5
483
100
AcDbEntity
  8
LEVEL_11
  6
HIDDEN2
 62
         5
100
AcDbCircle
 10
668.0
 20
-195.0
 30
0.0
 40
8.0
100
AcDbArc
 50
0.0
 51
14.4774525492
  0
ARC
  5
484
100
AcDbEntity
  8
LEVEL_11
  6
CONTINUOUS
 62
         2
100
AcDbCircle
 10
664.0
 20
-195.0
 30
0.0
 40
8.0
100
AcDbArc
 50
180.0
 51
193.3287311102
  0
ARC
  5
485
100
AcDbEntity
  8
LEVEL_11
  6
CONTINUOUS
 62
         2
100
AcDbCircle
 10
651.0
 20
-149.3309
 30
0.0
 40
5.0
100
AcDbArc
 50
0.0
 51
51.1300918772
  0
ARC
  5
486
100
AcDbEntity
  8
LEVEL_11
  6
CONTINUOUS
 62
         2
100
AcDbCircle
 10
681.0
 20
-149.3309
 30
0.0
 40
5.0000632036
100
AcDbArc
 50
119.9995818545
 51
128.8699081228
  0
ARC
  5
487
100
AcDbEntity
  8
LEVEL_11
  6
CONTINUOUS
 62
         2
100
AcDbCircle
 10
651.0
 20
-149.3309
 30
0.0
 40
5.0000459248
100
AcDbArc
 50
51.1300918772
 51
60.0004181455
  0
ARC
  5
488
100
AcDbEntity
  8
LEVEL_11
  6
CONTINUOUS
 62
         2
100
AcDbCircle
 10
681.0
 20
-149.3309
 30
0.0
 40
5.0000459248
100
AcDbArc
 50
128.8699081228
 51
180.0
  0
ARC
  5
489
100
AcDbEntity
  8
LEVEL_11
  6
CONTINUOUS
 62
         2
100
AcDbCircle
 10
646.0
 20
-129.0132
 30
0.0
 40
5.0
100
AcDbArc
 50
0.0
 51
30.0001548077
  0
ARC
  5
48A
100
AcDbEntity
  8
LEVEL_11
  6
CONTINUOUS
 62
         2
100
AcDbCircle
 10
686.0
 20
-129.0132
 30
0.0
 40
4.9999766009
100
AcDbArc
 50
149.9998451923
 51
180.0
  0
ARC
  5
48B
100
AcDbEntity
  8
LEVEL_11
  6
CONTINUOUS
 62
         2
100
AcDbCircle
 10
666.0
 20
-103.0132
 30
0.0
 40
9.5
100
AcDbArc
 50
90.0
 51
159.9486713672
  0
ARC
  5
48C
100
AcDbEntity
  8
LEVEL_11
  6
CONTINUOUS
 62
         2
100
AcDbCircle
 10
666.0
 20
-103.0132
 30
0.0
 40
9.5000367094
100
AcDbArc
 50
159.9486713672
 51
200.0513286328
  0
ARC
  5
48D
100
AcDbEntity
  8
LEVEL_11
  6
CONTINUOUS
 62
         2
100
AcDbCircle
 10
666.0
 20
-103.0132
 30
0.0
 40
9.5000367094
100
AcDbArc
 50
200.0513286328
 51
339.9486713672
  0
ARC
  5
48E
100
AcDbEntity
  8
LEVEL_11
  6
CONTINUOUS
 62
         2
100
AcDbCircle
 10
666.0
 20
-103.0132
 30
0.0
 40
9.5000367094
100
AcDbArc
 50
339.9486713672
 51
20.0513286328
  0
ARC
  5
48F
100
AcDbEntity
  8
LEVEL_11
  6
CONTINUOUS
 62
         2
100
AcDbCircle
 10
666.0
 20
-103.0132
 30
0.0
 40
9.5000367094
100
AcDbArc
 50
20.0513286328
 51
90.0
  0
LINE
  5
490
100
AcDbEntity
  8
LEVEL_11
  6
CONTINUOUS
 62
         2
100
AcDbLine
 10
688.5
 20
-111.4676
 30
0.0
 11
688.5
 21
-96.5132
 31
0.0
  0
LINE
  5
491
100
AcDbEntity
  8
LEVEL_11
  6
CONTINUOUS
 62
         2
100
AcDbLine
 10
688.5
 20
-96.5132
 30
0.0
 11
685.0337
 21
-91.0146
 31
0.0
  0
ARC
  5
492
100
AcDbEntity
  8
LEVEL_11
  6
CONTINUOUS
 62
         2
100
AcDbCircle
 10
666.0
 20
-103.0132
 30
0.0
 40
22.4999586144
100
AcDbArc
 50
32.2268046641
 51
147.7731953359
  0
LINE
  5
493
100
AcDbEntity
  8
LEVEL_11
  6
CONTINUOUS
 62
         2
100
AcDbLine
 10
646.9663
 20
-91.0146
 30
0.0
 11
643.5
 21
-96.5132
 31
0.0
  0
LINE
  5
494
100
AcDbEntity
  8
LEVEL_11
  6
CONTINUOUS
 62
         2
100
AcDbLine
 10
643.5
 20
-96.5132
 30
0.0
 11
643.5
 21
-111.4676
 31
0.0
  0
ARC
  5
495
100
AcDbEntity
  8
LEVEL_11
  6
CONTINUOUS
 62
         2
100
AcDbCircle
 10
655.5
 20
-111.4676
 30
0.0
 40
12.0
100
AcDbArc
 50
180.0
 51
210.0000115676
  0
ARC
  5
496
100
AcDbEntity
  8
LEVEL_11
  6
CONTINUOUS
 62
         2
100
AcDbCircle
 10
676.5
 20
-111.4676
 30
0.0
 40
11.9999958037
100
AcDbArc
 50
329.9999884324
 51
360.0
  0
LINE
  5
497
100
AcDbEntity
  8
LEVEL_11
  6
CONTINUOUS
 62
         2
100
AcDbLine
 10
694.9968
 20
-167.0
 30
0.0
 11
694.9968
 21
-144.5
 31
0.0
  0
LINE
  5
498
100
AcDbEntity
  8
LEVEL_11
  6
CONTINUOUS
 62
         2
100
AcDbLine
 10
694.9968
 20
-141.0
 30
0.0
 11
680.9891
 21
-141.0
 31
0.0
  0
LINE
  5
499
100
AcDbEntity
  8
LEVEL_11
  6
CONTINUOUS
 62
         2
100
AcDbLine
 10
666.0
 20
-147.0
 30
0.0
 11
666.0
 21
-187.0
 31
0.0
  0
LINE
  5
49A
100
AcDbEntity
  8
LEVEL_11
  6
CONTINUOUS
 62
         2
100
AcDbLine
 10
694.9968
 20
-193.0
 30
0.0
 11
694.9968
 21
-189.5
 31
0.0
  0
LINE
  5
49B
100
AcDbEntity
  8
LEVEL_11
  6
HIDDEN2
 62
         5
100
AcDbLine
 10
666.0
 20
-147.0
 30
0.0
 11
664.0
 21
-147.0
 31
0.0
  0
ARC
  5
49C
100
AcDbEntity
  8
LEVEL_11
  6
CONTINUOUS
 62
         2
100
AcDbCircle
 10
676.0
 20
-140.6706
 30
0.0
 40
4.9999766009
100
AcDbArc
 50
300.0001548077
 51
356.2225897519
  0
LINE
  5
49D
100
AcDbEntity
  8
LEVEL_11
  6
HIDDEN2
 62
         5
100
AcDbLine
 10
666.0
 20
-187.0
 30
0.0
 11
668.0
 21
-187.0
 31
0.0
  0
LINE
  5
49E
100
AcDbEntity
  8
LEVEL_11
  6
CONTINUOUS
 62
         2
100
AcDbLine
 10
676.0
 20
-193.0
 30
0.0
 11
676.0
 21
-195.0
 31
0.0
  0
ARC
  5
49F
100
AcDbEntity
  8
LEVEL_11
  6
HIDDEN2
 62
         5
100
AcDbCircle
 10
668.0
 20
-195.0
 30
0.0
 40
8.0000322499
100
AcDbArc
 50
14.4774525492
 51
90.0
  0
LINE
  5
4A0
100
AcDbEntity
  8
LEVEL_11
  6
CONTINUOUS
 62
         2
100
AcDbLine
 10
694.9968
 20
-189.5
 30
0.0
 11
781.9967
 21
-189.5
 31
0.0
  0
LINE
  5
4A1
100
AcDbEntity
  8
LEVEL_11
  6
CONTINUOUS
 62
         2
100
AcDbLine
 10
781.9967
 20
-189.5
 30
0.0
 11
784.9967
 21
-186.5
 31
0.0
  0
LINE
  5
4A2
100
AcDbEntity
  8
LEVEL_11
  6
CONTINUOUS
 62
         2
100
AcDbLine
 10
784.9967
 20
-186.5
 30
0.0
 11
784.9967
 21
-147.5
 31
0.0
  0
LINE
  5
4A3
100
AcDbEntity
  8
LEVEL_11
  6
CONTINUOUS
 62
         2
100
AcDbLine
 10
784.9967
 20
-147.5
 30
0.0
 11
781.9967
 21
-144.5
 31
0.0
  0
LINE
  5
4A4
100
AcDbEntity
  8
LEVEL_11
  6
CONTINUOUS
 62
         2
100
AcDbLine
 10
781.9967
 20
-144.5
 30
0.0
 11
694.9968
 21
-144.5
 31
0.0
  0
LINE
  5
4A5
100
AcDbEntity
  8
LEVEL_11
  6
CONTINUOUS
 62
         2
100
AcDbLine
 10
781.9967
 20
-189.5
 30
0.0
 11
781.9967
 21
-144.5
 31
0.0
  0
LINE
  5
4A6
100
AcDbEntity
  8
LEVEL_11
  6
CONTINUOUS
 62
         2
100
AcDbLine
 10
694.9968
 20
-144.5
 30
0.0
 11
694.9968
 21
-141.0
 31
0.0
  0
LINE
  5
4A7
100
AcDbEntity
  8
LEVEL_11
  6
CONTINUOUS
 62
         2
100
AcDbLine
 10
694.9968
 20
-189.5
 30
0.0
 11
694.9968
 21
-167.0
 31
0.0
  0
LINE
  5
4A8
100
AcDbEntity
  8
LEVEL_11
  6
CENTER2
 62
         3
100
AcDbLine
 10
666.0
 20
-77.9532
 30
0.0
 11
666.0
 21
-155.0731
 31
0.0
  0
LINE
  5
4A9
100
AcDbEntity
  8
LEVEL_11
  6
CENTER2
 62
         3
100
AcDbLine
 10
666.0
 20
-216.6332
 30
0.0
 11
666.0
 21
-160.3931
 31
0.0
  0
LINE
  5
4AA
100
AcDbEntity
  8
LEVEL_11
  6
CENTER2
 62
         3
100
AcDbLine
 10
689.7
 20
-103.0132
 30
0.0
 11
642.3
 21
-103.0132
 31
0.0
  0
LINE
  5
4AB
100
AcDbEntity
  8
LEVEL_11
  6
CENTER2
 62
         3
100
AcDbLine
 10
647.7002
 20
-167.0
 30
0.0
 11
793.2965
 21
-167.0
 31
0.0
  0
LINE
  5
4AC
100
AcDbEntity
  8
LEVEL_11
  6
CONTINUOUS
 62
         2
100
AcDbLine
 10
694.9968
 20
-193.0
 30
0.0
 11
676.0
 21
-193.0
 31
0.0
  0
LINE
  5
4AD
100
AcDbEntity
  8
LEVEL_11
  6
CONTINUOUS
 62
         2
100
AcDbLine
 10
702.5714
 20
-162.0
 30
0.0
 11
702.5714
 21
-152.0
 31
0.0
  0
LINE
  5
4AE
100
AcDbEntity
  8
LEVEL_11
  6
CONTINUOUS
 62
         2
100
AcDbLine
 10
702.5714
 20
-152.0
 30
0.0
 11
705.4286
 21
-152.0
 31
0.0
  0
LINE
  5
4AF
100
AcDbEntity
  8
LEVEL_11
  6
CONTINUOUS
 62
         2
100
AcDbLine
 10
702.5714
 20
-157.0
 30
0.0
 11
705.4286
 21
-157.0
 31
0.0
  0
ARC
  5
4B0
100
AcDbEntity
  8
LEVEL_11
  6
CONTINUOUS
 62
         2
100
AcDbCircle
 10
705.4286
 20
-154.1429
 30
0.0
 40
2.1428
100
AcDbArc
 50
0.0
 51
90.0
  0
ARC
  5
4B1
100
AcDbEntity
  8
LEVEL_11
  6
CONTINUOUS
 62
         2
100
AcDbCircle
 10
705.4286
 20
-154.8571
 30
0.0
 40
2.1429
100
AcDbArc
 50
270.0
 51
360.0
  0
LINE
  5
4B2
100
AcDbEntity
  8
LEVEL_11
  6
CONTINUOUS
 62
         2
100
AcDbLine
 10
707.5714
 20
-154.8571
 30
0.0
 11
707.5714
 21
-154.1429
 31
0.0
  0
LINE
  5
4B3
100
AcDbEntity
  8
LEVEL_11
  6
CONTINUOUS
 62
         2
100
AcDbLine
 10
705.4286
 20
-157.0
 30
0.0
 11
707.5714
 21
-162.0
 31
0.0
  0
ARC
  5
4B4
100
AcDbEntity
  8
LEVEL_11
  6
CONTINUOUS
 62
         2
100
AcDbCircle
 10
711.1429
 20
-159.8571
 30
0.0
 40
2.1429
100
AcDbArc
 50
180.0
 51
270.0
  0
LINE
  5
4B5
100
AcDbEntity
  8
LEVEL_11
  6
CONTINUOUS
 62
         2
100
AcDbLine
 10
711.1429
 20
-162.0
 30
0.0
 11
711.8572
 21
-162.0
 31
0.0
  0
ARC
  5
4B6
100
AcDbEntity
  8
LEVEL_11
  6
CONTINUOUS
 62
         2
100
AcDbCircle
 10
711.8572
 20
-159.8571
 30
0.0
 40
2.1429
100
AcDbArc
 50
270.0
 51
360.0
  0
LINE
  5
4B7
100
AcDbEntity
  8
LEVEL_11
  6
CONTINUOUS
 62
         2
100
AcDbLine
 10
709.0
 20
-159.8571
 30
0.0
 11
709.0
 21
-152.0
 31
0.0
  0
LINE
  5
4B8
100
AcDbEntity
  8
LEVEL_11
  6
CONTINUOUS
 62
         2
100
AcDbLine
 10
714.0
 20
-159.8571
 30
0.0
 11
714.0
 21
-152.0
 31
0.0
  0
LINE
  5
4B9
100
AcDbEntity
  8
LEVEL_11
  6
CONTINUOUS
 62
         2
100
AcDbLine
 10
715.4286
 20
-162.0
 30
0.0
 11
715.4286
 21
-152.0
 31
0.0
  0
LINE
  5
4BA
100
AcDbEntity
  8
LEVEL_11
  6
CONTINUOUS
 62
         2
100
AcDbLine
 10
715.4286
 20
-162.0
 30
0.0
 11
718.2857
 21
-162.0
 31
0.0
  0
LINE
  5
4BB
100
AcDbEntity
  8
LEVEL_11
  6
CONTINUOUS
 62
         2
100
AcDbLine
 10
715.4286
 20
-152.0
 30
0.0
 11
718.2857
 21
-152.0
 31
0.0
  0
ARC
  5
4BC
100
AcDbEntity
  8
LEVEL_11
  6
CONTINUOUS
 62
         2
100
AcDbCircle
 10
718.2857
 20
-154.1429
 30
0.0
 40
2.1429
100
AcDbArc
 50
0.0
 51
90.0
  0
ARC
  5
4BD
100
AcDbEntity
  8
LEVEL_11
  6
CONTINUOUS
 62
         2
100
AcDbCircle
 10
718.2857
 20
-159.8571
 30
0.0
 40
2.1429
100
AcDbArc
 50
270.0
 51
360.0
  0
LINE
  5
4BE
100
AcDbEntity
  8
LEVEL_11
  6
CONTINUOUS
 62
         2
100
AcDbLine
 10
720.4286
 20
-159.8571
 30
0.0
 11
720.4286
 21
-154.1429
 31
0.0
  0
LINE
  5
4BF
100
AcDbEntity
  8
LEVEL_11
  6
CONTINUOUS
 62
         2
100
AcDbLine
 10
736.8572
 20
-152.0
 30
0.0
 11
739.3572
 21
-162.0
 31
0.0
  0
LINE
  5
4C0
100
AcDbEntity
  8
LEVEL_11
  6
CONTINUOUS
 62
         2
100
AcDbLine
 10
739.3572
 20
-162.0
 30
0.0
 11
741.8572
 21
-152.0
 31
0.0
  0
LINE
  5
4C1
100
AcDbEntity
  8
LEVEL_11
  6
CONTINUOUS
 62
         2
100
AcDbLine
 10
743.2857
 20
-162.0
 30
0.0
 11
743.2857
 21
-152.0
 31
0.0
  0
LINE
  5
4C2
100
AcDbEntity
  8
LEVEL_11
  6
CONTINUOUS
 62
         2
100
AcDbLine
 10
743.2857
 20
-162.0
 30
0.0
 11
747.5714
 21
-162.0
 31
0.0
  0
LINE
  5
4C3
100
AcDbEntity
  8
LEVEL_11
  6
CONTINUOUS
 62
         2
100
AcDbLine
 10
743.2857
 20
-152.0
 30
0.0
 11
747.5714
 21
-152.0
 31
0.0
  0
LINE
  5
4C4
100
AcDbEntity
  8
LEVEL_11
  6
CONTINUOUS
 62
         2
100
AcDbLine
 10
743.2857
 20
-157.0
 30
0.0
 11
746.8571
 21
-157.0
 31
0.0
  0
LINE
  5
4C5
100
AcDbEntity
  8
LEVEL_11
  6
CONTINUOUS
 62
         2
100
AcDbLine
 10
749.0
 20
-162.0
 30
0.0
 11
749.0
 21
-152.0
 31
0.0
  0
LINE
  5
4C6
100
AcDbEntity
  8
LEVEL_11
  6
CONTINUOUS
 62
         2
100
AcDbLine
 10
749.0
 20
-152.0
 30
0.0
 11
751.8572
 21
-152.0
 31
0.0
  0
LINE
  5
4C7
100
AcDbEntity
  8
LEVEL_11
  6
CONTINUOUS
 62
         2
100
AcDbLine
 10
749.0
 20
-157.0
 30
0.0
 11
751.8572
 21
-157.0
 31
0.0
  0
ARC
  5
4C8
100
AcDbEntity
  8
LEVEL_11
  6
CONTINUOUS
 62
         2
100
AcDbCircle
 10
751.8572
 20
-154.1429
 30
0.0
 40
2.1428
100
AcDbArc
 50
0.0
 51
90.0
  0
ARC
  5
4C9
100
AcDbEntity
  8
LEVEL_11
  6
CONTINUOUS
 62
         2
100
AcDbCircle
 10
751.8572
 20
-154.8571
 30
0.0
 40
2.1429
100
AcDbArc
 50
270.0
 51
360.0
  0
LINE
  5
4CA
100
AcDbEntity
  8
LEVEL_11
  6
CONTINUOUS
 62
         2
100
AcDbLine
 10
754.0
 20
-154.8571
 30
0.0
 11
754.0
 21
-154.1429
 31
0.0
  0
LINE
  5
4CB
100
AcDbEntity
  8
LEVEL_11
  6
CONTINUOUS
 62
         2
100
AcDbLine
 10
751.8572
 20
-157.0
 30
0.0
 11
754.0
 21
-162.0
 31
0.0
  0
ARC
  5
4CC
100
AcDbEntity
  8
LEVEL_11
  6
CONTINUOUS
 62
         2
100
AcDbCircle
 10
757.5714
 20
-159.8571
 30
0.0
 40
2.1428
100
AcDbArc
 50
180.0
 51
270.0
  0
LINE
  5
4CD
100
AcDbEntity
  8
LEVEL_11
  6
CONTINUOUS
 62
         2
100
AcDbLine
 10
757.5714
 20
-162.0
 30
0.0
 11
758.2857
 21
-162.0
 31
0.0
  0
ARC
  5
4CE
100
AcDbEntity
  8
LEVEL_11
  6
CONTINUOUS
 62
         2
100
AcDbCircle
 10
758.2857
 20
-159.8571
 30
0.0
 40
2.1429
100
AcDbArc
 50
270.0
 51
360.0
  0
LINE
  5
4CF
100
AcDbEntity
  8
LEVEL_11
  6
CONTINUOUS
 62
         2
100
AcDbLine
 10
760.4286
 20
-159.8571
 30
0.0
 11
760.4286
 21
-157.0
 31
0.0
  0
LINE
  5
4D0
100
AcDbEntity
  8
LEVEL_11
  6
CONTINUOUS
 62
         2
100
AcDbLine
 10
760.4286
 20
-157.0
 30
0.0
 11
757.9286
 21
-157.0
 31
0.0
  0
LINE
  5
4D1
100
AcDbEntity
  8
LEVEL_11
  6
CONTINUOUS
 62
         2
100
AcDbLine
 10
755.4286
 20
-159.8571
 30
0.0
 11
755.4286
 21
-154.1429
 31
0.0
  0
ARC
  5
4D2
100
AcDbEntity
  8
LEVEL_11
  6
CONTINUOUS
 62
         2
100
AcDbCircle
 10
757.5714
 20
-154.1429
 30
0.0
 40
2.1429
100
AcDbArc
 50
90.0
 51
180.0
  0
LINE
  5
4D3
100
AcDbEntity
  8
LEVEL_11
  6
CONTINUOUS
 62
         2
100
AcDbLine
 10
757.5714
 20
-152.0
 30
0.0
 11
758.2857
 21
-152.0
 31
0.0
  0
ARC
  5
4D4
100
AcDbEntity
  8
LEVEL_11
  6
CONTINUOUS
 62
         2
100
AcDbCircle
 10
758.2857
 20
-154.1429
 30
0.0
 40
2.1429
100
AcDbArc
 50
0.0
 51
90.0
  0
LINE
  5
4D5
100
AcDbEntity
  8
LEVEL_11
  6
CONTINUOUS
 62
         2
100
AcDbLine
 10
760.4286
 20
-154.1429
 30
0.0
 11
760.4286
 21
-154.8571
 31
0.0
  0
LINE
  5
4D6
100
AcDbEntity
  8
LEVEL_11
  6
CONTINUOUS
 62
         2
100
AcDbLine
 10
769.7143
 20
-162.0
 30
0.0
 11
769.7143
 21
-152.0
 31
0.0
  0
LINE
  5
4D7
100
AcDbEntity
  8
LEVEL_11
  6
CONTINUOUS
 62
         2
100
AcDbLine
 10
766.8571
 20
-154.1429
 30
0.0
 11
769.7143
 21
-152.0
 31
0.0
  0
ARC
  5
4D8
100
AcDbEntity
  8
LEVEL_11
  6
CONTINUOUS
 62
         2
100
AcDbCircle
 10
773.2857
 20
-159.8571
 30
0.0
 40
2.1429
100
AcDbArc
 50
180.0
 51
360.0
  0
LINE
  5
4D9
100
AcDbEntity
  8
LEVEL_11
  6
CONTINUOUS
 62
         2
100
AcDbLine
 10
775.4286
 20
-159.8571
 30
0.0
 11
775.4286
 21
-158.4286
 31
0.0
  0
ARC
  5
4DA
100
AcDbEntity
  8
LEVEL_11
  6
CONTINUOUS
 62
         2
100
AcDbCircle
 10
773.2857
 20
-158.4286
 30
0.0
 40
2.1429
100
AcDbArc
 50
0.0
 51
180.0
  0
LINE
  5
4DB
100
AcDbEntity
  8
LEVEL_11
  6
CONTINUOUS
 62
         2
100
AcDbLine
 10
771.1428
 20
-159.8571
 30
0.0
 11
771.1428
 21
-158.4286
 31
0.0
  0
LINE
  5
4DC
100
AcDbEntity
  8
LEVEL_11
  6
CONTINUOUS
 62
         2
100
AcDbLine
 10
771.3542
 20
-157.5
 30
0.0
 11
774.0
 21
-152.0
 31
0.0
  0
LINE
  5
4DD
100
AcDbEntity
  8
LEVEL_11
  6
CONTINUOUS
 62
         2
100
AcDbLine
 10
719.3571
 20
-184.0
 30
0.0
 11
719.3571
 21
-174.0
 31
0.0
  0
LINE
  5
4DE
100
AcDbEntity
  8
LEVEL_11
  6
CONTINUOUS
 62
         2
100
AcDbLine
 10
719.3571
 20
-184.0
 30
0.0
 11
722.2143
 21
-184.0
 31
0.0
  0
LINE
  5
4DF
100
AcDbEntity
  8
LEVEL_11
  6
CONTINUOUS
 62
         2
100
AcDbLine
 10
719.3571
 20
-174.0
 30
0.0
 11
722.2143
 21
-174.0
 31
0.0
  0
ARC
  5
4E0
100
AcDbEntity
  8
LEVEL_11
  6
CONTINUOUS
 62
         2
100
AcDbCircle
 10
722.2143
 20
-176.1429
 30
0.0
 40
2.1428
100
AcDbArc
 50
0.0
 51
90.0
  0
ARC
  5
4E1
100
AcDbEntity
  8
LEVEL_11
  6
CONTINUOUS
 62
         2
100
AcDbCircle
 10
722.2143
 20
-181.8571
 30
0.0
 40
2.1429
100
AcDbArc
 50
270.0
 51
360.0
  0
LINE
  5
4E2
100
AcDbEntity
  8
LEVEL_11
  6
CONTINUOUS
 62
         2
100
AcDbLine
 10
724.3571
 20
-181.8571
 30
0.0
 11
724.3571
 21
-176.1429
 31
0.0
  0
LINE
  5
4E3
100
AcDbEntity
  8
LEVEL_11
  6
CONTINUOUS
 62
         2
100
AcDbLine
 10
725.7857
 20
-181.5
 30
0.0
 11
730.0714
 21
-181.5
 31
0.0
  0
LINE
  5
4E4
100
AcDbEntity
  8
LEVEL_11
  6
CONTINUOUS
 62
         2
100
AcDbLine
 10
725.7857
 20
-179.3571
 30
0.0
 11
730.0714
 21
-179.3571
 31
0.0
  0
LINE
  5
4E5
100
AcDbEntity
  8
LEVEL_11
  6
CONTINUOUS
 62
         2
100
AcDbLine
 10
731.5
 20
-181.8571
 30
0.0
 11
735.7857
 21
-181.8571
 31
0.0
  0
LINE
  5
4E6
100
AcDbEntity
  8
LEVEL_11
  6
CONTINUOUS
 62
         2
100
AcDbLine
 10
735.4286
 20
-184.0
 30
0.0
 11
735.4286
 21
-178.2857
 31
0.0
  0
LINE
  5
4E7
100
AcDbEntity
  8
LEVEL_11
  6
CONTINUOUS
 62
         2
100
AcDbLine
 10
731.5
 20
-181.8571
 30
0.0
 11
734.3571
 21
-174.0
 31
0.0
  0
LINE
  5
4E8
100
AcDbEntity
  8
LEVEL_11
  6
CONTINUOUS
 62
         2
100
AcDbLine
 10
737.2143
 20
-174.0
 30
0.0
 11
741.5
 21
-174.0
 31
0.0
  0
LINE
  5
4E9
100
AcDbEntity
  8
LEVEL_11
  6
CONTINUOUS
 62
         2
100
AcDbLine
 10
737.2143
 20
-174.0
 30
0.0
 11
737.2143
 21
-179.0
 31
0.0
  0
ARC
  5
4EA
100
AcDbEntity
  8
LEVEL_11
  6
CONTINUOUS
 62
         2
100
AcDbCircle
 10
738.6429
 20
-179.0
 30
0.0
 40
1.4286
100
AcDbArc
 50
90.0
 51
180.0
  0
LINE
  5
4EB
100
AcDbEntity
  8
LEVEL_11
  6
CONTINUOUS
 62
         2
100
AcDbLine
 10
738.6429
 20
-177.5714
 30
0.0
 11
739.3571
 21
-177.5714
 31
0.0
  0
ARC
  5
4EC
100
AcDbEntity
  8
LEVEL_11
  6
CONTINUOUS
 62
         2
100
AcDbCircle
 10
739.3571
 20
-179.7143
 30
0.0
 40
2.1429
100
AcDbArc
 50
0.0
 51
90.0
  0
LINE
  5
4ED
100
AcDbEntity
  8
LEVEL_11
  6
CONTINUOUS
 62
         2
100
AcDbLine
 10
741.5
 20
-179.7143
 30
0.0
 11
741.5
 21
-181.8571
 31
0.0
  0
ARC
  5
4EE
100
AcDbEntity
  8
LEVEL_11
  6
CONTINUOUS
 62
         2
100
AcDbCircle
 10
739.3571
 20
-181.8571
 30
0.0
 40
2.1428
100
AcDbArc
 50
180.0
 51
360.0
  0
LINE
  5
4EF
100
AcDbEntity
  8
LEVEL_11
  6
CONTINUOUS
 62
         2
100
AcDbLine
 10
737.2143
 20
-181.8571
 30
0.0
 11
737.2143
 21
-181.1429
 31
0.0
  0
LINE
  5
4F0
100
AcDbEntity
  8
LEVEL_11
  6
CONTINUOUS
 62
         2
100
AcDbLine
 10
742.9286
 20
-180.4286
 30
0.0
 11
747.2143
 21
-180.4286
 31
0.0
  0
LINE
  5
4F1
100
AcDbEntity
  8
LEVEL_11
  6
CONTINUOUS
 62
         2
100
AcDbLine
 10
748.6429
 20
-181.8571
 30
0.0
 11
752.9286
 21
-181.8571
 31
0.0
  0
LINE
  5
4F2
100
AcDbEntity
  8
LEVEL_11
  6
CONTINUOUS
 62
         2
100
AcDbLine
 10
752.5714
 20
-184.0
 30
0.0
 11
752.5714
 21
-178.2857
 31
0.0
  0
LINE
  5
4F3
100
AcDbEntity
  8
LEVEL_11
  6
CONTINUOUS
 62
         2
100
AcDbLine
 10
748.6429
 20
-181.8571
 30
0.0
 11
751.5
 21
-174.0
 31
0.0
  0
ARC
  5
4F4
100
AcDbEntity
  8
LEVEL_11
  6
CONTINUOUS
 62
         2
100
AcDbCircle
 10
756.5
 20
-176.1429
 30
0.0
 40
2.1429
100
AcDbArc
 50
0.0
 51
180.0
  0
LINE
  5
4F5
100
AcDbEntity
  8
LEVEL_11
  6
CONTINUOUS
 62
         2
100
AcDbLine
 10
754.3571
 20
-176.1429
 30
0.0
 11
754.3571
 21
-177.2143
 31
0.0
  0
LINE
  5
4F6
100
AcDbEntity
  8
LEVEL_11
  6
CONTINUOUS
 62
         2
100
AcDbLine
 10
758.6429
 20
-176.1429
 30
0.0
 11
758.6429
 21
-177.2143
 31
0.0
  0
ARC
  5
4F7
100
AcDbEntity
  8
LEVEL_11
  6
CONTINUOUS
 62
         2
100
AcDbCircle
 10
755.7857
 20
-177.2143
 30
0.0
 40
1.4286
100
AcDbArc
 50
180.0
 51
270.0
  0
ARC
  5
4F8
100
AcDbEntity
  8
LEVEL_11
  6
CONTINUOUS
 62
         2
100
AcDbCircle
 10
757.2143
 20
-177.2143
 30
0.0
 40
1.4286
100
AcDbArc
 50
270.0
 51
360.0
  0
LINE
  5
4F9
100
AcDbEntity
  8
LEVEL_11
  6
CONTINUOUS
 62
         2
100
AcDbLine
 10
755.7857
 20
-178.6429
 30
0.0
 11
757.2143
 21
-178.6429
 31
0.0
  0
ARC
  5
4FA
100
AcDbEntity
  8
LEVEL_11
  6
CONTINUOUS
 62
         2
100
AcDbCircle
 10
755.7857
 20
-180.0714
 30
0.0
 40
1.4285
100
AcDbArc
 50
90.0
 51
180.0
  0
ARC
  5
4FB
100
AcDbEntity
  8
LEVEL_11
  6
CONTINUOUS
 62
         2
100
AcDbCircle
 10
757.2143
 20
-180.0714
 30
0.0
 40
1.4286
100
AcDbArc
 50
0.0
 51
90.0
  0
LINE
  5
4FC
100
AcDbEntity
  8
LEVEL_11
  6
CONTINUOUS
 62
         2
100
AcDbLine
 10
754.3571
 20
-180.0714
 30
0.0
 11
754.3571
 21
-181.8571
 31
0.0
  0
LINE
  5
4FD
100
AcDbEntity
  8
LEVEL_11
  6
CONTINUOUS
 62
         2
100
AcDbLine
 10
758.6429
 20
-180.0714
 30
0.0
 11
758.6429
 21
-181.8571
 31
0.0
  0
ARC
  5
4FE
100
AcDbEntity
  8
LEVEL_11
  6
CONTINUOUS
 62
         2
100
AcDbCircle
 10
756.5
 20
-181.8571
 30
0.0
 40
2.1429
100
AcDbArc
 50
180.0
 51
360.0
  0
LINE
  5
4FF
100
AcDbEntity
  8
LEVEL_12
  6
HIDDEN2
 62
         5
100
AcDbLine
 10
-189.2473
 20
-398.4085
 30
0.0
 11
-189.3884
 21
-398.4308
 31
0.0
  0
LINE
  5
500
100
AcDbEntity
  8
LEVEL_12
  6
CONTINUOUS
 62
         2
100
AcDbLine
 10
-190.2319
 20
-402.2978
 30
0.0
 11
-190.2319
 21
-417.5
 31
0.0
  0
ARC
  5
501
100
AcDbEntity
  8
LEVEL_12
  6
CONTINUOUS
 62
         2
100
AcDbCircle
 10
-192.7319
 20
-417.5
 30
0.0
 40
2.4999653058
100
AcDbArc
 50
345.5885494156
 51
360.0
  0
LINE
  5
502
100
AcDbEntity
  8
LEVEL_12
  6
CONTINUOUS
 62
         2
100
AcDbLine
 10
-190.3106
 20
-418.1222
 30
0.0
 11
-190.7887
 21
-419.9827
 31
0.0
  0
ARC
  5
503
100
AcDbEntity
  8
LEVEL_12
  6
CONTINUOUS
 62
         2
100
AcDbCircle
 10
-192.9819
 20
-424.5
 30
0.0
 40
1.0
100
AcDbArc
 50
270.0
 51
345.5871543191
  0
LINE
  5
504
100
AcDbEntity
  8
LEVEL_12
  6
CONTINUOUS
 62
         2
100
AcDbLine
 10
-192.9819
 20
-425.5
 30
0.0
 11
-194.9819
 21
-425.5
 31
0.0
  0
ARC
  5
505
100
AcDbEntity
  8
LEVEL_12
  6
CONTINUOUS
 62
         2
100
AcDbCircle
 10
-194.9819
 20
-424.5
 30
0.0
 40
1.0000685826
100
AcDbArc
 50
194.4114196464
 51
270.0
  0
LINE
  5
506
100
AcDbEntity
  8
LEVEL_12
  6
CONTINUOUS
 62
         2
100
AcDbLine
 10
-195.9505
 20
-424.7489
 30
0.0
 11
-196.4285
 21
-422.8883
 31
0.0
  0
ARC
  5
507
100
AcDbEntity
  8
LEVEL_12
  6
CONTINUOUS
 62
         2
100
AcDbCircle
 10
-195.2319
 20
-417.5
 30
0.0
 40
2.5
100
AcDbArc
 50
180.0
 51
194.4108801998
  0
LINE
  5
508
100
AcDbEntity
  8
LEVEL_12
  6
CONTINUOUS
 62
         2
100
AcDbLine
 10
-197.7319
 20
-417.5
 30
0.0
 11
-197.7319
 21
-402.2978
 31
0.0
  0
LINE
  5
509
100
AcDbEntity
  8
LEVEL_12
  6
HIDDEN2
 62
         5
100
AcDbLine
 10
-198.5755
 20
-398.4308
 30
0.0
 11
-198.7166
 21
-398.4085
 31
0.0
  0
LINE
  5
50A
100
AcDbEntity
  8
LEVEL_12
  6
HIDDEN2
 62
         5
100
AcDbLine
 10
-199.9819
 20
-396.9269
 30
0.0
 11
-199.9819
 21
-396.573
 31
0.0
  0
ARC
  5
50B
100
AcDbEntity
  8
LEVEL_12
  6
HIDDEN2
 62
         5
100
AcDbCircle
 10
-195.2319
 20
-417.5
 30
0.0
 40
2.5
100
AcDbArc
 50
90.0
 51
180.0
  0
ARC
  5
50C
100
AcDbEntity
  8
LEVEL_12
  6
HIDDEN2
 62
         5
100
AcDbCircle
 10
-192.7319
 20
-417.5
 30
0.0
 40
2.5
100
AcDbArc
 50
0.0
 51
90.0
  0
LINE
  5
50D
100
AcDbEntity
  8
LEVEL_12
  6
HIDDEN2
 62
         5
100
AcDbLine
 10
-192.7319
 20
-415.0
 30
0.0
 11
-192.9819
 21
-415.0
 31
0.0
  0
LINE
  5
50E
100
AcDbEntity
  8
LEVEL_12
  6
HIDDEN2
 62
         5
100
AcDbLine
 10
-189.2473
 20
-395.0915
 30
0.0
 11
-192.9819
 21
-394.5
 31
0.0
  0
LINE
  5
50F
100
AcDbEntity
  8
LEVEL_12
  6
HIDDEN2
 62
         5
100
AcDbLine
 10
-192.9819
 20
-394.5
 30
0.0
 11
-194.9819
 21
-394.5
 31
0.0
  0
LINE
  5
510
100
AcDbEntity
  8
LEVEL_12
  6
HIDDEN2
 62
         5
100
AcDbLine
 10
-194.9819
 20
-394.5
 30
0.0
 11
-198.7166
 21
-395.0915
 31
0.0
  0
LINE
  5
511
100
AcDbEntity
  8
LEVEL_12
  6
HIDDEN2
 62
         5
100
AcDbLine
 10
-194.9819
 20
-399.0
 30
0.0
 11
-192.9819
 21
-399.0
 31
0.0
  0
LINE
  5
512
100
AcDbEntity
  8
LEVEL_12
  6
HIDDEN2
 62
         5
100
AcDbLine
 10
-192.9819
 20
-399.0
 30
0.0
 11
-189.3884
 21
-398.4308
 31
0.0
  0
ARC
  5
513
100
AcDbEntity
  8
LEVEL_12
  6
HIDDEN2
 62
         5
100
AcDbCircle
 10
-189.4819
 20
-396.573
 30
0.0
 40
1.5
100
AcDbArc
 50
0.0
 51
81.0017561724
  0
ARC
  5
514
100
AcDbEntity
  8
LEVEL_12
  6
HIDDEN2
 62
         5
100
AcDbCircle
 10
-198.4819
 20
-396.573
 30
0.0
 40
1.4999754465
100
AcDbArc
 50
99.0020165992
 51
180.0
  0
ARC
  5
515
100
AcDbEntity
  8
LEVEL_12
  6
HIDDEN2
 62
         5
100
AcDbCircle
 10
-189.4819
 20
-396.9269
 30
0.0
 40
1.4999598028
100
AcDbArc
 50
278.9982438276
 51
329.9992722192
  0
ARC
  5
516
100
AcDbEntity
  8
LEVEL_12
  6
HIDDEN2
 62
         5
100
AcDbCircle
 10
-198.4819
 20
-396.9269
 30
0.0
 40
1.4999669996
100
AcDbArc
 50
210.0007277808
 51
260.9979834008
  0
LINE
  5
517
100
AcDbEntity
  8
LEVEL_12
  6
HIDDEN2
 62
         5
100
AcDbLine
 10
-198.5755
 20
-398.4308
 30
0.0
 11
-194.9819
 21
-399.0
 31
0.0
  0
LINE
  5
518
100
AcDbEntity
  8
LEVEL_12
  6
HIDDEN2
 62
         5
100
AcDbLine
 10
-187.9819
 20
-396.573
 30
0.0
 11
-187.9819
 21
-396.9269
 31
0.0
  0
LINE
  5
519
100
AcDbEntity
  8
LEVEL_12
  6
CONTINUOUS
 62
         2
100
AcDbLine
 10
-196.4285
 20
-422.8883
 30
0.0
 11
-197.1752
 21
-419.9827
 31
0.0
  0
LINE
  5
51A
100
AcDbEntity
  8
LEVEL_12
  6
CONTINUOUS
 62
         2
100
AcDbLine
 10
-197.1752
 20
-419.9827
 30
0.0
 11
-197.6533
 21
-418.1222
 31
0.0
  0
LINE
  5
51B
100
AcDbEntity
  8
LEVEL_12
  6
CONTINUOUS
 62
         2
100
AcDbLine
 10
-190.7887
 20
-419.9827
 30
0.0
 11
-191.5353
 21
-422.8883
 31
0.0
  0
LINE
  5
51C
100
AcDbEntity
  8
LEVEL_12
  6
CONTINUOUS
 62
         2
100
AcDbLine
 10
-191.5353
 20
-422.8883
 30
0.0
 11
-192.0134
 21
-424.7489
 31
0.0
  0
ARC
  5
51D
100
AcDbEntity
  8
LEVEL_12
  6
CONTINUOUS
 62
         2
100
AcDbCircle
 10
-193.9819
 20
-383.5
 30
0.0
 40
3.7
100
AcDbArc
 50
90.0
 51
150.0000465024
  0
ARC
  5
51E
100
AcDbEntity
  8
LEVEL_12
  6
CONTINUOUS
 62
         2
100
AcDbCircle
 10
-193.9819
 20
-383.5
 30
0.0
 40
3.7000052013
100
AcDbArc
 50
150.0000465024
 51
209.9999534976
  0
ARC
  5
51F
100
AcDbEntity
  8
LEVEL_12
  6
CONTINUOUS
 62
         2
100
AcDbCircle
 10
-193.9819
 20
-383.5
 30
0.0
 40
3.7000052013
100
AcDbArc
 50
209.9999534976
 51
330.0000465024
  0
ARC
  5
520
100
AcDbEntity
  8
LEVEL_12
  6
CONTINUOUS
 62
         2
100
AcDbCircle
 10
-193.9819
 20
-383.5
 30
0.0
 40
3.7000052013
100
AcDbArc
 50
330.0000465024
 51
29.9999534976
  0
ARC
  5
521
100
AcDbEntity
  8
LEVEL_12
  6
CONTINUOUS
 62
         2
100
AcDbCircle
 10
-193.9819
 20
-383.5
 30
0.0
 40
3.7000052013
100
AcDbArc
 50
29.9999534976
 51
90.0
  0
LINE
  5
522
100
AcDbEntity
  8
LEVEL_12
  6
CONTINUOUS
 62
         2
100
AcDbLine
 10
-189.696
 20
-400.2978
 30
0.0
 11
-188.1829
 21
-397.6769
 31
0.0
  0
LINE
  5
523
100
AcDbEntity
  8
LEVEL_12
  6
CONTINUOUS
 62
         2
100
AcDbLine
 10
-185.4819
 20
-391.9269
 30
0.0
 11
-185.4819
 21
-381.0941
 31
0.0
  0
LINE
  5
524
100
AcDbEntity
  8
LEVEL_12
  6
CONTINUOUS
 62
         2
100
AcDbLine
 10
-185.6412
 20
-380.5527
 30
0.0
 11
-186.8354
 21
-378.6981
 31
0.0
  0
ARC
  5
525
100
AcDbEntity
  8
LEVEL_12
  6
CONTINUOUS
 62
         2
100
AcDbCircle
 10
-193.9819
 20
-383.3
 30
0.0
 40
8.4999968153
100
AcDbArc
 50
32.7790076798
 51
147.2209923202
  0
LINE
  5
526
100
AcDbEntity
  8
LEVEL_12
  6
CONTINUOUS
 62
         2
100
AcDbLine
 10
-201.1284
 20
-378.6981
 30
0.0
 11
-202.3227
 21
-380.5527
 31
0.0
  0
LINE
  5
527
100
AcDbEntity
  8
LEVEL_12
  6
CONTINUOUS
 62
         2
100
AcDbLine
 10
-202.4819
 20
-381.0941
 30
0.0
 11
-202.4819
 21
-391.9269
 31
0.0
  0
LINE
  5
528
100
AcDbEntity
  8
LEVEL_12
  6
CONTINUOUS
 62
         2
100
AcDbLine
 10
-201.946
 20
-393.9269
 30
0.0
 11
-199.7809
 21
-397.6769
 31
0.0
  0
ARC
  5
529
100
AcDbEntity
  8
LEVEL_12
  6
CONTINUOUS
 62
         2
100
AcDbCircle
 10
-201.7319
 20
-402.2978
 30
0.0
 40
4.0
100
AcDbArc
 50
0.0
 51
30.0000115676
  0
ARC
  5
52A
100
AcDbEntity
  8
LEVEL_12
  6
CONTINUOUS
 62
         2
100
AcDbCircle
 10
-198.4819
 20
-391.9269
 30
0.0
 40
4.0
100
AcDbArc
 50
180.0
 51
210.0000115676
  0
ARC
  5
52B
100
AcDbEntity
  8
LEVEL_12
  6
CONTINUOUS
 62
         2
100
AcDbCircle
 10
-189.4819
 20
-391.9269
 30
0.0
 40
4.0000269124
100
AcDbArc
 50
337.6184625417
 51
360.0
  0
ARC
  5
52C
100
AcDbEntity
  8
LEVEL_12
  6
CONTINUOUS
 62
         2
100
AcDbCircle
 10
-186.2319
 20
-402.2978
 30
0.0
 40
3.9999986012
100
AcDbArc
 50
149.9999884324
 51
180.0
  0
ARC
  5
52D
100
AcDbEntity
  8
LEVEL_12
  6
CONTINUOUS
 62
         2
100
AcDbCircle
 10
-186.4819
 20
-381.0941
 30
0.0
 40
1.0
100
AcDbArc
 50
0.0
 51
32.7810149628
  0
ARC
  5
52E
100
AcDbEntity
  8
LEVEL_12
  6
CONTINUOUS
 62
         2
100
AcDbCircle
 10
-201.4819
 20
-381.0941
 30
0.0
 40
1.0000292996
100
AcDbArc
 50
147.2220871098
 51
180.0
  0
LINE
  5
52F
100
AcDbEntity
  8
LEVEL_12
  6
CONTINUOUS
 62
         2
100
AcDbLine
 10
-188.1829
 20
-397.6769
 30
0.0
 11
-186.0178
 21
-393.9269
 31
0.0
  0
ARC
  5
530
100
AcDbEntity
  8
LEVEL_12
  6
HIDDEN2
 62
         5
100
AcDbCircle
 10
-189.4819
 20
-396.9269
 30
0.0
 40
1.4999669996
100
AcDbArc
 50
329.9992722192
 51
360.0
  0
LINE
  5
531
100
AcDbEntity
  8
LEVEL_12
  6
CONTINUOUS
 62
         2
100
AcDbLine
 10
-199.7809
 20
-397.6769
 30
0.0
 11
-198.2678
 21
-400.2978
 31
0.0
  0
ARC
  5
532
100
AcDbEntity
  8
LEVEL_12
  6
HIDDEN2
 62
         5
100
AcDbCircle
 10
-198.4819
 20
-396.9269
 30
0.0
 40
1.5
100
AcDbArc
 50
180.0
 51
210.0007277808
  0
LINE
  5
533
100
AcDbEntity
  8
LEVEL_12
  6
CONTINUOUS
 62
         2
100
AcDbLine
 10
-182.9819
 20
-413.5
 30
0.0
 11
-182.9819
 21
-398.5
 31
0.0
  0
LINE
  5
534
100
AcDbEntity
  8
LEVEL_12
  6
CONTINUOUS
 62
         2
100
AcDbLine
 10
-182.9819
 20
-393.45
 30
0.0
 11
-185.7832
 21
-393.45
 31
0.0
  0
LINE
  5
535
100
AcDbEntity
  8
LEVEL_12
  6
CONTINUOUS
 62
         2
100
AcDbLine
 10
-192.9819
 20
-433.55
 30
0.0
 11
-182.9819
 21
-433.55
 31
0.0
  0
LINE
  5
536
100
AcDbEntity
  8
LEVEL_12
  6
CONTINUOUS
 62
         2
100
AcDbLine
 10
-182.9819
 20
-433.55
 30
0.0
 11
-182.9819
 21
-428.5
 31
0.0
  0
LINE
  5
537
100
AcDbEntity
  8
LEVEL_12
  6
HIDDEN2
 62
         5
100
AcDbLine
 10
-192.9819
 20
-415.0
 30
0.0
 11
-195.2319
 21
-415.0
 31
0.0
  0
ARC
  5
538
100
AcDbEntity
  8
LEVEL_12
  6
CONTINUOUS
 62
         2
100
AcDbCircle
 10
-189.4819
 20
-391.9269
 30
0.0
 40
3.9999986012
100
AcDbArc
 50
329.9999884324
 51
337.6184625417
  0
LINE
  5
539
100
AcDbEntity
  8
LEVEL_12
  6
CONTINUOUS
 62
         2
100
AcDbLine
 10
-182.9819
 20
-428.5
 30
0.0
 11
-124.9819
 21
-428.5
 31
0.0
  0
LINE
  5
53A
100
AcDbEntity
  8
LEVEL_12
  6
CONTINUOUS
 62
         2
100
AcDbLine
 10
-124.9819
 20
-428.5
 30
0.0
 11
-122.9819
 21
-426.5
 31
0.0
  0
LINE
  5
53B
100
AcDbEntity
  8
LEVEL_12
  6
CONTINUOUS
 62
         2
100
AcDbLine
 10
-122.9819
 20
-426.5
 30
0.0
 11
-122.9819
 21
-400.5
 31
0.0
  0
LINE
  5
53C
100
AcDbEntity
  8
LEVEL_12
  6
CONTINUOUS
 62
         2
100
AcDbLine
 10
-122.9819
 20
-400.5
 30
0.0
 11
-124.9819
 21
-398.5
 31
0.0
  0
LINE
  5
53D
100
AcDbEntity
  8
LEVEL_12
  6
CONTINUOUS
 62
         2
100
AcDbLine
 10
-124.9819
 20
-398.5
 30
0.0
 11
-182.9819
 21
-398.5
 31
0.0
  0
LINE
  5
53E
100
AcDbEntity
  8
LEVEL_12
  6
CONTINUOUS
 62
         2
100
AcDbLine
 10
-124.9819
 20
-428.5
 30
0.0
 11
-124.9819
 21
-398.5
 31
0.0
  0
LINE
  5
53F
100
AcDbEntity
  8
LEVEL_12
  6
CONTINUOUS
 62
         2
100
AcDbLine
 10
-182.9819
 20
-398.5
 30
0.0
 11
-182.9819
 21
-393.45
 31
0.0
  0
LINE
  5
540
100
AcDbEntity
  8
LEVEL_12
  6
CONTINUOUS
 62
         2
100
AcDbLine
 10
-182.9819
 20
-428.5
 30
0.0
 11
-182.9819
 21
-413.5
 31
0.0
  0
LINE
  5
541
100
AcDbEntity
  8
LEVEL_12
  6
CENTER2
 62
         3
100
AcDbLine
 10
-193.9819
 20
-427.05
 30
0.0
 11
-193.9819
 21
-405.45
 31
0.0
  0
LINE
  5
542
100
AcDbEntity
  8
LEVEL_12
  6
CENTER2
 62
         3
100
AcDbLine
 10
-193.9819
 20
-403.2
 30
0.0
 11
-193.9819
 21
-373.8
 31
0.0
  0
LINE
  5
543
100
AcDbEntity
  8
LEVEL_12
  6
CENTER2
 62
         3
100
AcDbLine
 10
-182.3819
 20
-383.5
 30
0.0
 11
-205.5819
 21
-383.5
 31
0.0
  0
LINE
  5
544
100
AcDbEntity
  8
LEVEL_12
  6
CENTER2
 62
         3
100
AcDbLine
 10
-187.4819
 20
-413.5
 30
0.0
 11
-118.4819
 21
-413.5
 31
0.0
  0
LINE
  5
545
100
AcDbEntity
  8
LEVEL_12
  6
CONTINUOUS
 62
         2
100
AcDbLine
 10
-192.9819
 20
-425.5
 30
0.0
 11
-192.9819
 21
-433.55
 31
0.0
  0
LINE
  5
546
100
AcDbEntity
  8
LEVEL_12
  6
CENTER2
 62
         3
100
AcDbLine
 10
-180.3319
 20
-407.0
 30
0.0
 11
-200.3819
 21
-407.0
 31
0.0
  0
LINE
  5
547
100
AcDbEntity
  8
LEVEL_12
  6
CONTINUOUS
 62
         2
100
AcDbLine
 10
-167.7143
 20
-410.0
 30
0.0
 11
-167.7143
 21
-406.0
 31
0.0
  0
LINE
  5
548
100
AcDbEntity
  8
LEVEL_12
  6
CONTINUOUS
 62
         2
100
AcDbLine
 10
-167.7143
 20
-406.0
 30
0.0
 11
-166.5714
 21
-406.0
 31
0.0
  0
LINE
  5
549
100
AcDbEntity
  8
LEVEL_12
  6
CONTINUOUS
 62
         2
100
AcDbLine
 10
-167.7143
 20
-408.0
 30
0.0
 11
-166.5714
 21
-408.0
 31
0.0
  0
ARC
  5
54A
100
AcDbEntity
  8
LEVEL_12
  6
CONTINUOUS
 62
         2
100
AcDbCircle
 10
-166.5714
 20
-406.8571
 30
0.0
 40
0.8571
100
AcDbArc
 50
0.0
 51
90.0
  0
ARC
  5
54B
100
AcDbEntity
  8
LEVEL_12
  6
CONTINUOUS
 62
         2
100
AcDbCircle
 10
-166.5714
 20
-407.1429
 30
0.0
 40
0.8571
100
AcDbArc
 50
270.0
 51
360.0
  0
LINE
  5
54C
100
AcDbEntity
  8
LEVEL_12
  6
CONTINUOUS
 62
         2
100
AcDbLine
 10
-165.7143
 20
-407.1429
 30
0.0
 11
-165.7143
 21
-406.8571
 31
0.0
  0
LINE
  5
54D
100
AcDbEntity
  8
LEVEL_12
  6
CONTINUOUS
 62
         2
100
AcDbLine
 10
-166.5714
 20
-408.0
 30
0.0
 11
-165.7143
 21
-410.0
 31
0.0
  0
ARC
  5
54E
100
AcDbEntity
  8
LEVEL_12
  6
CONTINUOUS
 62
         2
100
AcDbCircle
 10
-164.2857
 20
-409.1429
 30
0.0
 40
0.8572
100
AcDbArc
 50
180.0
 51
270.0
  0
LINE
  5
54F
100
AcDbEntity
  8
LEVEL_12
  6
CONTINUOUS
 62
         2
100
AcDbLine
 10
-164.2857
 20
-410.0
 30
0.0
 11
-164.0
 21
-410.0
 31
0.0
  0
ARC
  5
550
100
AcDbEntity
  8
LEVEL_12
  6
CONTINUOUS
 62
         2
100
AcDbCircle
 10
-164.0
 20
-409.1429
 30
0.0
 40
0.8571
100
AcDbArc
 50
270.0
 51
360.0
  0
LINE
  5
551
100
AcDbEntity
  8
LEVEL_12
  6
CONTINUOUS
 62
         2
100
AcDbLine
 10
-165.1429
 20
-409.1429
 30
0.0
 11
-165.1429
 21
-406.0
 31
0.0
  0
LINE
  5
552
100
AcDbEntity
  8
LEVEL_12
  6
CONTINUOUS
 62
         2
100
AcDbLine
 10
-163.1429
 20
-409.1429
 30
0.0
 11
-163.1429
 21
-406.0
 31
0.0
  0
LINE
  5
553
100
AcDbEntity
  8
LEVEL_12
  6
CONTINUOUS
 62
         2
100
AcDbLine
 10
-162.5714
 20
-410.0
 30
0.0
 11
-162.5714
 21
-406.0
 31
0.0
  0
LINE
  5
554
100
AcDbEntity
  8
LEVEL_12
  6
CONTINUOUS
 62
         2
100
AcDbLine
 10
-162.5714
 20
-410.0
 30
0.0
 11
-161.4286
 21
-410.0
 31
0.0
  0
LINE
  5
555
100
AcDbEntity
  8
LEVEL_12
  6
CONTINUOUS
 62
         2
100
AcDbLine
 10
-162.5714
 20
-406.0
 30
0.0
 11
-161.4286
 21
-406.0
 31
0.0
  0
ARC
  5
556
100
AcDbEntity
  8
LEVEL_12
  6
CONTINUOUS
 62
         2
100
AcDbCircle
 10
-161.4286
 20
-406.8571
 30
0.0
 40
0.8572
100
AcDbArc
 50
0.0
 51
90.0
  0
ARC
  5
557
100
AcDbEntity
  8
LEVEL_12
  6
CONTINUOUS
 62
         2
100
AcDbCircle
 10
-161.4286
 20
-409.1429
 30
0.0
 40
0.8571
100
AcDbArc
 50
270.0
 51
360.0
  0
LINE
  5
558
100
AcDbEntity
  8
LEVEL_12
  6
CONTINUOUS
 62
         2
100
AcDbLine
 10
-160.5714
 20
-409.1429
 30
0.0
 11
-160.5714
 21
-406.8571
 31
0.0
  0
LINE
  5
559
100
AcDbEntity
  8
LEVEL_12
  6
CONTINUOUS
 62
         2
100
AcDbLine
 10
-154.0
 20
-406.0
 30
0.0
 11
-153.0
 21
-410.0
 31
0.0
  0
LINE
  5
55A
100
AcDbEntity
  8
LEVEL_12
  6
CONTINUOUS
 62
         2
100
AcDbLine
 10
-153.0
 20
-410.0
 30
0.0
 11
-152.0
 21
-406.0
 31
0.0
  0
LINE
  5
55B
100
AcDbEntity
  8
LEVEL_12
  6
CONTINUOUS
 62
         2
100
AcDbLine
 10
-151.4286
 20
-410.0
 30
0.0
 11
-151.4286
 21
-406.0
 31
0.0
  0
LINE
  5
55C
100
AcDbEntity
  8
LEVEL_12
  6
CONTINUOUS
 62
         2
100
AcDbLine
 10
-151.4286
 20
-410.0
 30
0.0
 11
-149.7143
 21
-410.0
 31
0.0
  0
LINE
  5
55D
100
AcDbEntity
  8
LEVEL_12
  6
CONTINUOUS
 62
         2
100
AcDbLine
 10
-151.4286
 20
-406.0
 30
0.0
 11
-149.7143
 21
-406.0
 31
0.0
  0
LINE
  5
55E
100
AcDbEntity
  8
LEVEL_12
  6
CONTINUOUS
 62
         2
100
AcDbLine
 10
-151.4286
 20
-408.0
 30
0.0
 11
-150.0
 21
-408.0
 31
0.0
  0
LINE
  5
55F
100
AcDbEntity
  8
LEVEL_12
  6
CONTINUOUS
 62
         2
100
AcDbLine
 10
-149.1429
 20
-410.0
 30
0.0
 11
-149.1429
 21
-406.0
 31
0.0
  0
LINE
  5
560
100
AcDbEntity
  8
LEVEL_12
  6
CONTINUOUS
 62
         2
100
AcDbLine
 10
-149.1429
 20
-406.0
 30
0.0
 11
-148.0
 21
-406.0
 31
0.0
  0
LINE
  5
561
100
AcDbEntity
  8
LEVEL_12
  6
CONTINUOUS
 62
         2
100
AcDbLine
 10
-149.1429
 20
-408.0
 30
0.0
 11
-148.0
 21
-408.0
 31
0.0
  0
ARC
  5
562
100
AcDbEntity
  8
LEVEL_12
  6
CONTINUOUS
 62
         2
100
AcDbCircle
 10
-148.0
 20
-406.8571
 30
0.0
 40
0.8571
100
AcDbArc
 50
0.0
 51
90.0
  0
ARC
  5
563
100
AcDbEntity
  8
LEVEL_12
  6
CONTINUOUS
 62
         2
100
AcDbCircle
 10
-148.0
 20
-407.1429
 30
0.0
 40
0.8571
100
AcDbArc
 50
270.0
 51
360.0
  0
LINE
  5
564
100
AcDbEntity
  8
LEVEL_12
  6
CONTINUOUS
 62
         2
100
AcDbLine
 10
-147.1429
 20
-407.1429
 30
0.0
 11
-147.1429
 21
-406.8571
 31
0.0
  0
LINE
  5
565
100
AcDbEntity
  8
LEVEL_12
  6
CONTINUOUS
 62
         2
100
AcDbLine
 10
-148.0
 20
-408.0
 30
0.0
 11
-147.1429
 21
-410.0
 31
0.0
  0
ARC
  5
566
100
AcDbEntity
  8
LEVEL_12
  6
CONTINUOUS
 62
         2
100
AcDbCircle
 10
-145.7143
 20
-409.1429
 30
0.0
 40
0.8571
100
AcDbArc
 50
180.0
 51
270.0
  0
LINE
  5
567
100
AcDbEntity
  8
LEVEL_12
  6
CONTINUOUS
 62
         2
100
AcDbLine
 10
-145.7143
 20
-410.0
 30
0.0
 11
-145.4286
 21
-410.0
 31
0.0
  0
ARC
  5
568
100
AcDbEntity
  8
LEVEL_12
  6
CONTINUOUS
 62
         2
100
AcDbCircle
 10
-145.4286
 20
-409.1429
 30
0.0
 40
0.8571
100
AcDbArc
 50
270.0
 51
360.0
  0
LINE
  5
569
100
AcDbEntity
  8
LEVEL_12
  6
CONTINUOUS
 62
         2
100
AcDbLine
 10
-144.5714
 20
-409.1429
 30
0.0
 11
-144.5714
 21
-408.0
 31
0.0
  0
LINE
  5
56A
100
AcDbEntity
  8
LEVEL_12
  6
CONTINUOUS
 62
         2
100
AcDbLine
 10
-144.5714
 20
-408.0
 30
0.0
 11
-145.5714
 21
-408.0
 31
0.0
  0
LINE
  5
56B
100
AcDbEntity
  8
LEVEL_12
  6
CONTINUOUS
 62
         2
100
AcDbLine
 10
-146.5714
 20
-409.1429
 30
0.0
 11
-146.5714
 21
-406.8571
 31
0.0
  0
ARC
  5
56C
100
AcDbEntity
  8
LEVEL_12
  6
CONTINUOUS
 62
         2
100
AcDbCircle
 10
-145.7143
 20
-406.8571
 30
0.0
 40
0.8571
100
AcDbArc
 50
90.0
 51
180.0
  0
LINE
  5
56D
100
AcDbEntity
  8
LEVEL_12
  6
CONTINUOUS
 62
         2
100
AcDbLine
 10
-145.7143
 20
-406.0
 30
0.0
 11
-145.4286
 21
-406.0
 31
0.0
  0
ARC
  5
56E
100
AcDbEntity
  8
LEVEL_12
  6
CONTINUOUS
 62
         2
100
AcDbCircle
 10
-145.4286
 20
-406.8571
 30
0.0
 40
0.8572
100
AcDbArc
 50
0.0
 51
90.0
  0
LINE
  5
56F
100
AcDbEntity
  8
LEVEL_12
  6
CONTINUOUS
 62
         2
100
AcDbLine
 10
-144.5714
 20
-406.8571
 30
0.0
 11
-144.5714
 21
-407.1429
 31
0.0
  0
ARC
  5
570
100
AcDbEntity
  8
LEVEL_12
  6
CONTINUOUS
 62
         2
100
AcDbCircle
 10
-141.1429
 20
-409.1429
 30
0.0
 40
0.8571
100
AcDbArc
 50
180.0
 51
360.0
  0
LINE
  5
571
100
AcDbEntity
  8
LEVEL_12
  6
CONTINUOUS
 62
         2
100
AcDbLine
 10
-140.2857
 20
-409.1429
 30
0.0
 11
-140.2857
 21
-408.5714
 31
0.0
  0
ARC
  5
572
100
AcDbEntity
  8
LEVEL_12
  6
CONTINUOUS
 62
         2
100
AcDbCircle
 10
-141.1429
 20
-408.5714
 30
0.0
 40
0.8572
100
AcDbArc
 50
0.0
 51
180.0
  0
LINE
  5
573
100
AcDbEntity
  8
LEVEL_12
  6
CONTINUOUS
 62
         2
100
AcDbLine
 10
-142.0
 20
-409.1429
 30
0.0
 11
-142.0
 21
-408.5714
 31
0.0
  0
LINE
  5
574
100
AcDbEntity
  8
LEVEL_12
  6
CONTINUOUS
 62
         2
100
AcDbLine
 10
-141.9154
 20
-408.2
 30
0.0
 11
-140.8571
 21
-406.0
 31
0.0
  0
LINE
  5
575
100
AcDbEntity
  8
LEVEL_12
  6
CONTINUOUS
 62
         2
100
AcDbLine
 10
-163.8571
 20
-423.0
 30
0.0
 11
-163.8571
 21
-419.0
 31
0.0
  0
LINE
  5
576
100
AcDbEntity
  8
LEVEL_12
  6
CONTINUOUS
 62
         2
100
AcDbLine
 10
-163.8571
 20
-423.0
 30
0.0
 11
-162.7143
 21
-423.0
 31
0.0
  0
LINE
  5
577
100
AcDbEntity
  8
LEVEL_12
  6
CONTINUOUS
 62
         2
100
AcDbLine
 10
-163.8571
 20
-419.0
 30
0.0
 11
-162.7143
 21
-419.0
 31
0.0
  0
ARC
  5
578
100
AcDbEntity
  8
LEVEL_12
  6
CONTINUOUS
 62
         2
100
AcDbCircle
 10
-162.7143
 20
-419.8571
 30
0.0
 40
0.8572
100
AcDbArc
 50
0.0
 51
90.0
  0
ARC
  5
579
100
AcDbEntity
  8
LEVEL_12
  6
CONTINUOUS
 62
         2
100
AcDbCircle
 10
-162.7143
 20
-422.1429
 30
0.0
 40
0.8571
100
AcDbArc
 50
270.0
 51
360.0
  0
LINE
  5
57A
100
AcDbEntity
  8
LEVEL_12
  6
CONTINUOUS
 62
         2
100
AcDbLine
 10
-161.8571
 20
-422.1429
 30
0.0
 11
-161.8571
 21
-419.8571
 31
0.0
  0
LINE
  5
57B
100
AcDbEntity
  8
LEVEL_12
  6
CONTINUOUS
 62
         2
100
AcDbLine
 10
-161.2857
 20
-422.0
 30
0.0
 11
-159.5714
 21
-422.0
 31
0.0
  0
LINE
  5
57C
100
AcDbEntity
  8
LEVEL_12
  6
CONTINUOUS
 62
         2
100
AcDbLine
 10
-161.2857
 20
-421.1429
 30
0.0
 11
-159.5714
 21
-421.1429
 31
0.0
  0
LINE
  5
57D
100
AcDbEntity
  8
LEVEL_12
  6
CONTINUOUS
 62
         2
100
AcDbLine
 10
-159.0
 20
-420.1429
 30
0.0
 11
-159.0
 21
-419.8571
 31
0.0
  0
ARC
  5
57E
100
AcDbEntity
  8
LEVEL_12
  6
CONTINUOUS
 62
         2
100
AcDbCircle
 10
-158.1429
 20
-419.8571
 30
0.0
 40
0.8572
100
AcDbArc
 50
0.0
 51
180.0
  0
LINE
  5
57F
100
AcDbEntity
  8
LEVEL_12
  6
CONTINUOUS
 62
         2
100
AcDbLine
 10
-157.2857
 20
-419.8571
 30
0.0
 11
-157.2857
 21
-420.2857
 31
0.0
  0
ARC
  5
580
100
AcDbEntity
  8
LEVEL_12
  6
CONTINUOUS
 62
         2
100
AcDbCircle
 10
-157.8571
 20
-420.2857
 30
0.0
 40
0.5714
100
AcDbArc
 50
270.0
 51
360.0
  0
LINE
  5
581
100
AcDbEntity
  8
LEVEL_12
  6
CONTINUOUS
 62
         2
100
AcDbLine
 10
-158.4286
 20
-420.8571
 30
0.0
 11
-157.8571
 21
-420.8571
 31
0.0
  0
ARC
  5
582
100
AcDbEntity
  8
LEVEL_12
  6
CONTINUOUS
 62
         2
100
AcDbCircle
 10
-157.8571
 20
-421.4286
 30
0.0
 40
0.5714
100
AcDbArc
 50
0.0
 51
90.0
  0
LINE
  5
583
100
AcDbEntity
  8
LEVEL_12
  6
CONTINUOUS
 62
         2
100
AcDbLine
 10
-157.2857
 20
-421.4286
 30
0.0
 11
-157.2857
 21
-422.1429
 31
0.0
  0
ARC
  5
584
100
AcDbEntity
  8
LEVEL_12
  6
CONTINUOUS
 62
         2
100
AcDbCircle
 10
-158.1429
 20
-422.1429
 30
0.0
 40
0.8571
100
AcDbArc
 50
180.0
 51
360.0
  0
LINE
  5
585
100
AcDbEntity
  8
LEVEL_12
  6
CONTINUOUS
 62
         2
100
AcDbLine
 10
-159.0
 20
-422.1429
 30
0.0
 11
-159.0
 21
-421.8571
 31
0.0
  0
ARC
  5
586
100
AcDbEntity
  8
LEVEL_12
  6
CONTINUOUS
 62
         2
100
AcDbCircle
 10
-155.8571
 20
-422.1429
 30
0.0
 40
0.8572
100
AcDbArc
 50
180.0
 51
360.0
  0
LINE
  5
587
100
AcDbEntity
  8
LEVEL_12
  6
CONTINUOUS
 62
         2
100
AcDbLine
 10
-156.7143
 20
-422.1429
 30
0.0
 11
-156.7143
 21
-419.8571
 31
0.0
  0
LINE
  5
588
100
AcDbEntity
  8
LEVEL_12
  6
CONTINUOUS
 62
         2
100
AcDbLine
 10
-155.0
 20
-422.1429
 30
0.0
 11
-155.0
 21
-419.8571
 31
0.0
  0
ARC
  5
589
100
AcDbEntity
  8
LEVEL_12
  6
CONTINUOUS
 62
         2
100
AcDbCircle
 10
-155.8571
 20
-419.8571
 30
0.0
 40
0.8571
100
AcDbArc
 50
0.0
 51
180.0
  0
LINE
  5
58A
100
AcDbEntity
  8
LEVEL_12
  6
CONTINUOUS
 62
         2
100
AcDbLine
 10
-154.4286
 20
-421.5714
 30
0.0
 11
-152.7143
 21
-421.5714
 31
0.0
  0
LINE
  5
58B
100
AcDbEntity
  8
LEVEL_12
  6
CONTINUOUS
 62
         2
100
AcDbLine
 10
-152.1429
 20
-420.1429
 30
0.0
 11
-152.1429
 21
-419.8571
 31
0.0
  0
ARC
  5
58C
100
AcDbEntity
  8
LEVEL_12
  6
CONTINUOUS
 62
         2
100
AcDbCircle
 10
-151.2857
 20
-419.8571
 30
0.0
 40
0.8571
100
AcDbArc
 50
0.0
 51
180.0
  0
LINE
  5
58D
100
AcDbEntity
  8
LEVEL_12
  6
CONTINUOUS
 62
         2
100
AcDbLine
 10
-150.4286
 20
-419.8571
 30
0.0
 11
-150.4286
 21
-420.2857
 31
0.0
  0
ARC
  5
58E
100
AcDbEntity
  8
LEVEL_12
  6
CONTINUOUS
 62
         2
100
AcDbCircle
 10
-151.0
 20
-420.2857
 30
0.0
 40
0.5714
100
AcDbArc
 50
270.0
 51
360.0
  0
LINE
  5
58F
100
AcDbEntity
  8
LEVEL_12
  6
CONTINUOUS
 62
         2
100
AcDbLine
 10
-151.5714
 20
-420.8571
 30
0.0
 11
-151.0
 21
-420.8571
 31
0.0
  0
ARC
  5
590
100
AcDbEntity
  8
LEVEL_12
  6
CONTINUOUS
 62
         2
100
AcDbCircle
 10
-151.0
 20
-421.4286
 30
0.0
 40
0.5714
100
AcDbArc
 50
0.0
 51
90.0
  0
LINE
  5
591
100
AcDbEntity
  8
LEVEL_12
  6
CONTINUOUS
 62
         2
100
AcDbLine
 10
-150.4286
 20
-421.4286
 30
0.0
 11
-150.4286
 21
-422.1429
 31
0.0
  0
ARC
  5
592
100
AcDbEntity
  8
LEVEL_12
  6
CONTINUOUS
 62
         2
100
AcDbCircle
 10
-151.2857
 20
-422.1429
 30
0.0
 40
0.8572
100
AcDbArc
 50
180.0
 51
360.0
  0
LINE
  5
593
100
AcDbEntity
  8
LEVEL_12
  6
CONTINUOUS
 62
         2
100
AcDbLine
 10
-152.1429
 20
-422.1429
 30
0.0
 11
-152.1429
 21
-421.8571
 31
0.0
  0
ARC
  5
594
100
AcDbEntity
  8
LEVEL_12
  6
CONTINUOUS
 62
         2
100
AcDbCircle
 10
-149.0
 20
-419.8571
 30
0.0
 40
0.8571
100
AcDbArc
 50
0.0
 51
180.0
  0
LINE
  5
595
100
AcDbEntity
  8
LEVEL_12
  6
CONTINUOUS
 62
         2
100
AcDbLine
 10
-149.8571
 20
-419.8571
 30
0.0
 11
-149.8571
 21
-420.2857
 31
0.0
  0
LINE
  5
596
100
AcDbEntity
  8
LEVEL_12
  6
CONTINUOUS
 62
         2
100
AcDbLine
 10
-148.1429
 20
-419.8571
 30
0.0
 11
-148.1429
 21
-420.2857
 31
0.0
  0
ARC
  5
597
100
AcDbEntity
  8
LEVEL_12
  6
CONTINUOUS
 62
         2
100
AcDbCircle
 10
-149.2857
 20
-420.2857
 30
0.0
 40
0.5714
100
AcDbArc
 50
180.0
 51
270.0
  0
ARC
  5
598
100
AcDbEntity
  8
LEVEL_12
  6
CONTINUOUS
 62
         2
100
AcDbCircle
 10
-148.7143
 20
-420.2857
 30
0.0
 40
0.5714
100
AcDbArc
 50
270.0
 51
360.0
  0
LINE
  5
599
100
AcDbEntity
  8
LEVEL_12
  6
CONTINUOUS
 62
         2
100
AcDbLine
 10
-149.2857
 20
-420.8571
 30
0.0
 11
-148.7143
 21
-420.8571
 31
0.0
  0
ARC
  5
59A
100
AcDbEntity
  8
LEVEL_12
  6
CONTINUOUS
 62
         2
100
AcDbCircle
 10
-149.2857
 20
-421.4286
 30
0.0
 40
0.5715
100
AcDbArc
 50
90.0
 51
180.0
  0
ARC
  5
59B
100
AcDbEntity
  8
LEVEL_12
  6
CONTINUOUS
 62
         2
100
AcDbCircle
 10
-148.7143
 20
-421.4286
 30
0.0
 40
0.5714
100
AcDbArc
 50
0.0
 51
90.0
  0
LINE
  5
59C
100
AcDbEntity
  8
LEVEL_12
  6
CONTINUOUS
 62
         2
100
AcDbLine
 10
-149.8571
 20
-421.4286
 30
0.0
 11
-149.8571
 21
-422.1429
 31
0.0
  0
LINE
  5
59D
100
AcDbEntity
  8
LEVEL_12
  6
CONTINUOUS
 62
         2
100
AcDbLine
 10
-148.1429
 20
-421.4286
 30
0.0
 11
-148.1429
 21
-422.1429
 31
0.0
  0
ARC
  5
59E
100
AcDbEntity
  8
LEVEL_12
  6
CONTINUOUS
 62
         2
100
AcDbCircle
 10
-149.0
 20
-422.1429
 30
0.0
 40
0.8571
100
AcDbArc
 50
180.0
 51
360.0
  0
LINE
  5
59F
100
AcDbEntity
  8
LEVEL_13
  6
HIDDEN2
 62
         5
100
AcDbLine
 10
-189.2473
 20
-278.4085
 30
0.0
 11
-189.3884
 21
-278.4308
 31
0.0
  0
LINE
  5
5A0
100
AcDbEntity
  8
LEVEL_13
  6
CONTINUOUS
 62
         2
100
AcDbLine
 10
-190.2319
 20
-282.2978
 30
0.0
 11
-190.2319
 21
-297.5
 31
0.0
  0
ARC
  5
5A1
100
AcDbEntity
  8
LEVEL_13
  6
CONTINUOUS
 62
         2
100
AcDbCircle
 10
-192.7319
 20
-297.5
 30
0.0
 40
2.4999653058
100
AcDbArc
 50
345.5885494156
 51
360.0
  0
LINE
  5
5A2
100
AcDbEntity
  8
LEVEL_13
  6
CONTINUOUS
 62
         2
100
AcDbLine
 10
-190.3106
 20
-298.1222
 30
0.0
 11
-190.7887
 21
-299.9827
 31
0.0
  0
ARC
  5
5A3
100
AcDbEntity
  8
LEVEL_13
  6
CONTINUOUS
 62
         2
100
AcDbCircle
 10
-192.9819
 20
-304.5
 30
0.0
 40
1.0
100
AcDbArc
 50
270.0
 51
345.5871543191
  0
LINE
  5
5A4
100
AcDbEntity
  8
LEVEL_13
  6
CONTINUOUS
 62
         2
100
AcDbLine
 10
-192.9819
 20
-305.5
 30
0.0
 11
-194.9819
 21
-305.5
 31
0.0
  0
ARC
  5
5A5
100
AcDbEntity
  8
LEVEL_13
  6
CONTINUOUS
 62
         2
100
AcDbCircle
 10
-194.9819
 20
-304.5
 30
0.0
 40
1.0000685826
100
AcDbArc
 50
194.4114196464
 51
270.0
  0
LINE
  5
5A6
100
AcDbEntity
  8
LEVEL_13
  6
CONTINUOUS
 62
         2
100
AcDbLine
 10
-195.9505
 20
-304.7489
 30
0.0
 11
-196.4285
 21
-302.8883
 31
0.0
  0
ARC
  5
5A7
100
AcDbEntity
  8
LEVEL_13
  6
CONTINUOUS
 62
         2
100
AcDbCircle
 10
-195.2319
 20
-297.5
 30
0.0
 40
2.5
100
AcDbArc
 50
180.0
 51
194.4108801998
  0
LINE
  5
5A8
100
AcDbEntity
  8
LEVEL_13
  6
CONTINUOUS
 62
         2
100
AcDbLine
 10
-197.7319
 20
-297.5
 30
0.0
 11
-197.7319
 21
-282.2978
 31
0.0
  0
LINE
  5
5A9
100
AcDbEntity
  8
LEVEL_13
  6
HIDDEN2
 62
         5
100
AcDbLine
 10
-198.5755
 20
-278.4308
 30
0.0
 11
-198.7166
 21
-278.4085
 31
0.0
  0
LINE
  5
5AA
100
AcDbEntity
  8
LEVEL_13
  6
HIDDEN2
 62
         5
100
AcDbLine
 10
-199.9819
 20
-276.927
 30
0.0
 11
-199.9819
 21
-276.573
 31
0.0
  0
ARC
  5
5AB
100
AcDbEntity
  8
LEVEL_13
  6
HIDDEN2
 62
         5
100
AcDbCircle
 10
-195.2319
 20
-297.5
 30
0.0
 40
2.5
100
AcDbArc
 50
90.0
 51
180.0
  0
ARC
  5
5AC
100
AcDbEntity
  8
LEVEL_13
  6
HIDDEN2
 62
         5
100
AcDbCircle
 10
-192.7319
 20
-297.5
 30
0.0
 40
2.5
100
AcDbArc
 50
0.0
 51
90.0
  0
LINE
  5
5AD
100
AcDbEntity
  8
LEVEL_13
  6
HIDDEN2
 62
         5
100
AcDbLine
 10
-192.7319
 20
-295.0
 30
0.0
 11
-192.9819
 21
-295.0
 31
0.0
  0
LINE
  5
5AE
100
AcDbEntity
  8
LEVEL_13
  6
HIDDEN2
 62
         5
100
AcDbLine
 10
-189.2473
 20
-275.0915
 30
0.0
 11
-192.9819
 21
-274.5
 31
0.0
  0
LINE
  5
5AF
100
AcDbEntity
  8
LEVEL_13
  6
HIDDEN2
 62
         5
100
AcDbLine
 10
-192.9819
 20
-274.5
 30
0.0
 11
-194.9819
 21
-274.5
 31
0.0
  0
LINE
  5
5B0
100
AcDbEntity
  8
LEVEL_13
  6
HIDDEN2
 62
         5
100
AcDbLine
 10
-194.9819
 20
-274.5
 30
0.0
 11
-198.7166
 21
-275.0915
 31
0.0
  0
LINE
  5
5B1
100
AcDbEntity
  8
LEVEL_13
  6
HIDDEN2
 62
         5
100
AcDbLine
 10
-194.9819
 20
-279.0
 30
0.0
 11
-192.9819
 21
-279.0
 31
0.0
  0
LINE
  5
5B2
100
AcDbEntity
  8
LEVEL_13
  6
HIDDEN2
 62
         5
100
AcDbLine
 10
-192.9819
 20
-279.0
 30
0.0
 11
-189.3884
 21
-278.4308
 31
0.0
  0
ARC
  5
5B3
100
AcDbEntity
  8
LEVEL_13
  6
HIDDEN2
 62
         5
100
AcDbCircle
 10
-189.4819
 20
-276.573
 30
0.0
 40
1.5
100
AcDbArc
 50
0.0
 51
81.0017561724
  0
ARC
  5
5B4
100
AcDbEntity
  8
LEVEL_13
  6
HIDDEN2
 62
         5
100
AcDbCircle
 10
-198.4819
 20
-276.573
 30
0.0
 40
1.4999754465
100
AcDbArc
 50
99.0020165992
 51
180.0
  0
ARC
  5
5B5
100
AcDbEntity
  8
LEVEL_13
  6
HIDDEN2
 62
         5
100
AcDbCircle
 10
-189.4819
 20
-276.927
 30
0.0
 40
1.4999598028
100
AcDbArc
 50
278.9982438276
 51
329.9992722192
  0
ARC
  5
5B6
100
AcDbEntity
  8
LEVEL_13
  6
HIDDEN2
 62
         5
100
AcDbCircle
 10
-198.4819
 20
-276.927
 30
0.0
 40
1.4999669996
100
AcDbArc
 50
210.0007277808
 51
260.9979834008
  0
LINE
  5
5B7
100
AcDbEntity
  8
LEVEL_13
  6
HIDDEN2
 62
         5
100
AcDbLine
 10
-198.5755
 20
-278.4308
 30
0.0
 11
-194.9819
 21
-279.0
 31
0.0
  0
LINE
  5
5B8
100
AcDbEntity
  8
LEVEL_13
  6
HIDDEN2
 62
         5
100
AcDbLine
 10
-187.9819
 20
-276.573
 30
0.0
 11
-187.9819
 21
-276.927
 31
0.0
  0
LINE
  5
5B9
100
AcDbEntity
  8
LEVEL_13
  6
CONTINUOUS
 62
         2
100
AcDbLine
 10
-196.4285
 20
-302.8883
 30
0.0
 11
-197.1752
 21
-299.9827
 31
0.0
  0
LINE
  5
5BA
100
AcDbEntity
  8
LEVEL_13
  6
CONTINUOUS
 62
         2
100
AcDbLine
 10
-197.1752
 20
-299.9827
 30
0.0
 11
-197.6533
 21
-298.1222
 31
0.0
  0
LINE
  5
5BB
100
AcDbEntity
  8
LEVEL_13
  6
CONTINUOUS
 62
         2
100
AcDbLine
 10
-190.7887
 20
-299.9827
 30
0.0
 11
-191.5353
 21
-302.8883
 31
0.0
  0
LINE
  5
5BC
100
AcDbEntity
  8
LEVEL_13
  6
CONTINUOUS
 62
         2
100
AcDbLine
 10
-191.5353
 20
-302.8883
 30
0.0
 11
-192.0134
 21
-304.7489
 31
0.0
  0
ARC
  5
5BD
100
AcDbEntity
  8
LEVEL_13
  6
CONTINUOUS
 62
         2
100
AcDbCircle
 10
-193.9819
 20
-263.5
 30
0.0
 40
3.7
100
AcDbArc
 50
90.0
 51
150.0000465024
  0
ARC
  5
5BE
100
AcDbEntity
  8
LEVEL_13
  6
CONTINUOUS
 62
         2
100
AcDbCircle
 10
-193.9819
 20
-263.5
 30
0.0
 40
3.7000052013
100
AcDbArc
 50
150.0000465024
 51
209.9999534976
  0
ARC
  5
5BF
100
AcDbEntity
  8
LEVEL_13
  6
CONTINUOUS
 62
         2
100
AcDbCircle
 10
-193.9819
 20
-263.5
 30
0.0
 40
3.7000052013
100
AcDbArc
 50
209.9999534976
 51
330.0000465024
  0
ARC
  5
5C0
100
AcDbEntity
  8
LEVEL_13
  6
CONTINUOUS
 62
         2
100
AcDbCircle
 10
-193.9819
 20
-263.5
 30
0.0
 40
3.7000052013
100
AcDbArc
 50
330.0000465024
 51
29.9999534976
  0
ARC
  5
5C1
100
AcDbEntity
  8
LEVEL_13
  6
CONTINUOUS
 62
         2
100
AcDbCircle
 10
-193.9819
 20
-263.5
 30
0.0
 40
3.7000052013
100
AcDbArc
 50
29.9999534976
 51
90.0
  0
LINE
  5
5C2
100
AcDbEntity
  8
LEVEL_13
  6
CONTINUOUS
 62
         2
100
AcDbLine
 10
-189.696
 20
-280.2978
 30
0.0
 11
-188.1829
 21
-277.677
 31
0.0
  0
LINE
  5
5C3
100
AcDbEntity
  8
LEVEL_13
  6
CONTINUOUS
 62
         2
100
AcDbLine
 10
-185.4819
 20
-271.927
 30
0.0
 11
-185.4819
 21
-261.0941
 31
0.0
  0
LINE
  5
5C4
100
AcDbEntity
  8
LEVEL_13
  6
CONTINUOUS
 62
         2
100
AcDbLine
 10
-185.6412
 20
-260.5527
 30
0.0
 11
-186.8354
 21
-258.6981
 31
0.0
  0
ARC
  5
5C5
100
AcDbEntity
  8
LEVEL_13
  6
CONTINUOUS
 62
         2
100
AcDbCircle
 10
-193.9819
 20
-263.3
 30
0.0
 40
8.4999968153
100
AcDbArc
 50
32.7790076798
 51
147.2209923202
  0
LINE
  5
5C6
100
AcDbEntity
  8
LEVEL_13
  6
CONTINUOUS
 62
         2
100
AcDbLine
 10
-201.1284
 20
-258.6981
 30
0.0
 11
-202.3227
 21
-260.5527
 31
0.0
  0
LINE
  5
5C7
100
AcDbEntity
  8
LEVEL_13
  6
CONTINUOUS
 62
         2
100
AcDbLine
 10
-202.4819
 20
-261.0941
 30
0.0
 11
-202.4819
 21
-271.927
 31
0.0
  0
LINE
  5
5C8
100
AcDbEntity
  8
LEVEL_13
  6
CONTINUOUS
 62
         2
100
AcDbLine
 10
-201.946
 20
-273.927
 30
0.0
 11
-199.7809
 21
-277.677
 31
0.0
  0
ARC
  5
5C9
100
AcDbEntity
  8
LEVEL_13
  6
CONTINUOUS
 62
         2
100
AcDbCircle
 10
-201.7319
 20
-282.2978
 30
0.0
 40
4.0
100
AcDbArc
 50
0.0
 51
30.0000115676
  0
ARC
  5
5CA
100
AcDbEntity
  8
LEVEL_13
  6
CONTINUOUS
 62
         2
100
AcDbCircle
 10
-198.4819
 20
-271.927
 30
0.0
 40
4.0
100
AcDbArc
 50
180.0
 51
210.0000115676
  0
ARC
  5
5CB
100
AcDbEntity
  8
LEVEL_13
  6
CONTINUOUS
 62
         2
100
AcDbCircle
 10
-189.4819
 20
-271.927
 30
0.0
 40
3.9999757862
100
AcDbArc
 50
336.8429759986
 51
360.0
  0
ARC
  5
5CC
100
AcDbEntity
  8
LEVEL_13
  6
CONTINUOUS
 62
         2
100
AcDbCircle
 10
-186.2319
 20
-282.2978
 30
0.0
 40
3.9999986012
100
AcDbArc
 50
149.9999884324
 51
180.0
  0
ARC
  5
5CD
100
AcDbEntity
  8
LEVEL_13
  6
CONTINUOUS
 62
         2
100
AcDbCircle
 10
-186.4819
 20
-261.0941
 30
0.0
 40
1.0
100
AcDbArc
 50
0.0
 51
32.7810149628
  0
ARC
  5
5CE
100
AcDbEntity
  8
LEVEL_13
  6
CONTINUOUS
 62
         2
100
AcDbCircle
 10
-201.4819
 20
-261.0941
 30
0.0
 40
1.0000292996
100
AcDbArc
 50
147.2220871098
 51
180.0
  0
LINE
  5
5CF
100
AcDbEntity
  8
LEVEL_13
  6
CONTINUOUS
 62
         2
100
AcDbLine
 10
-188.1829
 20
-277.677
 30
0.0
 11
-186.0178
 21
-273.927
 31
0.0
  0
ARC
  5
5D0
100
AcDbEntity
  8
LEVEL_13
  6
HIDDEN2
 62
         5
100
AcDbCircle
 10
-189.4819
 20
-276.927
 30
0.0
 40
1.4999669996
100
AcDbArc
 50
329.9992722192
 51
360.0
  0
LINE
  5
5D1
100
AcDbEntity
  8
LEVEL_13
  6
CONTINUOUS
 62
         2
100
AcDbLine
 10
-199.7809
 20
-277.677
 30
0.0
 11
-198.2678
 21
-280.2978
 31
0.0
  0
ARC
  5
5D2
100
AcDbEntity
  8
LEVEL_13
  6
HIDDEN2
 62
         5
100
AcDbCircle
 10
-198.4819
 20
-276.927
 30
0.0
 40
1.5
100
AcDbArc
 50
180.0
 51
210.0007277808
  0
LINE
  5
5D3
100
AcDbEntity
  8
LEVEL_13
  6
CONTINUOUS
 62
         2
100
AcDbLine
 10
-182.9819
 20
-290.0
 30
0.0
 11
-182.9819
 21
-277.5
 31
0.0
  0
LINE
  5
5D4
100
AcDbEntity
  8
LEVEL_13
  6
CONTINUOUS
 62
         2
100
AcDbLine
 10
-182.9819
 20
-273.5
 30
0.0
 11
-185.8042
 21
-273.5
 31
0.0
  0
LINE
  5
5D5
100
AcDbEntity
  8
LEVEL_13
  6
CONTINUOUS
 62
         2
100
AcDbLine
 10
-192.9819
 20
-306.5
 30
0.0
 11
-182.9819
 21
-306.5
 31
0.0
  0
LINE
  5
5D6
100
AcDbEntity
  8
LEVEL_13
  6
CONTINUOUS
 62
         2
100
AcDbLine
 10
-182.9819
 20
-306.5
 30
0.0
 11
-182.9819
 21
-302.5
 31
0.0
  0
LINE
  5
5D7
100
AcDbEntity
  8
LEVEL_13
  6
HIDDEN2
 62
         5
100
AcDbLine
 10
-192.9819
 20
-295.0
 30
0.0
 11
-195.2319
 21
-295.0
 31
0.0
  0
ARC
  5
5D8
100
AcDbEntity
  8
LEVEL_13
  6
CONTINUOUS
 62
         2
100
AcDbCircle
 10
-189.4819
 20
-271.927
 30
0.0
 40
3.9999986012
100
AcDbArc
 50
329.9999884324
 51
336.8429759986
  0
LINE
  5
5D9
100
AcDbEntity
  8
LEVEL_13
  6
CONTINUOUS
 62
         2
100
AcDbLine
 10
-182.9819
 20
-302.5
 30
0.0
 11
-134.4819
 21
-302.5
 31
0.0
  0
LINE
  5
5DA
100
AcDbEntity
  8
LEVEL_13
  6
CONTINUOUS
 62
         2
100
AcDbLine
 10
-134.4819
 20
-302.5
 30
0.0
 11
-132.9819
 21
-301.0
 31
0.0
  0
LINE
  5
5DB
100
AcDbEntity
  8
LEVEL_13
  6
CONTINUOUS
 62
         2
100
AcDbLine
 10
-132.9819
 20
-301.0
 30
0.0
 11
-132.9819
 21
-279.0
 31
0.0
  0
LINE
  5
5DC
100
AcDbEntity
  8
LEVEL_13
  6
CONTINUOUS
 62
         2
100
AcDbLine
 10
-132.9819
 20
-279.0
 30
0.0
 11
-134.4819
 21
-277.5
 31
0.0
  0
LINE
  5
5DD
100
AcDbEntity
  8
LEVEL_13
  6
CONTINUOUS
 62
         2
100
AcDbLine
 10
-134.4819
 20
-277.5
 30
0.0
 11
-182.9819
 21
-277.5
 31
0.0
  0
LINE
  5
5DE
100
AcDbEntity
  8
LEVEL_13
  6
CONTINUOUS
 62
         2
100
AcDbLine
 10
-134.4819
 20
-302.5
 30
0.0
 11
-134.4819
 21
-277.5
 31
0.0
  0
LINE
  5
5DF
100
AcDbEntity
  8
LEVEL_13
  6
CONTINUOUS
 62
         2
100
AcDbLine
 10
-182.9819
 20
-277.5
 30
0.0
 11
-182.9819
 21
-273.5
 31
0.0
  0
LINE
  5
5E0
100
AcDbEntity
  8
LEVEL_13
  6
CONTINUOUS
 62
         2
100
AcDbLine
 10
-182.9819
 20
-302.5
 30
0.0
 11
-182.9819
 21
-290.0
 31
0.0
  0
LINE
  5
5E1
100
AcDbEntity
  8
LEVEL_13
  6
CENTER2
 62
         3
100
AcDbLine
 10
-193.9819
 20
-307.05
 30
0.0
 11
-193.9819
 21
-285.45
 31
0.0
  0
LINE
  5
5E2
100
AcDbEntity
  8
LEVEL_13
  6
CENTER2
 62
         3
100
AcDbLine
 10
-193.9819
 20
-283.2
 30
0.0
 11
-193.9819
 21
-253.8
 31
0.0
  0
LINE
  5
5E3
100
AcDbEntity
  8
LEVEL_13
  6
CENTER2
 62
         3
100
AcDbLine
 10
-182.3819
 20
-263.5
 30
0.0
 11
-205.5819
 21
-263.5
 31
0.0
  0
LINE
  5
5E4
100
AcDbEntity
  8
LEVEL_13
  6
CENTER2
 62
         3
100
AcDbLine
 10
-186.6819
 20
-290.0
 30
0.0
 11
-129.2819
 21
-290.0
 31
0.0
  0
LINE
  5
5E5
100
AcDbEntity
  8
LEVEL_13
  6
CENTER2
 62
         3
100
AcDbLine
 10
-180.3319
 20
-287.0
 30
0.0
 11
-200.3819
 21
-287.0
 31
0.0
  0
LINE
  5
5E6
100
AcDbEntity
  8
LEVEL_13
  6
CONTINUOUS
 62
         2
100
AcDbLine
 10
-192.9819
 20
-306.5
 30
0.0
 11
-192.9819
 21
-305.5
 31
0.0
  0
LINE
  5
5E7
100
AcDbEntity
  8
LEVEL_13
  6
CONTINUOUS
 62
         2
100
AcDbLine
 10
-172.7143
 20
-287.0
 30
0.0
 11
-172.7143
 21
-283.0
 31
0.0
  0
LINE
  5
5E8
100
AcDbEntity
  8
LEVEL_13
  6
CONTINUOUS
 62
         2
100
AcDbLine
 10
-172.7143
 20
-283.0
 30
0.0
 11
-171.5714
 21
-283.0
 31
0.0
  0
LINE
  5
5E9
100
AcDbEntity
  8
LEVEL_13
  6
CONTINUOUS
 62
         2
100
AcDbLine
 10
-172.7143
 20
-285.0
 30
0.0
 11
-171.5714
 21
-285.0
 31
0.0
  0
ARC
  5
5EA
100
AcDbEntity
  8
LEVEL_13
  6
CONTINUOUS
 62
         2
100
AcDbCircle
 10
-171.5714
 20
-283.8571
 30
0.0
 40
0.8571
100
AcDbArc
 50
0.0
 51
90.0
  0
ARC
  5
5EB
100
AcDbEntity
  8
LEVEL_13
  6
CONTINUOUS
 62
         2
100
AcDbCircle
 10
-171.5714
 20
-284.1429
 30
0.0
 40
0.8571
100
AcDbArc
 50
270.0
 51
360.0
  0
LINE
  5
5EC
100
AcDbEntity
  8
LEVEL_13
  6
CONTINUOUS
 62
         2
100
AcDbLine
 10
-170.7143
 20
-284.1429
 30
0.0
 11
-170.7143
 21
-283.8571
 31
0.0
  0
LINE
  5
5ED
100
AcDbEntity
  8
LEVEL_13
  6
CONTINUOUS
 62
         2
100
AcDbLine
 10
-171.5714
 20
-285.0
 30
0.0
 11
-170.7143
 21
-287.0
 31
0.0
  0
ARC
  5
5EE
100
AcDbEntity
  8
LEVEL_13
  6
CONTINUOUS
 62
         2
100
AcDbCircle
 10
-169.2857
 20
-286.1429
 30
0.0
 40
0.8572
100
AcDbArc
 50
180.0
 51
270.0
  0
LINE
  5
5EF
100
AcDbEntity
  8
LEVEL_13
  6
CONTINUOUS
 62
         2
100
AcDbLine
 10
-169.2857
 20
-287.0
 30
0.0
 11
-169.0
 21
-287.0
 31
0.0
  0
ARC
  5
5F0
100
AcDbEntity
  8
LEVEL_13
  6
CONTINUOUS
 62
         2
100
AcDbCircle
 10
-169.0
 20
-286.1429
 30
0.0
 40
0.8571
100
AcDbArc
 50
270.0
 51
360.0
  0
LINE
  5
5F1
100
AcDbEntity
  8
LEVEL_13
  6
CONTINUOUS
 62
         2
100
AcDbLine
 10
-170.1429
 20
-286.1429
 30
0.0
 11
-170.1429
 21
-283.0
 31
0.0
  0
LINE
  5
5F2
100
AcDbEntity
  8
LEVEL_13
  6
CONTINUOUS
 62
         2
100
AcDbLine
 10
-168.1429
 20
-286.1429
 30
0.0
 11
-168.1429
 21
-283.0
 31
0.0
  0
LINE
  5
5F3
100
AcDbEntity
  8
LEVEL_13
  6
CONTINUOUS
 62
         2
100
AcDbLine
 10
-167.5714
 20
-287.0
 30
0.0
 11
-167.5714
 21
-283.0
 31
0.0
  0
LINE
  5
5F4
100
AcDbEntity
  8
LEVEL_13
  6
CONTINUOUS
 62
         2
100
AcDbLine
 10
-167.5714
 20
-287.0
 30
0.0
 11
-166.4286
 21
-287.0
 31
0.0
  0
LINE
  5
5F5
100
AcDbEntity
  8
LEVEL_13
  6
CONTINUOUS
 62
         2
100
AcDbLine
 10
-167.5714
 20
-283.0
 30
0.0
 11
-166.4286
 21
-283.0
 31
0.0
  0
ARC
  5
5F6
100
AcDbEntity
  8
LEVEL_13
  6
CONTINUOUS
 62
         2
100
AcDbCircle
 10
-166.4286
 20
-283.8571
 30
0.0
 40
0.8572
100
AcDbArc
 50
0.0
 51
90.0
  0
ARC
  5
5F7
100
AcDbEntity
  8
LEVEL_13
  6
CONTINUOUS
 62
         2
100
AcDbCircle
 10
-166.4286
 20
-286.1429
 30
0.0
 40
0.8571
100
AcDbArc
 50
270.0
 51
360.0
  0
LINE
  5
5F8
100
AcDbEntity
  8
LEVEL_13
  6
CONTINUOUS
 62
         2
100
AcDbLine
 10
-165.5714
 20
-286.1429
 30
0.0
 11
-165.5714
 21
-283.8571
 31
0.0
  0
LINE
  5
5F9
100
AcDbEntity
  8
LEVEL_13
  6
CONTINUOUS
 62
         2
100
AcDbLine
 10
-159.0
 20
-283.0
 30
0.0
 11
-158.0
 21
-287.0
 31
0.0
  0
LINE
  5
5FA
100
AcDbEntity
  8
LEVEL_13
  6
CONTINUOUS
 62
         2
100
AcDbLine
 10
-158.0
 20
-287.0
 30
0.0
 11
-157.0
 21
-283.0
 31
0.0
  0
LINE
  5
5FB
100
AcDbEntity
  8
LEVEL_13
  6
CONTINUOUS
 62
         2
100
AcDbLine
 10
-156.4286
 20
-287.0
 30
0.0
 11
-156.4286
 21
-283.0
 31
0.0
  0
LINE
  5
5FC
100
AcDbEntity
  8
LEVEL_13
  6
CONTINUOUS
 62
         2
100
AcDbLine
 10
-156.4286
 20
-287.0
 30
0.0
 11
-154.7143
 21
-287.0
 31
0.0
  0
LINE
  5
5FD
100
AcDbEntity
  8
LEVEL_13
  6
CONTINUOUS
 62
         2
100
AcDbLine
 10
-156.4286
 20
-283.0
 30
0.0
 11
-154.7143
 21
-283.0
 31
0.0
  0
LINE
  5
5FE
100
AcDbEntity
  8
LEVEL_13
  6
CONTINUOUS
 62
         2
100
AcDbLine
 10
-156.4286
 20
-285.0
 30
0.0
 11
-155.0
 21
-285.0
 31
0.0
  0
LINE
  5
5FF
100
AcDbEntity
  8
LEVEL_13
  6
CONTINUOUS
 62
         2
100
AcDbLine
 10
-154.1429
 20
-287.0
 30
0.0
 11
-154.1429
 21
-283.0
 31
0.0
  0
LINE
  5
600
100
AcDbEntity
  8
LEVEL_13
  6
CONTINUOUS
 62
         2
100
AcDbLine
 10
-154.1429
 20
-283.0
 30
0.0
 11
-153.0
 21
-283.0
 31
0.0
  0
LINE
  5
601
100
AcDbEntity
  8
LEVEL_13
  6
CONTINUOUS
 62
         2
100
AcDbLine
 10
-154.1429
 20
-285.0
 30
0.0
 11
-153.0
 21
-285.0
 31
0.0
  0
ARC
  5
602
100
AcDbEntity
  8
LEVEL_13
  6
CONTINUOUS
 62
         2
100
AcDbCircle
 10
-153.0
 20
-283.8571
 30
0.0
 40
0.8571
100
AcDbArc
 50
0.0
 51
90.0
  0
ARC
  5
603
100
AcDbEntity
  8
LEVEL_13
  6
CONTINUOUS
 62
         2
100
AcDbCircle
 10
-153.0
 20
-284.1429
 30
0.0
 40
0.8571
100
AcDbArc
 50
270.0
 51
360.0
  0
LINE
  5
604
100
AcDbEntity
  8
LEVEL_13
  6
CONTINUOUS
 62
         2
100
AcDbLine
 10
-152.1429
 20
-284.1429
 30
0.0
 11
-152.1429
 21
-283.8571
 31
0.0
  0
LINE
  5
605
100
AcDbEntity
  8
LEVEL_13
  6
CONTINUOUS
 62
         2
100
AcDbLine
 10
-153.0
 20
-285.0
 30
0.0
 11
-152.1429
 21
-287.0
 31
0.0
  0
ARC
  5
606
100
AcDbEntity
  8
LEVEL_13
  6
CONTINUOUS
 62
         2
100
AcDbCircle
 10
-150.7143
 20
-286.1429
 30
0.0
 40
0.8571
100
AcDbArc
 50
180.0
 51
270.0
  0
LINE
  5
607
100
AcDbEntity
  8
LEVEL_13
  6
CONTINUOUS
 62
         2
100
AcDbLine
 10
-150.7143
 20
-287.0
 30
0.0
 11
-150.4286
 21
-287.0
 31
0.0
  0
ARC
  5
608
100
AcDbEntity
  8
LEVEL_13
  6
CONTINUOUS
 62
         2
100
AcDbCircle
 10
-150.4286
 20
-286.1429
 30
0.0
 40
0.8571
100
AcDbArc
 50
270.0
 51
360.0
  0
LINE
  5
609
100
AcDbEntity
  8
LEVEL_13
  6
CONTINUOUS
 62
         2
100
AcDbLine
 10
-149.5714
 20
-286.1429
 30
0.0
 11
-149.5714
 21
-285.0
 31
0.0
  0
LINE
  5
60A
100
AcDbEntity
  8
LEVEL_13
  6
CONTINUOUS
 62
         2
100
AcDbLine
 10
-149.5714
 20
-285.0
 30
0.0
 11
-150.5714
 21
-285.0
 31
0.0
  0
LINE
  5
60B
100
AcDbEntity
  8
LEVEL_13
  6
CONTINUOUS
 62
         2
100
AcDbLine
 10
-151.5714
 20
-286.1429
 30
0.0
 11
-151.5714
 21
-283.8571
 31
0.0
  0
ARC
  5
60C
100
AcDbEntity
  8
LEVEL_13
  6
CONTINUOUS
 62
         2
100
AcDbCircle
 10
-150.7143
 20
-283.8571
 30
0.0
 40
0.8571
100
AcDbArc
 50
90.0
 51
180.0
  0
LINE
  5
60D
100
AcDbEntity
  8
LEVEL_13
  6
CONTINUOUS
 62
         2
100
AcDbLine
 10
-150.7143
 20
-283.0
 30
0.0
 11
-150.4286
 21
-283.0
 31
0.0
  0
ARC
  5
60E
100
AcDbEntity
  8
LEVEL_13
  6
CONTINUOUS
 62
         2
100
AcDbCircle
 10
-150.4286
 20
-283.8571
 30
0.0
 40
0.8572
100
AcDbArc
 50
0.0
 51
90.0
  0
LINE
  5
60F
100
AcDbEntity
  8
LEVEL_13
  6
CONTINUOUS
 62
         2
100
AcDbLine
 10
-149.5714
 20
-283.8571
 30
0.0
 11
-149.5714
 21
-284.1429
 31
0.0
  0
ARC
  5
610
100
AcDbEntity
  8
LEVEL_13
  6
CONTINUOUS
 62
         2
100
AcDbCircle
 10
-146.1429
 20
-286.1429
 30
0.0
 40
0.8571
100
AcDbArc
 50
180.0
 51
360.0
  0
LINE
  5
611
100
AcDbEntity
  8
LEVEL_13
  6
CONTINUOUS
 62
         2
100
AcDbLine
 10
-145.2857
 20
-286.1429
 30
0.0
 11
-145.2857
 21
-285.5714
 31
0.0
  0
ARC
  5
612
100
AcDbEntity
  8
LEVEL_13
  6
CONTINUOUS
 62
         2
100
AcDbCircle
 10
-146.1429
 20
-285.5714
 30
0.0
 40
0.8572
100
AcDbArc
 50
0.0
 51
180.0
  0
LINE
  5
613
100
AcDbEntity
  8
LEVEL_13
  6
CONTINUOUS
 62
         2
100
AcDbLine
 10
-147.0
 20
-286.1429
 30
0.0
 11
-147.0
 21
-285.5714
 31
0.0
  0
LINE
  5
614
100
AcDbEntity
  8
LEVEL_13
  6
CONTINUOUS
 62
         2
100
AcDbLine
 10
-146.9154
 20
-285.2
 30
0.0
 11
-145.8571
 21
-283.0
 31
0.0
  0
LINE
  5
615
100
AcDbEntity
  8
LEVEL_13
  6
CONTINUOUS
 62
         2
100
AcDbLine
 10
-168.8571
 20
-299.0
 30
0.0
 11
-168.8571
 21
-295.0
 31
0.0
  0
LINE
  5
616
100
AcDbEntity
  8
LEVEL_13
  6
CONTINUOUS
 62
         2
100
AcDbLine
 10
-168.8571
 20
-299.0
 30
0.0
 11
-167.7143
 21
-299.0
 31
0.0
  0
LINE
  5
617
100
AcDbEntity
  8
LEVEL_13
  6
CONTINUOUS
 62
         2
100
AcDbLine
 10
-168.8571
 20
-295.0
 30
0.0
 11
-167.7143
 21
-295.0
 31
0.0
  0
ARC
  5
618
100
AcDbEntity
  8
LEVEL_13
  6
CONTINUOUS
 62
         2
100
AcDbCircle
 10
-167.7143
 20
-295.8571
 30
0.0
 40
0.8572
100
AcDbArc
 50
0.0
 51
90.0
  0
ARC
  5
619
100
AcDbEntity
  8
LEVEL_13
  6
CONTINUOUS
 62
         2
100
AcDbCircle
 10
-167.7143
 20
-298.1429
 30
0.0
 40
0.8571
100
AcDbArc
 50
270.0
 51
360.0
  0
LINE
  5
61A
100
AcDbEntity
  8
LEVEL_13
  6
CONTINUOUS
 62
         2
100
AcDbLine
 10
-166.8571
 20
-298.1429
 30
0.0
 11
-166.8571
 21
-295.8571
 31
0.0
  0
LINE
  5
61B
100
AcDbEntity
  8
LEVEL_13
  6
CONTINUOUS
 62
         2
100
AcDbLine
 10
-166.2857
 20
-298.0
 30
0.0
 11
-164.5714
 21
-298.0
 31
0.0
  0
LINE
  5
61C
100
AcDbEntity
  8
LEVEL_13
  6
CONTINUOUS
 62
         2
100
AcDbLine
 10
-166.2857
 20
-297.1429
 30
0.0
 11
-164.5714
 21
-297.1429
 31
0.0
  0
LINE
  5
61D
100
AcDbEntity
  8
LEVEL_13
  6
CONTINUOUS
 62
         2
100
AcDbLine
 10
-164.0
 20
-296.1429
 30
0.0
 11
-164.0
 21
-295.8571
 31
0.0
  0
ARC
  5
61E
100
AcDbEntity
  8
LEVEL_13
  6
CONTINUOUS
 62
         2
100
AcDbCircle
 10
-163.1429
 20
-295.8571
 30
0.0
 40
0.8572327572
100
AcDbArc
 50
329.3663691461
 51
180.0
  0
LINE
  5
61F
100
AcDbEntity
  8
LEVEL_13
  6
CONTINUOUS
 62
         2
100
AcDbLine
 10
-162.3474
 20
-296.2943
 30
0.0
 11
-164.0
 21
-299.0
 31
0.0
  0
LINE
  5
620
100
AcDbEntity
  8
LEVEL_13
  6
CONTINUOUS
 62
         2
100
AcDbLine
 10
-164.0
 20
-299.0
 30
0.0
 11
-162.2857
 21
-299.0
 31
0.0
  0
LINE
  5
621
100
AcDbEntity
  8
LEVEL_13
  6
CONTINUOUS
 62
         2
100
AcDbLine
 10
-161.7143
 20
-295.0
 30
0.0
 11
-160.0
 21
-295.0
 31
0.0
  0
LINE
  5
622
100
AcDbEntity
  8
LEVEL_13
  6
CONTINUOUS
 62
         2
100
AcDbLine
 10
-161.7143
 20
-295.0
 30
0.0
 11
-161.7143
 21
-297.0
 31
0.0
  0
ARC
  5
623
100
AcDbEntity
  8
LEVEL_13
  6
CONTINUOUS
 62
         2
100
AcDbCircle
 10
-161.1429
 20
-297.0
 30
0.0
 40
0.5714
100
AcDbArc
 50
90.0
 51
180.0
  0
LINE
  5
624
100
AcDbEntity
  8
LEVEL_13
  6
CONTINUOUS
 62
         2
100
AcDbLine
 10
-161.1429
 20
-296.4286
 30
0.0
 11
-160.8571
 21
-296.4286
 31
0.0
  0
ARC
  5
625
100
AcDbEntity
  8
LEVEL_13
  6
CONTINUOUS
 62
         2
100
AcDbCircle
 10
-160.8571
 20
-297.2857
 30
0.0
 40
0.8571
100
AcDbArc
 50
0.0
 51
90.0
  0
LINE
  5
626
100
AcDbEntity
  8
LEVEL_13
  6
CONTINUOUS
 62
         2
100
AcDbLine
 10
-160.0
 20
-297.2857
 30
0.0
 11
-160.0
 21
-298.1429
 31
0.0
  0
ARC
  5
627
100
AcDbEntity
  8
LEVEL_13
  6
CONTINUOUS
 62
         2
100
AcDbCircle
 10
-160.8571
 20
-298.1429
 30
0.0
 40
0.8572
100
AcDbArc
 50
180.0
 51
360.0
  0
LINE
  5
628
100
AcDbEntity
  8
LEVEL_13
  6
CONTINUOUS
 62
         2
100
AcDbLine
 10
-161.7143
 20
-298.1429
 30
0.0
 11
-161.7143
 21
-297.8571
 31
0.0
  0
LINE
  5
629
100
AcDbEntity
  8
LEVEL_13
  6
CONTINUOUS
 62
         2
100
AcDbLine
 10
-159.4286
 20
-297.5714
 30
0.0
 11
-157.7143
 21
-297.5714
 31
0.0
  0
LINE
  5
62A
100
AcDbEntity
  8
LEVEL_13
  6
CONTINUOUS
 62
         2
100
AcDbLine
 10
-157.1429
 20
-296.1429
 30
0.0
 11
-157.1429
 21
-295.8571
 31
0.0
  0
ARC
  5
62B
100
AcDbEntity
  8
LEVEL_13
  6
CONTINUOUS
 62
         2
100
AcDbCircle
 10
-156.2857
 20
-295.8571
 30
0.0
 40
0.8571467144
100
AcDbArc
 50
329.3629630936
 51
180.0
  0
LINE
  5
62C
100
AcDbEntity
  8
LEVEL_13
  6
CONTINUOUS
 62
         2
100
AcDbLine
 10
-155.4903
 20
-296.2943
 30
0.0
 11
-157.1429
 21
-299.0
 31
0.0
  0
LINE
  5
62D
100
AcDbEntity
  8
LEVEL_13
  6
CONTINUOUS
 62
         2
100
AcDbLine
 10
-157.1429
 20
-299.0
 30
0.0
 11
-155.4286
 21
-299.0
 31
0.0
  0
ARC
  5
62E
100
AcDbEntity
  8
LEVEL_13
  6
CONTINUOUS
 62
         2
100
AcDbCircle
 10
-154.0
 20
-295.8571
 30
0.0
 40
0.8571
100
AcDbArc
 50
0.0
 51
180.0
  0
LINE
  5
62F
100
AcDbEntity
  8
LEVEL_13
  6
CONTINUOUS
 62
         2
100
AcDbLine
 10
-154.8571
 20
-295.8571
 30
0.0
 11
-154.8571
 21
-296.4286
 31
0.0
  0
LINE
  5
630
100
AcDbEntity
  8
LEVEL_13
  6
CONTINUOUS
 62
         2
100
AcDbLine
 10
-153.1429
 20
-295.8571
 30
0.0
 11
-153.1429
 21
-296.4286
 31
0.0
  0
ARC
  5
631
100
AcDbEntity
  8
LEVEL_13
  6
CONTINUOUS
 62
         2
100
AcDbCircle
 10
-154.0
 20
-296.4286
 30
0.0
 40
0.8571
100
AcDbArc
 50
180.0
 51
360.0
  0
LINE
  5
632
100
AcDbEntity
  8
LEVEL_13
  6
CONTINUOUS
 62
         2
100
AcDbLine
 10
-154.2857
 20
-299.0
 30
0.0
 11
-153.2274
 21
-296.8
 31
0.0
  0
LINE
  5
633
100
AcDbEntity
  8
LEVEL_13
  6
CONTINUOUS
 62
         2
100
AcDbLine
 10
-152.0
 20
-299.2857
 30
0.0
 11
-152.0
 21
-298.4286
 31
0.0
  0
ARC
  5
634
100
AcDbEntity
  8
LEVEL_13
  6
CONTINUOUS
 62
         2
100
AcDbCircle
 10
-150.0
 20
-295.8571
 30
0.0
 40
0.8571
100
AcDbArc
 50
0.0
 51
180.0
  0
LINE
  5
635
100
AcDbEntity
  8
LEVEL_13
  6
CONTINUOUS
 62
         2
100
AcDbLine
 10
-150.8571
 20
-295.8571
 30
0.0
 11
-150.8571
 21
-296.4286
 31
0.0
  0
LINE
  5
636
100
AcDbEntity
  8
LEVEL_13
  6
CONTINUOUS
 62
         2
100
AcDbLine
 10
-149.1429
 20
-295.8571
 30
0.0
 11
-149.1429
 21
-296.4286
 31
0.0
  0
ARC
  5
637
100
AcDbEntity
  8
LEVEL_13
  6
CONTINUOUS
 62
         2
100
AcDbCircle
 10
-150.0
 20
-296.4286
 30
0.0
 40
0.8571
100
AcDbArc
 50
180.0
 51
360.0
  0
LINE
  5
638
100
AcDbEntity
  8
LEVEL_13
  6
CONTINUOUS
 62
         2
100
AcDbLine
 10
-150.2857
 20
-299.0
 30
0.0
 11
-149.2274
 21
-296.8
 31
0.0
  0
LINE
  5
639
100
AcDbEntity
  8
LEVEL_14
  6
CONTINUOUS
 62
         2
100
AcDbLine
 10
-4.9665
 20
-382.3142
 30
0.0
 11
-2.7883
 21
-386.0869
 31
0.0
  0
LINE
  5
63A
100
AcDbEntity
  8
LEVEL_14
  6
CONTINUOUS
 62
         2
100
AcDbLine
 10
16.9976
 20
-382.3142
 30
0.0
 11
14.8194
 21
-386.0869
 31
0.0
  0
LINE
  5
63B
100
AcDbEntity
  8
LEVEL_14
  6
HIDDEN2
 62
         5
100
AcDbLine
 10
7.5155
 20
-391.0151
 30
0.0
 11
12.392
 21
-391.7875
 31
0.0
  0
LINE
  5
63C
100
AcDbEntity
  8
LEVEL_14
  6
HIDDEN2
 62
         5
100
AcDbLine
 10
12.3284
 20
-395.2377
 30
0.0
 11
7.5155
 21
-396.0
 31
0.0
  0
LINE
  5
63D
100
AcDbEntity
  8
LEVEL_14
  6
HIDDEN2
 62
         5
100
AcDbLine
 10
7.5155
 20
-396.0
 30
0.0
 11
4.5155
 21
-396.0
 31
0.0
  0
LINE
  5
63E
100
AcDbEntity
  8
LEVEL_14
  6
HIDDEN2
 62
         5
100
AcDbLine
 10
4.5155
 20
-396.0
 30
0.0
 11
-0.2973
 21
-395.2377
 31
0.0
  0
LINE
  5
63F
100
AcDbEntity
  8
LEVEL_14
  6
HIDDEN2
 62
         5
100
AcDbLine
 10
-0.361
 20
-391.7875
 30
0.0
 11
4.5155
 21
-391.0151
 31
0.0
  0
LINE
  5
640
100
AcDbEntity
  8
LEVEL_14
  6
HIDDEN2
 62
         5
100
AcDbLine
 10
4.5155
 20
-391.0151
 30
0.0
 11
7.5155
 21
-391.0151
 31
0.0
  0
ARC
  5
641
100
AcDbEntity
  8
LEVEL_14
  6
CONTINUOUS
 62
         2
100
AcDbCircle
 10
0.0155
 20
-393.2623
 30
0.0
 40
2.0000080625
100
AcDbArc
 50
255.5225474508
 51
261.0020548806
  0
ARC
  5
642
100
AcDbEntity
  8
LEVEL_14
  6
CONTINUOUS
 62
         2
100
AcDbCircle
 10
12.0155
 20
-393.2623
 30
0.0
 40
2.0000278923
100
AcDbArc
 50
279.0007746147
 51
284.4774525492
  0
ARC
  5
643
100
AcDbEntity
  8
LEVEL_14
  6
HIDDEN2
 62
         5
100
AcDbCircle
 10
12.0792
 20
-393.7629
 30
0.0
 40
2.0000213924
100
AcDbArc
 50
61.8166299959
 51
81.0020548806
  0
ARC
  5
644
100
AcDbEntity
  8
LEVEL_14
  6
HIDDEN2
 62
         5
100
AcDbCircle
 10
-0.0481
 20
-393.7629
 30
0.0
 40
2.0000278923
100
AcDbArc
 50
99.0007746147
 51
165.5079624173
  0
LINE
  5
645
100
AcDbEntity
  8
LEVEL_14
  6
CONTINUOUS
 62
         2
100
AcDbLine
 10
-1.9845
 20
-389.0869
 30
0.0
 11
-1.9845
 21
-393.2623
 31
0.0
  0
LINE
  5
646
100
AcDbEntity
  8
LEVEL_14
  6
CONTINUOUS
 62
         2
100
AcDbLine
 10
14.0155
 20
-389.0869
 30
0.0
 11
14.0155
 21
-392.0
 31
0.0
  0
LINE
  5
647
100
AcDbEntity
  8
LEVEL_14
  6
CONTINUOUS
 62
         2
100
AcDbLine
 10
9.4842
 20
-430.3674
 30
0.0
 11
10.9608
 21
-422.1165
 31
0.0
  0
LINE
  5
648
100
AcDbEntity
  8
LEVEL_14
  6
CONTINUOUS
 62
         2
100
AcDbLine
 10
2.5468
 20
-430.3674
 30
0.0
 11
1.0703
 21
-422.1165
 31
0.0
  0
LINE
  5
649
100
AcDbEntity
  8
LEVEL_14
  6
CONTINUOUS
 62
         2
100
AcDbLine
 10
4.5155
 20
-432.0151
 30
0.0
 11
7.5155
 21
-432.0151
 31
0.0
  0
LINE
  5
64A
100
AcDbEntity
  8
LEVEL_14
  6
HIDDEN2
 62
         5
100
AcDbLine
 10
4.5155
 20
-418.0
 30
0.0
 11
7.5155
 21
-418.0
 31
0.0
  0
ARC
  5
64B
100
AcDbEntity
  8
LEVEL_14
  6
HIDDEN2
 62
         5
100
AcDbCircle
 10
4.5155
 20
-421.5
 30
0.0
 40
3.5
100
AcDbArc
 50
90.0
 51
180.0
  0
ARC
  5
64C
100
AcDbEntity
  8
LEVEL_14
  6
CONTINUOUS
 62
         2
100
AcDbCircle
 10
7.5155
 20
-421.5
 30
0.0
 40
3.5000234771
100
AcDbArc
 50
349.8548965847
 51
360.0
  0
ARC
  5
64D
100
AcDbEntity
  8
LEVEL_14
  6
CONTINUOUS
 62
         2
100
AcDbCircle
 10
4.5155
 20
-430.0151
 30
0.0
 40
1.9999737448
100
AcDbArc
 50
190.1457225411
 51
270.0
  0
ARC
  5
64E
100
AcDbEntity
  8
LEVEL_14
  6
CONTINUOUS
 62
         2
100
AcDbCircle
 10
7.5155
 20
-430.0151
 30
0.0
 40
2.0
100
AcDbArc
 50
270.0
 51
349.8542774589
  0
LINE
  5
64F
100
AcDbEntity
  8
LEVEL_14
  6
CONTINUOUS
 62
         2
100
AcDbLine
 10
1.0155
 20
-421.5
 30
0.0
 11
1.0155
 21
-397.1353
 31
0.0
  0
LINE
  5
650
100
AcDbEntity
  8
LEVEL_14
  6
CONTINUOUS
 62
         2
100
AcDbLine
 10
11.0155
 20
-421.5
 30
0.0
 11
11.0155
 21
-397.1353
 31
0.0
  0
ARC
  5
651
100
AcDbEntity
  8
LEVEL_14
  6
CONTINUOUS
 62
         2
100
AcDbCircle
 10
-0.9845
 20
-397.1353
 30
0.0
 40
2.0
100
AcDbArc
 50
0.0
 51
75.5225474508
  0
ARC
  5
652
100
AcDbEntity
  8
LEVEL_14
  6
CONTINUOUS
 62
         2
100
AcDbCircle
 10
13.0155
 20
-397.1353
 30
0.0
 40
2.0000080625
100
AcDbArc
 50
104.4774525492
 51
180.0
  0
ARC
  5
653
100
AcDbEntity
  8
LEVEL_14
  6
CONTINUOUS
 62
         2
100
AcDbCircle
 10
12.0155
 20
-393.2623
 30
0.0
 40
2.0000080625
100
AcDbArc
 50
284.4774525492
 51
360.0
  0
ARC
  5
654
100
AcDbEntity
  8
LEVEL_14
  6
CONTINUOUS
 62
         2
100
AcDbCircle
 10
0.0155
 20
-393.2623
 30
0.0
 40
2.0
100
AcDbArc
 50
180.0
 51
255.5225474508
  0
ARC
  5
655
100
AcDbEntity
  8
LEVEL_14
  6
CONTINUOUS
 62
         2
100
AcDbCircle
 10
4.5155
 20
-421.5
 30
0.0
 40
3.5
100
AcDbArc
 50
180.0
 51
190.1453917693
  0
ARC
  5
656
100
AcDbEntity
  8
LEVEL_14
  6
HIDDEN2
 62
         5
100
AcDbCircle
 10
7.5155
 20
-421.5
 30
0.0
 40
3.5
100
AcDbArc
 50
0.0
 51
90.0
  0
ARC
  5
657
100
AcDbEntity
  8
LEVEL_14
  6
CONTINUOUS
 62
         2
100
AcDbCircle
 10
-7.9845
 20
-389.0869
 30
0.0
 40
6.0
100
AcDbArc
 50
0.0
 51
29.9997728367
  0
ARC
  5
658
100
AcDbEntity
  8
LEVEL_14
  6
CONTINUOUS
 62
         2
100
AcDbCircle
 10
20.0155
 20
-389.0869
 30
0.0
 40
5.9999546007
100
AcDbArc
 50
149.9997496981
 51
180.0
  0
CIRCLE
  5
659
100
AcDbEntity
  8
LEVEL_14
  6
CONTINUOUS
 62
         2
100
AcDbCircle
 10
6.018
 20
-376.0189
 30
0.0
 40
4.8
  0
LINE
  5
65A
100
AcDbEntity
  8
LEVEL_14
  6
CONTINUOUS
 62
         2
100
AcDbLine
 10
17.2655
 20
-381.3142
 30
0.0
 11
17.2655
 21
-373.3429
 31
0.0
  0
LINE
  5
65B
100
AcDbEntity
  8
LEVEL_14
  6
CONTINUOUS
 62
         2
100
AcDbLine
 10
16.9574
 20
-372.2764
 30
0.0
 11
15.5324
 21
-370.0158
 31
0.0
  0
ARC
  5
65C
100
AcDbEntity
  8
LEVEL_14
  6
CONTINUOUS
 62
         2
100
AcDbCircle
 10
6.0155
 20
-376.0151
 30
0.0
 40
11.2500216044
100
AcDbArc
 50
32.2266688678
 51
147.7730595385
  0
LINE
  5
65D
100
AcDbEntity
  8
LEVEL_14
  6
CONTINUOUS
 62
         2
100
AcDbLine
 10
-3.5013
 20
-370.0158
 30
0.0
 11
-4.9264
 21
-372.2764
 31
0.0
  0
LINE
  5
65E
100
AcDbEntity
  8
LEVEL_14
  6
CONTINUOUS
 62
         2
100
AcDbLine
 10
-5.2345
 20
-373.3429
 30
0.0
 11
-5.2345
 21
-381.3142
 31
0.0
  0
ARC
  5
65F
100
AcDbEntity
  8
LEVEL_14
  6
CONTINUOUS
 62
         2
100
AcDbCircle
 10
-3.2345
 20
-381.3142
 30
0.0
 40
2.0
100
AcDbArc
 50
180.0
 51
210.0007277808
  0
ARC
  5
660
100
AcDbEntity
  8
LEVEL_14
  6
CONTINUOUS
 62
         2
100
AcDbCircle
 10
15.2655
 20
-381.3142
 30
0.0
 40
2.000042602
100
AcDbArc
 50
330.0007046147
 51
360.0
  0
ARC
  5
661
100
AcDbEntity
  8
LEVEL_14
  6
CONTINUOUS
 62
         2
100
AcDbCircle
 10
15.2655
 20
-373.3429
 30
0.0
 40
2.0
100
AcDbArc
 50
0.0
 51
32.2255437772
  0
ARC
  5
662
100
AcDbEntity
  8
LEVEL_14
  6
CONTINUOUS
 62
         2
100
AcDbCircle
 10
-3.2345
 20
-373.3429
 30
0.0
 40
1.999986965
100
AcDbArc
 50
147.7744562228
 51
180.0
  0
LINE
  5
663
100
AcDbEntity
  8
LEVEL_14
  6
CONTINUOUS
 62
         2
100
AcDbLine
 10
21.018
 20
-418.0
 30
0.0
 11
21.018
 21
-402.0
 31
0.0
  0
LINE
  5
664
100
AcDbEntity
  8
LEVEL_14
  6
CONTINUOUS
 62
         2
100
AcDbLine
 10
21.018
 20
-392.0
 30
0.0
 11
14.0155
 21
-392.0
 31
0.0
  0
LINE
  5
665
100
AcDbEntity
  8
LEVEL_14
  6
CONTINUOUS
 62
         2
100
AcDbLine
 10
7.5156
 20
-444.0
 30
0.0
 11
21.018
 21
-444.0
 31
0.0
  0
LINE
  5
666
100
AcDbEntity
  8
LEVEL_14
  6
CONTINUOUS
 62
         2
100
AcDbLine
 10
21.018
 20
-444.0
 30
0.0
 11
21.018
 21
-434.0
 31
0.0
  0
ARC
  5
667
100
AcDbEntity
  8
LEVEL_14
  6
HIDDEN2
 62
         5
100
AcDbCircle
 10
12.0792
 20
-393.7629
 30
0.0
 40
1.9999394841
100
AcDbArc
 50
14.4927545048
 51
61.8166299959
  0
LINE
  5
668
100
AcDbEntity
  8
LEVEL_14
  6
CONTINUOUS
 62
         2
100
AcDbLine
 10
14.0155
 20
-392.0
 30
0.0
 11
14.0155
 21
-393.2623
 31
0.0
  0
LINE
  5
669
100
AcDbEntity
  8
LEVEL_14
  6
CONTINUOUS
 62
         2
100
AcDbLine
 10
21.018
 20
-434.0
 30
0.0
 11
83.0181
 21
-434.0
 31
0.0
  0
LINE
  5
66A
100
AcDbEntity
  8
LEVEL_14
  6
CONTINUOUS
 62
         2
100
AcDbLine
 10
83.0181
 20
-434.0
 30
0.0
 11
85.0181
 21
-432.0
 31
0.0
  0
LINE
  5
66B
100
AcDbEntity
  8
LEVEL_14
  6
CONTINUOUS
 62
         2
100
AcDbLine
 10
85.0181
 20
-432.0
 30
0.0
 11
85.0181
 21
-404.0
 31
0.0
  0
LINE
  5
66C
100
AcDbEntity
  8
LEVEL_14
  6
CONTINUOUS
 62
         2
100
AcDbLine
 10
85.0181
 20
-404.0
 30
0.0
 11
83.0181
 21
-402.0
 31
0.0
  0
LINE
  5
66D
100
AcDbEntity
  8
LEVEL_14
  6
CONTINUOUS
 62
         2
100
AcDbLine
 10
83.0181
 20
-402.0
 30
0.0
 11
21.018
 21
-402.0
 31
0.0
  0
LINE
  5
66E
100
AcDbEntity
  8
LEVEL_14
  6
CONTINUOUS
 62
         2
100
AcDbLine
 10
83.0181
 20
-434.0
 30
0.0
 11
83.0181
 21
-402.0
 31
0.0
  0
LINE
  5
66F
100
AcDbEntity
  8
LEVEL_14
  6
CONTINUOUS
 62
         2
100
AcDbLine
 10
21.018
 20
-402.0
 30
0.0
 11
21.018
 21
-392.0
 31
0.0
  0
LINE
  5
670
100
AcDbEntity
  8
LEVEL_14
  6
CONTINUOUS
 62
         2
100
AcDbLine
 10
21.018
 20
-434.0
 30
0.0
 11
21.018
 21
-418.0
 31
0.0
  0
LINE
  5
671
100
AcDbEntity
  8
LEVEL_14
  6
CENTER2
 62
         3
100
AcDbLine
 10
17.7155
 20
-376.0151
 30
0.0
 11
-5.6845
 21
-376.0151
 31
0.0
  0
LINE
  5
672
100
AcDbEntity
  8
LEVEL_14
  6
CENTER2
 62
         3
100
AcDbLine
 10
6.0155
 20
-359.6851
 30
0.0
 11
6.0155
 21
-437.0951
 31
0.0
  0
LINE
  5
673
100
AcDbEntity
  8
LEVEL_14
  6
CENTER2
 62
         3
100
AcDbLine
 10
16.198
 20
-418.0
 30
0.0
 11
89.8381
 21
-418.0
 31
0.0
  0
LINE
  5
674
100
AcDbEntity
  8
LEVEL_14
  6
CONTINUOUS
 62
         2
100
AcDbLine
 10
7.5156
 20
-444.0
 30
0.0
 11
7.5156
 21
-432.0152
 31
0.0
  0
LINE
  5
675
100
AcDbEntity
  8
LEVEL_14
  6
CENTER2
 62
         3
100
AcDbLine
 10
22.7183
 20
-407.0
 30
0.0
 11
-0.6847
 21
-407.0
 31
0.0
  0
LINE
  5
676
100
AcDbEntity
  8
LEVEL_14
  6
CONTINUOUS
 62
         2
100
AcDbLine
 10
34.8571
 20
-414.0
 30
0.0
 11
34.8571
 21
-409.0
 31
0.0
  0
LINE
  5
677
100
AcDbEntity
  8
LEVEL_14
  6
CONTINUOUS
 62
         2
100
AcDbLine
 10
34.8571
 20
-409.0
 30
0.0
 11
36.2857
 21
-409.0
 31
0.0
  0
LINE
  5
678
100
AcDbEntity
  8
LEVEL_14
  6
CONTINUOUS
 62
         2
100
AcDbLine
 10
34.8571
 20
-411.5
 30
0.0
 11
36.2857
 21
-411.5
 31
0.0
  0
ARC
  5
679
100
AcDbEntity
  8
LEVEL_14
  6
CONTINUOUS
 62
         2
100
AcDbCircle
 10
36.2857
 20
-410.0714
 30
0.0
 40
1.0714
100
AcDbArc
 50
0.0
 51
90.0
  0
ARC
  5
67A
100
AcDbEntity
  8
LEVEL_14
  6
CONTINUOUS
 62
         2
100
AcDbCircle
 10
36.2857
 20
-410.4286
 30
0.0
 40
1.0714
100
AcDbArc
 50
270.0
 51
360.0
  0
LINE
  5
67B
100
AcDbEntity
  8
LEVEL_14
  6
CONTINUOUS
 62
         2
100
AcDbLine
 10
37.3571
 20
-410.4286
 30
0.0
 11
37.3571
 21
-410.0714
 31
0.0
  0
LINE
  5
67C
100
AcDbEntity
  8
LEVEL_14
  6
CONTINUOUS
 62
         2
100
AcDbLine
 10
36.2857
 20
-411.5
 30
0.0
 11
37.3571
 21
-414.0
 31
0.0
  0
ARC
  5
67D
100
AcDbEntity
  8
LEVEL_14
  6
CONTINUOUS
 62
         2
100
AcDbCircle
 10
39.1429
 20
-412.9286
 30
0.0
 40
1.0715
100
AcDbArc
 50
180.0
 51
270.0
  0
LINE
  5
67E
100
AcDbEntity
  8
LEVEL_14
  6
CONTINUOUS
 62
         2
100
AcDbLine
 10
39.1429
 20
-414.0
 30
0.0
 11
39.5
 21
-414.0
 31
0.0
  0
ARC
  5
67F
100
AcDbEntity
  8
LEVEL_14
  6
CONTINUOUS
 62
         2
100
AcDbCircle
 10
39.5
 20
-412.9286
 30
0.0
 40
1.0714
100
AcDbArc
 50
270.0
 51
360.0
  0
LINE
  5
680
100
AcDbEntity
  8
LEVEL_14
  6
CONTINUOUS
 62
         2
100
AcDbLine
 10
38.0714
 20
-412.9286
 30
0.0
 11
38.0714
 21
-409.0
 31
0.0
  0
LINE
  5
681
100
AcDbEntity
  8
LEVEL_14
  6
CONTINUOUS
 62
         2
100
AcDbLine
 10
40.5714
 20
-412.9286
 30
0.0
 11
40.5714
 21
-409.0
 31
0.0
  0
LINE
  5
682
100
AcDbEntity
  8
LEVEL_14
  6
CONTINUOUS
 62
         2
100
AcDbLine
 10
41.2857
 20
-414.0
 30
0.0
 11
41.2857
 21
-409.0
 31
0.0
  0
LINE
  5
683
100
AcDbEntity
  8
LEVEL_14
  6
CONTINUOUS
 62
         2
100
AcDbLine
 10
41.2857
 20
-414.0
 30
0.0
 11
42.7143
 21
-414.0
 31
0.0
  0
LINE
  5
684
100
AcDbEntity
  8
LEVEL_14
  6
CONTINUOUS
 62
         2
100
AcDbLine
 10
41.2857
 20
-409.0
 30
0.0
 11
42.7143
 21
-409.0
 31
0.0
  0
ARC
  5
685
100
AcDbEntity
  8
LEVEL_14
  6
CONTINUOUS
 62
         2
100
AcDbCircle
 10
42.7143
 20
-410.0714
 30
0.0
 40
1.0714
100
AcDbArc
 50
0.0
 51
90.0
  0
ARC
  5
686
100
AcDbEntity
  8
LEVEL_14
  6
CONTINUOUS
 62
         2
100
AcDbCircle
 10
42.7143
 20
-412.9286
 30
0.0
 40
1.0714
100
AcDbArc
 50
270.0
 51
360.0
  0
LINE
  5
687
100
AcDbEntity
  8
LEVEL_14
  6
CONTINUOUS
 62
         2
100
AcDbLine
 10
43.7857
 20
-412.9286
 30
0.0
 11
43.7857
 21
-410.0714
 31
0.0
  0
LINE
  5
688
100
AcDbEntity
  8
LEVEL_14
  6
CONTINUOUS
 62
         2
100
AcDbLine
 10
52.0
 20
-409.0
 30
0.0
 11
53.25
 21
-414.0
 31
0.0
  0
LINE
  5
689
100
AcDbEntity
  8
LEVEL_14
  6
CONTINUOUS
 62
         2
100
AcDbLine
 10
53.25
 20
-414.0
 30
0.0
 11
54.5
 21
-409.0
 31
0.0
  0
LINE
  5
68A
100
AcDbEntity
  8
LEVEL_14
  6
CONTINUOUS
 62
         2
100
AcDbLine
 10
55.2143
 20
-414.0
 30
0.0
 11
55.2143
 21
-409.0
 31
0.0
  0
LINE
  5
68B
100
AcDbEntity
  8
LEVEL_14
  6
CONTINUOUS
 62
         2
100
AcDbLine
 10
55.2143
 20
-414.0
 30
0.0
 11
57.3571
 21
-414.0
 31
0.0
  0
LINE
  5
68C
100
AcDbEntity
  8
LEVEL_14
  6
CONTINUOUS
 62
         2
100
AcDbLine
 10
55.2143
 20
-409.0
 30
0.0
 11
57.3571
 21
-409.0
 31
0.0
  0
LINE
  5
68D
100
AcDbEntity
  8
LEVEL_14
  6
CONTINUOUS
 62
         2
100
AcDbLine
 10
55.2143
 20
-411.5
 30
0.0
 11
57.0
 21
-411.5
 31
0.0
  0
LINE
  5
68E
100
AcDbEntity
  8
LEVEL_14
  6
CONTINUOUS
 62
         2
100
AcDbLine
 10
58.0714
 20
-414.0
 30
0.0
 11
58.0714
 21
-409.0
 31
0.0
  0
LINE
  5
68F
100
AcDbEntity
  8
LEVEL_14
  6
CONTINUOUS
 62
         2
100
AcDbLine
 10
58.0714
 20
-409.0
 30
0.0
 11
59.5
 21
-409.0
 31
0.0
  0
LINE
  5
690
100
AcDbEntity
  8
LEVEL_14
  6
CONTINUOUS
 62
         2
100
AcDbLine
 10
58.0714
 20
-411.5
 30
0.0
 11
59.5
 21
-411.5
 31
0.0
  0
ARC
  5
691
100
AcDbEntity
  8
LEVEL_14
  6
CONTINUOUS
 62
         2
100
AcDbCircle
 10
59.5
 20
-410.0714
 30
0.0
 40
1.0714
100
AcDbArc
 50
0.0
 51
90.0
  0
ARC
  5
692
100
AcDbEntity
  8
LEVEL_14
  6
CONTINUOUS
 62
         2
100
AcDbCircle
 10
59.5
 20
-410.4286
 30
0.0
 40
1.0714
100
AcDbArc
 50
270.0
 51
360.0
  0
LINE
  5
693
100
AcDbEntity
  8
LEVEL_14
  6
CONTINUOUS
 62
         2
100
AcDbLine
 10
60.5714
 20
-410.4286
 30
0.0
 11
60.5714
 21
-410.0714
 31
0.0
  0
LINE
  5
694
100
AcDbEntity
  8
LEVEL_14
  6
CONTINUOUS
 62
         2
100
AcDbLine
 10
59.5
 20
-411.5
 30
0.0
 11
60.5714
 21
-414.0
 31
0.0
  0
ARC
  5
695
100
AcDbEntity
  8
LEVEL_14
  6
CONTINUOUS
 62
         2
100
AcDbCircle
 10
62.3571
 20
-412.9286
 30
0.0
 40
1.0714
100
AcDbArc
 50
180.0
 51
270.0
  0
LINE
  5
696
100
AcDbEntity
  8
LEVEL_14
  6
CONTINUOUS
 62
         2
100
AcDbLine
 10
62.3571
 20
-414.0
 30
0.0
 11
62.7143
 21
-414.0
 31
0.0
  0
ARC
  5
697
100
AcDbEntity
  8
LEVEL_14
  6
CONTINUOUS
 62
         2
100
AcDbCircle
 10
62.7143
 20
-412.9286
 30
0.0
 40
1.0714
100
AcDbArc
 50
270.0
 51
360.0
  0
LINE
  5
698
100
AcDbEntity
  8
LEVEL_14
  6
CONTINUOUS
 62
         2
100
AcDbLine
 10
63.7857
 20
-412.9286
 30
0.0
 11
63.7857
 21
-411.5
 31
0.0
  0
LINE
  5
699
100
AcDbEntity
  8
LEVEL_14
  6
CONTINUOUS
 62
         2
100
AcDbLine
 10
63.7857
 20
-411.5
 30
0.0
 11
62.5357
 21
-411.5
 31
0.0
  0
LINE
  5
69A
100
AcDbEntity
  8
LEVEL_14
  6
CONTINUOUS
 62
         2
100
AcDbLine
 10
61.2857
 20
-412.9286
 30
0.0
 11
61.2857
 21
-410.0714
 31
0.0
  0
ARC
  5
69B
100
AcDbEntity
  8
LEVEL_14
  6
CONTINUOUS
 62
         2
100
AcDbCircle
 10
62.3571
 20
-410.0714
 30
0.0
 40
1.0714
100
AcDbArc
 50
90.0
 51
180.0
  0
LINE
  5
69C
100
AcDbEntity
  8
LEVEL_14
  6
CONTINUOUS
 62
         2
100
AcDbLine
 10
62.3571
 20
-409.0
 30
0.0
 11
62.7143
 21
-409.0
 31
0.0
  0
ARC
  5
69D
100
AcDbEntity
  8
LEVEL_14
  6
CONTINUOUS
 62
         2
100
AcDbCircle
 10
62.7143
 20
-410.0714
 30
0.0
 40
1.0714
100
AcDbArc
 50
0.0
 51
90.0
  0
LINE
  5
69E
100
AcDbEntity
  8
LEVEL_14
  6
CONTINUOUS
 62
         2
100
AcDbLine
 10
63.7857
 20
-410.0714
 30
0.0
 11
63.7857
 21
-410.4286
 31
0.0
  0
ARC
  5
69F
100
AcDbEntity
  8
LEVEL_14
  6
CONTINUOUS
 62
         2
100
AcDbCircle
 10
68.0714
 20
-410.0714
 30
0.0
 40
1.0715
100
AcDbArc
 50
0.0
 51
180.0
  0
LINE
  5
6A0
100
AcDbEntity
  8
LEVEL_14
  6
CONTINUOUS
 62
         2
100
AcDbLine
 10
67.0
 20
-410.0714
 30
0.0
 11
67.0
 21
-410.6071
 31
0.0
  0
LINE
  5
6A1
100
AcDbEntity
  8
LEVEL_14
  6
CONTINUOUS
 62
         2
100
AcDbLine
 10
69.1429
 20
-410.0714
 30
0.0
 11
69.1429
 21
-410.6071
 31
0.0
  0
ARC
  5
6A2
100
AcDbEntity
  8
LEVEL_14
  6
CONTINUOUS
 62
         2
100
AcDbCircle
 10
67.7143
 20
-410.6071
 30
0.0
 40
0.7143
100
AcDbArc
 50
180.0
 51
270.0
  0
ARC
  5
6A3
100
AcDbEntity
  8
LEVEL_14
  6
CONTINUOUS
 62
         2
100
AcDbCircle
 10
68.4286
 20
-410.6071
 30
0.0
 40
0.7143
100
AcDbArc
 50
270.0
 51
360.0
  0
LINE
  5
6A4
100
AcDbEntity
  8
LEVEL_14
  6
CONTINUOUS
 62
         2
100
AcDbLine
 10
67.7143
 20
-411.3214
 30
0.0
 11
68.4286
 21
-411.3214
 31
0.0
  0
ARC
  5
6A5
100
AcDbEntity
  8
LEVEL_14
  6
CONTINUOUS
 62
         2
100
AcDbCircle
 10
67.7143
 20
-412.0357
 30
0.0
 40
0.7143
100
AcDbArc
 50
90.0
 51
180.0
  0
ARC
  5
6A6
100
AcDbEntity
  8
LEVEL_14
  6
CONTINUOUS
 62
         2
100
AcDbCircle
 10
68.4286
 20
-412.0357
 30
0.0
 40
0.7143
100
AcDbArc
 50
0.0
 51
90.0
  0
LINE
  5
6A7
100
AcDbEntity
  8
LEVEL_14
  6
CONTINUOUS
 62
         2
100
AcDbLine
 10
67.0
 20
-412.0357
 30
0.0
 11
67.0
 21
-412.9286
 31
0.0
  0
LINE
  5
6A8
100
AcDbEntity
  8
LEVEL_14
  6
CONTINUOUS
 62
         2
100
AcDbLine
 10
69.1429
 20
-412.0357
 30
0.0
 11
69.1429
 21
-412.9286
 31
0.0
  0
ARC
  5
6A9
100
AcDbEntity
  8
LEVEL_14
  6
CONTINUOUS
 62
         2
100
AcDbCircle
 10
68.0714
 20
-412.9286
 30
0.0
 40
1.0714
100
AcDbArc
 50
180.0
 51
360.0
  0
LINE
  5
6AA
100
AcDbEntity
  8
LEVEL_14
  6
CONTINUOUS
 62
         2
100
AcDbLine
 10
42.1786
 20
-428.0
 30
0.0
 11
42.1786
 21
-423.0
 31
0.0
  0
LINE
  5
6AB
100
AcDbEntity
  8
LEVEL_14
  6
CONTINUOUS
 62
         2
100
AcDbLine
 10
42.1786
 20
-428.0
 30
0.0
 11
43.6071
 21
-428.0
 31
0.0
  0
LINE
  5
6AC
100
AcDbEntity
  8
LEVEL_14
  6
CONTINUOUS
 62
         2
100
AcDbLine
 10
42.1786
 20
-423.0
 30
0.0
 11
43.6071
 21
-423.0
 31
0.0
  0
ARC
  5
6AD
100
AcDbEntity
  8
LEVEL_14
  6
CONTINUOUS
 62
         2
100
AcDbCircle
 10
43.6071
 20
-424.0714
 30
0.0
 40
1.0715
100
AcDbArc
 50
0.0
 51
90.0
  0
ARC
  5
6AE
100
AcDbEntity
  8
LEVEL_14
  6
CONTINUOUS
 62
         2
100
AcDbCircle
 10
43.6071
 20
-426.9286
 30
0.0
 40
1.0714
100
AcDbArc
 50
270.0
 51
360.0
  0
LINE
  5
6AF
100
AcDbEntity
  8
LEVEL_14
  6
CONTINUOUS
 62
         2
100
AcDbLine
 10
44.6786
 20
-426.9286
 30
0.0
 11
44.6786
 21
-424.0714
 31
0.0
  0
LINE
  5
6B0
100
AcDbEntity
  8
LEVEL_14
  6
CONTINUOUS
 62
         2
100
AcDbLine
 10
45.3929
 20
-426.75
 30
0.0
 11
47.5357
 21
-426.75
 31
0.0
  0
LINE
  5
6B1
100
AcDbEntity
  8
LEVEL_14
  6
CONTINUOUS
 62
         2
100
AcDbLine
 10
45.3929
 20
-425.6786
 30
0.0
 11
47.5357
 21
-425.6786
 31
0.0
  0
LINE
  5
6B2
100
AcDbEntity
  8
LEVEL_14
  6
CONTINUOUS
 62
         2
100
AcDbLine
 10
48.25
 20
-424.4286
 30
0.0
 11
48.25
 21
-424.0714
 31
0.0
  0
ARC
  5
6B3
100
AcDbEntity
  8
LEVEL_14
  6
CONTINUOUS
 62
         2
100
AcDbCircle
 10
49.3214
 20
-424.0714
 30
0.0
 40
1.0715
100
AcDbArc
 50
0.0
 51
180.0
  0
LINE
  5
6B4
100
AcDbEntity
  8
LEVEL_14
  6
CONTINUOUS
 62
         2
100
AcDbLine
 10
50.3929
 20
-424.0714
 30
0.0
 11
50.3929
 21
-424.6071
 31
0.0
  0
ARC
  5
6B5
100
AcDbEntity
  8
LEVEL_14
  6
CONTINUOUS
 62
         2
100
AcDbCircle
 10
49.6786
 20
-424.6071
 30
0.0
 40
0.7143
100
AcDbArc
 50
270.0
 51
360.0
  0
LINE
  5
6B6
100
AcDbEntity
  8
LEVEL_14
  6
CONTINUOUS
 62
         2
100
AcDbLine
 10
48.9643
 20
-425.3214
 30
0.0
 11
49.6786
 21
-425.3214
 31
0.0
  0
ARC
  5
6B7
100
AcDbEntity
  8
LEVEL_14
  6
CONTINUOUS
 62
         2
100
AcDbCircle
 10
49.6786
 20
-426.0357
 30
0.0
 40
0.7143
100
AcDbArc
 50
0.0
 51
90.0
  0
LINE
  5
6B8
100
AcDbEntity
  8
LEVEL_14
  6
CONTINUOUS
 62
         2
100
AcDbLine
 10
50.3929
 20
-426.0357
 30
0.0
 11
50.3929
 21
-426.9286
 31
0.0
  0
ARC
  5
6B9
100
AcDbEntity
  8
LEVEL_14
  6
CONTINUOUS
 62
         2
100
AcDbCircle
 10
49.3214
 20
-426.9286
 30
0.0
 40
1.0714
100
AcDbArc
 50
180.0
 51
360.0
  0
LINE
  5
6BA
100
AcDbEntity
  8
LEVEL_14
  6
CONTINUOUS
 62
         2
100
AcDbLine
 10
48.25
 20
-426.9286
 30
0.0
 11
48.25
 21
-426.5714
 31
0.0
  0
LINE
  5
6BB
100
AcDbEntity
  8
LEVEL_14
  6
CONTINUOUS
 62
         2
100
AcDbLine
 10
51.1071
 20
-424.4286
 30
0.0
 11
51.1071
 21
-424.0714
 31
0.0
  0
ARC
  5
6BC
100
AcDbEntity
  8
LEVEL_14
  6
CONTINUOUS
 62
         2
100
AcDbCircle
 10
52.1786
 20
-424.0714
 30
0.0
 40
1.0714039481
100
AcDbArc
 50
329.3682456456
 51
180.0
  0
LINE
  5
6BD
100
AcDbEntity
  8
LEVEL_14
  6
CONTINUOUS
 62
         2
100
AcDbLine
 10
53.1729
 20
-424.6179
 30
0.0
 11
51.1071
 21
-428.0
 31
0.0
  0
LINE
  5
6BE
100
AcDbEntity
  8
LEVEL_14
  6
CONTINUOUS
 62
         2
100
AcDbLine
 10
51.1071
 20
-428.0
 30
0.0
 11
53.25
 21
-428.0
 31
0.0
  0
LINE
  5
6BF
100
AcDbEntity
  8
LEVEL_14
  6
CONTINUOUS
 62
         2
100
AcDbLine
 10
53.9643
 20
-426.2143
 30
0.0
 11
56.1071
 21
-426.2143
 31
0.0
  0
LINE
  5
6C0
100
AcDbEntity
  8
LEVEL_14
  6
CONTINUOUS
 62
         2
100
AcDbLine
 10
56.8214
 20
-426.9286
 30
0.0
 11
58.9643
 21
-426.9286
 31
0.0
  0
LINE
  5
6C1
100
AcDbEntity
  8
LEVEL_14
  6
CONTINUOUS
 62
         2
100
AcDbLine
 10
58.7857
 20
-428.0
 30
0.0
 11
58.7857
 21
-425.1429
 31
0.0
  0
LINE
  5
6C2
100
AcDbEntity
  8
LEVEL_14
  6
CONTINUOUS
 62
         2
100
AcDbLine
 10
56.8214
 20
-426.9286
 30
0.0
 11
58.25
 21
-423.0
 31
0.0
  0
ARC
  5
6C3
100
AcDbEntity
  8
LEVEL_14
  6
CONTINUOUS
 62
         2
100
AcDbCircle
 10
60.75
 20
-424.0714
 30
0.0
 40
1.0714
100
AcDbArc
 50
0.0
 51
180.0
  0
LINE
  5
6C4
100
AcDbEntity
  8
LEVEL_14
  6
CONTINUOUS
 62
         2
100
AcDbLine
 10
59.6786
 20
-424.0714
 30
0.0
 11
59.6786
 21
-424.6071
 31
0.0
  0
LINE
  5
6C5
100
AcDbEntity
  8
LEVEL_14
  6
CONTINUOUS
 62
         2
100
AcDbLine
 10
61.8214
 20
-424.0714
 30
0.0
 11
61.8214
 21
-424.6071
 31
0.0
  0
ARC
  5
6C6
100
AcDbEntity
  8
LEVEL_14
  6
CONTINUOUS
 62
         2
100
AcDbCircle
 10
60.3929
 20
-424.6071
 30
0.0
 40
0.7143
100
AcDbArc
 50
180.0
 51
270.0
  0
ARC
  5
6C7
100
AcDbEntity
  8
LEVEL_14
  6
CONTINUOUS
 62
         2
100
AcDbCircle
 10
61.1071
 20
-424.6071
 30
0.0
 40
0.7143
100
AcDbArc
 50
270.0
 51
360.0
  0
LINE
  5
6C8
100
AcDbEntity
  8
LEVEL_14
  6
CONTINUOUS
 62
         2
100
AcDbLine
 10
60.3929
 20
-425.3214
 30
0.0
 11
61.1071
 21
-425.3214
 31
0.0
  0
ARC
  5
6C9
100
AcDbEntity
  8
LEVEL_14
  6
CONTINUOUS
 62
         2
100
AcDbCircle
 10
60.3929
 20
-426.0357
 30
0.0
 40
0.7143
100
AcDbArc
 50
90.0
 51
180.0
  0
ARC
  5
6CA
100
AcDbEntity
  8
LEVEL_14
  6
CONTINUOUS
 62
         2
100
AcDbCircle
 10
61.1071
 20
-426.0357
 30
0.0
 40
0.7143
100
AcDbArc
 50
0.0
 51
90.0
  0
LINE
  5
6CB
100
AcDbEntity
  8
LEVEL_14
  6
CONTINUOUS
 62
         2
100
AcDbLine
 10
59.6786
 20
-426.0357
 30
0.0
 11
59.6786
 21
-426.9286
 31
0.0
  0
LINE
  5
6CC
100
AcDbEntity
  8
LEVEL_14
  6
CONTINUOUS
 62
         2
100
AcDbLine
 10
61.8214
 20
-426.0357
 30
0.0
 11
61.8214
 21
-426.9286
 31
0.0
  0
ARC
  5
6CD
100
AcDbEntity
  8
LEVEL_14
  6
CONTINUOUS
 62
         2
100
AcDbCircle
 10
60.75
 20
-426.9286
 30
0.0
 40
1.0714
100
AcDbArc
 50
180.0
 51
360.0
  0
LINE
  5
6CE
100
AcDbEntity
  8
LEVEL_15
  6
CONTINUOUS
 62
         2
100
AcDbLine
 10
-4.9641
 20
-262.3142
 30
0.0
 11
-2.7859
 21
-266.087
 31
0.0
  0
LINE
  5
6CF
100
AcDbEntity
  8
LEVEL_15
  6
CONTINUOUS
 62
         2
100
AcDbLine
 10
17.0
 20
-262.3142
 30
0.0
 11
14.8218
 21
-266.087
 31
0.0
  0
LINE
  5
6D0
100
AcDbEntity
  8
LEVEL_15
  6
HIDDEN2
 62
         5
100
AcDbLine
 10
7.518
 20
-271.0152
 30
0.0
 11
10.5792
 21
-271.5
 31
0.0
  0
LINE
  5
6D1
100
AcDbEntity
  8
LEVEL_15
  6
HIDDEN2
 62
         5
100
AcDbLine
 10
12.3309
 20
-275.2377
 30
0.0
 11
7.518
 21
-276.0
 31
0.0
  0
LINE
  5
6D2
100
AcDbEntity
  8
LEVEL_15
  6
HIDDEN2
 62
         5
100
AcDbLine
 10
7.518
 20
-276.0
 30
0.0
 11
6.018
 21
-276.0
 31
0.0
  0
LINE
  5
6D3
100
AcDbEntity
  8
LEVEL_15
  6
HIDDEN2
 62
         5
100
AcDbLine
 10
4.518
 20
-276.0
 30
0.0
 11
-0.2949
 21
-275.2377
 31
0.0
  0
LINE
  5
6D4
100
AcDbEntity
  8
LEVEL_15
  6
HIDDEN2
 62
         5
100
AcDbLine
 10
-0.3585
 20
-271.7875
 30
0.0
 11
4.518
 21
-271.0152
 31
0.0
  0
LINE
  5
6D5
100
AcDbEntity
  8
LEVEL_15
  6
HIDDEN2
 62
         5
100
AcDbLine
 10
4.518
 20
-271.0152
 30
0.0
 11
7.518
 21
-271.0152
 31
0.0
  0
ARC
  5
6D6
100
AcDbEntity
  8
LEVEL_15
  6
CONTINUOUS
 62
         2
100
AcDbCircle
 10
0.018
 20
-273.2624
 30
0.0
 40
2.0000080625
100
AcDbArc
 50
255.5225474508
 51
260.9987771794
  0
ARC
  5
6D7
100
AcDbEntity
  8
LEVEL_15
  6
CONTINUOUS
 62
         2
100
AcDbCircle
 10
12.018
 20
-273.2624
 30
0.0
 40
1.9999291237
100
AcDbArc
 50
279.0012228206
 51
284.4774525492
  0
ARC
  5
6D8
100
AcDbEntity
  8
LEVEL_15
  6
HIDDEN2
 62
         5
100
AcDbCircle
 10
12.0816
 20
-273.7629
 30
0.0
 40
2.0000363022
100
AcDbArc
 50
14.4920375827
 51
80.9992253853
  0
ARC
  5
6D9
100
AcDbEntity
  8
LEVEL_15
  6
HIDDEN2
 62
         5
100
AcDbCircle
 10
-0.0457
 20
-273.7629
 30
0.0
 40
2.00001225
100
AcDbArc
 50
98.9979451194
 51
165.5072454952
  0
LINE
  5
6DA
100
AcDbEntity
  8
LEVEL_15
  6
CONTINUOUS
 62
         2
100
AcDbLine
 10
-1.982
 20
-269.087
 30
0.0
 11
-1.982
 21
-273.2624
 31
0.0
  0
LINE
  5
6DB
100
AcDbEntity
  8
LEVEL_15
  6
CONTINUOUS
 62
         2
100
AcDbLine
 10
14.018
 20
-269.087
 30
0.0
 11
14.018
 21
-271.5
 31
0.0
  0
LINE
  5
6DC
100
AcDbEntity
  8
LEVEL_15
  6
CONTINUOUS
 62
         2
100
AcDbLine
 10
9.4867
 20
-310.3675
 30
0.0
 11
9.8209
 21
-308.5
 31
0.0
  0
LINE
  5
6DD
100
AcDbEntity
  8
LEVEL_15
  6
CONTINUOUS
 62
         2
100
AcDbLine
 10
2.5493
 20
-310.3675
 30
0.0
 11
1.0727
 21
-302.1165
 31
0.0
  0
LINE
  5
6DE
100
AcDbEntity
  8
LEVEL_15
  6
CONTINUOUS
 62
         2
100
AcDbLine
 10
4.518
 20
-312.0152
 30
0.0
 11
7.518
 21
-312.0152
 31
0.0
  0
LINE
  5
6DF
100
AcDbEntity
  8
LEVEL_15
  6
HIDDEN2
 62
         5
100
AcDbLine
 10
4.518
 20
-298.0
 30
0.0
 11
6.018
 21
-298.0
 31
0.0
  0
ARC
  5
6E0
100
AcDbEntity
  8
LEVEL_15
  6
HIDDEN2
 62
         5
100
AcDbCircle
 10
4.518
 20
-301.5
 30
0.0
 40
3.5
100
AcDbArc
 50
90.0
 51
180.0
  0
ARC
  5
6E1
100
AcDbEntity
  8
LEVEL_15
  6
CONTINUOUS
 62
         2
100
AcDbCircle
 10
7.518
 20
-301.5
 30
0.0
 40
3.5000234771
100
AcDbArc
 50
349.8548965847
 51
360.0
  0
ARC
  5
6E2
100
AcDbEntity
  8
LEVEL_15
  6
CONTINUOUS
 62
         2
100
AcDbCircle
 10
4.518
 20
-310.0152
 30
0.0
 40
1.9999737448
100
AcDbArc
 50
190.1457225411
 51
270.0
  0
ARC
  5
6E3
100
AcDbEntity
  8
LEVEL_15
  6
CONTINUOUS
 62
         2
100
AcDbCircle
 10
7.518
 20
-310.0152
 30
0.0
 40
2.0
100
AcDbArc
 50
270.0
 51
349.8542774589
  0
LINE
  5
6E4
100
AcDbEntity
  8
LEVEL_15
  6
CONTINUOUS
 62
         2
100
AcDbLine
 10
1.018
 20
-301.5
 30
0.0
 11
1.018
 21
-277.1353
 31
0.0
  0
LINE
  5
6E5
100
AcDbEntity
  8
LEVEL_15
  6
CONTINUOUS
 62
         2
100
AcDbLine
 10
11.018
 20
-301.5
 30
0.0
 11
11.018
 21
-277.1353
 31
0.0
  0
ARC
  5
6E6
100
AcDbEntity
  8
LEVEL_15
  6
CONTINUOUS
 62
         2
100
AcDbCircle
 10
-0.982
 20
-277.1353
 30
0.0
 40
2.0
100
AcDbArc
 50
0.0
 51
75.5218312247
  0
ARC
  5
6E7
100
AcDbEntity
  8
LEVEL_15
  6
CONTINUOUS
 62
         2
100
AcDbCircle
 10
13.018
 20
-277.1353
 30
0.0
 40
1.999911238
100
AcDbArc
 50
104.4781687753
 51
180.0
  0
ARC
  5
6E8
100
AcDbEntity
  8
LEVEL_15
  6
CONTINUOUS
 62
         2
100
AcDbCircle
 10
12.018
 20
-273.2624
 30
0.0
 40
2.0000080625
100
AcDbArc
 50
284.4774525492
 51
360.0
  0
ARC
  5
6E9
100
AcDbEntity
  8
LEVEL_15
  6
CONTINUOUS
 62
         2
100
AcDbCircle
 10
0.018
 20
-273.2624
 30
0.0
 40
2.0
100
AcDbArc
 50
180.0
 51
255.5225474508
  0
ARC
  5
6EA
100
AcDbEntity
  8
LEVEL_15
  6
CONTINUOUS
 62
         2
100
AcDbCircle
 10
4.518
 20
-301.5
 30
0.0
 40
3.5
100
AcDbArc
 50
180.0
 51
190.1451034153
  0
ARC
  5
6EB
100
AcDbEntity
  8
LEVEL_15
  6
HIDDEN2
 62
         5
100
AcDbCircle
 10
7.518
 20
-301.5
 30
0.0
 40
3.5
100
AcDbArc
 50
0.0
 51
90.0
  0
ARC
  5
6EC
100
AcDbEntity
  8
LEVEL_15
  6
CONTINUOUS
 62
         2
100
AcDbCircle
 10
-7.982
 20
-269.087
 30
0.0
 40
6.0
100
AcDbArc
 50
0.0
 51
30.0002503019
  0
ARC
  5
6ED
100
AcDbEntity
  8
LEVEL_15
  6
CONTINUOUS
 62
         2
100
AcDbCircle
 10
20.018
 20
-269.087
 30
0.0
 40
6.0000412032
100
AcDbArc
 50
150.0002271633
 51
180.0
  0
CIRCLE
  5
6EE
100
AcDbEntity
  8
LEVEL_15
  6
CONTINUOUS
 62
         2
100
AcDbCircle
 10
6.0205
 20
-256.019
 30
0.0
 40
4.8
  0
LINE
  5
6EF
100
AcDbEntity
  8
LEVEL_15
  6
CONTINUOUS
 62
         2
100
AcDbLine
 10
17.268
 20
-261.3142
 30
0.0
 11
17.268
 21
-253.3429
 31
0.0
  0
LINE
  5
6F0
100
AcDbEntity
  8
LEVEL_15
  6
CONTINUOUS
 62
         2
100
AcDbLine
 10
16.9599
 20
-252.2764
 30
0.0
 11
15.5348
 21
-250.0159
 31
0.0
  0
ARC
  5
6F1
100
AcDbEntity
  8
LEVEL_15
  6
CONTINUOUS
 62
         2
100
AcDbCircle
 10
6.018
 20
-256.0152
 30
0.0
 40
11.24993701
100
AcDbArc
 50
32.2269404615
 51
147.7733311322
  0
LINE
  5
6F2
100
AcDbEntity
  8
LEVEL_15
  6
CONTINUOUS
 62
         2
100
AcDbLine
 10
-3.4989
 20
-250.0159
 30
0.0
 11
-4.9239
 21
-252.2764
 31
0.0
  0
LINE
  5
6F3
100
AcDbEntity
  8
LEVEL_15
  6
CONTINUOUS
 62
         2
100
AcDbLine
 10
-5.232
 20
-253.3429
 30
0.0
 11
-5.232
 21
-261.3142
 31
0.0
  0
ARC
  5
6F4
100
AcDbEntity
  8
LEVEL_15
  6
CONTINUOUS
 62
         2
100
AcDbCircle
 10
-3.232
 20
-261.3142
 30
0.0
 40
2.0
100
AcDbArc
 50
180.0
 51
209.9992953853
  0
ARC
  5
6F5
100
AcDbEntity
  8
LEVEL_15
  6
CONTINUOUS
 62
         2
100
AcDbCircle
 10
15.268
 20
-261.3142
 30
0.0
 40
1.9999559995
100
AcDbArc
 50
329.9992722192
 51
360.0
  0
ARC
  5
6F6
100
AcDbEntity
  8
LEVEL_15
  6
CONTINUOUS
 62
         2
100
AcDbCircle
 10
15.268
 20
-253.3429
 30
0.0
 40
2.0
100
AcDbArc
 50
0.0
 51
32.2255437772
  0
ARC
  5
6F7
100
AcDbEntity
  8
LEVEL_15
  6
CONTINUOUS
 62
         2
100
AcDbCircle
 10
-3.232
 20
-253.3429
 30
0.0
 40
1.999986965
100
AcDbArc
 50
147.7744562228
 51
180.0
  0
LINE
  5
6F8
100
AcDbEntity
  8
LEVEL_15
  6
CONTINUOUS
 62
         2
100
AcDbLine
 10
21.018
 20
-290.0
 30
0.0
 11
21.018
 21
-277.0
 31
0.0
  0
LINE
  5
6F9
100
AcDbEntity
  8
LEVEL_15
  6
CONTINUOUS
 62
         2
100
AcDbLine
 10
21.018
 20
-271.5
 30
0.0
 11
14.018
 21
-271.5
 31
0.0
  0
LINE
  5
6FA
100
AcDbEntity
  8
LEVEL_15
  6
CONTINUOUS
 62
         2
100
AcDbLine
 10
21.018
 20
-308.5
 30
0.0
 11
21.018
 21
-303.0
 31
0.0
  0
LINE
  5
6FB
100
AcDbEntity
  8
LEVEL_15
  6
HIDDEN2
 62
         5
100
AcDbLine
 10
10.5792
 20
-271.5
 30
0.0
 11
12.3945
 21
-271.7875
 31
0.0
  0
LINE
  5
6FC
100
AcDbEntity
  8
LEVEL_15
  6
HIDDEN2
 62
         5
100
AcDbLine
 10
6.018
 20
-276.0
 30
0.0
 11
4.518
 21
-276.0
 31
0.0
  0
LINE
  5
6FD
100
AcDbEntity
  8
LEVEL_15
  6
CONTINUOUS
 62
         2
100
AcDbLine
 10
14.018
 20
-271.5
 30
0.0
 11
14.018
 21
-273.2624
 31
0.0
  0
LINE
  5
6FE
100
AcDbEntity
  8
LEVEL_15
  6
CONTINUOUS
 62
         2
100
AcDbLine
 10
9.8209
 20
-308.5
 30
0.0
 11
10.9633
 21
-302.1165
 31
0.0
  0
LINE
  5
6FF
100
AcDbEntity
  8
LEVEL_15
  6
HIDDEN2
 62
         5
100
AcDbLine
 10
6.018
 20
-298.0
 30
0.0
 11
7.518
 21
-298.0
 31
0.0
  0
LINE
  5
700
100
AcDbEntity
  8
LEVEL_15
  6
CONTINUOUS
 62
         2
100
AcDbLine
 10
21.018
 20
-303.0
 30
0.0
 11
71.5181
 21
-303.0
 31
0.0
  0
LINE
  5
701
100
AcDbEntity
  8
LEVEL_15
  6
CONTINUOUS
 62
         2
100
AcDbLine
 10
71.5181
 20
-303.0
 30
0.0
 11
73.0181
 21
-301.5
 31
0.0
  0
LINE
  5
702
100
AcDbEntity
  8
LEVEL_15
  6
CONTINUOUS
 62
         2
100
AcDbLine
 10
73.0181
 20
-301.5
 30
0.0
 11
73.0181
 21
-278.5
 31
0.0
  0
LINE
  5
703
100
AcDbEntity
  8
LEVEL_15
  6
CONTINUOUS
 62
         2
100
AcDbLine
 10
73.0181
 20
-278.5
 30
0.0
 11
71.5181
 21
-277.0
 31
0.0
  0
LINE
  5
704
100
AcDbEntity
  8
LEVEL_15
  6
CONTINUOUS
 62
         2
100
AcDbLine
 10
71.5181
 20
-277.0
 30
0.0
 11
21.018
 21
-277.0
 31
0.0
  0
LINE
  5
705
100
AcDbEntity
  8
LEVEL_15
  6
CONTINUOUS
 62
         2
100
AcDbLine
 10
71.5181
 20
-303.0
 30
0.0
 11
71.5181
 21
-277.0
 31
0.0
  0
LINE
  5
706
100
AcDbEntity
  8
LEVEL_15
  6
CONTINUOUS
 62
         2
100
AcDbLine
 10
21.018
 20
-277.0
 30
0.0
 11
21.018
 21
-271.5
 31
0.0
  0
LINE
  5
707
100
AcDbEntity
  8
LEVEL_15
  6
CONTINUOUS
 62
         2
100
AcDbLine
 10
21.018
 20
-303.0
 30
0.0
 11
21.018
 21
-290.0
 31
0.0
  0
LINE
  5
708
100
AcDbEntity
  8
LEVEL_15
  6
CENTER2
 62
         3
100
AcDbLine
 10
17.718
 20
-256.0152
 30
0.0
 11
-5.682
 21
-256.0152
 31
0.0
  0
LINE
  5
709
100
AcDbEntity
  8
LEVEL_15
  6
CENTER2
 62
         3
100
AcDbLine
 10
6.018
 20
-239.6852
 30
0.0
 11
6.018
 21
-317.0952
 31
0.0
  0
LINE
  5
70A
100
AcDbEntity
  8
LEVEL_15
  6
CENTER2
 62
         3
100
AcDbLine
 10
17.158
 20
-290.0
 30
0.0
 11
76.8781
 21
-290.0
 31
0.0
  0
LINE
  5
70B
100
AcDbEntity
  8
LEVEL_15
  6
CONTINUOUS
 62
         2
100
AcDbLine
 10
21.018
 20
-308.5
 30
0.0
 11
9.821
 21
-308.5
 31
0.0
  0
LINE
  5
70C
100
AcDbEntity
  8
LEVEL_15
  6
CENTER2
 62
         3
100
AcDbLine
 10
22.7181
 20
-287.0
 30
0.0
 11
-0.682
 21
-287.0
 31
0.0
  0
LINE
  5
70D
100
AcDbEntity
  8
LEVEL_15
  6
CONTINUOUS
 62
         2
100
AcDbLine
 10
28.8571
 20
-287.0
 30
0.0
 11
28.8571
 21
-282.0
 31
0.0
  0
LINE
  5
70E
100
AcDbEntity
  8
LEVEL_15
  6
CONTINUOUS
 62
         2
100
AcDbLine
 10
28.8571
 20
-282.0
 30
0.0
 11
30.2857
 21
-282.0
 31
0.0
  0
LINE
  5
70F
100
AcDbEntity
  8
LEVEL_15
  6
CONTINUOUS
 62
         2
100
AcDbLine
 10
28.8571
 20
-284.5
 30
0.0
 11
30.2857
 21
-284.5
 31
0.0
  0
ARC
  5
710
100
AcDbEntity
  8
LEVEL_15
  6
CONTINUOUS
 62
         2
100
AcDbCircle
 10
30.2857
 20
-283.0714
 30
0.0
 40
1.0714
100
AcDbArc
 50
0.0
 51
90.0
  0
ARC
  5
711
100
AcDbEntity
  8
LEVEL_15
  6
CONTINUOUS
 62
         2
100
AcDbCircle
 10
30.2857
 20
-283.4286
 30
0.0
 40
1.0714
100
AcDbArc
 50
270.0
 51
360.0
  0
LINE
  5
712
100
AcDbEntity
  8
LEVEL_15
  6
CONTINUOUS
 62
         2
100
AcDbLine
 10
31.3571
 20
-283.4286
 30
0.0
 11
31.3571
 21
-283.0714
 31
0.0
  0
LINE
  5
713
100
AcDbEntity
  8
LEVEL_15
  6
CONTINUOUS
 62
         2
100
AcDbLine
 10
30.2857
 20
-284.5
 30
0.0
 11
31.3571
 21
-287.0
 31
0.0
  0
ARC
  5
714
100
AcDbEntity
  8
LEVEL_15
  6
CONTINUOUS
 62
         2
100
AcDbCircle
 10
33.1429
 20
-285.9286
 30
0.0
 40
1.0715
100
AcDbArc
 50
180.0
 51
270.0
  0
LINE
  5
715
100
AcDbEntity
  8
LEVEL_15
  6
CONTINUOUS
 62
         2
100
AcDbLine
 10
33.1429
 20
-287.0
 30
0.0
 11
33.5
 21
-287.0
 31
0.0
  0
ARC
  5
716
100
AcDbEntity
  8
LEVEL_15
  6
CONTINUOUS
 62
         2
100
AcDbCircle
 10
33.5
 20
-285.9286
 30
0.0
 40
1.0714
100
AcDbArc
 50
270.0
 51
360.0
  0
LINE
  5
717
100
AcDbEntity
  8
LEVEL_15
  6
CONTINUOUS
 62
         2
100
AcDbLine
 10
32.0714
 20
-285.9286
 30
0.0
 11
32.0714
 21
-282.0
 31
0.0
  0
LINE
  5
718
100
AcDbEntity
  8
LEVEL_15
  6
CONTINUOUS
 62
         2
100
AcDbLine
 10
34.5714
 20
-285.9286
 30
0.0
 11
34.5714
 21
-282.0
 31
0.0
  0
LINE
  5
719
100
AcDbEntity
  8
LEVEL_15
  6
CONTINUOUS
 62
         2
100
AcDbLine
 10
35.2857
 20
-287.0
 30
0.0
 11
35.2857
 21
-282.0
 31
0.0
  0
LINE
  5
71A
100
AcDbEntity
  8
LEVEL_15
  6
CONTINUOUS
 62
         2
100
AcDbLine
 10
35.2857
 20
-287.0
 30
0.0
 11
36.7143
 21
-287.0
 31
0.0
  0
LINE
  5
71B
100
AcDbEntity
  8
LEVEL_15
  6
CONTINUOUS
 62
         2
100
AcDbLine
 10
35.2857
 20
-282.0
 30
0.0
 11
36.7143
 21
-282.0
 31
0.0
  0
ARC
  5
71C
100
AcDbEntity
  8
LEVEL_15
  6
CONTINUOUS
 62
         2
100
AcDbCircle
 10
36.7143
 20
-283.0714
 30
0.0
 40
1.0714
100
AcDbArc
 50
0.0
 51
90.0
  0
ARC
  5
71D
100
AcDbEntity
  8
LEVEL_15
  6
CONTINUOUS
 62
         2
100
AcDbCircle
 10
36.7143
 20
-285.9286
 30
0.0
 40
1.0714
100
AcDbArc
 50
270.0
 51
360.0
  0
LINE
  5
71E
100
AcDbEntity
  8
LEVEL_15
  6
CONTINUOUS
 62
         2
100
AcDbLine
 10
37.7857
 20
-285.9286
 30
0.0
 11
37.7857
 21
-283.0714
 31
0.0
  0
LINE
  5
71F
100
AcDbEntity
  8
LEVEL_15
  6
CONTINUOUS
 62
         2
100
AcDbLine
 10
46.0
 20
-282.0
 30
0.0
 11
47.25
 21
-287.0
 31
0.0
  0
LINE
  5
720
100
AcDbEntity
  8
LEVEL_15
  6
CONTINUOUS
 62
         2
100
AcDbLine
 10
47.25
 20
-287.0
 30
0.0
 11
48.5
 21
-282.0
 31
0.0
  0
LINE
  5
721
100
AcDbEntity
  8
LEVEL_15
  6
CONTINUOUS
 62
         2
100
AcDbLine
 10
49.2143
 20
-287.0
 30
0.0
 11
49.2143
 21
-282.0
 31
0.0
  0
LINE
  5
722
100
AcDbEntity
  8
LEVEL_15
  6
CONTINUOUS
 62
         2
100
AcDbLine
 10
49.2143
 20
-287.0
 30
0.0
 11
51.3571
 21
-287.0
 31
0.0
  0
LINE
  5
723
100
AcDbEntity
  8
LEVEL_15
  6
CONTINUOUS
 62
         2
100
AcDbLine
 10
49.2143
 20
-282.0
 30
0.0
 11
51.3571
 21
-282.0
 31
0.0
  0
LINE
  5
724
100
AcDbEntity
  8
LEVEL_15
  6
CONTINUOUS
 62
         2
100
AcDbLine
 10
49.2143
 20
-284.5
 30
0.0
 11
51.0
 21
-284.5
 31
0.0
  0
LINE
  5
725
100
AcDbEntity
  8
LEVEL_15
  6
CONTINUOUS
 62
         2
100
AcDbLine
 10
52.0714
 20
-287.0
 30
0.0
 11
52.0714
 21
-282.0
 31
0.0
  0
LINE
  5
726
100
AcDbEntity
  8
LEVEL_15
  6
CONTINUOUS
 62
         2
100
AcDbLine
 10
52.0714
 20
-282.0
 30
0.0
 11
53.5
 21
-282.0
 31
0.0
  0
LINE
  5
727
100
AcDbEntity
  8
LEVEL_15
  6
CONTINUOUS
 62
         2
100
AcDbLine
 10
52.0714
 20
-284.5
 30
0.0
 11
53.5
 21
-284.5
 31
0.0
  0
ARC
  5
728
100
AcDbEntity
  8
LEVEL_15
  6
CONTINUOUS
 62
         2
100
AcDbCircle
 10
53.5
 20
-283.0714
 30
0.0
 40
1.0714
100
AcDbArc
 50
0.0
 51
90.0
  0
ARC
  5
729
100
AcDbEntity
  8
LEVEL_15
  6
CONTINUOUS
 62
         2
100
AcDbCircle
 10
53.5
 20
-283.4286
 30
0.0
 40
1.0714
100
AcDbArc
 50
270.0
 51
360.0
  0
LINE
  5
72A
100
AcDbEntity
  8
LEVEL_15
  6
CONTINUOUS
 62
         2
100
AcDbLine
 10
54.5714
 20
-283.4286
 30
0.0
 11
54.5714
 21
-283.0714
 31
0.0
  0
LINE
  5
72B
100
AcDbEntity
  8
LEVEL_15
  6
CONTINUOUS
 62
         2
100
AcDbLine
 10
53.5
 20
-284.5
 30
0.0
 11
54.5714
 21
-287.0
 31
0.0
  0
ARC
  5
72C
100
AcDbEntity
  8
LEVEL_15
  6
CONTINUOUS
 62
         2
100
AcDbCircle
 10
56.3571
 20
-285.9286
 30
0.0
 40
1.0714
100
AcDbArc
 50
180.0
 51
270.0
  0
LINE
  5
72D
100
AcDbEntity
  8
LEVEL_15
  6
CONTINUOUS
 62
         2
100
AcDbLine
 10
56.3571
 20
-287.0
 30
0.0
 11
56.7143
 21
-287.0
 31
0.0
  0
ARC
  5
72E
100
AcDbEntity
  8
LEVEL_15
  6
CONTINUOUS
 62
         2
100
AcDbCircle
 10
56.7143
 20
-285.9286
 30
0.0
 40
1.0714
100
AcDbArc
 50
270.0
 51
360.0
  0
LINE
  5
72F
100
AcDbEntity
  8
LEVEL_15
  6
CONTINUOUS
 62
         2
100
AcDbLine
 10
57.7857
 20
-285.9286
 30
0.0
 11
57.7857
 21
-284.5
 31
0.0
  0
LINE
  5
730
100
AcDbEntity
  8
LEVEL_15
  6
CONTINUOUS
 62
         2
100
AcDbLine
 10
57.7857
 20
-284.5
 30
0.0
 11
56.5357
 21
-284.5
 31
0.0
  0
LINE
  5
731
100
AcDbEntity
  8
LEVEL_15
  6
CONTINUOUS
 62
         2
100
AcDbLine
 10
55.2857
 20
-285.9286
 30
0.0
 11
55.2857
 21
-283.0714
 31
0.0
  0
ARC
  5
732
100
AcDbEntity
  8
LEVEL_15
  6
CONTINUOUS
 62
         2
100
AcDbCircle
 10
56.3571
 20
-283.0714
 30
0.0
 40
1.0714
100
AcDbArc
 50
90.0
 51
180.0
  0
LINE
  5
733
100
AcDbEntity
  8
LEVEL_15
  6
CONTINUOUS
 62
         2
100
AcDbLine
 10
56.3571
 20
-282.0
 30
0.0
 11
56.7143
 21
-282.0
 31
0.0
  0
ARC
  5
734
100
AcDbEntity
  8
LEVEL_15
  6
CONTINUOUS
 62
         2
100
AcDbCircle
 10
56.7143
 20
-283.0714
 30
0.0
 40
1.0714
100
AcDbArc
 50
0.0
 51
90.0
  0
LINE
  5
735
100
AcDbEntity
  8
LEVEL_15
  6
CONTINUOUS
 62
         2
100
AcDbLine
 10
57.7857
 20
-283.0714
 30
0.0
 11
57.7857
 21
-283.4286
 31
0.0
  0
ARC
  5
736
100
AcDbEntity
  8
LEVEL_15
  6
CONTINUOUS
 62
         2
100
AcDbCircle
 10
62.0714
 20
-283.0714
 30
0.0
 40
1.0715
100
AcDbArc
 50
0.0
 51
180.0
  0
LINE
  5
737
100
AcDbEntity
  8
LEVEL_15
  6
CONTINUOUS
 62
         2
100
AcDbLine
 10
61.0
 20
-283.0714
 30
0.0
 11
61.0
 21
-283.6071
 31
0.0
  0
LINE
  5
738
100
AcDbEntity
  8
LEVEL_15
  6
CONTINUOUS
 62
         2
100
AcDbLine
 10
63.1429
 20
-283.0714
 30
0.0
 11
63.1429
 21
-283.6071
 31
0.0
  0
ARC
  5
739
100
AcDbEntity
  8
LEVEL_15
  6
CONTINUOUS
 62
         2
100
AcDbCircle
 10
61.7143
 20
-283.6071
 30
0.0
 40
0.7143
100
AcDbArc
 50
180.0
 51
270.0
  0
ARC
  5
73A
100
AcDbEntity
  8
LEVEL_15
  6
CONTINUOUS
 62
         2
100
AcDbCircle
 10
62.4286
 20
-283.6071
 30
0.0
 40
0.7143
100
AcDbArc
 50
270.0
 51
360.0
  0
LINE
  5
73B
100
AcDbEntity
  8
LEVEL_15
  6
CONTINUOUS
 62
         2
100
AcDbLine
 10
61.7143
 20
-284.3214
 30
0.0
 11
62.4286
 21
-284.3214
 31
0.0
  0
ARC
  5
73C
100
AcDbEntity
  8
LEVEL_15
  6
CONTINUOUS
 62
         2
100
AcDbCircle
 10
61.7143
 20
-285.0357
 30
0.0
 40
0.7143
100
AcDbArc
 50
90.0
 51
180.0
  0
ARC
  5
73D
100
AcDbEntity
  8
LEVEL_15
  6
CONTINUOUS
 62
         2
100
AcDbCircle
 10
62.4286
 20
-285.0357
 30
0.0
 40
0.7143
100
AcDbArc
 50
0.0
 51
90.0
  0
LINE
  5
73E
100
AcDbEntity
  8
LEVEL_15
  6
CONTINUOUS
 62
         2
100
AcDbLine
 10
61.0
 20
-285.0357
 30
0.0
 11
61.0
 21
-285.9286
 31
0.0
  0
LINE
  5
73F
100
AcDbEntity
  8
LEVEL_15
  6
CONTINUOUS
 62
         2
100
AcDbLine
 10
63.1429
 20
-285.0357
 30
0.0
 11
63.1429
 21
-285.9286
 31
0.0
  0
ARC
  5
740
100
AcDbEntity
  8
LEVEL_15
  6
CONTINUOUS
 62
         2
100
AcDbCircle
 10
62.0714
 20
-285.9286
 30
0.0
 40
1.0714
100
AcDbArc
 50
180.0
 51
360.0
  0
LINE
  5
741
100
AcDbEntity
  8
LEVEL_15
  6
CONTINUOUS
 62
         2
100
AcDbLine
 10
34.0357
 20
-299.0
 30
0.0
 11
34.0357
 21
-294.0
 31
0.0
  0
LINE
  5
742
100
AcDbEntity
  8
LEVEL_15
  6
CONTINUOUS
 62
         2
100
AcDbLine
 10
34.0357
 20
-299.0
 30
0.0
 11
35.4643
 21
-299.0
 31
0.0
  0
LINE
  5
743
100
AcDbEntity
  8
LEVEL_15
  6
CONTINUOUS
 62
         2
100
AcDbLine
 10
34.0357
 20
-294.0
 30
0.0
 11
35.4643
 21
-294.0
 31
0.0
  0
ARC
  5
744
100
AcDbEntity
  8
LEVEL_15
  6
CONTINUOUS
 62
         2
100
AcDbCircle
 10
35.4643
 20
-295.0714
 30
0.0
 40
1.0714
100
AcDbArc
 50
0.0
 51
90.0
  0
ARC
  5
745
100
AcDbEntity
  8
LEVEL_15
  6
CONTINUOUS
 62
         2
100
AcDbCircle
 10
35.4643
 20
-297.9286
 30
0.0
 40
1.0714
100
AcDbArc
 50
270.0
 51
360.0
  0
LINE
  5
746
100
AcDbEntity
  8
LEVEL_15
  6
CONTINUOUS
 62
         2
100
AcDbLine
 10
36.5357
 20
-297.9286
 30
0.0
 11
36.5357
 21
-295.0714
 31
0.0
  0
LINE
  5
747
100
AcDbEntity
  8
LEVEL_15
  6
CONTINUOUS
 62
         2
100
AcDbLine
 10
37.25
 20
-297.75
 30
0.0
 11
39.3929
 21
-297.75
 31
0.0
  0
LINE
  5
748
100
AcDbEntity
  8
LEVEL_15
  6
CONTINUOUS
 62
         2
100
AcDbLine
 10
37.25
 20
-296.6786
 30
0.0
 11
39.3929
 21
-296.6786
 31
0.0
  0
LINE
  5
749
100
AcDbEntity
  8
LEVEL_15
  6
CONTINUOUS
 62
         2
100
AcDbLine
 10
40.1071
 20
-295.4286
 30
0.0
 11
40.1071
 21
-295.0714
 31
0.0
  0
ARC
  5
74A
100
AcDbEntity
  8
LEVEL_15
  6
CONTINUOUS
 62
         2
100
AcDbCircle
 10
41.1786
 20
-295.0714
 30
0.0
 40
1.0714039481
100
AcDbArc
 50
329.3682456456
 51
180.0
  0
LINE
  5
74B
100
AcDbEntity
  8
LEVEL_15
  6
CONTINUOUS
 62
         2
100
AcDbLine
 10
42.1729
 20
-295.6179
 30
0.0
 11
40.1071
 21
-299.0
 31
0.0
  0
LINE
  5
74C
100
AcDbEntity
  8
LEVEL_15
  6
CONTINUOUS
 62
         2
100
AcDbLine
 10
40.1071
 20
-299.0
 30
0.0
 11
42.25
 21
-299.0
 31
0.0
  0
ARC
  5
74D
100
AcDbEntity
  8
LEVEL_15
  6
CONTINUOUS
 62
         2
100
AcDbCircle
 10
44.0357
 20
-297.9286
 30
0.0
 40
1.0714
100
AcDbArc
 50
180.0
 51
360.0
  0
LINE
  5
74E
100
AcDbEntity
  8
LEVEL_15
  6
CONTINUOUS
 62
         2
100
AcDbLine
 10
45.1071
 20
-297.9286
 30
0.0
 11
45.1071
 21
-297.2143
 31
0.0
  0
ARC
  5
74F
100
AcDbEntity
  8
LEVEL_15
  6
CONTINUOUS
 62
         2
100
AcDbCircle
 10
44.0357
 20
-297.2143
 30
0.0
 40
1.0714
100
AcDbArc
 50
0.0
 51
180.0
  0
LINE
  5
750
100
AcDbEntity
  8
LEVEL_15
  6
CONTINUOUS
 62
         2
100
AcDbLine
 10
42.9643
 20
-297.9286
 30
0.0
 11
42.9643
 21
-297.2143
 31
0.0
  0
LINE
  5
751
100
AcDbEntity
  8
LEVEL_15
  6
CONTINUOUS
 62
         2
100
AcDbLine
 10
43.07
 20
-296.75
 30
0.0
 11
44.3929
 21
-294.0
 31
0.0
  0
LINE
  5
752
100
AcDbEntity
  8
LEVEL_15
  6
CONTINUOUS
 62
         2
100
AcDbLine
 10
45.8214
 20
-297.2143
 30
0.0
 11
47.9643
 21
-297.2143
 31
0.0
  0
LINE
  5
753
100
AcDbEntity
  8
LEVEL_15
  6
CONTINUOUS
 62
         2
100
AcDbLine
 10
48.6786
 20
-295.4286
 30
0.0
 11
48.6786
 21
-295.0714
 31
0.0
  0
ARC
  5
754
100
AcDbEntity
  8
LEVEL_15
  6
CONTINUOUS
 62
         2
100
AcDbCircle
 10
49.75
 20
-295.0714
 30
0.0
 40
1.0714
100
AcDbArc
 50
0.0
 51
180.0
  0
LINE
  5
755
100
AcDbEntity
  8
LEVEL_15
  6
CONTINUOUS
 62
         2
100
AcDbLine
 10
50.8214
 20
-295.0714
 30
0.0
 11
50.8214
 21
-295.6071
 31
0.0
  0
ARC
  5
756
100
AcDbEntity
  8
LEVEL_15
  6
CONTINUOUS
 62
         2
100
AcDbCircle
 10
50.1071
 20
-295.6071
 30
0.0
 40
0.7143
100
AcDbArc
 50
270.0
 51
360.0
  0
LINE
  5
757
100
AcDbEntity
  8
LEVEL_15
  6
CONTINUOUS
 62
         2
100
AcDbLine
 10
49.3929
 20
-296.3214
 30
0.0
 11
50.1071
 21
-296.3214
 31
0.0
  0
ARC
  5
758
100
AcDbEntity
  8
LEVEL_15
  6
CONTINUOUS
 62
         2
100
AcDbCircle
 10
50.1071
 20
-297.0357
 30
0.0
 40
0.7143
100
AcDbArc
 50
0.0
 51
90.0
  0
LINE
  5
759
100
AcDbEntity
  8
LEVEL_15
  6
CONTINUOUS
 62
         2
100
AcDbLine
 10
50.8214
 20
-297.0357
 30
0.0
 11
50.8214
 21
-297.9286
 31
0.0
  0
ARC
  5
75A
100
AcDbEntity
  8
LEVEL_15
  6
CONTINUOUS
 62
         2
100
AcDbCircle
 10
49.75
 20
-297.9286
 30
0.0
 40
1.0714
100
AcDbArc
 50
180.0
 51
360.0
  0
LINE
  5
75B
100
AcDbEntity
  8
LEVEL_15
  6
CONTINUOUS
 62
         2
100
AcDbLine
 10
48.6786
 20
-297.9286
 30
0.0
 11
48.6786
 21
-297.5714
 31
0.0
  0
LINE
  5
75C
100
AcDbEntity
  8
LEVEL_15
  6
CONTINUOUS
 62
         2
100
AcDbLine
 10
52.9643
 20
-299.0
 30
0.0
 11
52.9643
 21
-294.0
 31
0.0
  0
LINE
  5
75D
100
AcDbEntity
  8
LEVEL_15
  6
CONTINUOUS
 62
         2
100
AcDbLine
 10
51.5357
 20
-295.0714
 30
0.0
 11
52.9643
 21
-294.0
 31
0.0
  0
LINE
  5
75E
100
AcDbEntity
  8
LEVEL_15
  6
CONTINUOUS
 62
         2
100
AcDbLine
 10
54.3929
 20
-299.3571
 30
0.0
 11
54.3929
 21
-298.2857
 31
0.0
  0
ARC
  5
75F
100
AcDbEntity
  8
LEVEL_15
  6
CONTINUOUS
 62
         2
100
AcDbCircle
 10
56.8929
 20
-295.0714
 30
0.0
 40
1.0714
100
AcDbArc
 50
0.0
 51
180.0
  0
LINE
  5
760
100
AcDbEntity
  8
LEVEL_15
  6
CONTINUOUS
 62
         2
100
AcDbLine
 10
55.8214
 20
-295.0714
 30
0.0
 11
55.8214
 21
-295.7857
 31
0.0
  0
LINE
  5
761
100
AcDbEntity
  8
LEVEL_15
  6
CONTINUOUS
 62
         2
100
AcDbLine
 10
57.9643
 20
-295.0714
 30
0.0
 11
57.9643
 21
-295.7857
 31
0.0
  0
ARC
  5
762
100
AcDbEntity
  8
LEVEL_15
  6
CONTINUOUS
 62
         2
100
AcDbCircle
 10
56.8929
 20
-295.7857
 30
0.0
 40
1.0715
100
AcDbArc
 50
180.0
 51
360.0
  0
LINE
  5
763
100
AcDbEntity
  8
LEVEL_15
  6
CONTINUOUS
 62
         2
100
AcDbLine
 10
56.5357
 20
-299.0
 30
0.0
 11
57.8586
 21
-296.25
 31
0.0
  0
LINE
  5
764
100
AcDbEntity
  8
LEVEL_16
  6
CONTINUOUS
 62
         2
100
AcDbLine
 10
192.8038
 20
-257.5443
 30
0.0
 11
195.1961
 21
-261.6878
 31
0.0
  0
LINE
  5
765
100
AcDbEntity
  8
LEVEL_16
  6
CONTINUOUS
 62
         2
100
AcDbLine
 10
219.1962
 20
-257.5443
 30
0.0
 11
216.8038
 21
-261.6878
 31
0.0
  0
LINE
  5
766
100
AcDbEntity
  8
LEVEL_16
  6
HIDDEN2
 62
         5
100
AcDbLine
 10
207.5
 20
-273.75
 30
0.0
 11
213.9371
 21
-272.7305
 31
0.0
  0
LINE
  5
767
100
AcDbEntity
  8
LEVEL_16
  6
CONTINUOUS
 62
         2
100
AcDbLine
 10
216.0
 20
-270.6956
 30
0.0
 11
216.0
 21
-269.8044
 31
0.0
  0
LINE
  5
768
100
AcDbEntity
  8
LEVEL_16
  6
HIDDEN2
 62
         5
100
AcDbLine
 10
214.3129
 20
-267.8291
 30
0.0
 11
207.5
 21
-266.75
 31
0.0
  0
LINE
  5
769
100
AcDbEntity
  8
LEVEL_16
  6
HIDDEN2
 62
         5
100
AcDbLine
 10
207.5
 20
-266.75
 30
0.0
 11
204.5
 21
-266.75
 31
0.0
  0
LINE
  5
76A
100
AcDbEntity
  8
LEVEL_16
  6
HIDDEN2
 62
         5
100
AcDbLine
 10
204.5
 20
-266.75
 30
0.0
 11
197.6871
 21
-267.8291
 31
0.0
  0
LINE
  5
76B
100
AcDbEntity
  8
LEVEL_16
  6
CONTINUOUS
 62
         2
100
AcDbLine
 10
196.0
 20
-269.8044
 30
0.0
 11
196.0
 21
-270.6956
 31
0.0
  0
LINE
  5
76C
100
AcDbEntity
  8
LEVEL_16
  6
CONTINUOUS
 62
         2
100
AcDbLine
 10
197.6871
 20
-272.671
 30
0.0
 11
198.0629
 21
-272.7305
 31
0.0
  0
LINE
  5
76D
100
AcDbEntity
  8
LEVEL_16
  6
HIDDEN2
 62
         5
100
AcDbLine
 10
204.5
 20
-273.75
 30
0.0
 11
207.5
 21
-273.75
 31
0.0
  0
ARC
  5
76E
100
AcDbEntity
  8
LEVEL_16
  6
HIDDEN2
 62
         5
100
AcDbCircle
 10
198.0
 20
-269.8044
 30
0.0
 40
1.9999291237
100
AcDbArc
 50
99.0012228206
 51
180.0
  0
ARC
  5
76F
100
AcDbEntity
  8
LEVEL_16
  6
CONTINUOUS
 62
         2
100
AcDbCircle
 10
198.0
 20
-270.6956
 30
0.0
 40
2.0
100
AcDbArc
 50
180.0
 51
260.9992253853
  0
ARC
  5
770
100
AcDbEntity
  8
LEVEL_16
  6
CONTINUOUS
 62
         2
100
AcDbCircle
 10
214.0
 20
-270.6956
 30
0.0
 40
2.0000278923
100
AcDbArc
 50
279.0007746147
 51
360.0
  0
ARC
  5
771
100
AcDbEntity
  8
LEVEL_16
  6
HIDDEN2
 62
         5
100
AcDbCircle
 10
214.0
 20
-269.8044
 30
0.0
 40
2.0
100
AcDbArc
 50
0.0
 51
80.9987771794
  0
LINE
  5
772
100
AcDbEntity
  8
LEVEL_16
  6
CONTINUOUS
 62
         2
100
AcDbLine
 10
196.0
 20
-264.6878
 30
0.0
 11
196.0
 21
-269.8044
 31
0.0
  0
LINE
  5
773
100
AcDbEntity
  8
LEVEL_16
  6
CONTINUOUS
 62
         2
100
AcDbLine
 10
216.0
 20
-264.6878
 30
0.0
 11
216.0
 21
-266.0
 31
0.0
  0
LINE
  5
774
100
AcDbEntity
  8
LEVEL_16
  6
CONTINUOUS
 62
         2
100
AcDbLine
 10
202.5863
 20
-315.3312
 30
0.0
 11
199.9658
 21
-306.7031
 31
0.0
  0
LINE
  5
775
100
AcDbEntity
  8
LEVEL_16
  6
CONTINUOUS
 62
         2
100
AcDbLine
 10
209.4137
 20
-315.3312
 30
0.0
 11
212.0342
 21
-306.7031
 31
0.0
  0
ARC
  5
776
100
AcDbEntity
  8
LEVEL_16
  6
CONTINUOUS
 62
         2
100
AcDbCircle
 10
207.25
 20
-305.25
 30
0.0
 40
5.000006925
100
AcDbArc
 50
343.1049459438
 51
360.0
  0
ARC
  5
777
100
AcDbEntity
  8
LEVEL_16
  6
HIDDEN2
 62
         5
100
AcDbCircle
 10
204.75
 20
-305.25
 30
0.0
 40
5.0
100
AcDbArc
 50
90.0
 51
180.0
  0
LINE
  5
778
100
AcDbEntity
  8
LEVEL_16
  6
HIDDEN2
 62
         5
100
AcDbLine
 10
204.75
 20
-300.25
 30
0.0
 11
207.25
 21
-300.25
 31
0.0
  0
ARC
  5
779
100
AcDbEntity
  8
LEVEL_16
  6
CONTINUOUS
 62
         2
100
AcDbCircle
 10
204.5
 20
-314.75
 30
0.0
 40
2.0000102825
100
AcDbArc
 50
196.8937910936
 51
270.0
  0
ARC
  5
77A
100
AcDbEntity
  8
LEVEL_16
  6
CONTINUOUS
 62
         2
100
AcDbCircle
 10
207.5
 20
-314.75
 30
0.0
 40
2.0
100
AcDbArc
 50
270.0
 51
343.1062089064
  0
LINE
  5
77B
100
AcDbEntity
  8
LEVEL_16
  6
CONTINUOUS
 62
         2
100
AcDbLine
 10
204.5
 20
-316.75
 30
0.0
 11
207.5
 21
-316.75
 31
0.0
  0
LINE
  5
77C
100
AcDbEntity
  8
LEVEL_16
  6
CONTINUOUS
 62
         2
100
AcDbLine
 10
199.75
 20
-274.7058
 30
0.0
 11
199.75
 21
-305.25
 31
0.0
  0
LINE
  5
77D
100
AcDbEntity
  8
LEVEL_16
  6
CONTINUOUS
 62
         2
100
AcDbLine
 10
212.25
 20
-305.25
 30
0.0
 11
212.25
 21
-274.7058
 31
0.0
  0
LINE
  5
77E
100
AcDbEntity
  8
LEVEL_16
  6
CONTINUOUS
 62
         2
100
AcDbLine
 10
213.9371
 20
-272.7305
 30
0.0
 11
214.3129
 21
-272.671
 31
0.0
  0
LINE
  5
77F
100
AcDbEntity
  8
LEVEL_16
  6
HIDDEN2
 62
         5
100
AcDbLine
 10
198.0629
 20
-272.7305
 30
0.0
 11
204.5
 21
-273.75
 31
0.0
  0
ARC
  5
780
100
AcDbEntity
  8
LEVEL_16
  6
CONTINUOUS
 62
         2
100
AcDbCircle
 10
204.75
 20
-305.25
 30
0.0
 40
5.0
100
AcDbArc
 50
180.0
 51
196.8950540562
  0
ARC
  5
781
100
AcDbEntity
  8
LEVEL_16
  6
HIDDEN2
 62
         5
100
AcDbCircle
 10
207.25
 20
-305.25
 30
0.0
 40
5.0
100
AcDbArc
 50
0.0
 51
87.1339896102
  0
ARC
  5
782
100
AcDbEntity
  8
LEVEL_16
  6
CONTINUOUS
 62
         2
100
AcDbCircle
 10
214.25
 20
-274.7058
 30
0.0
 40
1.9999291237
100
AcDbArc
 50
99.0012228206
 51
180.0
  0
ARC
  5
783
100
AcDbEntity
  8
LEVEL_16
  6
CONTINUOUS
 62
         2
100
AcDbCircle
 10
197.75
 20
-274.7058
 30
0.0
 40
2.0
100
AcDbArc
 50
0.0
 51
80.9987771794
  0
ARC
  5
784
100
AcDbEntity
  8
LEVEL_16
  6
CONTINUOUS
 62
         2
100
AcDbCircle
 10
190.0
 20
-264.6878
 30
0.0
 40
6.0
100
AcDbArc
 50
0.0
 51
30.0002503019
  0
ARC
  5
785
100
AcDbEntity
  8
LEVEL_16
  6
CONTINUOUS
 62
         2
100
AcDbCircle
 10
222.0
 20
-264.6878
 30
0.0
 40
6.0000412032
100
AcDbArc
 50
150.0002271633
 51
180.0
  0
ARC
  5
786
100
AcDbEntity
  8
LEVEL_16
  6
CONTINUOUS
 62
         2
100
AcDbCircle
 10
206.0
 20
-248.25
 30
0.0
 40
6.05
100
AcDbArc
 50
90.0
 51
152.96440535
  0
ARC
  5
787
100
AcDbEntity
  8
LEVEL_16
  6
CONTINUOUS
 62
         2
100
AcDbCircle
 10
206.0
 20
-248.25
 30
0.0
 40
6.0500201
100
AcDbArc
 50
152.96440535
 51
207.03559465
  0
ARC
  5
788
100
AcDbEntity
  8
LEVEL_16
  6
CONTINUOUS
 62
         2
100
AcDbCircle
 10
206.0
 20
-248.25
 30
0.0
 40
6.0500201
100
AcDbArc
 50
207.03559465
 51
332.96440535
  0
ARC
  5
789
100
AcDbEntity
  8
LEVEL_16
  6
CONTINUOUS
 62
         2
100
AcDbCircle
 10
206.0
 20
-248.25
 30
0.0
 40
6.0500201
100
AcDbArc
 50
332.96440535
 51
27.03559465
  0
ARC
  5
78A
100
AcDbEntity
  8
LEVEL_16
  6
CONTINUOUS
 62
         2
100
AcDbCircle
 10
206.0
 20
-248.25
 30
0.0
 40
6.0500201
100
AcDbArc
 50
27.03559465
 51
90.0
  0
LINE
  5
78B
100
AcDbEntity
  8
LEVEL_16
  6
CONTINUOUS
 62
         2
100
AcDbLine
 10
220.0
 20
-254.5442
 30
0.0
 11
220.0
 21
-244.25
 31
0.0
  0
LINE
  5
78C
100
AcDbEntity
  8
LEVEL_16
  6
CONTINUOUS
 62
         2
100
AcDbLine
 10
220.0
 20
-244.25
 30
0.0
 11
217.8868
 21
-240.8538
 31
0.0
  0
ARC
  5
78D
100
AcDbEntity
  8
LEVEL_16
  6
CONTINUOUS
 62
         2
100
AcDbCircle
 10
206.0
 20
-248.25
 30
0.0
 40
13.9999924529
100
AcDbArc
 50
31.8906836965
 51
148.1093163035
  0
LINE
  5
78E
100
AcDbEntity
  8
LEVEL_16
  6
CONTINUOUS
 62
         2
100
AcDbLine
 10
194.1132
 20
-240.8538
 30
0.0
 11
192.0
 21
-244.25
 31
0.0
  0
LINE
  5
78F
100
AcDbEntity
  8
LEVEL_16
  6
CONTINUOUS
 62
         2
100
AcDbLine
 10
192.0
 20
-244.25
 30
0.0
 11
192.0
 21
-254.5442
 31
0.0
  0
ARC
  5
790
100
AcDbEntity
  8
LEVEL_16
  6
CONTINUOUS
 62
         2
100
AcDbCircle
 10
214.0
 20
-254.5442
 30
0.0
 40
6.0000912035
100
AcDbArc
 50
329.9994001806
 51
360.0
  0
ARC
  5
791
100
AcDbEntity
  8
LEVEL_16
  6
CONTINUOUS
 62
         2
100
AcDbCircle
 10
198.0
 20
-254.5442
 30
0.0
 40
6.0
100
AcDbArc
 50
180.0
 51
210.0005998194
  0
LINE
  5
792
100
AcDbEntity
  8
LEVEL_16
  6
CONTINUOUS
 62
         2
100
AcDbLine
 10
224.0
 20
-292.0
 30
0.0
 11
224.0
 21
-276.0
 31
0.0
  0
LINE
  5
793
100
AcDbEntity
  8
LEVEL_16
  6
CONTINUOUS
 62
         2
100
AcDbLine
 10
224.0
 20
-266.0
 30
0.0
 11
216.0
 21
-266.0
 31
0.0
  0
LINE
  5
794
100
AcDbEntity
  8
LEVEL_16
  6
CONTINUOUS
 62
         2
100
AcDbLine
 10
207.5
 20
-318.0
 30
0.0
 11
224.0
 21
-318.0
 31
0.0
  0
LINE
  5
795
100
AcDbEntity
  8
LEVEL_16
  6
CONTINUOUS
 62
         2
100
AcDbLine
 10
224.0
 20
-318.0
 30
0.0
 11
224.0
 21
-308.0
 31
0.0
  0
LINE
  5
796
100
AcDbEntity
  8
LEVEL_16
  6
CONTINUOUS
 62
         2
100
AcDbLine
 10
216.0
 20
-266.0
 30
0.0
 11
216.0
 21
-269.8044
 31
0.0
  0
ARC
  5
797
100
AcDbEntity
  8
LEVEL_16
  6
HIDDEN2
 62
         5
100
AcDbCircle
 10
207.25
 20
-305.25
 30
0.0
 40
4.9999539688
100
AcDbArc
 50
87.1339896102
 51
90.0
  0
LINE
  5
798
100
AcDbEntity
  8
LEVEL_16
  6
CONTINUOUS
 62
         2
100
AcDbLine
 10
224.0
 20
-308.0
 30
0.0
 11
285.0
 21
-308.0
 31
0.0
  0
LINE
  5
799
100
AcDbEntity
  8
LEVEL_16
  6
CONTINUOUS
 62
         2
100
AcDbLine
 10
285.0
 20
-308.0
 30
0.0
 11
288.0
 21
-305.0
 31
0.0
  0
LINE
  5
79A
100
AcDbEntity
  8
LEVEL_16
  6
CONTINUOUS
 62
         2
100
AcDbLine
 10
288.0
 20
-305.0
 30
0.0
 11
288.0
 21
-279.0
 31
0.0
  0
LINE
  5
79B
100
AcDbEntity
  8
LEVEL_16
  6
CONTINUOUS
 62
         2
100
AcDbLine
 10
288.0
 20
-279.0
 30
0.0
 11
285.0
 21
-276.0
 31
0.0
  0
LINE
  5
79C
100
AcDbEntity
  8
LEVEL_16
  6
CONTINUOUS
 62
         2
100
AcDbLine
 10
285.0
 20
-276.0
 30
0.0
 11
224.0
 21
-276.0
 31
0.0
  0
LINE
  5
79D
100
AcDbEntity
  8
LEVEL_16
  6
CONTINUOUS
 62
         2
100
AcDbLine
 10
285.0
 20
-308.0
 30
0.0
 11
285.0
 21
-276.0
 31
0.0
  0
LINE
  5
79E
100
AcDbEntity
  8
LEVEL_16
  6
CONTINUOUS
 62
         2
100
AcDbLine
 10
224.0
 20
-276.0
 30
0.0
 11
224.0
 21
-266.0
 31
0.0
  0
LINE
  5
79F
100
AcDbEntity
  8
LEVEL_16
  6
CONTINUOUS
 62
         2
100
AcDbLine
 10
224.0
 20
-308.0
 30
0.0
 11
224.0
 21
-292.0
 31
0.0
  0
LINE
  5
7A0
100
AcDbEntity
  8
LEVEL_16
  6
CENTER2
 62
         3
100
AcDbLine
 10
197.55
 20
-287.0
 30
0.0
 11
214.45
 21
-287.0
 31
0.0
  0
LINE
  5
7A1
100
AcDbEntity
  8
LEVEL_16
  6
CENTER2
 62
         3
100
AcDbLine
 10
220.7
 20
-248.25
 30
0.0
 11
191.3
 21
-248.25
 31
0.0
  0
LINE
  5
7A2
100
AcDbEntity
  8
LEVEL_16
  6
CENTER2
 62
         3
100
AcDbLine
 10
206.0
 20
-227.95
 30
0.0
 11
206.0
 21
-323.05
 31
0.0
  0
LINE
  5
7A3
100
AcDbEntity
  8
LEVEL_16
  6
CENTER2
 62
         3
100
AcDbLine
 10
219.18
 20
-292.0
 30
0.0
 11
292.82
 21
-292.0
 31
0.0
  0
LINE
  5
7A4
100
AcDbEntity
  8
LEVEL_16
  6
CONTINUOUS
 62
         2
100
AcDbLine
 10
207.5
 20
-318.0
 30
0.0
 11
207.5
 21
-316.75
 31
0.0
  0
LINE
  5
7A5
100
AcDbEntity
  8
LEVEL_16
  6
CONTINUOUS
 62
         2
100
AcDbLine
 10
233.1429
 20
-289.0
 30
0.0
 11
233.1429
 21
-283.0
 31
0.0
  0
LINE
  5
7A6
100
AcDbEntity
  8
LEVEL_16
  6
CONTINUOUS
 62
         2
100
AcDbLine
 10
233.1429
 20
-283.0
 30
0.0
 11
234.8571
 21
-283.0
 31
0.0
  0
LINE
  5
7A7
100
AcDbEntity
  8
LEVEL_16
  6
CONTINUOUS
 62
         2
100
AcDbLine
 10
233.1429
 20
-286.0
 30
0.0
 11
234.8571
 21
-286.0
 31
0.0
  0
ARC
  5
7A8
100
AcDbEntity
  8
LEVEL_16
  6
CONTINUOUS
 62
         2
100
AcDbCircle
 10
234.8571
 20
-284.2857
 30
0.0
 40
1.2858
100
AcDbArc
 50
0.0
 51
90.0
  0
ARC
  5
7A9
100
AcDbEntity
  8
LEVEL_16
  6
CONTINUOUS
 62
         2
100
AcDbCircle
 10
234.8571
 20
-284.7143
 30
0.0
 40
1.2857
100
AcDbArc
 50
270.0
 51
360.0
  0
LINE
  5
7AA
100
AcDbEntity
  8
LEVEL_16
  6
CONTINUOUS
 62
         2
100
AcDbLine
 10
236.1429
 20
-284.7143
 30
0.0
 11
236.1429
 21
-284.2857
 31
0.0
  0
LINE
  5
7AB
100
AcDbEntity
  8
LEVEL_16
  6
CONTINUOUS
 62
         2
100
AcDbLine
 10
234.8571
 20
-286.0
 30
0.0
 11
236.1429
 21
-289.0
 31
0.0
  0
ARC
  5
7AC
100
AcDbEntity
  8
LEVEL_16
  6
CONTINUOUS
 62
         2
100
AcDbCircle
 10
238.2857
 20
-287.7143
 30
0.0
 40
1.2857
100
AcDbArc
 50
180.0
 51
270.0
  0
LINE
  5
7AD
100
AcDbEntity
  8
LEVEL_16
  6
CONTINUOUS
 62
         2
100
AcDbLine
 10
238.2857
 20
-289.0
 30
0.0
 11
238.7143
 21
-289.0
 31
0.0
  0
ARC
  5
7AE
100
AcDbEntity
  8
LEVEL_16
  6
CONTINUOUS
 62
         2
100
AcDbCircle
 10
238.7143
 20
-287.7143
 30
0.0
 40
1.2857
100
AcDbArc
 50
270.0
 51
360.0
  0
LINE
  5
7AF
100
AcDbEntity
  8
LEVEL_16
  6
CONTINUOUS
 62
         2
100
AcDbLine
 10
237.0
 20
-287.7143
 30
0.0
 11
237.0
 21
-283.0
 31
0.0
  0
LINE
  5
7B0
100
AcDbEntity
  8
LEVEL_16
  6
CONTINUOUS
 62
         2
100
AcDbLine
 10
240.0
 20
-287.7143
 30
0.0
 11
240.0
 21
-283.0
 31
0.0
  0
LINE
  5
7B1
100
AcDbEntity
  8
LEVEL_16
  6
CONTINUOUS
 62
         2
100
AcDbLine
 10
240.8571
 20
-289.0
 30
0.0
 11
240.8571
 21
-283.0
 31
0.0
  0
LINE
  5
7B2
100
AcDbEntity
  8
LEVEL_16
  6
CONTINUOUS
 62
         2
100
AcDbLine
 10
240.8571
 20
-289.0
 30
0.0
 11
242.5714
 21
-289.0
 31
0.0
  0
LINE
  5
7B3
100
AcDbEntity
  8
LEVEL_16
  6
CONTINUOUS
 62
         2
100
AcDbLine
 10
240.8571
 20
-283.0
 30
0.0
 11
242.5714
 21
-283.0
 31
0.0
  0
ARC
  5
7B4
100
AcDbEntity
  8
LEVEL_16
  6
CONTINUOUS
 62
         2
100
AcDbCircle
 10
242.5714
 20
-284.2857
 30
0.0
 40
1.2857
100
AcDbArc
 50
0.0
 51
90.0
  0
ARC
  5
7B5
100
AcDbEntity
  8
LEVEL_16
  6
CONTINUOUS
 62
         2
100
AcDbCircle
 10
242.5714
 20
-287.7143
 30
0.0
 40
1.2857
100
AcDbArc
 50
270.0
 51
360.0
  0
LINE
  5
7B6
100
AcDbEntity
  8
LEVEL_16
  6
CONTINUOUS
 62
         2
100
AcDbLine
 10
243.8571
 20
-287.7143
 30
0.0
 11
243.8571
 21
-284.2857
 31
0.0
  0
LINE
  5
7B7
100
AcDbEntity
  8
LEVEL_16
  6
CONTINUOUS
 62
         2
100
AcDbLine
 10
253.7143
 20
-283.0
 30
0.0
 11
255.2143
 21
-289.0
 31
0.0
  0
LINE
  5
7B8
100
AcDbEntity
  8
LEVEL_16
  6
CONTINUOUS
 62
         2
100
AcDbLine
 10
255.2143
 20
-289.0
 30
0.0
 11
256.7143
 21
-283.0
 31
0.0
  0
LINE
  5
7B9
100
AcDbEntity
  8
LEVEL_16
  6
CONTINUOUS
 62
         2
100
AcDbLine
 10
257.5714
 20
-289.0
 30
0.0
 11
257.5714
 21
-283.0
 31
0.0
  0
LINE
  5
7BA
100
AcDbEntity
  8
LEVEL_16
  6
CONTINUOUS
 62
         2
100
AcDbLine
 10
257.5714
 20
-289.0
 30
0.0
 11
260.1429
 21
-289.0
 31
0.0
  0
LINE
  5
7BB
100
AcDbEntity
  8
LEVEL_16
  6
CONTINUOUS
 62
         2
100
AcDbLine
 10
257.5714
 20
-283.0
 30
0.0
 11
260.1429
 21
-283.0
 31
0.0
  0
LINE
  5
7BC
100
AcDbEntity
  8
LEVEL_16
  6
CONTINUOUS
 62
         2
100
AcDbLine
 10
257.5714
 20
-286.0
 30
0.0
 11
259.7143
 21
-286.0
 31
0.0
  0
LINE
  5
7BD
100
AcDbEntity
  8
LEVEL_16
  6
CONTINUOUS
 62
         2
100
AcDbLine
 10
261.0
 20
-289.0
 30
0.0
 11
261.0
 21
-283.0
 31
0.0
  0
LINE
  5
7BE
100
AcDbEntity
  8
LEVEL_16
  6
CONTINUOUS
 62
         2
100
AcDbLine
 10
261.0
 20
-283.0
 30
0.0
 11
262.7143
 21
-283.0
 31
0.0
  0
LINE
  5
7BF
100
AcDbEntity
  8
LEVEL_16
  6
CONTINUOUS
 62
         2
100
AcDbLine
 10
261.0
 20
-286.0
 30
0.0
 11
262.7143
 21
-286.0
 31
0.0
  0
ARC
  5
7C0
100
AcDbEntity
  8
LEVEL_16
  6
CONTINUOUS
 62
         2
100
AcDbCircle
 10
262.7143
 20
-284.2857
 30
0.0
 40
1.2857
100
AcDbArc
 50
0.0
 51
90.0
  0
ARC
  5
7C1
100
AcDbEntity
  8
LEVEL_16
  6
CONTINUOUS
 62
         2
100
AcDbCircle
 10
262.7143
 20
-284.7143
 30
0.0
 40
1.2857
100
AcDbArc
 50
270.0
 51
360.0
  0
LINE
  5
7C2
100
AcDbEntity
  8
LEVEL_16
  6
CONTINUOUS
 62
         2
100
AcDbLine
 10
264.0
 20
-284.7143
 30
0.0
 11
264.0
 21
-284.2857
 31
0.0
  0
LINE
  5
7C3
100
AcDbEntity
  8
LEVEL_16
  6
CONTINUOUS
 62
         2
100
AcDbLine
 10
262.7143
 20
-286.0
 30
0.0
 11
264.0
 21
-289.0
 31
0.0
  0
ARC
  5
7C4
100
AcDbEntity
  8
LEVEL_16
  6
CONTINUOUS
 62
         2
100
AcDbCircle
 10
266.1429
 20
-287.7143
 30
0.0
 40
1.2858
100
AcDbArc
 50
180.0
 51
270.0
  0
LINE
  5
7C5
100
AcDbEntity
  8
LEVEL_16
  6
CONTINUOUS
 62
         2
100
AcDbLine
 10
266.1429
 20
-289.0
 30
0.0
 11
266.5714
 21
-289.0
 31
0.0
  0
ARC
  5
7C6
100
AcDbEntity
  8
LEVEL_16
  6
CONTINUOUS
 62
         2
100
AcDbCircle
 10
266.5714
 20
-287.7143
 30
0.0
 40
1.2857
100
AcDbArc
 50
270.0
 51
360.0
  0
LINE
  5
7C7
100
AcDbEntity
  8
LEVEL_16
  6
CONTINUOUS
 62
         2
100
AcDbLine
 10
267.8571
 20
-287.7143
 30
0.0
 11
267.8571
 21
-286.0
 31
0.0
  0
LINE
  5
7C8
100
AcDbEntity
  8
LEVEL_16
  6
CONTINUOUS
 62
         2
100
AcDbLine
 10
267.8571
 20
-286.0
 30
0.0
 11
266.3571
 21
-286.0
 31
0.0
  0
LINE
  5
7C9
100
AcDbEntity
  8
LEVEL_16
  6
CONTINUOUS
 62
         2
100
AcDbLine
 10
264.8571
 20
-287.7143
 30
0.0
 11
264.8571
 21
-284.2857
 31
0.0
  0
ARC
  5
7CA
100
AcDbEntity
  8
LEVEL_16
  6
CONTINUOUS
 62
         2
100
AcDbCircle
 10
266.1429
 20
-284.2857
 30
0.0
 40
1.2857
100
AcDbArc
 50
90.0
 51
180.0
  0
LINE
  5
7CB
100
AcDbEntity
  8
LEVEL_16
  6
CONTINUOUS
 62
         2
100
AcDbLine
 10
266.1429
 20
-283.0
 30
0.0
 11
266.5714
 21
-283.0
 31
0.0
  0
ARC
  5
7CC
100
AcDbEntity
  8
LEVEL_16
  6
CONTINUOUS
 62
         2
100
AcDbCircle
 10
266.5714
 20
-284.2857
 30
0.0
 40
1.2857
100
AcDbArc
 50
0.0
 51
90.0
  0
LINE
  5
7CD
100
AcDbEntity
  8
LEVEL_16
  6
CONTINUOUS
 62
         2
100
AcDbLine
 10
267.8571
 20
-284.2857
 30
0.0
 11
267.8571
 21
-284.7143
 31
0.0
  0
LINE
  5
7CE
100
AcDbEntity
  8
LEVEL_16
  6
CONTINUOUS
 62
         2
100
AcDbLine
 10
273.4286
 20
-289.0
 30
0.0
 11
273.4286
 21
-283.0
 31
0.0
  0
LINE
  5
7CF
100
AcDbEntity
  8
LEVEL_16
  6
CONTINUOUS
 62
         2
100
AcDbLine
 10
271.7143
 20
-284.2857
 30
0.0
 11
273.4286
 21
-283.0
 31
0.0
  0
ARC
  5
7D0
100
AcDbEntity
  8
LEVEL_16
  6
CONTINUOUS
 62
         2
100
AcDbCircle
 10
275.5714
 20
-287.7143
 30
0.0
 40
1.2857
100
AcDbArc
 50
180.0
 51
360.0
  0
LINE
  5
7D1
100
AcDbEntity
  8
LEVEL_16
  6
CONTINUOUS
 62
         2
100
AcDbLine
 10
274.2857
 20
-287.7143
 30
0.0
 11
274.2857
 21
-284.2857
 31
0.0
  0
LINE
  5
7D2
100
AcDbEntity
  8
LEVEL_16
  6
CONTINUOUS
 62
         2
100
AcDbLine
 10
276.8571
 20
-287.7143
 30
0.0
 11
276.8571
 21
-284.2857
 31
0.0
  0
ARC
  5
7D3
100
AcDbEntity
  8
LEVEL_16
  6
CONTINUOUS
 62
         2
100
AcDbCircle
 10
275.5714
 20
-284.2857
 30
0.0
 40
1.2857
100
AcDbArc
 50
0.0
 51
180.0
  0
LINE
  5
7D4
100
AcDbEntity
  8
LEVEL_16
  6
CONTINUOUS
 62
         2
100
AcDbLine
 10
243.2143
 20
-304.0
 30
0.0
 11
243.2143
 21
-298.0
 31
0.0
  0
LINE
  5
7D5
100
AcDbEntity
  8
LEVEL_16
  6
CONTINUOUS
 62
         2
100
AcDbLine
 10
243.2143
 20
-304.0
 30
0.0
 11
244.9286
 21
-304.0
 31
0.0
  0
LINE
  5
7D6
100
AcDbEntity
  8
LEVEL_16
  6
CONTINUOUS
 62
         2
100
AcDbLine
 10
243.2143
 20
-298.0
 30
0.0
 11
244.9286
 21
-298.0
 31
0.0
  0
ARC
  5
7D7
100
AcDbEntity
  8
LEVEL_16
  6
CONTINUOUS
 62
         2
100
AcDbCircle
 10
244.9286
 20
-299.2857
 30
0.0
 40
1.2857
100
AcDbArc
 50
0.0
 51
90.0
  0
ARC
  5
7D8
100
AcDbEntity
  8
LEVEL_16
  6
CONTINUOUS
 62
         2
100
AcDbCircle
 10
244.9286
 20
-302.7143
 30
0.0
 40
1.2857
100
AcDbArc
 50
270.0
 51
360.0
  0
LINE
  5
7D9
100
AcDbEntity
  8
LEVEL_16
  6
CONTINUOUS
 62
         2
100
AcDbLine
 10
246.2143
 20
-302.7143
 30
0.0
 11
246.2143
 21
-299.2857
 31
0.0
  0
LINE
  5
7DA
100
AcDbEntity
  8
LEVEL_16
  6
CONTINUOUS
 62
         2
100
AcDbLine
 10
247.0714
 20
-302.5
 30
0.0
 11
249.6429
 21
-302.5
 31
0.0
  0
LINE
  5
7DB
100
AcDbEntity
  8
LEVEL_16
  6
CONTINUOUS
 62
         2
100
AcDbLine
 10
247.0714
 20
-301.2143
 30
0.0
 11
249.6429
 21
-301.2143
 31
0.0
  0
LINE
  5
7DC
100
AcDbEntity
  8
LEVEL_16
  6
CONTINUOUS
 62
         2
100
AcDbLine
 10
250.5
 20
-299.7143
 30
0.0
 11
250.5
 21
-299.2857
 31
0.0
  0
ARC
  5
7DD
100
AcDbEntity
  8
LEVEL_16
  6
CONTINUOUS
 62
         2
100
AcDbCircle
 10
251.7857
 20
-299.2857
 30
0.0
 40
1.2857
100
AcDbArc
 50
0.0
 51
180.0
  0
LINE
  5
7DE
100
AcDbEntity
  8
LEVEL_16
  6
CONTINUOUS
 62
         2
100
AcDbLine
 10
253.0714
 20
-299.2857
 30
0.0
 11
253.0714
 21
-299.9286
 31
0.0
  0
ARC
  5
7DF
100
AcDbEntity
  8
LEVEL_16
  6
CONTINUOUS
 62
         2
100
AcDbCircle
 10
252.2143
 20
-299.9286
 30
0.0
 40
0.8571
100
AcDbArc
 50
270.0
 51
360.0
  0
LINE
  5
7E0
100
AcDbEntity
  8
LEVEL_16
  6
CONTINUOUS
 62
         2
100
AcDbLine
 10
251.3571
 20
-300.7857
 30
0.0
 11
252.2143
 21
-300.7857
 31
0.0
  0
ARC
  5
7E1
100
AcDbEntity
  8
LEVEL_16
  6
CONTINUOUS
 62
         2
100
AcDbCircle
 10
252.2143
 20
-301.6429
 30
0.0
 40
0.8571
100
AcDbArc
 50
0.0
 51
90.0
  0
LINE
  5
7E2
100
AcDbEntity
  8
LEVEL_16
  6
CONTINUOUS
 62
         2
100
AcDbLine
 10
253.0714
 20
-301.6429
 30
0.0
 11
253.0714
 21
-302.7143
 31
0.0
  0
ARC
  5
7E3
100
AcDbEntity
  8
LEVEL_16
  6
CONTINUOUS
 62
         2
100
AcDbCircle
 10
251.7857
 20
-302.7143
 30
0.0
 40
1.2857
100
AcDbArc
 50
180.0
 51
360.0
  0
LINE
  5
7E4
100
AcDbEntity
  8
LEVEL_16
  6
CONTINUOUS
 62
         2
100
AcDbLine
 10
250.5
 20
-302.7143
 30
0.0
 11
250.5
 21
-302.2857
 31
0.0
  0
LINE
  5
7E5
100
AcDbEntity
  8
LEVEL_16
  6
CONTINUOUS
 62
         2
100
AcDbLine
 10
253.9286
 20
-299.7143
 30
0.0
 11
253.9286
 21
-299.2857
 31
0.0
  0
ARC
  5
7E6
100
AcDbEntity
  8
LEVEL_16
  6
CONTINUOUS
 62
         2
100
AcDbCircle
 10
255.2143
 20
-299.2857
 30
0.0
 40
1.2857121373
100
AcDbArc
 50
329.3679328624
 51
180.0
  0
LINE
  5
7E7
100
AcDbEntity
  8
LEVEL_16
  6
CONTINUOUS
 62
         2
100
AcDbLine
 10
256.4074
 20
-299.9414
 30
0.0
 11
253.9286
 21
-304.0
 31
0.0
  0
LINE
  5
7E8
100
AcDbEntity
  8
LEVEL_16
  6
CONTINUOUS
 62
         2
100
AcDbLine
 10
253.9286
 20
-304.0
 30
0.0
 11
256.5
 21
-304.0
 31
0.0
  0
LINE
  5
7E9
100
AcDbEntity
  8
LEVEL_16
  6
CONTINUOUS
 62
         2
100
AcDbLine
 10
257.3571
 20
-301.8571
 30
0.0
 11
259.9286
 21
-301.8571
 31
0.0
  0
LINE
  5
7EA
100
AcDbEntity
  8
LEVEL_16
  6
CONTINUOUS
 62
         2
100
AcDbLine
 10
260.7857
 20
-302.7143
 30
0.0
 11
263.3571
 21
-302.7143
 31
0.0
  0
LINE
  5
7EB
100
AcDbEntity
  8
LEVEL_16
  6
CONTINUOUS
 62
         2
100
AcDbLine
 10
263.1429
 20
-304.0
 30
0.0
 11
263.1429
 21
-300.5714
 31
0.0
  0
LINE
  5
7EC
100
AcDbEntity
  8
LEVEL_16
  6
CONTINUOUS
 62
         2
100
AcDbLine
 10
260.7857
 20
-302.7143
 30
0.0
 11
262.5
 21
-298.0
 31
0.0
  0
ARC
  5
7ED
100
AcDbEntity
  8
LEVEL_16
  6
CONTINUOUS
 62
         2
100
AcDbCircle
 10
265.5
 20
-299.2857
 30
0.0
 40
1.2857
100
AcDbArc
 50
0.0
 51
180.0
  0
LINE
  5
7EE
100
AcDbEntity
  8
LEVEL_16
  6
CONTINUOUS
 62
         2
100
AcDbLine
 10
264.2143
 20
-299.2857
 30
0.0
 11
264.2143
 21
-299.9286
 31
0.0
  0
LINE
  5
7EF
100
AcDbEntity
  8
LEVEL_16
  6
CONTINUOUS
 62
         2
100
AcDbLine
 10
266.7857
 20
-299.2857
 30
0.0
 11
266.7857
 21
-299.9286
 31
0.0
  0
ARC
  5
7F0
100
AcDbEntity
  8
LEVEL_16
  6
CONTINUOUS
 62
         2
100
AcDbCircle
 10
265.0714
 20
-299.9286
 30
0.0
 40
0.8571
100
AcDbArc
 50
180.0
 51
270.0
  0
ARC
  5
7F1
100
AcDbEntity
  8
LEVEL_16
  6
CONTINUOUS
 62
         2
100
AcDbCircle
 10
265.9286
 20
-299.9286
 30
0.0
 40
0.8571
100
AcDbArc
 50
270.0
 51
360.0
  0
LINE
  5
7F2
100
AcDbEntity
  8
LEVEL_16
  6
CONTINUOUS
 62
         2
100
AcDbLine
 10
265.0714
 20
-300.7857
 30
0.0
 11
265.9286
 21
-300.7857
 31
0.0
  0
ARC
  5
7F3
100
AcDbEntity
  8
LEVEL_16
  6
CONTINUOUS
 62
         2
100
AcDbCircle
 10
265.0714
 20
-301.6429
 30
0.0
 40
0.8572
100
AcDbArc
 50
90.0
 51
180.0
  0
ARC
  5
7F4
100
AcDbEntity
  8
LEVEL_16
  6
CONTINUOUS
 62
         2
100
AcDbCircle
 10
265.9286
 20
-301.6429
 30
0.0
 40
0.8571
100
AcDbArc
 50
0.0
 51
90.0
  0
LINE
  5
7F5
100
AcDbEntity
  8
LEVEL_16
  6
CONTINUOUS
 62
         2
100
AcDbLine
 10
264.2143
 20
-301.6429
 30
0.0
 11
264.2143
 21
-302.7143
 31
0.0
  0
LINE
  5
7F6
100
AcDbEntity
  8
LEVEL_16
  6
CONTINUOUS
 62
         2
100
AcDbLine
 10
266.7857
 20
-301.6429
 30
0.0
 11
266.7857
 21
-302.7143
 31
0.0
  0
ARC
  5
7F7
100
AcDbEntity
  8
LEVEL_16
  6
CONTINUOUS
 62
         2
100
AcDbCircle
 10
265.5
 20
-302.7143
 30
0.0
 40
1.2857
100
AcDbArc
 50
180.0
 51
360.0
  0
LINE
  5
7F8
100
AcDbEntity
  8
DEFAULT
  6
CONTINUOUS
 62
         7
100
AcDbLine
 10
10.0
 20
10.0
 30
0.0
 11
410.0
 21
10.0
 31
0.0
  0
LINE
  5
7F9
100
AcDbEntity
  8
DEFAULT
  6
CONTINUOUS
 62
         7
100
AcDbLine
 10
410.0
 20
10.0
 30
0.0
 11
410.0
 21
287.0
 31
0.0
  0
LINE
  5
7FA
100
AcDbEntity
  8
DEFAULT
  6
CONTINUOUS
 62
         7
100
AcDbLine
 10
410.0
 20
287.0
 30
0.0
 11
10.0
 21
287.0
 31
0.0
  0
LINE
  5
7FB
100
AcDbEntity
  8
DEFAULT
  6
CONTINUOUS
 62
         7
100
AcDbLine
 10
10.0
 20
287.0
 30
0.0
 11
10.0
 21
10.0
 31
0.0
  0
LINE
  5
7FC
100
AcDbEntity
  8
DEFAULT
  6
CONTINUOUS
 62
         7
100
AcDbLine
 10
240.0
 20
10.0
 30
0.0
 11
240.0
 21
40.0
 31
0.0
  0
LINE
  5
7FD
100
AcDbEntity
  8
DEFAULT
  6
CONTINUOUS
 62
         7
100
AcDbLine
 10
265.0
 20
30.0
 30
0.0
 11
265.0
 21
40.0
 31
0.0
  0
LINE
  5
7FE
100
AcDbEntity
  8
DEFAULT
  6
CONTINUOUS
 62
         7
100
AcDbLine
 10
290.0
 20
30.0
 30
0.0
 11
290.0
 21
40.0
 31
0.0
  0
LINE
  5
7FF
100
AcDbEntity
  8
DEFAULT
  6
CONTINUOUS
 62
         7
100
AcDbLine
 10
310.0
 20
10.0
 30
0.0
 11
310.0
 21
30.0
 31
0.0
  0
LINE
  5
800
100
AcDbEntity
  8
DEFAULT
  6
CONTINUOUS
 62
         7
100
AcDbLine
 10
340.0
 20
30.0
 30
0.0
 11
340.0
 21
40.0
 31
0.0
  0
LINE
  5
801
100
AcDbEntity
  8
DEFAULT
  6
CONTINUOUS
 62
         7
100
AcDbLine
 10
365.0
 20
30.0
 30
0.0
 11
365.0
 21
40.0
 31
0.0
  0
LINE
  5
802
100
AcDbEntity
  8
DEFAULT
  6
CONTINUOUS
 62
         7
100
AcDbLine
 10
380.0
 20
30.0
 30
0.0
 11
380.0
 21
40.0
 31
0.0
  0
LINE
  5
803
100
AcDbEntity
  8
DEFAULT
  6
CONTINUOUS
 62
         7
100
AcDbLine
 10
395.0
 20
30.0
 30
0.0
 11
395.0
 21
40.0
 31
0.0
  0
LINE
  5
804
100
AcDbEntity
  8
DEFAULT
  6
CONTINUOUS
 62
         7
100
AcDbLine
 10
380.0
 20
10.0
 30
0.0
 11
380.0
 21
20.0
 31
0.0
  0
LINE
  5
805
100
AcDbEntity
  8
DEFAULT
  6
CONTINUOUS
 62
         7
100
AcDbLine
 10
395.0
 20
10.0
 30
0.0
 11
395.0
 21
20.0
 31
0.0
  0
LINE
  5
806
100
AcDbEntity
  8
DEFAULT
  6
CONTINUOUS
 62
         7
100
AcDbLine
 10
240.0
 20
40.0
 30
0.0
 11
410.0
 21
40.0
 31
0.0
  0
LINE
  5
807
100
AcDbEntity
  8
DEFAULT
  6
CONTINUOUS
 62
         7
100
AcDbLine
 10
240.0
 20
30.0
 30
0.0
 11
410.0
 21
30.0
 31
0.0
  0
LINE
  5
808
100
AcDbEntity
  8
DEFAULT
  6
CONTINUOUS
 62
         7
100
AcDbLine
 10
310.0
 20
20.0
 30
0.0
 11
410.0
 21
20.0
 31
0.0
  0
ENDSEC
  0
SECTION
  2
OBJECTS
  0
DICTIONARY
  5
19
100
AcDbDictionary
  3
ACAD_GROUP
350
1A
  3
ACAD_MLINESTYLE
350
1B
  0
DICTIONARY
  5
1A
102
{ACAD_REACTORS
330
19
102
}
100
AcDbDictionary
  0
DICTIONARY
  5
1B
102
{ACAD_REACTORS
330
19
102
}
100
AcDbDictionary
  3
STANDARD
350
1C
  0
MLINESTYLE
  5
1C
102
{ACAD_REACTORS
330
1B
102
}
100
AcDbMlineStyle
  2
STANDARD
 70
         0
  3

 62
         0
 51
90.0
 52
90.0
 71
         2
 49
0.5
 62
       256
  6
BYLAYER
 49
-0.5
 62
       256
  6
BYLAYER
  0
ENDSEC
  0
EOF
