999
DXF file: VRG-8_7100470_M31490-P-3.dxf
999
Pro/ENGINEER 2010140 by Parametric Technology Corporation
  0
SECTION
  2
HEADER
  9
$ACADVER
  1
AC1015
  9
$DWGCODEPAGE
  3
ANSI_1252
  9
$EXTMAX
 10
297.0
 20
210.0
 30
0.0
  9
$EXTMIN
 10
0.0
 20
0.0
 30
0.0
  9
$LIMMIN
 10
0.0
 20
0.0
  9
$LIMMAX
 10
297.0
 20
210.0
  9
$VIEWCTR
 10
148.5
 20
105.0
  9
$VIEWSIZE
 40
210.0
  9
$CLAYER
  8
0
  9
$LTSCALE
 40
16.335
  9
$CELTYPE
  6
BYLAYER
  9
$DIMSCALE
 40
1.0
  9
$DIMASZ
 40
3.5
  9
$DIMEXO
 40
1.85625
  9
$DIMDLI
 40
11.286
  9
$DIMEXE
 40
5.346
  9
$DIMCEN
 40
2.673
  9
$DIMLFAC
 40
1.0
  9
$DIMBLK
  1
_FILLED
  9
$DIMTXT
 40
3.5
  9
$DIMTOL
 70
1
  9
$DIMLIM
 70
0
  9
$DIMTFAC
 40
1.0
  9
$DIMTP
 40
0.005
  9
$DIMTM
 40
0.005
  9
$PDMODE
 70
3
  9
$PDSIZE
 40
0.3125
  9
$HANDSEED
  5
425
  9
$TILEMODE
 70
1
  9
$MEASUREMENT
 70
1
  9
$INSUNITS
 70
4
  0
ENDSEC
  0
SECTION
  2
CLASSES
  0
CLASS
  1
ACDBDICTIONARYWDFLT
  2
AcDbDictionaryWithDefault
  3
AutoCAD 2000
 90
0
280
0
281
0
  0
CLASS
  1
ACDBPLACEHOLDER
  2
AcDbPlaceHolder
  3
AutoCAD 2000
 90
0
280
0
281
0
  0
CLASS
  1
LAYOUT
  2
AcDbLayout
  3
AutoCAD 2000
 90
0
280
0
281
0
  0
ENDSEC
  0
SECTION
  2
TABLES
  0
TABLE
  2
VPORT
  5
8
100
AcDbSymbolTable
 70
2
  0
VPORT
  5
1F4
100
AcDbSymbolTableRecord
100
AcDbViewportTableRecord
  2
*ACTIVE
 70
0
 10
0.0
 20
0.0
 11
1.0
 21
1.0
 12
148.5
 22
105.0
 13
0.0
 23
0.0
 14
1.0
 24
1.0
 15
0.0
 25
0.0
 16
0.0
 26
0.0
 36
1.0
 17
0.0
 27
0.0
 37
0.0
 40
210.0
 41
1.4142857143
 42
50.0
 43
0.0
 44
0.0
 50
0.0
 51
0.0
 71
0
 72
100
 73
1
 74
1
 75
0
 76
0
 77
0
 78
0
  0
ENDTAB
  0
TABLE
  2
LTYPE
  5
5
100
AcDbSymbolTable
 70
6
  0
LTYPE
  5
14
100
AcDbSymbolTableRecord
100
AcDbLinetypeTableRecord
  2
BYBLOCK
 70
0
  3

 72
65
 73
0
 40
0.0
  0
LTYPE
  5
15
100
AcDbSymbolTableRecord
100
AcDbLinetypeTableRecord
  2
BYLAYER
 70
0
  3

 72
65
 73
0
 40
0.0
  0
LTYPE
  5
16
100
AcDbSymbolTableRecord
100
AcDbLinetypeTableRecord
  2
CONTINUOUS
 70
64
  3
Solid line
 72
65
 73
0
 40
0.0
  0
LTYPE
  5
1F5
100
AcDbSymbolTableRecord
100
AcDbLinetypeTableRecord
  2
CENTER
 70
64
  3
____ _ ____ _ ____ _ ____ _ ____ _ ____ _ ____
 72
65
 73
4
 40
0.6
 49
0.375
 74
0
 49
-0.075
 74
0
 49
0.075
 74
0
 49
-0.075
 74
0
  0
LTYPE
  5
1F6
100
AcDbSymbolTableRecord
100
AcDbLinetypeTableRecord
  2
HIDDEN
 70
64
  3
- - - - - - - - - - - - - - - - - - - -
 72
65
 73
2
 40
0.2
 49
0.1
 74
0
 49
-0.1
 74
0
  0
LTYPE
  5
1F7
100
AcDbSymbolTableRecord
100
AcDbLinetypeTableRecord
  2
PHANTOM
 70
64
  3
_____ _ _ _____ _ _ _____ _ _ _____
 72
65
 73
6
 40
0.8
 49
0.45
 74
0
 49
-0.05
 74
0
 49
0.1
 74
0
 49
-0.05
 74
0
 49
0.1
 74
0
 49
-0.05
 74
0
  0
LTYPE
  5
1F8
100
AcDbSymbolTableRecord
100
AcDbLinetypeTableRecord
  2
DOT
 70
64
  3
. . . . . . . . . . . . . . . . . . . .
 72
65
 73
2
 40
0.2
 49
0.1
 74
0
 49
-0.1
 74
0
  0
LTYPE
  5
1F9
100
AcDbSymbolTableRecord
100
AcDbLinetypeTableRecord
  2
DASHED
 70
64
  3
- - - - - - - - - - - - - - - - - - - -
 72
65
 73
2
 40
0.2
 49
0.1
 74
0
 49
-0.1
 74
0
  0
ENDTAB
  0
TABLE
  2
LAYER
  5
2
100
AcDbSymbolTable
 70
36
  0
LAYER
  5
10
100
AcDbSymbolTableRecord
100
AcDbLayerTableRecord
  2
0
 70
0
 62
7
  6
CONTINUOUS
370
-3
390
F
  0
LAYER
  5
1FA
100
AcDbSymbolTableRecord
100
AcDbLayerTableRecord
  2
DEFAULT_1
 70
0
 62
7
  6
CENTER
370
-3
390
F
  0
LAYER
  5
1FB
100
AcDbSymbolTableRecord
100
AcDbLayerTableRecord
  2
DEFAULT_2
 70
0
 62
8
  6
HIDDEN
370
-3
390
F
  0
LAYER
  5
1FC
100
AcDbSymbolTableRecord
100
AcDbLayerTableRecord
  2
DEFAULT_3
 70
0
 62
7
  6
PHANTOM
370
-3
390
F
  0
LAYER
  5
1FD
100
AcDbSymbolTableRecord
100
AcDbLayerTableRecord
  2
AUSFORMSCHRAEGEN
 70
0
 62
7
  6
CONTINUOUS
370
-3
390
F
  0
LAYER
  5
1FE
100
AcDbSymbolTableRecord
100
AcDbLayerTableRecord
  2
BEZUGSACHSEN
 70
0
 62
7
  6
CONTINUOUS
370
-3
390
F
  0
LAYER
  5
1FF
100
AcDbSymbolTableRecord
100
AcDbLayerTableRecord
  2
BEZUGSEBENEN
 70
0
 62
7
  6
CONTINUOUS
370
-3
390
F
  0
LAYER
  5
200
100
AcDbSymbolTableRecord
100
AcDbLayerTableRecord
  2
FASEN
 70
0
 62
7
  6
CONTINUOUS
370
-3
390
F
  0
LAYER
  5
201
100
AcDbSymbolTableRecord
100
AcDbLayerTableRecord
  2
HILFEN
 70
0
 62
7
  6
CONTINUOUS
370
-3
390
F
  0
LAYER
  5
202
100
AcDbSymbolTableRecord
100
AcDbLayerTableRecord
  2
KONSTRUKTIONSELEMENTE
 70
0
 62
7
  6
CONTINUOUS
370
-3
390
F
  0
LAYER
  5
203
100
AcDbSymbolTableRecord
100
AcDbLayerTableRecord
  2
PLAZIERUNG
 70
0
 62
7
  6
CONTINUOUS
370
-3
390
F
  0
LAYER
  5
204
100
AcDbSymbolTableRecord
100
AcDbLayerTableRecord
  2
RUNDUNGEN
 70
0
 62
7
  6
CONTINUOUS
370
-3
390
F
  0
LAYER
  5
205
100
AcDbSymbolTableRecord
100
AcDbLayerTableRecord
  2
TEIL_STARTBEZUEGE
 70
0
 62
7
  6
CONTINUOUS
370
-3
390
F
  0
ENDTAB
  0
TABLE
  2
STYLE
  5
3
100
AcDbSymbolTable
 70
1
  0
STYLE
  5
11
100
AcDbSymbolTableRecord
100
AcDbTextStyleTableRecord
  2
STANDARD
 70
0
 40
0.0
 41
0.7
 50
0.0
 71
0
 42
0.2
  3
txt
  4

  0
STYLE
  5
206
100
AcDbSymbolTableRecord
100
AcDbTextStyleTableRecord
  2
TEXTSTYLE_1
 70
0
 40
0.0
 41
0.8
 50
0.0
 71
0
 42
0.2
  3
gdt
  4

  0
ENDTAB
  0
TABLE
  2
VIEW
  5
6
100
AcDbSymbolTable
 70
0
  0
ENDTAB
  0
TABLE
  2
UCS
  5
7
100
AcDbSymbolTable
 70
0
  0
ENDTAB
  0
TABLE
  2
APPID
  5
9
100
AcDbSymbolTable
 70
1
  0
APPID
  5
207
100
AcDbSymbolTableRecord
100
AcDbRegAppTableRecord
  2
ACAD
 70
0
  0
ENDTAB
  0
TABLE
  2
BLOCK_RECORD
  5
1
100
AcDbSymbolTable
 70
0
  0
BLOCK_RECORD
  5
208
100
AcDbSymbolTableRecord
100
AcDbBlockTableRecord
  2
*Model_Space
  0
BLOCK_RECORD
  5
209
100
AcDbSymbolTableRecord
100
AcDbBlockTableRecord
  2
*Paper_Space
  0
ENDTAB
  0
TABLE
  2
DIMSTYLE
  5
A
100
AcDbSymbolTable
 70
1
100
AcDbDimStyleTable
 71
0
  0
DIMSTYLE
105
20A
100
AcDbSymbolTableRecord
100
AcDbDimStyleTableRecord
  2
STANDARD
 70
0
  3

  4

 40
1.0
 41
3.5
 42
0.0625
 43
0.38
 44
0.18
 45
0.0
 46
0.0
 47
0.005
 48
0.005
140
3.5
141
0.09
142
0.0
143
25.4
144
1.0
145
0.0
146
1.0
147
0.09
 71
1.0
 72
0.0
 73
0
 74
0
 75
0
 76
0
 77
1
 78
8
170
0
171
2
172
0
173
0
174
0
175
0
176
0
177
0
178
5
270
2
271
3
272
3
273
2
274
2
275
0
280
0
281
0
282
0
283
1
284
8
285
0
286
0
287
3
288
0
340
11
  0
ENDTAB
  0
ENDSEC
  0
SECTION
  2
BLOCKS
  0
BLOCK
  5
20
100
AcDbEntity
  8
0
100
AcDbBlockBegin
  2
*Model_Space
 70
0
 10
0.0
 20
0.0
 30
0.0
  3
*Model_Space
  1

  0
ENDBLK
  5
21
100
AcDbEntity
  8
0
100
AcDbBlockEnd
  0
BLOCK
  5
1C
100
AcDbEntity
  8
0
100
AcDbBlockBegin
  2
*Paper_Space
 70
0
 10
0.0
 20
0.0
 30
0.0
  3
*Paper_Space
  1

  0
ENDBLK
  5
1D
100
AcDbEntity
  8
0
100
AcDbBlockEnd
  0
ENDSEC
  0
SECTION
  2
ENTITIES
  0
MTEXT
  5
20B
100
AcDbEntity
  8
0
100
AcDbMText
 62
5
  6
CONTINUOUS
  7
STANDARD
 71
1
 72
1
 10
189.6350696656
 20
101.6957236621
 30
0.0
 11
0.0
 21
1.0
 31
0.0
 44
0.9
  1
RUD
 40
3.0
 41
8.0
  0
MTEXT
  5
20C
100
AcDbEntity
  8
0
100
AcDbMText
 62
5
  6
CONTINUOUS
  7
STANDARD
 71
1
 72
1
 10
206.0594500038
 20
99.1350821997
 30
0.0
 11
0.0
 21
1.0
 31
0.0
 44
0.9
  1
VRG 8
 40
3.0
 41
12.5
  0
LINE
  5
20D
100
AcDbEntity
  8
0
100
AcDbLine
 62
7
  6
CONTINUOUS
 10
0.0
 20
0.0
 11
0.0
 21
210.0
  0
LINE
  5
20E
100
AcDbEntity
  8
0
100
AcDbLine
 62
7
  6
CONTINUOUS
 10
0.0
 20
0.0
 11
297.0
 21
0.0
  0
LINE
  5
20F
100
AcDbEntity
  8
0
100
AcDbLine
 62
7
  6
CONTINUOUS
 10
0.0
 20
210.0
 11
297.0
 21
210.0
  0
LINE
  5
210
100
AcDbEntity
  8
0
100
AcDbLine
 62
7
  6
CONTINUOUS
 10
297.0
 20
0.0
 11
297.0
 21
210.0
  0
LINE
  5
211
100
AcDbEntity
  8
KONSTRUKTIONSELEMENTE
100
AcDbLine
 62
7
  6
CONTINUOUS
 10
125.6884503481
 20
92.9485007424
 11
122.5631567829
 21
92.9485007424
  0
LINE
  5
212
100
AcDbEntity
  8
KONSTRUKTIONSELEMENTE
100
AcDbLine
 62
7
  6
CONTINUOUS
 10
100.7481701201
 20
92.9485007424
 11
97.6228765549
 21
92.9485007424
  0
LINE
  5
213
100
AcDbEntity
  8
0
100
AcDbLine
 62
7
  6
CONTINUOUS
 10
111.6556634515
 20
161.7350563483
 11
96.2048137328
 21
156.7147709512
  0
LINE
  5
214
100
AcDbEntity
  8
0
100
AcDbLine
 62
7
  6
CONTINUOUS
 10
96.0907876686
 20
93.662925523
 11
92.46820257
 21
97.9801543288
  0
LINE
  5
215
100
AcDbEntity
  8
RUNDUNGEN
100
AcDbLine
 62
7
  6
CONTINUOUS
 10
92.46820257
 20
97.9801543288
 11
92.1235745653
 21
98.3908659915
  0
LINE
  5
216
100
AcDbEntity
  8
0
100
AcDbLine
 62
7
  6
CONTINUOUS
 10
96.2048137328
 20
156.7147709512
 11
86.6556634515
 21
143.5714931482
  0
LINE
  5
217
100
AcDbEntity
  8
BEZUGSACHSEN
100
AcDbLine
 62
7
  6
CONTINUOUS
 10
95.2886645179
 20
147.1525200417
 11
96.3169154537
 21
148.4116760309
  0
LINE
  5
218
100
AcDbEntity
  8
BEZUGSACHSEN
100
AcDbLine
 62
7
  6
CONTINUOUS
 10
97.8391461629
 20
150.0702930576
 11
98.1509188557
 21
150.3310061327
  0
LINE
  5
219
100
AcDbEntity
  8
BEZUGSACHSEN
100
AcDbLine
 62
7
  6
CONTINUOUS
 10
99.3980090323
 20
151.373857936
 11
99.7097815764
 21
151.6345708868
  0
LINE
  5
21A
100
AcDbEntity
  8
BEZUGSACHSEN
100
AcDbLine
 62
7
  6
CONTINUOUS
 10
96.3169154537
 20
148.4116760309
 11
96.5970535929
 21
148.6201694
  0
LINE
  5
21B
100
AcDbEntity
  8
BEZUGSACHSEN
100
AcDbLine
 62
7
  6
CONTINUOUS
 10
100.7946033763
 20
152.3919075211
 11
102.2191672057
 21
153.1751007846
  0
LINE
  5
21C
100
AcDbEntity
  8
BEZUGSACHSEN
100
AcDbLine
 62
7
  6
CONTINUOUS
 10
101.396754061
 20
152.1402344713
 11
102.465176933
 21
152.7276294188
  0
LINE
  5
21D
100
AcDbEntity
  8
BEZUGSACHSEN
100
AcDbLine
 62
7
  6
CONTINUOUS
 10
96.6893549691
 20
148.1949865873
 11
96.8838054895
 21
148.2985502407
  0
LINE
  5
21E
100
AcDbEntity
  8
0
100
AcDbLine
 62
7
  6
CONTINUOUS
 10
116.2056634515
 20
99.3985007424
 11
107.1056634515
 21
99.3985007424
  0
LINE
  5
21F
100
AcDbEntity
  8
RUNDUNGEN
100
AcDbLine
 62
7
  6
CONTINUOUS
 10
91.3877142591
 20
111.4126023575
 11
89.2516424894
 21
115.1123871912
  0
LINE
  5
220
100
AcDbEntity
  8
0
100
AcDbLine
 62
7
  6
CONTINUOUS
 10
86.6556634515
 20
143.5714931482
 11
86.6556634515
 21
127.3255083366
  0
LINE
  5
221
100
AcDbEntity
  8
BEZUGSACHSEN
100
AcDbLine
 62
7
  6
CONTINUOUS
 10
95.8753230191
 20
147.1981548126
 11
96.6893549691
 21
148.1949865873
  0
LINE
  5
222
100
AcDbEntity
  8
BEZUGSACHSEN
100
AcDbLine
 62
7
  6
CONTINUOUS
 10
96.8641105058
 20
146.3906919826
 11
97.6781424557
 21
147.3875237573
  0
LINE
  5
223
100
AcDbEntity
  8
BEZUGSACHSEN
100
AcDbLine
 62
7
  6
CONTINUOUS
 10
97.2596254266
 20
146.0677069109
 11
97.987969819
 21
146.9596090449
  0
LINE
  5
224
100
AcDbEntity
  8
BEZUGSACHSEN
100
AcDbLine
 62
7
  6
CONTINUOUS
 10
100.9089441717
 20
148.0887403149
 11
101.1167926336
 21
148.2625490316
  0
LINE
  5
225
100
AcDbEntity
  8
BEZUGSACHSEN
100
AcDbLine
 62
7
  6
CONTINUOUS
 10
101.2365155767
 20
147.6970153545
 11
101.4443640386
 21
147.8708240712
  0
LINE
  5
226
100
AcDbEntity
  8
BEZUGSACHSEN
100
AcDbLine
 62
7
  6
CONTINUOUS
 10
102.8318110047
 20
149.5299844722
 11
103.9002338767
 21
150.1173794198
  0
LINE
  5
227
100
AcDbEntity
  8
BEZUGSACHSEN
100
AcDbLine
 62
7
  6
CONTINUOUS
 10
102.7216798034
 20
148.8867147384
 11
104.1462436328
 21
149.6699080018
  0
LINE
  5
228
100
AcDbEntity
  8
BEZUGSACHSEN
100
AcDbLine
 62
7
  6
CONTINUOUS
 10
100.9221099898
 20
147.5450421365
 11
101.2365155767
 21
147.6970153545
  0
LINE
  5
229
100
AcDbEntity
  8
BEZUGSACHSEN
100
AcDbLine
 62
7
  6
CONTINUOUS
 10
100.6465007794
 20
147.9802193325
 11
100.9089441717
 21
148.0887403149
  0
LINE
  5
22A
100
AcDbEntity
  8
0
100
AcDbLine
 62
7
  6
CONTINUOUS
 10
86.6556634515
 20
127.3255083366
 11
89.2516424894
 21
115.1123871912
  0
LINE
  5
22B
100
AcDbEntity
  8
RUNDUNGEN
100
AcDbLine
 62
7
  6
CONTINUOUS
 10
91.6556634515
 20
99.6764412109
 11
91.6556634515
 21
118.3137192245
  0
LINE
  5
22C
100
AcDbEntity
  8
BEZUGSACHSEN
100
AcDbLine
 62
7
  6
CONTINUOUS
 10
101.1167926336
 20
148.2625490316
 11
101.2700458677
 21
148.5016452341
  0
LINE
  5
22D
100
AcDbEntity
  8
BEZUGSACHSEN
100
AcDbLine
 62
7
  6
CONTINUOUS
 10
101.4443640386
 20
147.8708240712
 11
101.6495791604
 21
148.1533722722
  0
LINE
  5
22E
100
AcDbEntity
  8
BEZUGSACHSEN
100
AcDbLine
 62
7
  6
CONTINUOUS
 10
98.3868651
 20
144.622470012
 11
98.643927834
 21
144.9372590093
  0
LINE
  5
22F
100
AcDbEntity
  8
BEZUGSACHSEN
100
AcDbLine
 62
7
  6
CONTINUOUS
 10
99.7150225179
 20
146.2488797813
 11
100.0149291225
 21
146.6161337116
  0
LINE
  5
230
100
AcDbEntity
  8
BEZUGSACHSEN
100
AcDbLine
 62
7
  6
CONTINUOUS
 10
103.9002338767
 20
150.1173794198
 11
104.096659334
 21
150.3224900668
  0
LINE
  5
231
100
AcDbEntity
  8
BEZUGSACHSEN
100
AcDbLine
 62
7
  6
CONTINUOUS
 10
104.1462436328
 20
149.6699080018
 11
104.4020263655
 21
149.907651957
  0
LINE
  5
232
100
AcDbEntity
  8
BEZUGSACHSEN
100
AcDbLine
 62
7
  6
CONTINUOUS
 10
97.6781424557
 20
147.3875237573
 11
97.7407546693
 21
147.5987491013
  0
LINE
  5
233
100
AcDbEntity
  8
BEZUGSACHSEN
100
AcDbLine
 62
7
  6
CONTINUOUS
 10
104.4020263655
 20
149.907651957
 11
104.5574501908
 21
150.1873411846
  0
LINE
  5
234
100
AcDbEntity
  8
BEZUGSACHSEN
100
AcDbLine
 62
7
  6
CONTINUOUS
 10
121.1074099883
 20
151.3204165079
 11
121.3082458485
 21
151.4040214828
  0
LINE
  5
235
100
AcDbEntity
  8
BEZUGSACHSEN
100
AcDbLine
 62
7
  6
CONTINUOUS
 10
123.2856816351
 20
150.5711496212
 11
123.5537744433
 21
150.6791620092
  0
LINE
  5
236
100
AcDbEntity
  8
0
100
AcDbLine
 62
7
  6
CONTINUOUS
 10
116.2056634515
 20
108.9985007424
 11
107.1056634515
 21
108.9985007424
  0
LINE
  5
237
100
AcDbEntity
  8
BEZUGSACHSEN
100
AcDbLine
 62
7
  6
CONTINUOUS
 10
98.1131943073
 20
147.3820598078
 11
98.1527311155
 21
147.6995807799
  0
LINE
  5
238
100
AcDbEntity
  8
BEZUGSACHSEN
100
AcDbLine
 62
7
  6
CONTINUOUS
 10
101.2700458677
 20
148.5016452341
 11
101.3167416459
 21
148.7625767268
  0
LINE
  5
239
100
AcDbEntity
  8
BEZUGSACHSEN
100
AcDbLine
 62
7
  6
CONTINUOUS
 10
101.6495791604
 20
148.1533722722
 11
101.7482371523
 21
148.4577559777
  0
LINE
  5
23A
100
AcDbEntity
  8
BEZUGSACHSEN
100
AcDbLine
 62
7
  6
CONTINUOUS
 10
104.096659334
 20
150.3224900668
 11
104.1927265415
 21
150.5695463989
  0
LINE
  5
23B
100
AcDbEntity
  8
BEZUGSACHSEN
100
AcDbLine
 62
7
  6
CONTINUOUS
 10
121.2806369372
 20
150.9332684096
 11
121.6229993287
 21
151.1331955177
  0
LINE
  5
23C
100
AcDbEntity
  8
BEZUGSACHSEN
100
AcDbLine
 62
7
  6
CONTINUOUS
 10
123.0296575549
 20
150.8980565922
 11
123.3525768869
 21
151.0711620397
  0
LINE
  5
23D
100
AcDbEntity
  8
KONSTRUKTIONSELEMENTE
100
AcDbLine
 62
7
  6
CONTINUOUS
 10
100.0906299453
 20
109.1446531651
 11
100.0906299453
 21
103.9095007424
  0
LINE
  5
23E
100
AcDbEntity
  8
BEZUGSACHSEN
100
AcDbLine
 62
7
  6
CONTINUOUS
 10
101.7482371523
 20
148.4577559777
 11
101.7377046839
 21
148.8927146604
  0
LINE
  5
23F
100
AcDbEntity
  8
BEZUGSACHSEN
100
AcDbLine
 62
7
  6
CONTINUOUS
 10
104.5574501908
 20
150.1873411846
 11
104.63087077
 21
150.6161875406
  0
LINE
  5
240
100
AcDbEntity
  8
BEZUGSACHSEN
100
AcDbLine
 62
7
  6
CONTINUOUS
 10
121.3082458485
 20
151.4040214828
 11
121.4908803023
 21
151.5948636362
  0
LINE
  5
241
100
AcDbEntity
  8
BEZUGSACHSEN
100
AcDbLine
 62
7
  6
CONTINUOUS
 10
121.6229993287
 20
151.1331955177
 11
121.8056337826
 21
151.324037671
  0
LINE
  5
242
100
AcDbEntity
  8
BEZUGSACHSEN
100
AcDbLine
 62
7
  6
CONTINUOUS
 10
122.7037224463
 20
150.6162199653
 11
123.0296575549
 21
150.8980565922
  0
LINE
  5
243
100
AcDbEntity
  8
BEZUGSACHSEN
100
AcDbLine
 62
7
  6
CONTINUOUS
 10
123.0145721717
 20
150.3544074174
 11
123.2856816351
 21
150.5711496212
  0
LINE
  5
244
100
AcDbEntity
  8
BEZUGSACHSEN
100
AcDbLine
 62
7
  6
CONTINUOUS
 10
123.3566250649
 20
147.3958122486
 11
123.6277345667
 21
147.612554498
  0
LINE
  5
245
100
AcDbEntity
  8
BEZUGSACHSEN
100
AcDbLine
 62
7
  6
CONTINUOUS
 10
123.1554263611
 20
147.7878133234
 11
123.3717103329
 21
147.9394612866
  0
LINE
  5
246
100
AcDbEntity
  8
BEZUGSACHSEN
100
AcDbLine
 62
7
  6
CONTINUOUS
 10
126.2886338997
 20
144.3825030503
 11
126.5154582987
 21
144.4997145867
  0
LINE
  5
247
100
AcDbEntity
  8
BEZUGSACHSEN
100
AcDbLine
 62
7
  6
CONTINUOUS
 10
127.8318922809
 20
145.1037380067
 11
128.0587166799
 21
145.2209495431
  0
LINE
  5
248
100
AcDbEntity
  8
BEZUGSACHSEN
100
AcDbLine
 62
7
  6
CONTINUOUS
 10
97.7407546693
 20
147.5987491013
 11
97.6946039812
 21
147.8113405076
  0
LINE
  5
249
100
AcDbEntity
  8
BEZUGSACHSEN
100
AcDbLine
 62
7
  6
CONTINUOUS
 10
104.1927265415
 20
150.5695463989
 11
104.1884355567
 21
150.8585483116
  0
LINE
  5
24A
100
AcDbEntity
  8
BEZUGSACHSEN
100
AcDbLine
 62
7
  6
CONTINUOUS
 10
121.8813399956
 20
149.6398062641
 11
122.7037224463
 21
150.6162199653
  0
LINE
  5
24B
100
AcDbEntity
  8
BEZUGSACHSEN
100
AcDbLine
 62
7
  6
CONTINUOUS
 10
122.192189721
 20
149.3779937162
 11
123.0145721717
 21
150.3544074174
  0
LINE
  5
24C
100
AcDbEntity
  8
BEZUGSACHSEN
100
AcDbLine
 62
7
  6
CONTINUOUS
 10
126.4441148212
 20
144.0816208362
 11
126.6709392203
 21
144.1988323726
  0
LINE
  5
24D
100
AcDbEntity
  8
BEZUGSACHSEN
100
AcDbLine
 62
7
  6
CONTINUOUS
 10
128.2141976015
 20
144.9200673291
 11
128.0629813354
 21
144.8419263048
  0
LINE
  5
24E
100
AcDbEntity
  8
BEZUGSACHSEN
100
AcDbLine
 62
7
  6
CONTINUOUS
 10
128.9605037472
 20
143.4758371089
 11
128.8092874812
 21
143.3976960846
  0
LINE
  5
24F
100
AcDbEntity
  8
BEZUGSACHSEN
100
AcDbLine
 62
7
  6
CONTINUOUS
 10
127.4794365959
 20
142.6342514705
 11
127.2526121968
 21
142.5170399341
  0
LINE
  5
250
100
AcDbEntity
  8
BEZUGSACHSEN
100
AcDbLine
 62
7
  6
CONTINUOUS
 10
129.1159846687
 20
143.1749548948
 11
128.8891602697
 21
143.0577433584
  0
LINE
  5
251
100
AcDbEntity
  8
BEZUGSACHSEN
100
AcDbLine
 62
7
  6
CONTINUOUS
 10
127.6349175174
 20
142.3333692565
 11
127.4080931183
 21
142.2161577201
  0
LINE
  5
252
100
AcDbEntity
  8
BEZUGSACHSEN
100
AcDbLine
 62
7
  6
CONTINUOUS
 10
98.1527311155
 20
147.6995807799
 11
98.0175858686
 21
148.0722986596
  0
LINE
  5
253
100
AcDbEntity
  8
BEZUGSACHSEN
100
AcDbLine
 62
7
  6
CONTINUOUS
 10
101.3167416459
 20
148.7625767268
 11
101.2568800448
 21
149.0453434182
  0
LINE
  5
254
100
AcDbEntity
  8
0
100
AcDbLine
 62
7
  6
CONTINUOUS
 10
107.1056634515
 20
94.787339963
 11
107.1056634515
 21
103.9095007424
  0
LINE
  5
255
100
AcDbEntity
  8
KONSTRUKTIONSELEMENTE
100
AcDbLine
 62
7
  6
CONTINUOUS
 10
107.1056634515
 20
103.9095007424
 11
107.1056634515
 21
114.3985007424
  0
LINE
  5
256
100
AcDbEntity
  8
BEZUGSACHSEN
100
AcDbLine
 62
7
  6
CONTINUOUS
 10
118.2957010438
 20
150.1499503946
 11
120.2277736328
 21
153.652391759
  0
LINE
  5
257
100
AcDbEntity
  8
BEZUGSACHSEN
100
AcDbLine
 62
7
  6
CONTINUOUS
 10
118.6515624465
 20
149.9536444496
 11
119.5148289347
 21
151.5185650814
  0
LINE
  5
258
100
AcDbEntity
  8
BEZUGSACHSEN
100
AcDbLine
 62
7
  6
CONTINUOUS
 10
119.7614764699
 20
151.9656852023
 11
120.378095423
 21
153.0834857132
  0
LINE
  5
259
100
AcDbEntity
  8
BEZUGSACHSEN
100
AcDbLine
 62
7
  6
CONTINUOUS
 10
121.6142041851
 20
151.8184239053
 11
121.4908803023
 21
151.5948636362
  0
LINE
  5
25A
100
AcDbEntity
  8
BEZUGSACHSEN
100
AcDbLine
 62
7
  6
CONTINUOUS
 10
121.9700655878
 20
151.6221179604
 11
121.8056337826
 21
151.324037671
  0
LINE
  5
25B
100
AcDbEntity
  8
BEZUGSACHSEN
100
AcDbLine
 62
7
  6
CONTINUOUS
 10
121.8813399956
 20
149.6398062641
 11
121.6590200347
 21
149.2707003019
  0
LINE
  5
25C
100
AcDbEntity
  8
BEZUGSACHSEN
100
AcDbLine
 62
7
  6
CONTINUOUS
 10
123.672992704
 20
149.243499569
 11
123.3440397544
 21
148.852934125
  0
LINE
  5
25D
100
AcDbEntity
  8
BEZUGSACHSEN
100
AcDbLine
 62
7
  6
CONTINUOUS
 10
123.8103143425
 20
148.4602153031
 11
123.3717103329
 21
147.9394612866
  0
LINE
  5
25E
100
AcDbEntity
  8
BEZUGSACHSEN
100
AcDbLine
 62
7
  6
CONTINUOUS
 10
124.4501170174
 20
148.5889681993
 11
123.6277345667
 21
147.612554498
  0
LINE
  5
25F
100
AcDbEntity
  8
BEZUGSACHSEN
100
AcDbLine
 62
7
  6
CONTINUOUS
 10
101.7377046839
 20
148.8927146604
 11
101.6232478167
 21
149.2407688833
  0
LINE
  5
260
100
AcDbEntity
  8
BEZUGSACHSEN
100
AcDbLine
 62
7
  6
CONTINUOUS
 10
104.63087077
 20
150.6161875406
 11
104.5855781353
 21
150.9797680665
  0
LINE
  5
261
100
AcDbEntity
  8
BEZUGSACHSEN
100
AcDbLine
 62
7
  6
CONTINUOUS
 10
122.192189721
 20
149.3779937162
 11
122.0246952516
 21
149.0739819946
  0
LINE
  5
262
100
AcDbEntity
  8
BEZUGSACHSEN
100
AcDbLine
 62
7
  6
CONTINUOUS
 10
125.1658665562
 20
149.5439225098
 11
124.9435464417
 21
149.1748163653
  0
LINE
  5
263
100
AcDbEntity
  8
BEZUGSACHSEN
100
AcDbLine
 62
7
  6
CONTINUOUS
 10
126.2886338997
 20
144.3825030503
 11
125.972785835
 21
144.0667970257
  0
LINE
  5
264
100
AcDbEntity
  8
BEZUGSACHSEN
100
AcDbLine
 62
7
  6
CONTINUOUS
 10
104.1884355567
 20
150.8585483116
 11
104.0837856717
 21
151.1894954835
  0
LINE
  5
265
100
AcDbEntity
  8
BEZUGSACHSEN
100
AcDbLine
 62
7
  6
CONTINUOUS
 10
121.6590200347
 20
149.2707003019
 11
121.5433353956
 21
148.9230517785
  0
LINE
  5
266
100
AcDbEntity
  8
BEZUGSACHSEN
100
AcDbLine
 62
7
  6
CONTINUOUS
 10
124.7453658477
 20
149.6755465764
 11
124.6326967164
 21
149.4366289132
  0
LINE
  5
267
100
AcDbEntity
  8
BEZUGSACHSEN
100
AcDbLine
 62
7
  6
CONTINUOUS
 10
127.8318922809
 20
145.1037380067
 11
127.5916524021
 21
144.8271025217
  0
LINE
  5
268
100
AcDbEntity
  8
BEZUGSACHSEN
100
AcDbLine
 62
7
  6
CONTINUOUS
 10
127.9507656351
 20
142.6490753084
 11
127.6349175174
 21
142.3333692565
  0
LINE
  5
269
100
AcDbEntity
  8
BEZUGSACHSEN
100
AcDbLine
 62
7
  6
CONTINUOUS
 10
129.4318328923
 20
143.4906610015
 11
129.1159846687
 21
143.1749548948
  0
LINE
  5
26A
100
AcDbEntity
  8
BEZUGSACHSEN
100
AcDbLine
 62
7
  6
CONTINUOUS
 10
97.6946039812
 20
147.8113405076
 11
97.5396902689
 21
148.0252978263
  0
LINE
  5
26B
100
AcDbEntity
  8
BEZUGSACHSEN
100
AcDbLine
 62
7
  6
CONTINUOUS
 10
98.0175858686
 20
148.0722986596
 11
97.8626721563
 21
148.2862559783
  0
LINE
  5
26C
100
AcDbEntity
  8
BEZUGSACHSEN
100
AcDbLine
 62
7
  6
CONTINUOUS
 10
101.6232478167
 20
149.2407688833
 11
101.4022338675
 21
149.6106585535
  0
LINE
  5
26D
100
AcDbEntity
  8
BEZUGSACHSEN
100
AcDbLine
 62
7
  6
CONTINUOUS
 10
102.7216798034
 20
148.8867147384
 11
100.7946033763
 21
152.3919075211
  0
LINE
  5
26E
100
AcDbEntity
  8
BEZUGSACHSEN
100
AcDbLine
 62
7
  6
CONTINUOUS
 10
102.8318110047
 20
149.5299844722
 11
101.396754061
 21
152.1402344713
  0
LINE
  5
26F
100
AcDbEntity
  8
BEZUGSACHSEN
100
AcDbLine
 62
7
  6
CONTINUOUS
 10
101.2568800448
 20
149.0453434182
 11
101.0904613234
 21
149.3499456027
  0
LINE
  5
270
100
AcDbEntity
  8
BEZUGSACHSEN
100
AcDbLine
 62
7
  6
CONTINUOUS
 10
104.5855781353
 20
150.9797680665
 11
104.439926629
 21
151.3852937994
  0
LINE
  5
271
100
AcDbEntity
  8
0
100
AcDbLine
 62
7
  6
CONTINUOUS
 10
116.2056634515
 20
103.9095007424
 11
116.2056634515
 21
94.787339963
  0
LINE
  5
272
100
AcDbEntity
  8
KONSTRUKTIONSELEMENTE
100
AcDbLine
 62
7
  6
CONTINUOUS
 10
116.2056634515
 20
103.9095007424
 11
116.2056634515
 21
114.3985007424
  0
LINE
  5
273
100
AcDbEntity
  8
BEZUGSACHSEN
100
AcDbLine
 62
7
  6
CONTINUOUS
 10
120.9611797045
 20
150.9150992489
 11
120.5494894754
 21
148.9066796594
  0
LINE
  5
274
100
AcDbEntity
  8
BEZUGSACHSEN
100
AcDbLine
 62
7
  6
CONTINUOUS
 10
120.5231024567
 20
150.9623651536
 11
120.1343187438
 21
149.1357027626
  0
LINE
  5
275
100
AcDbEntity
  8
BEZUGSACHSEN
100
AcDbLine
 62
7
  6
CONTINUOUS
 10
122.0246952516
 20
149.0739819946
 11
121.9638349567
 21
148.7914287562
  0
LINE
  5
276
100
AcDbEntity
  8
BEZUGSACHSEN
100
AcDbLine
 62
7
  6
CONTINUOUS
 10
121.6782172664
 20
152.0747018729
 11
121.6142041851
 21
151.8184239053
  0
LINE
  5
277
100
AcDbEntity
  8
BEZUGSACHSEN
100
AcDbLine
 62
7
  6
CONTINUOUS
 10
122.0340786691
 20
151.8783959279
 11
121.9700655878
 21
151.6221179604
  0
LINE
  5
278
100
AcDbEntity
  8
BEZUGSACHSEN
100
AcDbLine
 62
7
  6
CONTINUOUS
 10
126.4441148212
 20
144.0816208362
 11
126.2349705044
 21
143.7448099828
  0
LINE
  5
279
100
AcDbEntity
  8
BEZUGSACHSEN
100
AcDbLine
 62
7
  6
CONTINUOUS
 10
127.6885809656
 20
142.9710623513
 11
127.4794365959
 21
142.6342514705
  0
LINE
  5
27A
100
AcDbEntity
  8
BEZUGSACHSEN
100
AcDbLine
 62
7
  6
CONTINUOUS
 10
128.0629813354
 20
144.8419263048
 11
127.8983495897
 21
144.6043613318
  0
LINE
  5
27B
100
AcDbEntity
  8
BEZUGSACHSEN
100
AcDbLine
 62
7
  6
CONTINUOUS
 10
129.1251357048
 20
143.7134021913
 11
128.9605037472
 21
143.4758371089
  0
LINE
  5
27C
100
AcDbEntity
  8
BEZUGSACHSEN
100
AcDbLine
 62
7
  6
CONTINUOUS
 10
98.3868651
 20
144.622470012
 11
95.2886645179
 21
147.1525200417
  0
LINE
  5
27D
100
AcDbEntity
  8
BEZUGSACHSEN
100
AcDbLine
 62
7
  6
CONTINUOUS
 10
98.643927834
 20
144.9372590093
 11
97.2596254266
 21
146.0677069109
  0
LINE
  5
27E
100
AcDbEntity
  8
BEZUGSACHSEN
100
AcDbLine
 62
7
  6
CONTINUOUS
 10
96.8641105058
 20
146.3906919826
 11
95.8753230191
 21
147.1981548126
  0
LINE
  5
27F
100
AcDbEntity
  8
BEZUGSACHSEN
100
AcDbLine
 62
7
  6
CONTINUOUS
 10
99.531598454
 20
148.0463807242
 11
97.8391461629
 21
150.0702930576
  0
LINE
  5
280
100
AcDbEntity
  8
BEZUGSACHSEN
100
AcDbLine
 62
7
  6
CONTINUOUS
 10
99.8433711468
 20
148.3070937994
 11
98.1509188557
 21
150.3310061327
  0
LINE
  5
281
100
AcDbEntity
  8
BEZUGSACHSEN
100
AcDbLine
 62
7
  6
CONTINUOUS
 10
99.3980090323
 20
151.373857936
 11
101.0904613234
 21
149.3499456027
  0
LINE
  5
282
100
AcDbEntity
  8
BEZUGSACHSEN
100
AcDbLine
 62
7
  6
CONTINUOUS
 10
103.4687612959
 20
152.3081740023
 11
104.0837856717
 21
151.1894954835
  0
LINE
  5
283
100
AcDbEntity
  8
BEZUGSACHSEN
100
AcDbLine
 62
7
  6
CONTINUOUS
 10
103.8249022533
 20
152.5039723182
 11
104.439926629
 21
151.3852937994
  0
LINE
  5
284
100
AcDbEntity
  8
BEZUGSACHSEN
100
AcDbLine
 62
7
  6
CONTINUOUS
 10
125.972785835
 20
144.0667970257
 11
125.8392496776
 21
143.7690566981
  0
LINE
  5
285
100
AcDbEntity
  8
BEZUGSACHSEN
100
AcDbLine
 62
7
  6
CONTINUOUS
 10
127.5916524021
 20
144.8271025217
 11
127.4581162713
 21
144.5293622077
  0
LINE
  5
286
100
AcDbEntity
  8
BEZUGSACHSEN
100
AcDbLine
 62
7
  6
CONTINUOUS
 10
97.3419326238
 20
148.186790513
 11
97.5396902689
 21
148.0252978263
  0
LINE
  5
287
100
AcDbEntity
  8
BEZUGSACHSEN
100
AcDbLine
 62
7
  6
CONTINUOUS
 10
97.5989953578
 20
148.5015795102
 11
97.8626721563
 21
148.2862559783
  0
LINE
  5
288
100
AcDbEntity
  8
BEZUGSACHSEN
100
AcDbLine
 62
7
  6
CONTINUOUS
 10
99.531598454
 20
148.0463807242
 11
99.8565367828
 21
147.7633955367
  0
LINE
  5
289
100
AcDbEntity
  8
BEZUGSACHSEN
100
AcDbLine
 62
7
  6
CONTINUOUS
 10
99.7097815764
 20
151.6345708868
 11
101.4022338675
 21
149.6106585535
  0
LINE
  5
28A
100
AcDbEntity
  8
BEZUGSACHSEN
100
AcDbLine
 62
7
  6
CONTINUOUS
 10
122.0205796579
 20
152.274628981
 11
122.0340786691
 21
151.8783959279
  0
LINE
  5
28B
100
AcDbEntity
  8
KONSTRUKTIONSELEMENTE
100
AcDbLine
 62
7
  6
CONTINUOUS
 10
123.2206969577
 20
109.1446531651
 11
123.2206969577
 21
103.9095007424
  0
LINE
  5
28C
100
AcDbEntity
  8
BEZUGSACHSEN
100
AcDbLine
 62
7
  6
CONTINUOUS
 10
121.5433353956
 20
148.9230517785
 11
121.5312657697
 21
148.4881337602
  0
LINE
  5
28D
100
AcDbEntity
  8
BEZUGSACHSEN
100
AcDbLine
 62
7
  6
CONTINUOUS
 10
125.8392496776
 20
143.7690566981
 11
125.7679047568
 21
143.350965692
  0
LINE
  5
28E
100
AcDbEntity
  8
BEZUGSACHSEN
100
AcDbLine
 62
7
  6
CONTINUOUS
 10
127.8983495897
 20
144.6043613318
 11
127.7959090737
 21
144.246445677
  0
LINE
  5
28F
100
AcDbEntity
  8
BEZUGSACHSEN
100
AcDbLine
 62
7
  6
CONTINUOUS
 10
128.053206151
 20
143.0069909633
 11
127.9507656351
 21
142.6490753084
  0
LINE
  5
290
100
AcDbEntity
  8
BEZUGSACHSEN
100
AcDbLine
 62
7
  6
CONTINUOUS
 10
129.5653690232
 20
143.7884013154
 11
129.4318328923
 21
143.4906610015
  0
LINE
  5
291
100
AcDbEntity
  8
BEZUGSACHSEN
100
AcDbLine
 62
7
  6
CONTINUOUS
 10
99.8433711468
 20
148.3070937994
 11
100.1137139505
 21
148.089395849
  0
LINE
  5
292
100
AcDbEntity
  8
BEZUGSACHSEN
100
AcDbLine
 62
7
  6
CONTINUOUS
 10
103.2453982112
 20
152.573855318
 11
103.4687612959
 21
152.3081740023
  0
LINE
  5
293
100
AcDbEntity
  8
BEZUGSACHSEN
100
AcDbLine
 62
7
  6
CONTINUOUS
 10
103.5605374325
 20
152.8442324037
 11
103.8249022533
 21
152.5039723182
  0
LINE
  5
294
100
AcDbEntity
  8
BEZUGSACHSEN
100
AcDbLine
 62
7
  6
CONTINUOUS
 10
125.1779361629
 20
149.9788405053
 11
125.1658665562
 21
149.5439225098
  0
LINE
  5
295
100
AcDbEntity
  8
BEZUGSACHSEN
100
AcDbLine
 62
7
  6
CONTINUOUS
 10
126.2349705044
 20
143.7448099828
 11
126.2081381215
 21
143.4259648401
  0
LINE
  5
296
100
AcDbEntity
  8
BEZUGSACHSEN
100
AcDbLine
 62
7
  6
CONTINUOUS
 10
127.4581162713
 20
144.5293622077
 11
127.4447007916
 21
144.369938259
  0
LINE
  5
297
100
AcDbEntity
  8
BEZUGSACHSEN
100
AcDbLine
 62
7
  6
CONTINUOUS
 10
129.2275762207
 20
144.0713178462
 11
129.1251357048
 21
143.7134021913
  0
LINE
  5
298
100
AcDbEntity
  8
BEZUGSACHSEN
100
AcDbLine
 62
7
  6
CONTINUOUS
 10
126.967859747
 20
142.1411585686
 11
127.4080931183
 21
142.2161577201
  0
LINE
  5
299
100
AcDbEntity
  8
BEZUGSACHSEN
100
AcDbLine
 62
7
  6
CONTINUOUS
 10
126.5154582987
 20
144.4997145867
 11
126.955691723
 21
144.5747137655
  0
LINE
  5
29A
100
AcDbEntity
  8
BEZUGSACHSEN
100
AcDbLine
 62
7
  6
CONTINUOUS
 10
128.5245350843
 20
143.0218147464
 11
128.8891602697
 21
143.0577433584
  0
LINE
  5
29B
100
AcDbEntity
  8
BEZUGSACHSEN
100
AcDbLine
 62
7
  6
CONTINUOUS
 10
98.1131943073
 20
147.3820598078
 11
100.0149291225
 21
146.6161337116
  0
LINE
  5
29C
100
AcDbEntity
  8
BEZUGSACHSEN
100
AcDbLine
 62
7
  6
CONTINUOUS
 10
97.987969819
 20
146.9596090449
 11
99.7150225179
 21
146.2488797813
  0
LINE
  5
29D
100
AcDbEntity
  8
BEZUGSACHSEN
100
AcDbLine
 62
7
  6
CONTINUOUS
 10
97.1013314153
 20
148.2958182659
 11
97.3419326238
 21
148.186790513
  0
LINE
  5
29E
100
AcDbEntity
  8
BEZUGSACHSEN
100
AcDbLine
 62
7
  6
CONTINUOUS
 10
97.3583941493
 20
148.6106072632
 11
97.5989953578
 21
148.5015795102
  0
LINE
  5
29F
100
AcDbEntity
  8
BEZUGSACHSEN
100
AcDbLine
 62
7
  6
CONTINUOUS
 10
99.8565367828
 20
147.7633955367
 11
100.1788419632
 21
147.5891499063
  0
LINE
  5
2A0
100
AcDbEntity
  8
BEZUGSACHSEN
100
AcDbLine
 62
7
  6
CONTINUOUS
 10
103.2778170688
 20
153.0772804178
 11
103.5605374325
 21
152.8442324037
  0
LINE
  5
2A1
100
AcDbEntity
  8
BEZUGSACHSEN
100
AcDbLine
 62
7
  6
CONTINUOUS
 10
121.9638349567
 20
148.7914287562
 11
122.0096087978
 21
148.5303339554
  0
LINE
  5
2A2
100
AcDbEntity
  8
BEZUGSACHSEN
100
AcDbLine
 62
7
  6
CONTINUOUS
 10
121.6418130963
 20
152.2891769786
 11
121.6782172664
 21
152.0747018729
  0
LINE
  5
2A3
100
AcDbEntity
  8
BEZUGSACHSEN
100
AcDbLine
 62
7
  6
CONTINUOUS
 10
127.7154133485
 20
143.2899074941
 11
127.6885809656
 21
142.9710623513
  0
LINE
  5
2A4
100
AcDbEntity
  8
BEZUGSACHSEN
100
AcDbLine
 62
7
  6
CONTINUOUS
 10
128.0666216307
 20
143.166414912
 11
128.053206151
 21
143.0069909633
  0
LINE
  5
2A5
100
AcDbEntity
  8
BEZUGSACHSEN
100
AcDbLine
 62
7
  6
CONTINUOUS
 10
129.6367125007
 20
144.2064950659
 11
129.5653690232
 21
143.7884013154
  0
LINE
  5
2A6
100
AcDbEntity
  8
BEZUGSACHSEN
100
AcDbLine
 62
7
  6
CONTINUOUS
 10
122.9300907196
 20
147.3099762959
 11
123.3566250649
 21
147.3958122486
  0
LINE
  5
2A7
100
AcDbEntity
  8
BEZUGSACHSEN
100
AcDbLine
 62
7
  6
CONTINUOUS
 10
128.0587166799
 20
145.2209495431
 11
128.4989502101
 21
145.2959487767
  0
LINE
  5
2A8
100
AcDbEntity
  8
BEZUGSACHSEN
100
AcDbLine
 62
7
  6
CONTINUOUS
 10
128.5202704288
 20
143.4008379848
 11
128.8092874812
 21
143.3976960846
  0
LINE
  5
2A9
100
AcDbEntity
  8
BEZUGSACHSEN
100
AcDbLine
 62
7
  6
CONTINUOUS
 10
126.8568913436
 20
142.5412866358
 11
127.2526121968
 21
142.5170399341
  0
LINE
  5
2AA
100
AcDbEntity
  8
BEZUGSACHSEN
100
AcDbLine
 62
7
  6
CONTINUOUS
 10
100.1137139505
 20
148.089395849
 11
100.3814240135
 21
147.9804378744
  0
LINE
  5
2AB
100
AcDbEntity
  8
BEZUGSACHSEN
100
AcDbLine
 62
7
  6
CONTINUOUS
 10
103.0036793538
 20
152.73232498
 11
103.2453982112
 21
152.573855318
  0
LINE
  5
2AC
100
AcDbEntity
  8
BEZUGSACHSEN
100
AcDbLine
 62
7
  6
CONTINUOUS
 10
121.5312657697
 20
148.4881337602
 11
121.6288483176
 21
148.1834032303
  0
LINE
  5
2AD
100
AcDbEntity
  8
BEZUGSACHSEN
100
AcDbLine
 62
7
  6
CONTINUOUS
 10
124.6995919682
 20
149.9366413317
 11
124.7453658477
 21
149.6755465764
  0
LINE
  5
2AE
100
AcDbEntity
  8
BEZUGSACHSEN
100
AcDbLine
 62
7
  6
CONTINUOUS
 10
126.2081381215
 20
143.4259648401
 11
126.2569138716
 21
143.1461902095
  0
LINE
  5
2AF
100
AcDbEntity
  8
RUNDUNGEN
100
AcDbLine
 62
7
  6
CONTINUOUS
 10
131.6556634515
 20
99.6764412109
 11
131.6556634515
 21
118.3137192245
  0
LINE
  5
2B0
100
AcDbEntity
  8
BEZUGSACHSEN
100
AcDbLine
 62
7
  6
CONTINUOUS
 10
128.2141976015
 20
144.9200673291
 11
128.5032148656
 21
144.9169255384
  0
LINE
  5
2B1
100
AcDbEntity
  8
BEZUGSACHSEN
100
AcDbLine
 62
7
  6
CONTINUOUS
 10
126.6709392203
 20
144.1988323726
 11
127.0666601265
 21
144.1745856984
  0
LINE
  5
2B2
100
AcDbEntity
  8
BEZUGSACHSEN
100
AcDbLine
 62
7
  6
CONTINUOUS
 10
96.9661861684
 20
148.6685361457
 11
97.3583941493
 21
148.6106072632
  0
LINE
  5
2B3
100
AcDbEntity
  8
BEZUGSACHSEN
100
AcDbLine
 62
7
  6
CONTINUOUS
 10
126.6477470532
 20
142.204475796
 11
126.967859747
 21
142.1411585686
  0
LINE
  5
2B4
100
AcDbEntity
  8
BEZUGSACHSEN
100
AcDbLine
 62
7
  6
CONTINUOUS
 10
128.204422417
 20
143.0851319876
 11
128.5245350843
 21
143.0218147464
  0
LINE
  5
2B5
100
AcDbEntity
  8
BEZUGSACHSEN
100
AcDbLine
 62
7
  6
CONTINUOUS
 10
100.1788419632
 20
147.5891499063
 11
100.605071058
 21
147.5018084084
  0
LINE
  5
2B6
100
AcDbEntity
  8
BEZUGSACHSEN
100
AcDbLine
 62
7
  6
CONTINUOUS
 10
126.2654431363
 20
142.3881437088
 11
126.6477470532
 21
142.204475796
  0
LINE
  5
2B7
100
AcDbEntity
  8
BEZUGSACHSEN
100
AcDbLine
 62
7
  6
CONTINUOUS
 10
122.0096087978
 20
148.5303339554
 11
122.1620180375
 21
148.2906966844
  0
LINE
  5
2B8
100
AcDbEntity
  8
BEZUGSACHSEN
100
AcDbLine
 62
7
  6
CONTINUOUS
 10
125.8477775387
 20
143.0110129624
 11
126.0343540751
 21
142.6499554073
  0
LINE
  5
2B9
100
AcDbEntity
  8
BEZUGSACHSEN
100
AcDbLine
 62
7
  6
CONTINUOUS
 10
121.9066620378
 20
152.629059921
 11
122.0205796579
 21
152.274628981
  0
LINE
  5
2BA
100
AcDbEntity
  8
BEZUGSACHSEN
100
AcDbLine
 62
7
  6
CONTINUOUS
 10
125.0803524148
 20
150.2835720169
 11
125.1779361629
 21
149.9788405053
  0
LINE
  5
2BB
100
AcDbEntity
  8
BEZUGSACHSEN
100
AcDbLine
 62
7
  6
CONTINUOUS
 10
125.7679047568
 20
143.350965692
 11
125.8477775387
 21
143.0110129624
  0
LINE
  5
2BC
100
AcDbEntity
  8
BEZUGSACHSEN
100
AcDbLine
 62
7
  6
CONTINUOUS
 10
127.6666375984
 20
143.5696821247
 11
127.7154133485
 21
143.2899074941
  0
LINE
  5
2BD
100
AcDbEntity
  8
BEZUGSACHSEN
100
AcDbLine
 62
7
  6
CONTINUOUS
 10
127.7959090737
 20
144.246445677
 11
127.8446848239
 21
143.9666710463
  0
LINE
  5
2BE
100
AcDbEntity
  8
BEZUGSACHSEN
100
AcDbLine
 62
7
  6
CONTINUOUS
 10
129.1788004706
 20
144.3510924768
 11
129.2275762207
 21
144.0713178462
  0
LINE
  5
2BF
100
AcDbEntity
  8
BEZUGSACHSEN
100
AcDbLine
 62
7
  6
CONTINUOUS
 10
123.3525768869
 20
151.0711620397
 11
123.779111213
 21
151.1569979696
  0
LINE
  5
2C0
100
AcDbEntity
  8
BEZUGSACHSEN
100
AcDbLine
 62
7
  6
CONTINUOUS
 10
100.605071058
 20
147.5018084084
 11
100.9221099898
 21
147.5450421365
  0
LINE
  5
2C1
100
AcDbEntity
  8
BEZUGSACHSEN
100
AcDbLine
 62
7
  6
CONTINUOUS
 10
96.5970535929
 20
148.6201694
 11
96.9661861684
 21
148.6685361457
  0
LINE
  5
2C2
100
AcDbEntity
  8
BEZUGSACHSEN
100
AcDbLine
 62
7
  6
CONTINUOUS
 10
120.9611797045
 20
150.9150992489
 11
121.2806369372
 21
150.9332684096
  0
LINE
  5
2C3
100
AcDbEntity
  8
BEZUGSACHSEN
100
AcDbLine
 62
7
  6
CONTINUOUS
 10
100.3814240135
 20
147.9804378744
 11
100.6465007794
 21
147.9802193325
  0
LINE
  5
2C4
100
AcDbEntity
  8
BEZUGSACHSEN
100
AcDbLine
 62
7
  6
CONTINUOUS
 10
122.8903504769
 20
147.7885310704
 11
123.1554263611
 21
147.7878133234
  0
LINE
  5
2C5
100
AcDbEntity
  8
BEZUGSACHSEN
100
AcDbLine
 62
7
  6
CONTINUOUS
 10
96.8838054895
 20
148.2985502407
 11
97.1013314153
 21
148.2958182659
  0
LINE
  5
2C6
100
AcDbEntity
  8
BEZUGSACHSEN
100
AcDbLine
 62
7
  6
CONTINUOUS
 10
122.6132049907
 20
147.3543308277
 11
122.9300907196
 21
147.3099762959
  0
LINE
  5
2C7
100
AcDbEntity
  8
BEZUGSACHSEN
100
AcDbLine
 62
7
  6
CONTINUOUS
 10
128.4989502101
 20
145.2959487767
 11
128.8190628774
 21
145.2326315356
  0
LINE
  5
2C8
100
AcDbEntity
  8
BEZUGSACHSEN
100
AcDbLine
 62
7
  6
CONTINUOUS
 10
128.1690621466
 20
143.5243305669
 11
128.5202704288
 21
143.4008379848
  0
LINE
  5
2C9
100
AcDbEntity
  8
BEZUGSACHSEN
100
AcDbLine
 62
7
  6
CONTINUOUS
 10
126.955691723
 20
144.5747137655
 11
127.3069000052
 21
144.4512211835
  0
LINE
  5
2CA
100
AcDbEntity
  8
BEZUGSACHSEN
100
AcDbLine
 62
7
  6
CONTINUOUS
 10
128.5032148656
 20
144.9169255384
 11
128.8544231478
 21
144.7934329563
  0
LINE
  5
2CB
100
AcDbEntity
  8
BEZUGSACHSEN
100
AcDbLine
 62
7
  6
CONTINUOUS
 10
102.8763835054
 20
153.2450625755
 11
103.2778170688
 21
153.0772804178
  0
LINE
  5
2CC
100
AcDbEntity
  8
BEZUGSACHSEN
100
AcDbLine
 62
7
  6
CONTINUOUS
 10
122.2993396376
 20
147.5074123729
 11
122.6132049907
 21
147.3543308277
  0
LINE
  5
2CD
100
AcDbEntity
  8
BEZUGSACHSEN
100
AcDbLine
 62
7
  6
CONTINUOUS
 10
126.5812911944
 20
142.70384973
 11
126.8568913436
 21
142.5412866358
  0
LINE
  5
2CE
100
AcDbEntity
  8
BEZUGSACHSEN
100
AcDbLine
 62
7
  6
CONTINUOUS
 10
128.0666216307
 20
143.166414912
 11
128.204422417
 21
143.0851319876
  0
LINE
  5
2CF
100
AcDbEntity
  8
BEZUGSACHSEN
100
AcDbLine
 62
7
  6
CONTINUOUS
 10
127.0666601265
 20
144.1745856984
 11
127.3422602756
 21
144.0120226042
  0
LINE
  5
2D0
100
AcDbEntity
  8
BEZUGSACHSEN
100
AcDbLine
 62
7
  6
CONTINUOUS
 10
127.3069000052
 20
144.4512211835
 11
127.4447007916
 21
144.369938259
  0
LINE
  5
2D1
100
AcDbEntity
  8
BEZUGSACHSEN
100
AcDbLine
 62
7
  6
CONTINUOUS
 10
121.8330650496
 20
147.9001311948
 11
122.2993396376
 21
147.5074123729
  0
LINE
  5
2D2
100
AcDbEntity
  8
BEZUGSACHSEN
100
AcDbLine
 62
7
  6
CONTINUOUS
 10
122.1620180375
 20
148.2906966844
 11
122.6282926256
 21
147.8979778626
  0
LINE
  5
2D3
100
AcDbEntity
  8
BEZUGSACHSEN
100
AcDbLine
 62
7
  6
CONTINUOUS
 10
126.3812991782
 20
142.9054833363
 11
126.5812911944
 21
142.70384973
  0
LINE
  5
2D4
100
AcDbEntity
  8
BEZUGSACHSEN
100
AcDbLine
 62
7
  6
CONTINUOUS
 10
127.3422602756
 20
144.0120226042
 11
127.5422522918
 21
143.8103889978
  0
LINE
  5
2D5
100
AcDbEntity
  8
BEZUGSACHSEN
100
AcDbLine
 62
7
  6
CONTINUOUS
 10
126.0343540751
 20
142.6499554073
 11
126.2654431363
 21
142.3881437088
  0
LINE
  5
2D6
100
AcDbEntity
  8
BEZUGSACHSEN
100
AcDbLine
 62
7
  6
CONTINUOUS
 10
121.6288483176
 20
148.1834032303
 11
121.8330650496
 21
147.9001311948
  0
LINE
  5
2D7
100
AcDbEntity
  8
BEZUGSACHSEN
100
AcDbLine
 62
7
  6
CONTINUOUS
 10
126.2569138716
 20
143.1461902095
 11
126.3812991782
 21
142.9054833363
  0
LINE
  5
2D8
100
AcDbEntity
  8
BEZUGSACHSEN
100
AcDbLine
 62
7
  6
CONTINUOUS
 10
127.5422522918
 20
143.8103889978
 11
127.6666375984
 21
143.5696821247
  0
LINE
  5
2D9
100
AcDbEntity
  8
BEZUGSACHSEN
100
AcDbLine
 62
7
  6
CONTINUOUS
 10
127.8446848239
 20
143.9666710463
 11
127.9690701305
 21
143.7259641732
  0
LINE
  5
2DA
100
AcDbEntity
  8
BEZUGSACHSEN
100
AcDbLine
 62
7
  6
CONTINUOUS
 10
129.5568411357
 20
144.5464450375
 11
129.6367125007
 21
144.2064950659
  0
LINE
  5
2DB
100
AcDbEntity
  8
0
100
AcDbLine
 62
7
  6
CONTINUOUS
 10
136.6556634515
 20
127.3255083366
 11
136.6556634515
 21
143.5714931482
  0
LINE
  5
2DC
100
AcDbEntity
  8
0
100
AcDbLine
 62
7
  6
CONTINUOUS
 10
134.0596844136
 20
115.1123871912
 11
136.6556634515
 21
127.3255083366
  0
LINE
  5
2DD
100
AcDbEntity
  8
RUNDUNGEN
100
AcDbLine
 62
7
  6
CONTINUOUS
 10
131.9236126439
 20
111.4126023575
 11
134.0596844136
 21
115.1123871912
  0
LINE
  5
2DE
100
AcDbEntity
  8
BEZUGSACHSEN
100
AcDbLine
 62
7
  6
CONTINUOUS
 10
123.5537744433
 20
150.6791620092
 11
123.8188502891
 21
150.6784442166
  0
LINE
  5
2DF
100
AcDbEntity
  8
BEZUGSACHSEN
100
AcDbLine
 62
7
  6
CONTINUOUS
 10
102.5569531845
 20
153.2636876113
 11
102.8763835054
 21
153.2450625755
  0
LINE
  5
2E0
100
AcDbEntity
  8
BEZUGSACHSEN
100
AcDbLine
 62
7
  6
CONTINUOUS
 10
120.8883713644
 20
151.3440494603
 11
121.1074099883
 21
151.3204165079
  0
LINE
  5
2E1
100
AcDbEntity
  8
BEZUGSACHSEN
100
AcDbLine
 62
7
  6
CONTINUOUS
 10
123.779111213
 20
151.1569979696
 11
124.0959957417
 21
151.1126444195
  0
LINE
  5
2E2
100
AcDbEntity
  8
BEZUGSACHSEN
100
AcDbLine
 62
7
  6
CONTINUOUS
 10
102.7436056327
 20
152.783582944
 11
103.0036793538
 21
152.73232498
  0
LINE
  5
2E3
100
AcDbEntity
  8
BEZUGSACHSEN
100
AcDbLine
 62
7
  6
CONTINUOUS
 10
122.6282926256
 20
147.8979778626
 11
122.8903504769
 21
147.7885310704
  0
LINE
  5
2E4
100
AcDbEntity
  8
BEZUGSACHSEN
100
AcDbLine
 62
7
  6
CONTINUOUS
 10
128.8190628774
 20
145.2326315356
 11
129.201368198
 21
145.0489608579
  0
LINE
  5
2E5
100
AcDbEntity
  8
BEZUGSACHSEN
100
AcDbLine
 62
7
  6
CONTINUOUS
 10
118.2957010438
 20
150.1499503946
 11
118.6515624465
 21
149.9536444496
  0
LINE
  5
2E6
100
AcDbEntity
  8
BEZUGSACHSEN
100
AcDbLine
 62
7
  6
CONTINUOUS
 10
120.1343187438
 20
149.1357027626
 11
120.5494894754
 21
148.9066796594
  0
LINE
  5
2E7
100
AcDbEntity
  8
BEZUGSACHSEN
100
AcDbLine
 62
7
  6
CONTINUOUS
 10
119.5148289347
 20
151.5185650814
 11
120.5231024567
 21
150.9623651536
  0
LINE
  5
2E8
100
AcDbEntity
  8
BEZUGSACHSEN
100
AcDbLine
 62
7
  6
CONTINUOUS
 10
119.7614764699
 20
151.9656852023
 11
120.8883713644
 21
151.3440494603
  0
LINE
  5
2E9
100
AcDbEntity
  8
BEZUGSACHSEN
100
AcDbLine
 62
7
  6
CONTINUOUS
 10
123.3440397544
 20
148.852934125
 11
123.8103143425
 21
148.4602153031
  0
LINE
  5
2EA
100
AcDbEntity
  8
BEZUGSACHSEN
100
AcDbLine
 62
7
  6
CONTINUOUS
 10
123.672992704
 20
149.243499569
 11
124.4501170174
 21
148.5889681993
  0
LINE
  5
2EB
100
AcDbEntity
  8
BEZUGSACHSEN
100
AcDbLine
 62
7
  6
CONTINUOUS
 10
124.6326967164
 20
149.4366289132
 11
124.9435464417
 21
149.1748163653
  0
LINE
  5
2EC
100
AcDbEntity
  8
BEZUGSACHSEN
100
AcDbLine
 62
7
  6
CONTINUOUS
 10
124.080910512
 20
150.568995427
 11
124.5471851001
 21
150.1762766052
  0
LINE
  5
2ED
100
AcDbEntity
  8
BEZUGSACHSEN
100
AcDbLine
 62
7
  6
CONTINUOUS
 10
121.6512192438
 20
152.867167979
 11
121.9066620378
 21
152.629059921
  0
LINE
  5
2EE
100
AcDbEntity
  8
BEZUGSACHSEN
100
AcDbLine
 62
7
  6
CONTINUOUS
 10
127.9690701305
 20
143.7259641732
 11
128.1690621466
 21
143.5243305669
  0
LINE
  5
2EF
100
AcDbEntity
  8
BEZUGSACHSEN
100
AcDbLine
 62
7
  6
CONTINUOUS
 10
128.8544231478
 20
144.7934329563
 11
129.054415164
 21
144.5917993499
  0
LINE
  5
2F0
100
AcDbEntity
  8
BEZUGSACHSEN
100
AcDbLine
 62
7
  6
CONTINUOUS
 10
129.201368198
 20
145.0489608579
 11
129.4324558291
 21
144.7871519106
  0
LINE
  5
2F1
100
AcDbEntity
  8
BEZUGSACHSEN
100
AcDbLine
 62
7
  6
CONTINUOUS
 10
121.5049903175
 20
152.4618499712
 11
121.6418130963
 21
152.2891769786
  0
LINE
  5
2F2
100
AcDbEntity
  8
BEZUGSACHSEN
100
AcDbLine
 62
7
  6
CONTINUOUS
 10
124.8761380496
 20
150.5668420492
 11
125.0803524148
 21
150.2835720169
  0
LINE
  5
2F3
100
AcDbEntity
  8
BEZUGSACHSEN
100
AcDbLine
 62
7
  6
CONTINUOUS
 10
124.5471851001
 20
150.1762766052
 11
124.6995919682
 21
149.9366413317
  0
LINE
  5
2F4
100
AcDbEntity
  8
BEZUGSACHSEN
100
AcDbLine
 62
7
  6
CONTINUOUS
 10
129.054415164
 20
144.5917993499
 11
129.1788004706
 21
144.3510924768
  0
LINE
  5
2F5
100
AcDbEntity
  8
BEZUGSACHSEN
100
AcDbLine
 62
7
  6
CONTINUOUS
 10
129.4324558291
 20
144.7871519106
 11
129.5568411357
 21
144.5464450375
  0
LINE
  5
2F6
100
AcDbEntity
  8
BEZUGSACHSEN
100
AcDbLine
 62
7
  6
CONTINUOUS
 10
102.2191672057
 20
153.1751007846
 11
102.5569531845
 21
153.2636876113
  0
LINE
  5
2F7
100
AcDbEntity
  8
BEZUGSACHSEN
100
AcDbLine
 62
7
  6
CONTINUOUS
 10
102.465176933
 20
152.7276294188
 11
102.7436056327
 21
152.783582944
  0
LINE
  5
2F8
100
AcDbEntity
  8
BEZUGSACHSEN
100
AcDbLine
 62
7
  6
CONTINUOUS
 10
123.8188502891
 20
150.6784442166
 11
124.080910512
 21
150.568995427
  0
LINE
  5
2F9
100
AcDbEntity
  8
BEZUGSACHSEN
100
AcDbLine
 62
7
  6
CONTINUOUS
 10
124.0959957417
 20
151.1126444195
 11
124.4098634616
 21
150.959560871
  0
LINE
  5
2FA
100
AcDbEntity
  8
BEZUGSACHSEN
100
AcDbLine
 62
7
  6
CONTINUOUS
 10
120.378095423
 20
153.0834857132
 11
121.5049903175
 21
152.4618499712
  0
LINE
  5
2FB
100
AcDbEntity
  8
BEZUGSACHSEN
100
AcDbLine
 62
7
  6
CONTINUOUS
 10
120.2277736328
 20
153.652391759
 11
121.6512192438
 21
152.867167979
  0
LINE
  5
2FC
100
AcDbEntity
  8
BEZUGSACHSEN
100
AcDbLine
 62
7
  6
CONTINUOUS
 10
124.4098634616
 20
150.959560871
 11
124.8761380496
 21
150.5668420492
  0
LINE
  5
2FD
100
AcDbEntity
  8
0
100
AcDbLine
 62
7
  6
CONTINUOUS
 10
136.6556634515
 20
143.5714931482
 11
127.1065131703
 21
156.7147709512
  0
LINE
  5
2FE
100
AcDbEntity
  8
RUNDUNGEN
100
AcDbLine
 62
7
  6
CONTINUOUS
 10
131.1877523377
 20
98.3908659915
 11
130.8431243331
 21
97.9801543288
  0
LINE
  5
2FF
100
AcDbEntity
  8
0
100
AcDbLine
 62
7
  6
CONTINUOUS
 10
130.8431243331
 20
97.9801543288
 11
127.2205392344
 21
93.662925523
  0
LINE
  5
300
100
AcDbEntity
  8
0
100
AcDbLine
 62
7
  6
CONTINUOUS
 10
127.1065131703
 20
156.7147709512
 11
111.6556634515
 21
161.7350563483
  0
LINE
  5
301
100
AcDbEntity
  8
0
100
AcDbLine
 62
7
  6
CONTINUOUS
 10
189.9380693495
 20
98.1991844252
 11
188.6671030778
 21
100.2153497245
  0
LINE
  5
302
100
AcDbEntity
  8
0
100
AcDbLine
 62
7
  6
CONTINUOUS
 10
196.4001299773
 20
115.1123871912
 11
202.5097370717
 21
115.1123871912
  0
LINE
  5
303
100
AcDbEntity
  8
0
100
AcDbLine
 62
7
  6
CONTINUOUS
 10
188.2049335245
 20
101.815167409
 11
188.2049335245
 21
109.1446531651
  0
LINE
  5
304
100
AcDbEntity
  8
0
100
AcDbLine
 62
7
  6
CONTINUOUS
 10
191.4549335245
 20
116.3815134443
 11
191.4549335245
 21
121.6867840202
  0
LINE
  5
305
100
AcDbEntity
  8
0
100
AcDbLine
 62
7
  6
CONTINUOUS
 10
194.513541348
 20
150.8643619935
 11
196.5283054575
 21
161.7350563483
  0
LINE
  5
306
100
AcDbEntity
  8
0
100
AcDbLine
 62
7
  6
CONTINUOUS
 10
194.4549335245
 20
150.2265376543
 11
194.4549335245
 21
125.3610186344
  0
LINE
  5
307
100
AcDbEntity
  8
0
100
AcDbLine
 62
7
  6
CONTINUOUS
 10
196.3613353081
 20
131.0403262247
 11
196.4808922172
 21
127.3255083366
  0
LINE
  5
308
100
AcDbEntity
  8
0
100
AcDbLine
 62
7
  6
CONTINUOUS
 10
196.4808922172
 20
127.3255083366
 11
196.4001299773
 21
115.1123871912
  0
LINE
  5
309
100
AcDbEntity
  8
0
100
AcDbLine
 62
7
  6
CONTINUOUS
 10
196.3034030358
 20
113.7909105771
 11
196.4001299773
 21
115.1123871912
  0
LINE
  5
30A
100
AcDbEntity
  8
0
100
AcDbLine
 62
7
  6
CONTINUOUS
 10
188.6068573132
 20
110.6446531651
 11
193.4931831381
 21
119.1080177563
  0
LINE
  5
30B
100
AcDbEntity
  8
0
100
AcDbLine
 62
7
  6
CONTINUOUS
 10
196.4808922172
 20
127.3255083366
 11
202.4289748318
 21
127.3255083366
  0
LINE
  5
30C
100
AcDbEntity
  8
RUNDUNGEN
100
AcDbLine
 62
7
  6
CONTINUOUS
 10
202.6064640132
 20
113.7909105771
 11
202.5097370717
 21
115.1123871912
  0
LINE
  5
30D
100
AcDbEntity
  8
RUNDUNGEN
100
AcDbLine
 62
7
  6
CONTINUOUS
 10
210.3030097359
 20
110.6446531651
 11
205.4166839109
 21
119.1080177563
  0
LINE
  5
30E
100
AcDbEntity
  8
0
100
AcDbLine
 62
7
  6
CONTINUOUS
 10
202.4289748318
 20
127.3255083366
 11
202.5097370717
 21
115.1123871912
  0
LINE
  5
30F
100
AcDbEntity
  8
BEZUGSACHSEN
100
AcDbLine
 62
7
  6
CONTINUOUS
 10
204.4549335245
 20
148.8867147384
 11
204.4549335245
 21
148.7019093807
  0
LINE
  5
310
100
AcDbEntity
  8
BEZUGSACHSEN
100
AcDbLine
 62
7
  6
CONTINUOUS
 10
204.4549335245
 20
147.5018084084
 11
204.4549335245
 21
146.7401635031
  0
LINE
  5
311
100
AcDbEntity
  8
BEZUGSACHSEN
100
AcDbLine
 62
7
  6
CONTINUOUS
 10
204.4549335245
 20
146.2488797813
 11
204.4549335245
 21
145.090865575
  0
LINE
  5
312
100
AcDbEntity
  8
BEZUGSACHSEN
100
AcDbLine
 62
7
  6
CONTINUOUS
 10
204.4549335245
 20
144.622470012
 11
204.4549335245
 21
132.8823215631
  0
LINE
  5
313
100
AcDbEntity
  8
KONSTRUKTIONSELEMENTE
100
AcDbLine
 62
7
  6
CONTINUOUS
 10
204.4549335245
 20
132.8823215631
 11
204.4549335245
 21
125.3610186344
  0
LINE
  5
314
100
AcDbEntity
  8
RUNDUNGEN
100
AcDbLine
 62
7
  6
CONTINUOUS
 10
204.4549335245
 20
132.8823215532
 11
204.4549335245
 21
125.3610186344
  0
LINE
  5
315
100
AcDbEntity
  8
0
100
AcDbLine
 62
7
  6
CONTINUOUS
 10
202.5485317409
 20
131.0403262247
 11
202.4289748318
 21
127.3255083366
  0
LINE
  5
316
100
AcDbEntity
  8
KONSTRUKTIONSELEMENTE
100
AcDbLine
 62
7
  6
CONTINUOUS
 10
207.4549335245
 20
116.3815134443
 11
207.4549335245
 21
121.6867840202
  0
LINE
  5
317
100
AcDbEntity
  8
KONSTRUKTIONSELEMENTE
100
AcDbLine
 62
7
  6
CONTINUOUS
 10
202.3815615915
 20
161.7350563483
 11
204.2976947411
 21
151.3965270315
  0
LINE
  5
318
100
AcDbEntity
  8
RUNDUNGEN
100
AcDbLine
 62
7
  6
CONTINUOUS
 10
210.7049335245
 20
101.815167409
 11
210.7049335245
 21
109.1446531651
  0
LINE
  5
319
100
AcDbEntity
  8
BEZUGSACHSEN
100
AcDbLine
 62
7
  6
CONTINUOUS
 10
204.4549335245
 20
142.6499554073
 11
204.4788409824
 21
142.6499554073
  0
LINE
  5
31A
100
AcDbEntity
  8
BEZUGSACHSEN
100
AcDbLine
 62
7
  6
CONTINUOUS
 10
204.4549335245
 20
143.0110129624
 11
204.4828109469
 21
143.0110129624
  0
LINE
  5
31B
100
AcDbEntity
  8
BEZUGSACHSEN
100
AcDbLine
 62
7
  6
CONTINUOUS
 10
204.4549335245
 20
143.350965692
 11
204.4688583627
 21
143.350965692
  0
LINE
  5
31C
100
AcDbEntity
  8
0
100
AcDbLine
 62
7
  6
CONTINUOUS
 10
196.5283054575
 20
143.5714931482
 11
202.3815615915
 21
143.5714931482
  0
LINE
  5
31D
100
AcDbEntity
  8
BEZUGSACHSEN
100
AcDbLine
 62
7
  6
CONTINUOUS
 10
204.2637046648
 20
144.622470012
 11
204.4909994295
 21
144.622470012
  0
LINE
  5
31E
100
AcDbEntity
  8
BEZUGSACHSEN
100
AcDbLine
 62
7
  6
CONTINUOUS
 10
204.2694296935
 20
146.2488797813
 11
204.5149506626
 21
146.2488797813
  0
LINE
  5
31F
100
AcDbEntity
  8
BEZUGSACHSEN
100
AcDbLine
 62
7
  6
CONTINUOUS
 10
203.5242425619
 20
147.1525200417
 11
203.7545396881
 21
147.1525200417
  0
LINE
  5
320
100
AcDbEntity
  8
BEZUGSACHSEN
100
AcDbLine
 62
7
  6
CONTINUOUS
 10
204.4549335245
 20
147.3099762959
 11
204.4757000276
 21
147.3099762959
  0
LINE
  5
321
100
AcDbEntity
  8
BEZUGSACHSEN
100
AcDbLine
 62
7
  6
CONTINUOUS
 10
204.4549335245
 20
147.3543308277
 11
204.5117625181
 21
147.3543308277
  0
LINE
  5
322
100
AcDbEntity
  8
BEZUGSACHSEN
100
AcDbLine
 62
7
  6
CONTINUOUS
 10
203.8465166248
 20
147.3875237573
 11
204.088603093
 21
147.3875237573
  0
LINE
  5
323
100
AcDbEntity
  8
BEZUGSACHSEN
100
AcDbLine
 62
7
  6
CONTINUOUS
 10
204.2227664559
 20
147.5018084084
 11
204.4802255593
 21
147.5018084084
  0
LINE
  5
324
100
AcDbEntity
  8
BEZUGSACHSEN
100
AcDbLine
 62
7
  6
CONTINUOUS
 10
204.4802255593
 20
147.5074123729
 11
204.5321264205
 21
147.5074123729
  0
LINE
  5
325
100
AcDbEntity
  8
BEZUGSACHSEN
100
AcDbLine
 62
7
  6
CONTINUOUS
 10
204.1570886005
 20
147.5891499063
 11
204.4127308304
 21
147.5891499063
  0
LINE
  5
326
100
AcDbEntity
  8
BEZUGSACHSEN
100
AcDbLine
 62
7
  6
CONTINUOUS
 10
203.8466913163
 20
147.5987491013
 11
204.0732793093
 21
147.5987491013
  0
LINE
  5
327
100
AcDbEntity
  8
BEZUGSACHSEN
100
AcDbLine
 62
7
  6
CONTINUOUS
 10
204.1094961851
 20
147.7633955367
 11
204.3473752965
 21
147.7633955367
  0
LINE
  5
328
100
AcDbEntity
  8
BEZUGSACHSEN
100
AcDbLine
 62
7
  6
CONTINUOUS
 10
203.8492063881
 20
147.8113405076
 11
204.041792634
 21
147.8113405076
  0
LINE
  5
329
100
AcDbEntity
  8
BEZUGSACHSEN
100
AcDbLine
 62
7
  6
CONTINUOUS
 10
203.8510222954
 20
148.0252978263
 11
203.9944318556
 21
148.0252978263
  0
LINE
  5
32A
100
AcDbEntity
  8
BEZUGSACHSEN
100
AcDbLine
 62
7
  6
CONTINUOUS
 10
204.0566101696
 20
148.0463807242
 11
204.2676160192
 21
148.0463807242
  0
LINE
  5
32B
100
AcDbEntity
  8
BEZUGSACHSEN
100
AcDbLine
 62
7
  6
CONTINUOUS
 10
204.3387602183
 20
148.0887403149
 11
204.4404374045
 21
148.0887403149
  0
LINE
  5
32C
100
AcDbEntity
  8
BEZUGSACHSEN
100
AcDbLine
 62
7
  6
CONTINUOUS
 10
203.852034404
 20
148.186790513
 11
203.9471118059
 21
148.186790513
  0
LINE
  5
32D
100
AcDbEntity
  8
BEZUGSACHSEN
100
AcDbLine
 62
7
  6
CONTINUOUS
 10
204.2879231939
 20
148.2625490316
 11
204.4423228987
 21
148.2625490316
  0
LINE
  5
32E
100
AcDbEntity
  8
BEZUGSACHSEN
100
AcDbLine
 62
7
  6
CONTINUOUS
 10
203.8682270287
 20
148.2958182659
 11
203.8998309133
 21
148.2958182659
  0
LINE
  5
32F
100
AcDbEntity
  8
BEZUGSACHSEN
100
AcDbLine
 62
7
  6
CONTINUOUS
 10
203.5313493581
 20
148.4116760309
 11
203.7729532269
 21
148.4116760309
  0
LINE
  5
330
100
AcDbEntity
  8
BEZUGSACHSEN
100
AcDbLine
 62
7
  6
CONTINUOUS
 10
204.2279989355
 20
148.5016452341
 11
204.4275801889
 21
148.5016452341
  0
LINE
  5
331
100
AcDbEntity
  8
BEZUGSACHSEN
100
AcDbLine
 62
7
  6
CONTINUOUS
 10
203.5455263725
 20
148.6201694
 11
203.7894103791
 21
148.6201694
  0
LINE
  5
332
100
AcDbEntity
  8
BEZUGSACHSEN
100
AcDbLine
 62
7
  6
CONTINUOUS
 10
203.5907534966
 20
148.6685361457
 11
203.8364883323
 21
148.6685361457
  0
LINE
  5
333
100
AcDbEntity
  8
BEZUGSACHSEN
100
AcDbLine
 62
7
  6
CONTINUOUS
 10
204.165171376
 20
148.7625767268
 11
204.3962420903
 21
148.7625767268
  0
LINE
  5
334
100
AcDbEntity
  8
BEZUGSACHSEN
100
AcDbLine
 62
7
  6
CONTINUOUS
 10
204.4267689138
 20
148.8867147384
 11
204.5373608585
 21
148.8867147384
  0
LINE
  5
335
100
AcDbEntity
  8
BEZUGSACHSEN
100
AcDbLine
 62
7
  6
CONTINUOUS
 10
204.0970729852
 20
149.0453434182
 11
204.348797758
 21
149.0453434182
  0
LINE
  5
336
100
AcDbEntity
  8
BEZUGSACHSEN
100
AcDbLine
 62
7
  6
CONTINUOUS
 10
204.0173498678
 20
149.3499456027
 11
204.2855693024
 21
149.3499456027
  0
LINE
  5
337
100
AcDbEntity
  8
BEZUGSACHSEN
100
AcDbLine
 62
7
  6
CONTINUOUS
 10
204.3878971074
 20
147.9804378744
 11
204.421955441
 21
147.9802193325
  0
LINE
  5
338
100
AcDbEntity
  8
RUNDUNGEN
100
AcDbLine
 62
7
  6
CONTINUOUS
 10
208.9717976995
 20
98.1991844252
 11
210.2427639712
 21
100.2153497245
  0
LINE
  5
339
100
AcDbEntity
  8
BEZUGSACHSEN
100
AcDbLine
 62
7
  6
CONTINUOUS
 10
204.5410908965
 20
149.9536444496
 11
204.5557741693
 21
149.9536444496
  0
LINE
  5
33A
100
AcDbEntity
  8
BEZUGSACHSEN
100
AcDbLine
 62
7
  6
CONTINUOUS
 10
203.5250244911
 20
150.0702930576
 11
203.7811057768
 21
150.0702930576
  0
LINE
  5
33B
100
AcDbEntity
  8
BEZUGSACHSEN
100
AcDbLine
 62
7
  6
CONTINUOUS
 10
204.3271753963
 20
150.1173794198
 11
204.4621965866
 21
150.1173794198
  0
LINE
  5
33C
100
AcDbEntity
  8
BEZUGSACHSEN
100
AcDbLine
 62
7
  6
CONTINUOUS
 10
204.5085846571
 20
150.1499503946
 11
204.5526460387
 21
150.1499503946
  0
LINE
  5
33D
100
AcDbEntity
  8
BEZUGSACHSEN
100
AcDbLine
 62
7
  6
CONTINUOUS
 10
204.2839455425
 20
150.3224900668
 11
204.4465558395
 21
150.3224900668
  0
LINE
  5
33E
100
AcDbEntity
  8
BEZUGSACHSEN
100
AcDbLine
 62
7
  6
CONTINUOUS
 10
203.5288308177
 20
150.3310061327
 11
203.7873559848
 21
150.3310061327
  0
LINE
  5
33F
100
AcDbEntity
  8
BEZUGSACHSEN
100
AcDbLine
 62
7
  6
CONTINUOUS
 10
204.2318713093
 20
150.5695463989
 11
204.4145501822
 21
150.5695463989
  0
LINE
  5
340
100
AcDbEntity
  8
BEZUGSACHSEN
100
AcDbLine
 62
7
  6
CONTINUOUS
 10
204.1709533003
 20
150.8585483116
 11
204.3666753396
 21
150.8585483116
  0
LINE
  5
341
100
AcDbEntity
  8
BEZUGSACHSEN
100
AcDbLine
 62
7
  6
CONTINUOUS
 10
204.1011769357
 20
151.1894954835
 11
204.3032509785
 21
151.1894954835
  0
LINE
  5
342
100
AcDbEntity
  8
BEZUGSACHSEN
100
AcDbLine
 62
7
  6
CONTINUOUS
 10
203.5288308163
 20
151.373857936
 11
203.7966249712
 21
151.373857936
  0
LINE
  5
343
100
AcDbEntity
  8
BEZUGSACHSEN
100
AcDbLine
 62
7
  6
CONTINUOUS
 10
203.5250244911
 20
151.6345708868
 11
203.7949940332
 21
151.6345708868
  0
LINE
  5
344
100
AcDbEntity
  8
BEZUGSACHSEN
100
AcDbLine
 62
7
  6
CONTINUOUS
 10
203.9048316821
 20
152.3081740023
 11
204.0667473427
 21
152.3081740023
  0
LINE
  5
345
100
AcDbEntity
  8
BEZUGSACHSEN
100
AcDbLine
 62
7
  6
CONTINUOUS
 10
203.523418545
 20
152.3919075211
 11
203.8000668713
 21
152.3919075211
  0
LINE
  5
346
100
AcDbEntity
  8
BEZUGSACHSEN
100
AcDbLine
 62
7
  6
CONTINUOUS
 10
203.9090686446
 20
152.573855318
 11
204.0039981947
 21
152.573855318
  0
LINE
  5
347
100
AcDbEntity
  8
BEZUGSACHSEN
100
AcDbLine
 62
7
  6
CONTINUOUS
 10
203.910152085
 20
152.73232498
 11
203.9571856711
 21
152.73232498
  0
LINE
  5
348
100
AcDbEntity
  8
BEZUGSACHSEN
100
AcDbLine
 62
7
  6
CONTINUOUS
 10
203.5315399048
 20
153.1751007846
 11
203.8155149895
 21
153.1751007846
  0
LINE
  5
349
100
AcDbEntity
  8
BEZUGSACHSEN
100
AcDbLine
 62
7
  6
CONTINUOUS
 10
203.5459301865
 20
153.2636876113
 11
203.8313132552
 21
153.2636876113
  0
LINE
  5
34A
100
AcDbEntity
  8
0
100
AcDbLine
 62
7
  6
CONTINUOUS
 10
196.5283054575
 20
156.7147709512
 11
202.3815615915
 21
156.7147709512
  0
LINE
  5
34B
100
AcDbEntity
  8
0
100
AcDbLine
 62
7
  6
CONTINUOUS
 10
202.3815615915
 20
161.7350563483
 11
196.5283054575
 21
161.7350563483
  0
ARC
  5
34C
100
AcDbEntity
  8
KONSTRUKTIONSELEMENTE
100
AcDbCircle
 62
7
  6
CONTINUOUS
 10
111.6556634515
 20
67.1595007424
 40
28.0
100
AcDbArc
 50
99.3520350576
 51
112.9267093509
  0
ARC
  5
34D
100
AcDbEntity
  8
KONSTRUKTIONSELEMENTE
100
AcDbCircle
 62
7
  6
CONTINUOUS
 10
111.6556634515
 20
67.1595007424
 40
28.0
100
AcDbArc
 50
67.0732906491
 51
80.6479649424
  0
CIRCLE
  5
34E
100
AcDbEntity
  8
BEZUGSACHSEN
100
AcDbCircle
 62
7
  6
CONTINUOUS
 10
111.6556634515
 20
135.4485007424
 40
11.0
  0
ARC
  5
34F
100
AcDbEntity
  8
KONSTRUKTIONSELEMENTE
100
AcDbCircle
 62
7
  6
CONTINUOUS
 10
111.6556634515
 20
114.3985007424
 40
4.55
100
AcDbArc
 50
0.0
 51
180.0
  0
ARC
  5
350
100
AcDbEntity
  8
RUNDUNGEN
100
AcDbCircle
 62
7
  6
CONTINUOUS
 10
133.6556634515
 20
110.4126023575
 40
2.0
100
AcDbArc
 50
150.0
 51
180.0
  0
ARC
  5
351
100
AcDbEntity
  8
0
100
AcDbCircle
 62
7
  6
CONTINUOUS
 10
97.6228756213
 20
94.948501855
 40
2.0
100
AcDbArc
 50
220.0000416102
 51
270.0000267465
  0
ARC
  5
352
100
AcDbEntity
  8
RUNDUNGEN
100
AcDbCircle
 62
7
  6
CONTINUOUS
 10
93.6556634515
 20
99.6764412109
 40
2.0
100
AcDbArc
 50
180.0
 51
220.0
  0
ARC
  5
353
100
AcDbEntity
  8
0
100
AcDbCircle
 62
7
  6
CONTINUOUS
 10
125.6884508751
 20
94.9485013704
 40
2.0
100
AcDbArc
 50
269.9999849045
 51
319.9999765155
  0
ARC
  5
354
100
AcDbEntity
  8
RUNDUNGEN
100
AcDbCircle
 62
7
  6
CONTINUOUS
 10
129.6556634515
 20
99.6764412109
 40
2.0
100
AcDbArc
 50
320.0
 51
360.0
  0
ARC
  5
355
100
AcDbEntity
  8
RUNDUNGEN
100
AcDbCircle
 62
7
  6
CONTINUOUS
 10
89.6556634515
 20
110.4126023575
 40
2.0
100
AcDbArc
 50
0.0
 51
30.0
  0
CIRCLE
  5
356
100
AcDbEntity
  8
BEZUGSACHSEN
100
AcDbCircle
 62
7
  6
CONTINUOUS
 10
126.3556634515
 20
104.1985007424
 40
1.75
  0
ARC
  5
357
100
AcDbEntity
  8
BEZUGSACHSEN
100
AcDbCircle
 62
7
  6
CONTINUOUS
 10
62.080976458
 20
79.9560686305
 40
157.2592410527
100
AcDbArc
 50
25.080201137
 51
25.2447474755
  0
ARC
  5
358
100
AcDbEntity
  8
BEZUGSACHSEN
100
AcDbCircle
 62
7
  6
CONTINUOUS
 10
72.0250220308
 20
134.3053562827
 40
132.7727062372
100
AcDbArc
 50
5.6521897656
 51
5.7898964305
  0
ARC
  5
359
100
AcDbEntity
  8
BEZUGSACHSEN
100
AcDbCircle
 62
7
  6
CONTINUOUS
 10
97.4583217259
 20
137.1964349808
 40
107.6232260927
100
AcDbArc
 50
5.8433097494
 51
6.0062259473
  0
ARC
  5
35A
100
AcDbEntity
  8
BEZUGSACHSEN
100
AcDbCircle
 62
7
  6
CONTINUOUS
 10
100.5896460173
 20
139.9851443211
 40
103.7633332977
100
AcDbArc
 50
4.0909024438
 51
4.2078428736
  0
ARC
  5
35B
100
AcDbEntity
  8
BEZUGSACHSEN
100
AcDbCircle
 62
7
  6
CONTINUOUS
 10
112.7216743539
 20
139.3776251619
 40
92.4212460343
100
AcDbArc
 50
6.5422088699
 51
6.6730119385
  0
ARC
  5
35C
100
AcDbEntity
  8
BEZUGSACHSEN
100
AcDbCircle
 62
7
  6
CONTINUOUS
 10
120.1271863423
 20
139.7190915104
 40
84.4198326773
100
AcDbArc
 50
2.2347952224
 51
2.4657157015
  0
ARC
  5
35D
100
AcDbEntity
  8
0
100
AcDbCircle
 62
7
  6
CONTINUOUS
 10
199.4549335245
 20
104.1985007424
 40
11.25
100
AcDbArc
 50
212.2268364662
 51
327.7731635338
  0
CIRCLE
  5
35E
100
AcDbEntity
  8
0
100
AcDbCircle
 62
7
  6
CONTINUOUS
 10
199.4549335245
 20
104.1985007424
 40
4.5
  0
ARC
  5
35F
100
AcDbEntity
  8
RUNDUNGEN
100
AcDbCircle
 62
7
  6
CONTINUOUS
 10
207.7049335245
 20
109.1446531651
 40
3.0
100
AcDbArc
 50
0.0
 51
30.0
  0
ARC
  5
360
100
AcDbEntity
  8
RUNDUNGEN
100
AcDbCircle
 62
7
  6
CONTINUOUS
 10
207.7049335245
 20
101.815167409
 40
3.0
100
AcDbArc
 50
327.7731635338
 51
360.0
  0
ARC
  5
361
100
AcDbEntity
  8
KONSTRUKTIONSELEMENTE
100
AcDbCircle
 62
7
  6
CONTINUOUS
 10
210.4549335245
 20
116.3815134443
 40
3.0
100
AcDbArc
 50
180.0
 51
210.0
  0
ARC
  5
362
100
AcDbEntity
  8
0
100
AcDbCircle
 62
7
  6
CONTINUOUS
 10
191.2049335245
 20
109.1446531651
 40
3.0
100
AcDbArc
 50
150.0
 51
180.0
  0
ARC
  5
363
100
AcDbEntity
  8
0
100
AcDbCircle
 62
7
  6
CONTINUOUS
 10
191.2049335245
 20
101.815167409
 40
3.0
100
AcDbArc
 50
180.0
 51
212.2268364662
  0
ARC
  5
364
100
AcDbEntity
  8
0
100
AcDbCircle
 62
7
  6
CONTINUOUS
 10
188.4549335245
 20
116.3815134443
 40
3.0
100
AcDbArc
 50
330.0
 51
360.0
  0
ARC
  5
365
100
AcDbEntity
  8
BEZUGSACHSEN
100
AcDbCircle
 62
7
  6
CONTINUOUS
 10
163.0803719062
 20
138.1889261505
 40
43.4722258952
100
AcDbArc
 50
20.0280221327
 51
20.2041340129
  0
ARC
  5
366
100
AcDbEntity
  8
BEZUGSACHSEN
100
AcDbCircle
 62
7
  6
CONTINUOUS
 10
137.5314153701
 20
143.5666182955
 40
66.9537009206
100
AcDbArc
 50
359.2155391722
 51
359.5245340348
  0
ARC
  5
367
100
AcDbEntity
  8
BEZUGSACHSEN
100
AcDbCircle
 62
7
  6
CONTINUOUS
 10
138.1026284914
 20
144.2920355686
 40
66.4584082807
100
AcDbArc
 50
3.4251379637
 51
3.6316615384
  0
ARC
  5
368
100
AcDbEntity
  8
KONSTRUKTIONSELEMENTE
100
AcDbCircle
 62
7
  6
CONTINUOUS
 10
138.4193579497
 20
148.149576252
 40
65.1125189303
100
AcDbArc
 50
359.1226058136
 51
0.2306353977
  0
ARC
  5
369
100
AcDbEntity
  8
BEZUGSACHSEN
100
AcDbCircle
 62
7
  6
CONTINUOUS
 10
140.2456896165
 20
148.7109680201
 40
63.5279686242
100
AcDbArc
 50
358.5942970915
 51
359.7300680058
  0
ARC
  5
36A
100
AcDbEntity
  8
BEZUGSACHSEN
100
AcDbCircle
 62
7
  6
CONTINUOUS
 10
141.8519489038
 20
148.440114969
 40
62.0005700776
100
AcDbArc
 50
358.8522067633
 51
359.7734721103
  0
ARC
  5
36B
100
AcDbEntity
  8
BEZUGSACHSEN
100
AcDbCircle
 62
7
  6
CONTINUOUS
 10
146.2004103071
 20
147.6329463546
 40
57.8887130299
100
AcDbArc
 50
358.7703752113
 51
359.7570904515
  0
ARC
  5
36C
100
AcDbEntity
  8
BEZUGSACHSEN
100
AcDbCircle
 62
7
  6
CONTINUOUS
 10
147.0246366856
 20
145.0444413189
 40
57.5816941832
100
AcDbArc
 50
2.8134792342
 51
3.0949988956
  0
ARC
  5
36D
100
AcDbEntity
  8
BEZUGSACHSEN
100
AcDbCircle
 62
7
  6
CONTINUOUS
 10
147.9073393031
 20
147.3106434657
 40
56.2764302159
100
AcDbArc
 50
358.7344469148
 51
359.6426048858
  0
ARC
  5
36E
100
AcDbEntity
  8
BEZUGSACHSEN
100
AcDbCircle
 62
7
  6
CONTINUOUS
 10
151.0736667469
 20
146.7012882663
 40
53.5586214634
100
AcDbArc
 50
355.3808953976
 51
355.6618336416
  0
ARC
  5
36F
100
AcDbEntity
  8
BEZUGSACHSEN
100
AcDbCircle
 62
7
  6
CONTINUOUS
 10
153.2828158356
 20
146.1972673571
 40
51.2323926209
100
AcDbArc
 50
358.2385469105
 51
358.590726753
  0
ARC
  5
370
100
AcDbEntity
  8
BEZUGSACHSEN
100
AcDbCircle
 62
7
  6
CONTINUOUS
 10
154.3270217229
 20
146.17711189
 40
50.1879802531
100
AcDbArc
 50
0.0819319418
 51
0.5012040367
  0
ARC
  5
371
100
AcDbEntity
  8
BEZUGSACHSEN
100
AcDbCircle
 62
7
  6
CONTINUOUS
 10
155.4422902648
 20
146.4824189972
 40
49.1544927048
100
AcDbArc
 50
4.2408774657
 51
4.4207158792
  0
ARC
  5
372
100
AcDbEntity
  8
KONSTRUKTIONSELEMENTE
100
AcDbCircle
 62
7
  6
CONTINUOUS
 10
158.759400085
 20
150.8506229082
 40
44.7724882366
100
AcDbArc
 50
0.6696040897
 51
1.0032769625
  0
ARC
  5
373
100
AcDbEntity
  8
KONSTRUKTIONSELEMENTE
100
AcDbCircle
 62
7
  6
CONTINUOUS
 10
158.7594001176
 20
150.8542410357
 40
44.7724882041
100
AcDbArc
 50
358.9967230375
 51
359.3303960695
  0
ARC
  5
374
100
AcDbEntity
  8
BEZUGSACHSEN
100
AcDbCircle
 62
7
  6
CONTINUOUS
 10
160.3086218252
 20
151.2429126327
 40
43.4882960989
100
AcDbArc
 50
358.4548878043
 51
358.7984761847
  0
ARC
  5
375
100
AcDbEntity
  8
BEZUGSACHSEN
100
AcDbCircle
 62
7
  6
CONTINUOUS
 10
160.7611522879
 20
151.2350031683
 40
43.0356966915
100
AcDbArc
 50
0.1848652762
 51
0.5319740259
  0
ARC
  5
376
100
AcDbEntity
  8
BEZUGSACHSEN
100
AcDbCircle
 62
7
  6
CONTINUOUS
 10
163.6803100431
 20
147.082915687
 40
40.9583025399
100
AcDbArc
 50
3.6213041829
 51
3.9546082293
  0
ARC
  5
377
100
AcDbEntity
  8
KONSTRUKTIONSELEMENTE
100
AcDbCircle
 62
7
  6
CONTINUOUS
 10
162.8565637626
 20
151.2821858213
 40
40.7759489122
100
AcDbArc
 50
355.9632026175
 51
356.2568411046
  0
ARC
  5
378
100
AcDbEntity
  8
BEZUGSACHSEN
100
AcDbCircle
 62
7
  6
CONTINUOUS
 10
163.5358927362
 20
151.6926321277
 40
40.3706045266
100
AcDbArc
 50
355.3383781164
 51
355.6352020098
  0
ARC
  5
379
100
AcDbEntity
  8
BEZUGSACHSEN
100
AcDbCircle
 62
7
  6
CONTINUOUS
 10
169.108503502
 20
148.558939213
 40
35.3350624776
100
AcDbArc
 50
359.2375503073
 51
359.5193978888
  0
ARC
  5
37A
100
AcDbEntity
  8
BEZUGSACHSEN
100
AcDbCircle
 62
7
  6
CONTINUOUS
 10
170.3341941699
 20
148.1672538353
 40
34.2040132609
100
AcDbArc
 50
359.2122699486
 51
359.5034387663
  0
ARC
  5
37B
100
AcDbEntity
  8
BEZUGSACHSEN
100
AcDbCircle
 62
7
  6
CONTINUOUS
 10
186.8766095722
 20
130.328304938
 40
24.9800233848
100
AcDbArc
 50
47.0439736732
 51
47.2393158521
  0
ARC
  5
37C
100
AcDbEntity
  8
BEZUGSACHSEN
100
AcDbCircle
 62
7
  6
CONTINUOUS
 10
186.0532657795
 20
133.3317901712
 40
23.2452632502
100
AcDbArc
 50
37.559671078
 51
37.8317437147
  0
ARC
  5
37D
100
AcDbEntity
  8
KONSTRUKTIONSELEMENTE
100
AcDbCircle
 62
7
  6
CONTINUOUS
 10
187.479094997
 20
134.979497703
 40
20.9083428164
100
AcDbArc
 50
36.7921974253
 51
37.0916611295
  0
ARC
  5
37E
100
AcDbEntity
  8
RUNDUNGEN
100
AcDbCircle
 62
7
  6
CONTINUOUS
 10
206.4549335245
 20
125.3610186344
 40
2.0
100
AcDbArc
 50
180.0
 51
258.4630409672
  0
ARC
  5
37F
100
AcDbEntity
  8
0
100
AcDbCircle
 62
7
  6
CONTINUOUS
 10
192.4549335245
 20
125.3610186344
 40
2.0
100
AcDbArc
 50
281.5369590328
 51
360.0
  0
ARC
  5
380
100
AcDbEntity
  8
RUNDUNGEN
100
AcDbCircle
 62
7
  6
CONTINUOUS
 10
205.7049335245
 20
121.6867840202
 40
1.75
100
AcDbArc
 50
0.0
 51
79.0992189949
  0
ARC
  5
381
100
AcDbEntity
  8
0
100
AcDbCircle
 62
7
  6
CONTINUOUS
 10
193.2049335245
 20
121.6867840202
 40
1.75
100
AcDbArc
 50
100.9007810051
 51
180.0
  0
ARC
  5
382
100
AcDbEntity
  8
BEZUGSACHSEN
100
AcDbCircle
 62
7
  6
CONTINUOUS
 10
176.2858921383
 20
152.5581197637
 40
27.9093018638
100
AcDbArc
 50
351.0059102799
 51
351.2211021974
  0
ARC
  5
383
100
AcDbEntity
  8
KONSTRUKTIONSELEMENTE
100
AcDbCircle
 62
7
  6
CONTINUOUS
 10
178.3289225457
 20
153.0448017856
 40
25.2029541836
100
AcDbArc
 50
358.5155600861
 51
0.2962198765
  0
ARC
  5
384
100
AcDbEntity
  8
BEZUGSACHSEN
100
AcDbCircle
 62
7
  6
CONTINUOUS
 10
179.5542312055
 20
153.2618941927
 40
24.2614390328
100
AcDbArc
 50
357.9450001623
 51
359.7950283752
  0
ARC
  5
385
100
AcDbEntity
  8
BEZUGSACHSEN
100
AcDbCircle
 62
7
  6
CONTINUOUS
 10
180.3377910136
 20
152.8137301998
 40
23.5725183174
100
AcDbArc
 50
358.3627665812
 51
359.7907214551
  0
ARC
  5
386
100
AcDbEntity
  8
BEZUGSACHSEN
100
AcDbCircle
 62
7
  6
CONTINUOUS
 10
184.60390648
 20
150.2038009734
 40
19.8584781552
100
AcDbArc
 50
358.055528058
 51
359.7506553185
  0
ARC
  5
387
100
AcDbEntity
  8
BEZUGSACHSEN
100
AcDbCircle
 62
7
  6
CONTINUOUS
 10
185.2694561258
 20
149.7575681521
 40
19.2875747168
100
AcDbArc
 50
357.4121581034
 51
359.739595361
  0
ARC
  5
388
100
AcDbEntity
  8
BEZUGSACHSEN
100
AcDbCircle
 62
7
  6
CONTINUOUS
 10
186.9095689528
 20
149.8710380859
 40
17.75897823
100
AcDbArc
 50
352.4740177118
 51
352.9683136994
  0
ARC
  5
389
100
AcDbEntity
  8
BEZUGSACHSEN
100
AcDbCircle
 62
7
  6
CONTINUOUS
 10
189.6464540414
 20
150.5525015957
 40
14.9977357508
100
AcDbArc
 50
350.1242948433
 51
350.4397721381
  0
ARC
  5
38A
100
AcDbEntity
  8
BEZUGSACHSEN
100
AcDbCircle
 62
7
  6
CONTINUOUS
 10
195.3155443874
 20
147.5159379273
 40
10.0939915331
100
AcDbArc
 50
31.2013318062
 51
31.4570635527
  0
ARC
  5
38B
100
AcDbEntity
  8
BEZUGSACHSEN
100
AcDbCircle
 62
7
  6
CONTINUOUS
 10
197.4162263407
 20
154.8706270941
 40
8.9266845006
100
AcDbArc
 50
315.5570088403
 51
315.9902302235
  0
ARC
  5
38C
100
AcDbEntity
  8
KONSTRUKTIONSELEMENTE
100
AcDbCircle
 62
7
  6
CONTINUOUS
 10
197.6176683888
 20
154.2085624733
 40
8.1467562512
100
AcDbArc
 50
316.6884206664
 51
317.1541308402
  0
ARC
  5
38D
100
AcDbEntity
  8
KONSTRUKTIONSELEMENTE
100
AcDbCircle
 62
7
  6
CONTINUOUS
 10
196.0243609467
 20
154.4400492721
 40
7.6130040447
100
AcDbArc
 50
350.435587868
 51
351.1110390025
  0
ARC
  5
38E
100
AcDbEntity
  8
BEZUGSACHSEN
100
AcDbCircle
 62
7
  6
CONTINUOUS
 10
196.5001920413
 20
154.5253920805
 40
7.4389002158
100
AcDbArc
 50
349.5418319392
 51
350.2349133923
  0
ARC
  5
38F
100
AcDbEntity
  8
BEZUGSACHSEN
100
AcDbCircle
 62
7
  6
CONTINUOUS
 10
200.2295893823
 20
150.799117817
 40
5.4957769394
100
AcDbArc
 50
320.5891491502
 51
321.1851200694
  0
ARC
  5
390
100
AcDbEntity
  8
BEZUGSACHSEN
100
AcDbCircle
 62
7
  6
CONTINUOUS
 10
200.5277800628
 20
150.7684940052
 40
5.1276759054
100
AcDbArc
 50
320.4263597969
 51
321.0502928431
  0
ARC
  5
391
100
AcDbEntity
  8
BEZUGSACHSEN
100
AcDbCircle
 62
7
  6
CONTINUOUS
 10
199.2587204287
 20
154.0783686752
 40
4.8435847253
100
AcDbArc
 50
343.8071174406
 51
344.4951631468
  0
ARC
  5
392
100
AcDbEntity
  8
0
100
AcDbCircle
 62
7
  6
CONTINUOUS
 10
197.9549335245
 20
150.2265376543
 40
3.5
100
AcDbArc
 50
169.5
 51
180.0
  0
ARC
  5
393
100
AcDbEntity
  8
BEZUGSACHSEN
100
AcDbCircle
 62
7
  6
CONTINUOUS
 10
202.0664270668
 20
150.3140620303
 40
3.4373120787
100
AcDbArc
 50
58.5067067539
 51
59.1061259929
  0
SPLINE
  5
394
100
AcDbEntity
  8
KONSTRUKTIONSELEMENTE
100
AcDbSpline
 62
7
  6
CONTINUOUS
 70
0
 71
3
 72
9
 73
5
 74
0
 42
0.0000001
 43
0.0000001
 44
0.0000000001
 40
0.0
 40
0.0
 40
0.0
 40
0.0
 40
0.5001151744
 40
1.0
 40
1.0
 40
1.0
 40
1.0
 10
99.6735898163
 20
101.815167409
 30
0.0
 10
99.8025003571
 20
102.148662507
 30
0.0
 10
100.0134773939
 20
102.835451289
 30
0.0
 10
100.0906299453
 20
103.5521225481
 30
0.0
 10
100.0906299453
 20
103.9095007424
 30
0.0
  0
SPLINE
  5
395
100
AcDbEntity
  8
KONSTRUKTIONSELEMENTE
100
AcDbSpline
 62
7
  6
CONTINUOUS
 70
0
 71
3
 72
9
 73
5
 74
0
 42
0.0000001
 43
0.0000001
 44
0.0000000001
 40
0.0
 40
0.0
 40
0.0
 40
0.0
 40
0.4998848256
 40
1.0
 40
1.0
 40
1.0
 40
1.0
 10
123.2206969577
 20
103.9095007424
 30
0.0
 10
123.2206969577
 20
103.5521225481
 30
0.0
 10
123.2978495092
 20
102.835451289
 30
0.0
 10
123.5088265459
 20
102.148662507
 30
0.0
 10
123.6377370867
 20
101.815167409
 30
0.0
  0
SPLINE
  5
396
100
AcDbEntity
  8
KONSTRUKTIONSELEMENTE
100
AcDbSpline
 62
7
  6
CONTINUOUS
 70
0
 71
3
 72
10
 73
6
 74
0
 42
0.0000001
 43
0.0000001
 44
0.0000000001
 40
0.0
 40
0.0
 40
0.0
 40
0.0
 40
0.2466586686
 40
0.495283675
 40
1.0
 40
1.0
 40
1.0
 40
1.0
 10
100.4304904444
 20
98.1991844252
 30
0.0
 10
100.4200286272
 20
98.3750003368
 30
0.0
 10
100.3719844895
 20
98.7269413562
 30
0.0
 10
100.1775674893
 20
99.4157577249
 30
0.0
 10
99.9403707825
 20
99.9036587141
 30
0.0
 10
99.7594508723
 20
100.2153497245
 30
0.0
  0
SPLINE
  5
397
100
AcDbEntity
  8
KONSTRUKTIONSELEMENTE
100
AcDbSpline
 62
7
  6
CONTINUOUS
 70
0
 71
3
 72
12
 73
8
 74
0
 42
0.0000001
 43
0.0000001
 44
0.0000000001
 40
0.0
 40
0.0
 40
0.0
 40
0.0
 40
0.1285560481
 40
0.2563946238
 40
0.5079262625
 40
0.7552777643
 40
1.0
 40
1.0
 40
1.0
 40
1.0
 10
100.0906299453
 20
109.1446531651
 30
0.0
 10
100.0906299453
 20
109.2231523969
 30
0.0
 10
100.104332905
 20
109.3800516116
 30
0.0
 10
100.1830131237
 20
109.6813020166
 30
0.0
 10
100.3641691263
 20
110.0244671363
 30
0.0
 10
100.6652126295
 20
110.3679386501
 30
0.0
 10
100.8994882634
 20
110.5580527081
 30
0.0
 10
101.0212690613
 20
110.6446531651
 30
0.0
  0
SPLINE
  5
398
100
AcDbEntity
  8
KONSTRUKTIONSELEMENTE
100
AcDbSpline
 62
7
  6
CONTINUOUS
 70
0
 71
3
 72
12
 73
8
 74
0
 42
0.0000001
 43
0.0000001
 44
0.0000000001
 40
0.0
 40
0.0
 40
0.0
 40
0.0
 40
0.2447256713
 40
0.4920808201
 40
0.7436115397
 40
0.8714463182
 40
1.0
 40
1.0
 40
1.0
 40
1.0
 10
122.2900578418
 20
110.6446531651
 30
0.0
 10
122.4118403516
 20
110.5580514907
 30
0.0
 10
122.6461193382
 20
110.3679346464
 30
0.0
 10
122.9471641935
 20
110.0244589662
 30
0.0
 10
123.128316822
 20
109.681292855
 30
0.0
 10
123.2069948341
 20
109.3800464277
 30
0.0
 10
123.2206969577
 20
109.2231509535
 30
0.0
 10
123.2206969577
 20
109.1446531651
 30
0.0
  0
LINE
  5
399
100
AcDbEntity
  8
0
100
AcDbLine
 62
7
  6
CONTINUOUS
 10
122.8808364586
 20
98.1991844252
 11
122.5610524919
 21
92.9485182177
  0
LINE
  5
39A
100
AcDbEntity
  8
0
100
AcDbLine
 62
7
  6
CONTINUOUS
 10
100.7502744111
 20
92.9485182177
 11
100.4304904444
 21
98.1991844252
  0
SPLINE
  5
39B
100
AcDbEntity
  8
KONSTRUKTIONSELEMENTE
100
AcDbSpline
 62
7
  6
CONTINUOUS
 70
0
 71
3
 72
11
 73
7
 74
0
 42
0.0000001
 43
0.0000001
 44
0.0000000001
 40
0.0
 40
0.0
 40
0.0
 40
0.0
 40
0.2352663816
 40
0.4816794108
 40
0.7381789078
 40
1.0
 40
1.0
 40
1.0
 40
1.0
 10
99.7594508723
 20
100.2153497245
 30
0.0
 10
99.6942993771
 20
100.3275935087
 30
0.0
 10
99.5867843104
 20
100.573663438
 30
0.0
 10
99.5164955754
 20
100.9786409779
 30
0.0
 10
99.5429945932
 20
101.4032082092
 30
0.0
 10
99.6215159601
 20
101.6804509176
 30
0.0
 10
99.6735898163
 20
101.815167409
 30
0.0
  0
SPLINE
  5
39C
100
AcDbEntity
  8
KONSTRUKTIONSELEMENTE
100
AcDbSpline
 62
7
  6
CONTINUOUS
 70
0
 71
3
 72
11
 73
7
 74
0
 42
0.0000001
 43
0.0000001
 44
0.0000000001
 40
0.0
 40
0.0
 40
0.0
 40
0.0
 40
0.2618210922
 40
0.5183205892
 40
0.7647336184
 40
1.0
 40
1.0
 40
1.0
 40
1.0
 10
123.6377370867
 20
101.815167409
 30
0.0
 10
123.6898109429
 20
101.6804509176
 30
0.0
 10
123.7683323098
 20
101.4032082092
 30
0.0
 10
123.7948313276
 20
100.9786409779
 30
0.0
 10
123.7245425926
 20
100.573663438
 30
0.0
 10
123.6170275259
 20
100.3275935087
 30
0.0
 10
123.5518760307
 20
100.2153497245
 30
0.0
  0
SPLINE
  5
39D
100
AcDbEntity
  8
KONSTRUKTIONSELEMENTE
100
AcDbSpline
 62
7
  6
CONTINUOUS
 70
0
 71
3
 72
10
 73
6
 74
0
 42
0.0000001
 43
0.0000001
 44
0.0000000001
 40
0.0
 40
0.0
 40
0.0
 40
0.0
 40
0.504716325
 40
0.7533413314
 40
1.0
 40
1.0
 40
1.0
 40
1.0
 10
123.5518760307
 20
100.2153497245
 30
0.0
 10
123.3709561205
 20
99.9036587141
 30
0.0
 10
123.1337594137
 20
99.4157577249
 30
0.0
 10
122.9393424135
 20
98.7269413562
 30
0.0
 10
122.8912982758
 20
98.3750003368
 30
0.0
 10
122.8808364586
 20
98.1991844252
 30
0.0
  0
LINE
  5
39E
100
AcDbEntity
  8
BEZUGSACHSEN
100
AcDbLine
 62
7
  6
CONTINUOUS
 10
204.4583341813
 20
142.3881437088
 11
204.4549402889
 21
142.3762966602
  0
LINE
  5
39F
100
AcDbEntity
  8
BEZUGSACHSEN
100
AcDbLine
 62
7
  6
CONTINUOUS
 10
204.4549404497
 20
143.4764114879
 11
204.4688583627
 21
143.350965692
  0
LINE
  5
3A0
100
AcDbEntity
  8
BEZUGSACHSEN
100
AcDbLine
 62
7
  6
CONTINUOUS
 10
204.5321264205
 20
147.5074123729
 11
204.5271582602
 21
147.4691348091
  0
LINE
  5
3A1
100
AcDbEntity
  8
BEZUGSACHSEN
100
AcDbLine
 62
7
  6
CONTINUOUS
 10
204.5271582602
 20
147.4691348091
 11
204.5221079116
 21
147.4308620382
  0
LINE
  5
3A2
100
AcDbEntity
  8
BEZUGSACHSEN
100
AcDbLine
 62
7
  6
CONTINUOUS
 10
204.5221079116
 20
147.4308620382
 11
204.5117625181
 21
147.3543308277
  0
LINE
  5
3A3
100
AcDbEntity
  8
BEZUGSACHSEN
100
AcDbLine
 62
7
  6
CONTINUOUS
 10
204.5337689876
 20
147.605565332
 11
204.5321264205
 21
147.5074123729
  0
LINE
  5
3A4
100
AcDbEntity
  8
BEZUGSACHSEN
100
AcDbLine
 62
7
  6
CONTINUOUS
 10
204.5220367101
 20
148.1834032303
 11
204.5259117303
 21
148.1126141583
  0
LINE
  5
3A5
100
AcDbEntity
  8
BEZUGSACHSEN
100
AcDbLine
 62
7
  6
CONTINUOUS
 10
204.5259117303
 20
148.1126141583
 11
204.5297014481
 21
148.0418058049
  0
LINE
  5
3A6
100
AcDbEntity
  8
BEZUGSACHSEN
100
AcDbLine
 62
7
  6
CONTINUOUS
 10
204.5297014481
 20
148.0418058049
 11
204.5334054483
 21
147.9709781549
  0
LINE
  5
3A7
100
AcDbEntity
  8
BEZUGSACHSEN
100
AcDbLine
 62
7
  6
CONTINUOUS
 10
204.5334054483
 20
147.9709781549
 11
204.5370233234
 21
147.9001311948
  0
LINE
  5
3A8
100
AcDbEntity
  8
BEZUGSACHSEN
100
AcDbLine
 62
7
  6
CONTINUOUS
 10
204.4901293326
 20
148.4881337602
 11
204.4982078396
 21
148.4117562107
  0
LINE
  5
3A9
100
AcDbEntity
  8
BEZUGSACHSEN
100
AcDbLine
 62
7
  6
CONTINUOUS
 10
204.4982078396
 20
148.4117562107
 11
204.506218686
 21
148.3355086168
  0
LINE
  5
3AA
100
AcDbEntity
  8
BEZUGSACHSEN
100
AcDbLine
 62
7
  6
CONTINUOUS
 10
204.506218686
 20
148.3355086168
 11
204.5141616997
 21
148.259390962
  0
LINE
  5
3AB
100
AcDbEntity
  8
BEZUGSACHSEN
100
AcDbLine
 62
7
  6
CONTINUOUS
 10
204.5141616997
 20
148.259390962
 11
204.5220367101
 21
148.1834032303
  0
LINE
  5
3AC
100
AcDbEntity
  8
BEZUGSACHSEN
100
AcDbLine
 62
7
  6
CONTINUOUS
 10
204.4549376196
 20
148.7268770568
 11
204.4742904568
 21
148.5957938596
  0
LINE
  5
3AD
100
AcDbEntity
  8
BEZUGSACHSEN
100
AcDbLine
 62
7
  6
CONTINUOUS
 10
204.4742904568
 20
148.5957938596
 11
204.4901293326
 21
148.4881337602
  0
LINE
  5
3AE
100
AcDbEntity
  8
BEZUGSACHSEN
100
AcDbLine
 62
7
  6
CONTINUOUS
 10
204.5526460387
 20
150.1499503946
 11
204.5544599313
 21
150.0518088689
  0
LINE
  5
3AF
100
AcDbEntity
  8
BEZUGSACHSEN
100
AcDbLine
 62
7
  6
CONTINUOUS
 10
204.5544599313
 20
150.0518088689
 11
204.5557741693
 21
149.9536444496
  0
LINE
  5
3B0
100
AcDbEntity
  8
BEZUGSACHSEN
100
AcDbLine
 62
7
  6
CONTINUOUS
 10
204.5526460387
 20
150.1499503946
 11
204.5431972297
 21
150.1946570194
  0
LINE
  5
3B1
100
AcDbEntity
  8
BEZUGSACHSEN
100
AcDbLine
 62
7
  6
CONTINUOUS
 10
204.5431972297
 20
150.1946570194
 11
204.53297293
 21
150.2430323467
  0
LINE
  5
3B2
100
AcDbEntity
  8
BEZUGSACHSEN
100
AcDbLine
 62
7
  6
CONTINUOUS
 10
204.53297293
 20
150.2430323467
 11
204.4536575905
 21
150.6182884727
  0
LINE
  5
3B3
100
AcDbEntity
  8
BEZUGSACHSEN
100
AcDbLine
 62
7
  6
CONTINUOUS
 10
204.4536575905
 20
150.6182884727
 11
204.432521667
 21
150.7182816695
  0
LINE
  5
3B4
100
AcDbEntity
  8
BEZUGSACHSEN
100
AcDbLine
 62
7
  6
CONTINUOUS
 10
204.432521667
 20
150.7182816695
 11
204.4014159552
 21
150.8654379236
  0
LINE
  5
3B5
100
AcDbEntity
  8
BEZUGSACHSEN
100
AcDbLine
 62
7
  6
CONTINUOUS
 10
204.4014159552
 20
150.8654379236
 11
204.3909688468
 21
150.9148606154
  0
LINE
  5
3B6
100
AcDbEntity
  8
BEZUGSACHSEN
100
AcDbLine
 62
7
  6
CONTINUOUS
 10
204.450949735
 20
149.5299844722
 11
204.4275652196
 21
149.640977224
  0
LINE
  5
3B7
100
AcDbEntity
  8
BEZUGSACHSEN
100
AcDbLine
 62
7
  6
CONTINUOUS
 10
204.4275652196
 20
149.640977224
 11
204.3164694791
 21
150.1681947206
  0
LINE
  5
3B8
100
AcDbEntity
  8
BEZUGSACHSEN
100
AcDbLine
 62
7
  6
CONTINUOUS
 10
204.3164694791
 20
150.1681947206
 11
203.9006860677
 21
152.1402344713
  0
LINE
  5
3B9
100
AcDbEntity
  8
BEZUGSACHSEN
100
AcDbLine
 62
7
  6
CONTINUOUS
 10
203.8620746186
 20
153.2450625755
 11
203.8776694193
 21
153.2027511098
  0
LINE
  5
3BA
100
AcDbEntity
  8
BEZUGSACHSEN
100
AcDbLine
 62
7
  6
CONTINUOUS
 10
203.9236251005
 20
153.0772804178
 11
203.9856181561
 21
152.8442324037
  0
LINE
  5
3BB
100
AcDbEntity
  8
BEZUGSACHSEN
100
AcDbLine
 62
7
  6
CONTINUOUS
 10
203.9856181561
 20
152.8442324037
 11
203.9958691335
 21
152.7996323643
  0
LINE
  5
3BC
100
AcDbEntity
  8
BEZUGSACHSEN
100
AcDbLine
 62
7
  6
CONTINUOUS
 10
203.9958691335
 20
152.7996323643
 11
204.0052601019
 21
152.7587689838
  0
LINE
  5
3BD
100
AcDbEntity
  8
BEZUGSACHSEN
100
AcDbLine
 62
7
  6
CONTINUOUS
 10
204.0052601019
 20
152.7587689838
 11
204.045549919
 21
152.5833978209
  0
LINE
  5
3BE
100
AcDbEntity
  8
BEZUGSACHSEN
100
AcDbLine
 62
7
  6
CONTINUOUS
 10
204.045549919
 20
152.5833978209
 11
204.0637901327
 21
152.5039723182
  0
LINE
  5
3BF
100
AcDbEntity
  8
BEZUGSACHSEN
100
AcDbLine
 62
7
  6
CONTINUOUS
 10
204.0637901327
 20
152.5039723182
 11
204.103508119
 21
152.3159388518
  0
LINE
  5
3C0
100
AcDbEntity
  8
BEZUGSACHSEN
100
AcDbLine
 62
7
  6
CONTINUOUS
 10
204.103508119
 20
152.3159388518
 11
204.1232956366
 21
152.2222582817
  0
LINE
  5
3C1
100
AcDbEntity
  8
BEZUGSACHSEN
100
AcDbLine
 62
7
  6
CONTINUOUS
 10
204.1232956366
 20
152.2222582817
 11
204.3000671387
 21
151.3852937994
  0
LINE
  5
3C2
100
AcDbEntity
  8
BEZUGSACHSEN
100
AcDbLine
 62
7
  6
CONTINUOUS
 10
204.3794900825
 20
150.9797680665
 11
204.3000671387
 21
151.3852937994
  0
LINE
  5
3C3
100
AcDbEntity
  8
BEZUGSACHSEN
100
AcDbLine
 62
7
  6
CONTINUOUS
 10
204.4437173891
 20
150.6161875406
 11
204.4117532471
 21
150.7972470929
  0
LINE
  5
3C4
100
AcDbEntity
  8
BEZUGSACHSEN
100
AcDbLine
 62
7
  6
CONTINUOUS
 10
204.4117532471
 20
150.7972470929
 11
204.3794900825
 21
150.9797680665
  0
LINE
  5
3C5
100
AcDbEntity
  8
BEZUGSACHSEN
100
AcDbLine
 62
7
  6
CONTINUOUS
 10
204.5085846571
 20
150.1873411846
 11
204.492602687
 21
150.2934884257
  0
LINE
  5
3C6
100
AcDbEntity
  8
BEZUGSACHSEN
100
AcDbLine
 62
7
  6
CONTINUOUS
 10
204.492602687
 20
150.2934884257
 11
204.4437173891
 21
150.6161875406
  0
LINE
  5
3C7
100
AcDbEntity
  8
BEZUGSACHSEN
100
AcDbLine
 62
7
  6
CONTINUOUS
 10
204.5168121799
 20
150.1172429407
 11
204.5085846571
 21
150.1873411846
  0
LINE
  5
3C8
100
AcDbEntity
  8
BEZUGSACHSEN
100
AcDbLine
 62
7
  6
CONTINUOUS
 10
204.3629461033
 20
149.2407688833
 11
204.3234198188
 21
149.425236642
  0
LINE
  5
3C9
100
AcDbEntity
  8
BEZUGSACHSEN
100
AcDbLine
 62
7
  6
CONTINUOUS
 10
204.3234198188
 20
149.425236642
 11
204.2836813271
 21
149.6106585535
  0
LINE
  5
3CA
100
AcDbEntity
  8
BEZUGSACHSEN
100
AcDbLine
 62
7
  6
CONTINUOUS
 10
204.4267689138
 20
148.8927146604
 11
204.3629461033
 21
149.2407688833
  0
LINE
  5
3CB
100
AcDbEntity
  8
BEZUGSACHSEN
100
AcDbLine
 62
7
  6
CONTINUOUS
 10
204.490753465
 20
148.4577559777
 11
204.4300052343
 21
148.8708467988
  0
LINE
  5
3CC
100
AcDbEntity
  8
BEZUGSACHSEN
100
AcDbLine
 62
7
  6
CONTINUOUS
 10
204.4300052343
 20
148.8708467988
 11
204.4267689138
 21
148.8927146604
  0
LINE
  5
3CD
100
AcDbEntity
  8
BEZUGSACHSEN
100
AcDbLine
 62
7
  6
CONTINUOUS
 10
204.2748433839
 20
148.3070937994
 11
204.0342084588
 21
149.3063687513
  0
LINE
  5
3CE
100
AcDbEntity
  8
BEZUGSACHSEN
100
AcDbLine
 62
7
  6
CONTINUOUS
 10
204.0342084588
 20
149.3063687513
 11
204.023363261
 21
149.3513940785
  0
LINE
  5
3CF
100
AcDbEntity
  8
BEZUGSACHSEN
100
AcDbLine
 62
7
  6
CONTINUOUS
 10
204.023363261
 20
149.3513940785
 11
203.846385822
 21
150.0860215796
  0
LINE
  5
3D0
100
AcDbEntity
  8
BEZUGSACHSEN
100
AcDbLine
 62
7
  6
CONTINUOUS
 10
203.846385822
 20
150.0860215796
 11
203.7873559848
 21
150.3310061327
  0
LINE
  5
3D1
100
AcDbEntity
  8
BEZUGSACHSEN
100
AcDbLine
 62
7
  6
CONTINUOUS
 10
204.1522007129
 20
147.3820598078
 11
204.3210552543
 21
147.024905511
  0
LINE
  5
3D2
100
AcDbEntity
  8
BEZUGSACHSEN
100
AcDbLine
 62
7
  6
CONTINUOUS
 10
204.2748433839
 20
148.3070937994
 11
204.3387602183
 21
148.089395849
  0
LINE
  5
3D3
100
AcDbEntity
  8
BEZUGSACHSEN
100
AcDbLine
 62
7
  6
CONTINUOUS
 10
204.3387602183
 20
148.089395849
 11
204.3878971074
 21
147.9804378744
  0
LINE
  5
3D4
100
AcDbEntity
  8
BEZUGSACHSEN
100
AcDbLine
 62
7
  6
CONTINUOUS
 10
204.120390124
 20
147.6995807799
 11
204.072714835
 21
147.9784073265
  0
LINE
  5
3D5
100
AcDbEntity
  8
BEZUGSACHSEN
100
AcDbLine
 62
7
  6
CONTINUOUS
 10
204.072714835
 20
147.9784073265
 11
204.0566101696
 21
148.0722986596
  0
LINE
  5
3D6
100
AcDbEntity
  8
BEZUGSACHSEN
100
AcDbLine
 62
7
  6
CONTINUOUS
 10
204.0566101696
 20
148.0722986596
 11
204.0328515249
 21
148.1790511208
  0
LINE
  5
3D7
100
AcDbEntity
  8
BEZUGSACHSEN
100
AcDbLine
 62
7
  6
CONTINUOUS
 10
204.0328515249
 20
148.1790511208
 11
204.0089825986
 21
148.2862559783
  0
LINE
  5
3D8
100
AcDbEntity
  8
BEZUGSACHSEN
100
AcDbLine
 62
7
  6
CONTINUOUS
 10
203.945911639
 20
148.5015795102
 11
204.0089825986
 21
148.2862559783
  0
LINE
  5
3D9
100
AcDbEntity
  8
BEZUGSACHSEN
100
AcDbLine
 62
7
  6
CONTINUOUS
 10
203.89891817
 20
148.6106072632
 11
203.945911639
 21
148.5015795102
  0
LINE
  5
3DA
100
AcDbEntity
  8
BEZUGSACHSEN
100
AcDbLine
 62
7
  6
CONTINUOUS
 10
204.4997118039
 20
144.9372590093
 11
204.1700419272
 21
146.0677069109
  0
LINE
  5
3DB
100
AcDbEntity
  8
BEZUGSACHSEN
100
AcDbLine
 62
7
  6
CONTINUOUS
 10
204.0757928142
 20
146.3906919826
 11
203.8400786136
 21
147.1981548126
  0
LINE
  5
3DC
100
AcDbEntity
  8
BEZUGSACHSEN
100
AcDbLine
 62
7
  6
CONTINUOUS
 10
203.7949940332
 20
151.6345708868
 11
203.8545707423
 21
151.3878501943
  0
LINE
  5
3DD
100
AcDbEntity
  8
BEZUGSACHSEN
100
AcDbLine
 62
7
  6
CONTINUOUS
 10
203.8545707423
 20
151.3878501943
 11
204.2836813271
 21
149.6106585535
  0
SPLINE
  5
3DE
100
AcDbEntity
  8
0
100
AcDbSpline
 62
7
  6
CONTINUOUS
 70
0
 71
3
 72
11
 73
7
 74
0
 42
0.0000001
 43
0.0000001
 44
0.0000000001
 40
0.0
 40
0.0
 40
0.0
 40
0.0
 40
0.2509893126
 40
0.5000000001
 40
0.7490106877
 40
1.0
 40
1.0
 40
1.0
 40
1.0
 10
196.5283054575
 20
161.7350563483
 30
0.0
 10
196.4513377445
 20
161.3197757309
 30
0.0
 10
196.3313604505
 20
160.4857305985
 30
0.0
 10
196.2691866013
 20
159.2249136492
 30
0.0
 10
196.331360449
 20
157.9640967002
 30
0.0
 10
196.4513377446
 20
157.1300515682
 30
0.0
 10
196.5283054575
 20
156.7147709512
 30
0.0
  0
SPLINE
  5
3DF
100
AcDbEntity
  8
0
100
AcDbSpline
 62
7
  6
CONTINUOUS
 70
0
 71
3
 72
9
 73
5
 74
0
 42
0.0000001
 43
0.0000001
 44
0.0000000001
 40
0.0
 40
0.0
 40
0.0
 40
0.0
 40
0.5000019527
 40
1.0
 40
1.0
 40
1.0
 40
1.0
 10
202.3815615915
 20
143.5714931482
 30
0.0
 10
202.5010237724
 20
141.4856523685
 30
0.0
 10
202.6560401047
 20
137.3085215015
 30
0.0
 10
202.6157366854
 20
133.1284876837
 30
0.0
 10
202.5485317409
 20
131.0403262247
 30
0.0
  0
SPLINE
  5
3E0
100
AcDbEntity
  8
0
100
AcDbSpline
 62
7
  6
CONTINUOUS
 70
0
 71
3
 72
11
 73
7
 74
0
 42
0.0000001
 43
0.0000001
 44
0.0000000001
 40
0.0
 40
0.0
 40
0.0
 40
0.0
 40
0.2500561064
 40
0.5000000001
 40
0.7499438939
 40
1.0
 40
1.0
 40
1.0
 40
1.0
 10
202.3815615915
 20
156.7147709512
 30
0.0
 10
202.4589864207
 20
155.621095118
 30
0.0
 10
202.5788803119
 20
153.4315478841
 30
0.0
 10
202.6405710965
 20
150.1431320482
 30
0.0
 10
202.5788803133
 20
146.8547162134
 30
0.0
 10
202.4589864206
 20
144.6651689803
 30
0.0
 10
202.3815615915
 20
143.5714931482
 30
0.0
  0
LINE
  5
3E1
100
AcDbEntity
  8
BEZUGSACHSEN
100
AcDbLine
 62
7
  6
CONTINUOUS
 10
204.4505458225
 20
150.2712235924
 11
204.4465558395
 21
150.3224900668
  0
SPLINE
  5
3E2
100
AcDbEntity
  8
0
100
AcDbSpline
 62
7
  6
CONTINUOUS
 70
0
 71
3
 72
11
 73
7
 74
0
 42
0.0000001
 43
0.0000001
 44
0.0000000001
 40
0.0
 40
0.0
 40
0.0
 40
0.0
 40
0.2500561064
 40
0.5000000001
 40
0.7499438939
 40
1.0
 40
1.0
 40
1.0
 40
1.0
 10
196.5283054575
 20
156.7147709512
 30
0.0
 10
196.4508806283
 20
155.621095118
 30
0.0
 10
196.3309867372
 20
153.4315478841
 30
0.0
 10
196.2692959525
 20
150.1431320482
 30
0.0
 10
196.3309867357
 20
146.8547162134
 30
0.0
 10
196.4508806284
 20
144.6651689803
 30
0.0
 10
196.5283054575
 20
143.5714931482
 30
0.0
  0
SPLINE
  5
3E3
100
AcDbEntity
  8
0
100
AcDbSpline
 62
7
  6
CONTINUOUS
 70
0
 71
3
 72
9
 73
5
 74
0
 42
0.0000001
 43
0.0000001
 44
0.0000000001
 40
0.0
 40
0.0
 40
0.0
 40
0.0
 40
0.5000019527
 40
1.0
 40
1.0
 40
1.0
 40
1.0
 10
196.5283054575
 20
143.5714931482
 30
0.0
 10
196.4088432766
 20
141.4856523685
 30
0.0
 10
196.2538269444
 20
137.3085215015
 30
0.0
 10
196.2941303636
 20
133.1284876837
 30
0.0
 10
196.3613353081
 20
131.0403262247
 30
0.0
  0
LINE
  5
3E4
100
AcDbEntity
  8
BEZUGSACHSEN
100
AcDbLine
 62
7
  6
CONTINUOUS
 10
204.4465558395
 20
150.3224900668
 11
204.4145501822
 21
150.5695463989
  0
LINE
  5
3E5
100
AcDbEntity
  8
BEZUGSACHSEN
100
AcDbLine
 62
7
  6
CONTINUOUS
 10
204.4145501822
 20
150.5695463989
 11
204.3666753396
 21
150.8585483116
  0
LINE
  5
3E6
100
AcDbEntity
  8
BEZUGSACHSEN
100
AcDbLine
 62
7
  6
CONTINUOUS
 10
204.3666753396
 20
150.8585483116
 11
204.3032509785
 21
151.1894954835
  0
LINE
  5
3E7
100
AcDbEntity
  8
BEZUGSACHSEN
100
AcDbLine
 62
7
  6
CONTINUOUS
 10
204.0667473427
 20
152.3081740023
 11
204.2444494957
 21
151.4676371689
  0
LINE
  5
3E8
100
AcDbEntity
  8
BEZUGSACHSEN
100
AcDbLine
 62
7
  6
CONTINUOUS
 10
204.2444494957
 20
151.4676371689
 11
204.2634923393
 21
151.3775615718
  0
LINE
  5
3E9
100
AcDbEntity
  8
BEZUGSACHSEN
100
AcDbLine
 62
7
  6
CONTINUOUS
 10
204.2634923393
 20
151.3775615718
 11
204.3032509785
 21
151.1894954835
  0
LINE
  5
3EA
100
AcDbEntity
  8
BEZUGSACHSEN
100
AcDbLine
 62
7
  6
CONTINUOUS
 10
204.0039981947
 20
152.573855318
 11
204.0354629336
 21
152.4406646505
  0
LINE
  5
3EB
100
AcDbEntity
  8
BEZUGSACHSEN
100
AcDbLine
 62
7
  6
CONTINUOUS
 10
204.0354629336
 20
152.4406646505
 11
204.0667473427
 21
152.3081740023
  0
LINE
  5
3EC
100
AcDbEntity
  8
BEZUGSACHSEN
100
AcDbLine
 62
7
  6
CONTINUOUS
 10
203.9571856711
 20
152.73232498
 11
203.980699551
 21
152.6528101146
  0
LINE
  5
3ED
100
AcDbEntity
  8
BEZUGSACHSEN
100
AcDbLine
 62
7
  6
CONTINUOUS
 10
203.980699551
 20
152.6528101146
 11
204.0039981947
 21
152.573855318
  0
LINE
  5
3EE
100
AcDbEntity
  8
BEZUGSACHSEN
100
AcDbLine
 62
7
  6
CONTINUOUS
 10
203.9494624408
 20
152.7450988655
 11
203.9571856711
 21
152.73232498
  0
LINE
  5
3EF
100
AcDbEntity
  8
KONSTRUKTIONSELEMENTE
100
AcDbLine
 62
7
  6
CONTINUOUS
 10
203.523418545
 20
152.3919075211
 11
203.6764762804
 21
151.6665223284
  0
LINE
  5
3F0
100
AcDbEntity
  8
KONSTRUKTIONSELEMENTE
100
AcDbLine
 62
7
  6
CONTINUOUS
 10
203.6764762804
 20
151.6665223284
 11
203.68321733
 21
151.6345711311
  0
LINE
  5
3F1
100
AcDbEntity
  8
BEZUGSACHSEN
100
AcDbLine
 62
7
  6
CONTINUOUS
 10
204.5373608585
 20
148.8867147384
 11
204.5314795745
 21
148.9147147732
  0
LINE
  5
3F2
100
AcDbEntity
  8
BEZUGSACHSEN
100
AcDbLine
 62
7
  6
CONTINUOUS
 10
204.5314795745
 20
148.9147147732
 11
204.4587518253
 21
149.2608977035
  0
LINE
  5
3F3
100
AcDbEntity
  8
BEZUGSACHSEN
100
AcDbLine
 62
7
  6
CONTINUOUS
 10
204.4587518253
 20
149.2608977035
 11
204.404266676
 21
149.5201711851
  0
LINE
  5
3F4
100
AcDbEntity
  8
BEZUGSACHSEN
100
AcDbLine
 62
7
  6
CONTINUOUS
 10
204.404266676
 20
149.5201711851
 11
204.380950572
 21
149.6311047306
  0
LINE
  5
3F5
100
AcDbEntity
  8
BEZUGSACHSEN
100
AcDbLine
 62
7
  6
CONTINUOUS
 10
204.380950572
 20
149.6311047306
 11
203.9525363621
 21
151.6677291692
  0
LINE
  5
3F6
100
AcDbEntity
  8
BEZUGSACHSEN
100
AcDbLine
 62
7
  6
CONTINUOUS
 10
203.9525363621
 20
151.6677291692
 11
203.8550830174
 21
152.1306324992
  0
LINE
  5
3F7
100
AcDbEntity
  8
BEZUGSACHSEN
100
AcDbLine
 62
7
  6
CONTINUOUS
 10
203.8550830174
 20
152.1306324992
 11
203.8000668713
 21
152.3919075211
  0
LINE
  5
3F8
100
AcDbEntity
  8
KONSTRUKTIONSELEMENTE
100
AcDbLine
 62
7
  6
CONTINUOUS
 10
204.1570886005
 20
147.5891499063
 11
204.1219701182
 21
147.6839579614
  0
LINE
  5
3F9
100
AcDbEntity
  8
BEZUGSACHSEN
100
AcDbLine
 62
7
  6
CONTINUOUS
 10
204.3473752965
 20
147.7633955367
 11
204.4127308304
 21
147.5891499063
  0
LINE
  5
3FA
100
AcDbEntity
  8
BEZUGSACHSEN
100
AcDbLine
 62
7
  6
CONTINUOUS
 10
204.2676160192
 20
148.0463807242
 11
204.3473752965
 21
147.7633955367
  0
LINE
  5
3FB
100
AcDbEntity
  8
KONSTRUKTIONSELEMENTE
100
AcDbLine
 62
7
  6
CONTINUOUS
 10
203.5250244911
 20
150.0702930576
 11
203.8615495667
 21
148.6745774845
  0
LINE
  5
3FC
100
AcDbEntity
  8
KONSTRUKTIONSELEMENTE
100
AcDbLine
 62
7
  6
CONTINUOUS
 10
203.8615495667
 20
148.6745774845
 11
203.8706311827
 21
148.6369042806
  0
LINE
  5
3FD
100
AcDbEntity
  8
BEZUGSACHSEN
100
AcDbLine
 62
7
  6
CONTINUOUS
 10
204.2676160192
 20
148.0463807242
 11
204.2088000504
 21
148.2912265181
  0
LINE
  5
3FE
100
AcDbEntity
  8
BEZUGSACHSEN
100
AcDbLine
 62
7
  6
CONTINUOUS
 10
204.2088000504
 20
148.2912265181
 11
203.7811057768
 21
150.0702930576
  0
LINE
  5
3FF
100
AcDbEntity
  8
RUNDUNGEN
100
AcDbLine
 62
7
  6
CONTINUOUS
 10
203.4979500015
 20
111.4126023575
 11
204.4662839782
 21
110.4126023575
  0
LINE
  5
400
100
AcDbEntity
  8
0
100
AcDbLine
 62
7
  6
CONTINUOUS
 10
195.4119170475
 20
111.4126023575
 11
194.4435830708
 21
110.4126023575
  0
SPLINE
  5
401
100
AcDbEntity
  8
BEZUGSACHSEN
100
AcDbSpline
 62
7
  6
CONTINUOUS
 70
0
 71
3
 72
8
 73
4
 74
0
 42
0.0000001
 43
0.0000001
 44
0.0000000001
 40
0.0
 40
0.0
 40
0.0
 40
0.0
 40
1.0
 40
1.0
 40
1.0
 40
1.0
 10
204.182674688
 20
146.9596090449
 30
0.0
 10
204.2465766625
 20
146.8235254596
 30
0.0
 10
204.3103606124
 20
146.6873863625
 30
0.0
 10
204.3740021374
 20
146.5511807795
 30
0.0
  0
LINE
  5
402
100
AcDbEntity
  8
BEZUGSACHSEN
100
AcDbLine
 62
7
  6
CONTINUOUS
 10
204.3740021374
 20
146.5511807795
 11
204.5149506626
 21
146.2488797813
  0
LINE
  5
403
100
AcDbEntity
  8
KONSTRUKTIONSELEMENTE
100
AcDbLine
 62
7
  6
CONTINUOUS
 10
204.2694296935
 20
146.2488797813
 11
204.1818808408
 21
146.4395452211
  0
LINE
  5
404
100
AcDbEntity
  8
KONSTRUKTIONSELEMENTE
100
AcDbLine
 62
7
  6
CONTINUOUS
 10
204.1818808408
 20
146.4395452211
 11
204.1771158553
 21
146.4499030621
  0
SPLINE
  5
405
100
AcDbEntity
  8
0
100
AcDbSpline
 62
7
  6
CONTINUOUS
 70
0
 71
3
 72
11
 73
7
 74
0
 42
0.0000001
 43
0.0000001
 44
0.0000000001
 40
0.0
 40
0.0
 40
0.0
 40
0.0
 40
0.2509893126
 40
0.5000000001
 40
0.7490106877
 40
1.0
 40
1.0
 40
1.0
 40
1.0
 10
202.3815615915
 20
161.7350563483
 30
0.0
 10
202.4585293045
 20
161.3197757309
 30
0.0
 10
202.5785065985
 20
160.4857305985
 30
0.0
 10
202.6406804477
 20
159.2249136492
 30
0.0
 10
202.5785066
 20
157.9640967002
 30
0.0
 10
202.4585293045
 20
157.1300515682
 30
0.0
 10
202.3815615915
 20
156.7147709512
 30
0.0
  0
LINE
  5
406
100
AcDbEntity
  8
BEZUGSACHSEN
100
AcDbLine
 62
7
  6
CONTINUOUS
 10
204.4358946816
 20
148.0616135607
 11
204.4404374045
 21
148.0887403149
  0
LINE
  5
407
100
AcDbEntity
  8
BEZUGSACHSEN
100
AcDbLine
 62
7
  6
CONTINUOUS
 10
204.4909994295
 20
144.622470012
 11
204.4073106871
 21
144.9103971283
  0
LINE
  5
408
100
AcDbEntity
  8
BEZUGSACHSEN
100
AcDbLine
 62
7
  6
CONTINUOUS
 10
204.4073106871
 20
144.9103971283
 11
204.373194135
 21
145.02773605
  0
LINE
  5
409
100
AcDbEntity
  8
BEZUGSACHSEN
100
AcDbLine
 62
7
  6
CONTINUOUS
 10
204.373194135
 20
145.02773605
 11
204.0783534517
 21
146.0410087113
  0
LINE
  5
40A
100
AcDbEntity
  8
BEZUGSACHSEN
100
AcDbLine
 62
7
  6
CONTINUOUS
 10
204.0783534517
 20
146.0410087113
 11
203.9842840414
 21
146.3640349943
  0
LINE
  5
40B
100
AcDbEntity
  8
BEZUGSACHSEN
100
AcDbLine
 62
7
  6
CONTINUOUS
 10
203.9842840414
 20
146.3640349943
 11
203.7545396881
 21
147.1525200417
  0
LINE
  5
40C
100
AcDbEntity
  8
KONSTRUKTIONSELEMENTE
100
AcDbLine
 62
7
  6
CONTINUOUS
 10
203.5242425619
 20
147.1525200417
 11
204.2637046648
 21
144.622470012
  0
LINE
  5
40D
100
AcDbEntity
  8
BEZUGSACHSEN
100
AcDbLine
 62
7
  6
CONTINUOUS
 10
204.4275801889
 20
148.5016452341
 11
204.3962420903
 21
148.7625767268
  0
LINE
  5
40E
100
AcDbEntity
  8
KONSTRUKTIONSELEMENTE
100
AcDbLine
 62
7
  6
CONTINUOUS
 10
203.8465166248
 20
147.3875237573
 11
203.8472171051
 21
147.1981774342
  0
LINE
  5
40F
100
AcDbEntity
  8
KONSTRUKTIONSELEMENTE
100
AcDbLine
 62
7
  6
CONTINUOUS
 10
203.8472171051
 20
147.1981774342
 11
203.8472635683
 21
147.1737661418
  0
LINE
  5
410
100
AcDbEntity
  8
BEZUGSACHSEN
100
AcDbLine
 62
7
  6
CONTINUOUS
 10
204.3962420903
 20
148.7625767268
 11
204.348797758
 21
149.0453434182
  0
LINE
  5
411
100
AcDbEntity
  8
BEZUGSACHSEN
100
AcDbLine
 62
7
  6
CONTINUOUS
 10
204.348797758
 20
149.0453434182
 11
204.3014418135
 21
149.2735006501
  0
LINE
  5
412
100
AcDbEntity
  8
BEZUGSACHSEN
100
AcDbLine
 62
7
  6
CONTINUOUS
 10
204.3014418135
 20
149.2735006501
 11
204.2855693024
 21
149.3499456027
  0
LINE
  5
413
100
AcDbEntity
  8
KONSTRUKTIONSELEMENTE
100
AcDbLine
 62
7
  6
CONTINUOUS
 10
203.7809378438
 20
150.3294569955
 11
203.7753616317
 21
150.352558945
  0
LINE
  5
414
100
AcDbEntity
  8
KONSTRUKTIONSELEMENTE
100
AcDbLine
 62
7
  6
CONTINUOUS
 10
203.7753616317
 20
150.352558945
 11
203.5288308163
 21
151.373857936
  0
LINE
  5
415
100
AcDbEntity
  8
BEZUGSACHSEN
100
AcDbLine
 62
7
  6
CONTINUOUS
 10
203.8682270287
 20
148.2985502407
 11
203.8998309133
 21
148.2958182659
  0
LINE
  5
416
100
AcDbEntity
  8
BEZUGSACHSEN
100
AcDbLine
 62
7
  6
CONTINUOUS
 10
203.7966249712
 20
151.373857936
 11
204.22595492
 21
149.5967128922
  0
LINE
  5
417
100
AcDbEntity
  8
BEZUGSACHSEN
100
AcDbLine
 62
7
  6
CONTINUOUS
 10
204.22595492
 20
149.5967128922
 11
204.2855693024
 21
149.3499456027
  0
LINE
  5
418
100
AcDbEntity
  8
BEZUGSACHSEN
100
AcDbLine
 62
7
  6
CONTINUOUS
 10
203.8998309133
 20
148.2958182659
 11
203.9290763227
 21
148.2283922791
  0
LINE
  5
419
100
AcDbEntity
  8
BEZUGSACHSEN
100
AcDbLine
 62
7
  6
CONTINUOUS
 10
203.9290763227
 20
148.2283922791
 11
203.9353344527
 21
148.2139586816
  0
LINE
  5
41A
100
AcDbEntity
  8
BEZUGSACHSEN
100
AcDbLine
 62
7
  6
CONTINUOUS
 10
203.9353344527
 20
148.2139586816
 11
203.9471118059
 21
148.186790513
  0
LINE
  5
41B
100
AcDbEntity
  8
BEZUGSACHSEN
100
AcDbLine
 62
7
  6
CONTINUOUS
 10
203.9471118059
 20
148.186790513
 11
203.9944318556
 21
148.0252978263
  0
LINE
  5
41C
100
AcDbEntity
  8
BEZUGSACHSEN
100
AcDbLine
 62
7
  6
CONTINUOUS
 10
204.041792634
 20
147.8113405076
 11
203.9944318556
 21
148.0252978263
  0
LINE
  5
41D
100
AcDbEntity
  8
BEZUGSACHSEN
100
AcDbLine
 62
7
  6
CONTINUOUS
 10
204.0732793093
 20
147.5987491013
 11
204.041792634
 21
147.8113405076
  0
LINE
  5
41E
100
AcDbEntity
  8
KONSTRUKTIONSELEMENTE
100
AcDbLine
 62
7
  6
CONTINUOUS
 10
203.844058681
 20
147.4187385256
 11
203.8465166248
 21
147.3875237573
  0
ELLIPSE
  5
41F
100
AcDbEntity
  8
KONSTRUKTIONSELEMENTE
100
AcDbEllipse
 62
7
  6
CONTINUOUS
 10
111.6556634515
 20
65.7812051494
 30
0.0
 11
-0.0
 21
48.4974226119
 31
0.0
 40
0.5773502692
 41
-0.3895798701
 42
-0.1632238035
  0
ELLIPSE
  5
420
100
AcDbEntity
  8
KONSTRUKTIONSELEMENTE
100
AcDbEllipse
 62
7
  6
CONTINUOUS
 10
111.6556634515
 20
65.7812051494
 30
0.0
 11
-0.0
 21
48.4974226119
 31
0.0
 40
0.5773502692
 41
0.1632238035
 42
0.3895798701
  0
ELLIPSE
  5
421
100
AcDbEntity
  8
0
100
AcDbEllipse
 62
7
  6
CONTINUOUS
 10
194.3148479212
 20
114.4126023575
 30
0.0
 11
-0.1671239375
 21
3.4627603303
 31
0.0
 40
0.5767533335
 41
-2.6458226605
 42
-1.7790696948
  0
ELLIPSE
  5
422
100
AcDbEntity
  8
RUNDUNGEN
100
AcDbEllipse
 62
7
  6
CONTINUOUS
 10
204.5950191278
 20
114.4126023575
 30
0.0
 11
0.1671239375
 21
3.4627603303
 31
0.0
 40
0.5767533335
 41
-4.5041156123
 42
-3.6373626467
  0
ENDSEC
  0
SECTION
  2
OBJECTS
  0
DICTIONARY
  5
C
100
AcDbDictionary
280
0
281
1
  3
ACAD_GROUP
350
D
  3
ACAD_MLINESTYLE
350
17
  3
ACAD_LAYOUT
350
1A
  3
ACAD_PLOTSETTINGS
350
19
  3
ACAD_PLOTSTYLENAME
350
E
  0
DICTIONARY
  5
D
102
{ACAD_REACTORS
330
C
102
}
100
AcDbDictionary
280
0
281
1
  0
ACDBDICTIONARYWDFLT
  5
E
102
{ACAD_REACTORS
330
C
102
}
100
AcDbDictionary
281
1
  3
Normal
350
F
100
AcDbDictionaryWithDefault
340
F
  0
DICTIONARY
  5
17
102
{ACAD_REACTORS
330
C
102
}
100
AcDbDictionary
280
0
281
1
  3
Standard
350
18
  0
DICTIONARY
  5
19
102
{ACAD_REACTORS
330
C
102
}
100
AcDbDictionary
281
1
  0
DICTIONARY
  5
1A
102
{ACAD_REACTORS
330
C
102
}
100
AcDbDictionary
281
1
  3
Model
350
423
  3
Layout1
350
424
  0
ACDBPLACEHOLDER
  5
F
102
{ACAD_REACTORS
330
E
102
}
  0
MLINESTYLE
  5
18
102
{ACAD_REACTORS
330
17
102
}
100
AcDbMlineStyle
  2
STANDARD
 70
0
  3

 62
256
 51
90.0
 52
90.0
 71
2
 49
0.5
 62
256
  6
BYLAYER
 49
-0.5
 62
256
  6
BYLAYER
  0
LAYOUT
  5
423
102
{ACAD_REACTORS
330
1A
102
}
100
AcDbPlotSettings
  1

  2
none_device
  4
ISO_A4_(297.00_x_210.00_MM)
  6

 40
0.0
 41
0.0
 42
0.0
 43
0.0
 44
297.0
 45
210.0
 46
0.0
 47
0.0
 48
0.0
 49
0.0
140
0.0
141
0.0
142
1.0
143
1.0
 70
1024
 72
1
 73
0
 74
0
  7

 75
0
147
1.0
148
0.0
149
0.0
100
AcDbLayout
  1
Model
 70
0
 71
0
 10
0.0
 20
0.0
 11
297.0
 21
210.0
 12
0.0
 22
0.0
 32
0.0
 14
0.0
 24
0.0
 34
0.0
 15
0.0
 25
0.0
 35
0.0
146
0.0
 13
0.0
 23
0.0
 33
0.0
 16
1.0
 26
0.0
 36
0.0
 17
0.0
 27
1.0
 37
0.0
 76
0
330
208
345
0
346
0
  0
LAYOUT
  5
424
102
{ACAD_REACTORS
330
1A
102
}
100
AcDbPlotSettings
  1

  2
none_device
  4
ISO_A4_(297.00_x_210.00_MM)
  6

 40
0.0
 41
0.0
 42
0.0
 43
0.0
 44
297.0
 45
210.0
 46
0.0
 47
0.0
 48
0.0
 49
0.0
140
0.0
141
0.0
142
1.0
143
1.0
 70
0
 72
1
 73
0
 74
0
  7

 75
0
147
1.0
148
0.0
149
0.0
100
AcDbLayout
  1
Layout1
 70
0
 71
1
 10
0.0
 20
0.0
 11
297.0
 21
210.0
 12
0.0
 22
0.0
 32
0.0
 14
0.0
 24
0.0
 34
0.0
 15
0.0
 25
0.0
 35
0.0
146
0.0
 13
0.0
 23
0.0
 33
0.0
 16
1.0
 26
0.0
 36
0.0
 17
0.0
 27
1.0
 37
0.0
 76
0
330
209
345
0
346
0
  0
ENDSEC
  0
EOF
