999
DXF file: VRG-6_7100469_M31491-P-3.dxf
999
Pro/ENGINEER 2010140 by Parametric Technology Corporation
  0
SECTION
  2
HEADER
  9
$ACADVER
  1
AC1015
  9
$DWGCODEPAGE
  3
ANSI_1252
  9
$EXTMAX
 10
297.0
 20
210.0
 30
0.0
  9
$EXTMIN
 10
0.0
 20
0.0
 30
0.0
  9
$LIMMIN
 10
0.0
 20
0.0
  9
$LIMMAX
 10
297.0
 20
210.0
  9
$VIEWCTR
 10
148.5
 20
105.0
  9
$VIEWSIZE
 40
210.0
  9
$CLAYER
  8
0
  9
$LTSCALE
 40
16.335
  9
$CELTYPE
  6
BYLAYER
  9
$DIMSCALE
 40
1.0
  9
$DIMASZ
 40
3.5
  9
$DIMEXO
 40
1.85625
  9
$DIMDLI
 40
11.286
  9
$DIMEXE
 40
5.346
  9
$DIMCEN
 40
2.673
  9
$DIMLFAC
 40
1.0
  9
$DIMBLK
  1
_FILLED
  9
$DIMTXT
 40
3.5
  9
$DIMTOL
 70
1
  9
$DIMLIM
 70
0
  9
$DIMTFAC
 40
1.0
  9
$DIMTP
 40
0.005
  9
$DIMTM
 40
0.005
  9
$PDMODE
 70
3
  9
$PDSIZE
 40
0.3125
  9
$HANDSEED
  5
428
  9
$TILEMODE
 70
1
  9
$MEASUREMENT
 70
1
  9
$INSUNITS
 70
4
  0
ENDSEC
  0
SECTION
  2
CLASSES
  0
CLASS
  1
ACDBDICTIONARYWDFLT
  2
AcDbDictionaryWithDefault
  3
AutoCAD 2000
 90
0
280
0
281
0
  0
CLASS
  1
ACDBPLACEHOLDER
  2
AcDbPlaceHolder
  3
AutoCAD 2000
 90
0
280
0
281
0
  0
CLASS
  1
LAYOUT
  2
AcDbLayout
  3
AutoCAD 2000
 90
0
280
0
281
0
  0
ENDSEC
  0
SECTION
  2
TABLES
  0
TABLE
  2
VPORT
  5
8
100
AcDbSymbolTable
 70
2
  0
VPORT
  5
1F4
100
AcDbSymbolTableRecord
100
AcDbViewportTableRecord
  2
*ACTIVE
 70
0
 10
0.0
 20
0.0
 11
1.0
 21
1.0
 12
148.5
 22
105.0
 13
0.0
 23
0.0
 14
1.0
 24
1.0
 15
0.0
 25
0.0
 16
0.0
 26
0.0
 36
1.0
 17
0.0
 27
0.0
 37
0.0
 40
210.0
 41
1.4142857143
 42
50.0
 43
0.0
 44
0.0
 50
0.0
 51
0.0
 71
0
 72
100
 73
1
 74
1
 75
0
 76
0
 77
0
 78
0
  0
ENDTAB
  0
TABLE
  2
LTYPE
  5
5
100
AcDbSymbolTable
 70
6
  0
LTYPE
  5
14
100
AcDbSymbolTableRecord
100
AcDbLinetypeTableRecord
  2
BYBLOCK
 70
0
  3

 72
65
 73
0
 40
0.0
  0
LTYPE
  5
15
100
AcDbSymbolTableRecord
100
AcDbLinetypeTableRecord
  2
BYLAYER
 70
0
  3

 72
65
 73
0
 40
0.0
  0
LTYPE
  5
16
100
AcDbSymbolTableRecord
100
AcDbLinetypeTableRecord
  2
CONTINUOUS
 70
64
  3
Solid line
 72
65
 73
0
 40
0.0
  0
LTYPE
  5
1F5
100
AcDbSymbolTableRecord
100
AcDbLinetypeTableRecord
  2
CENTER
 70
64
  3
____ _ ____ _ ____ _ ____ _ ____ _ ____ _ ____
 72
65
 73
4
 40
0.6
 49
0.375
 74
0
 49
-0.075
 74
0
 49
0.075
 74
0
 49
-0.075
 74
0
  0
LTYPE
  5
1F6
100
AcDbSymbolTableRecord
100
AcDbLinetypeTableRecord
  2
HIDDEN
 70
64
  3
- - - - - - - - - - - - - - - - - - - -
 72
65
 73
2
 40
0.2
 49
0.1
 74
0
 49
-0.1
 74
0
  0
LTYPE
  5
1F7
100
AcDbSymbolTableRecord
100
AcDbLinetypeTableRecord
  2
PHANTOM
 70
64
  3
_____ _ _ _____ _ _ _____ _ _ _____
 72
65
 73
6
 40
0.8
 49
0.45
 74
0
 49
-0.05
 74
0
 49
0.1
 74
0
 49
-0.05
 74
0
 49
0.1
 74
0
 49
-0.05
 74
0
  0
LTYPE
  5
1F8
100
AcDbSymbolTableRecord
100
AcDbLinetypeTableRecord
  2
DOT
 70
64
  3
. . . . . . . . . . . . . . . . . . . .
 72
65
 73
2
 40
0.2
 49
0.1
 74
0
 49
-0.1
 74
0
  0
LTYPE
  5
1F9
100
AcDbSymbolTableRecord
100
AcDbLinetypeTableRecord
  2
DASHED
 70
64
  3
- - - - - - - - - - - - - - - - - - - -
 72
65
 73
2
 40
0.2
 49
0.1
 74
0
 49
-0.1
 74
0
  0
ENDTAB
  0
TABLE
  2
LAYER
  5
2
100
AcDbSymbolTable
 70
36
  0
LAYER
  5
10
100
AcDbSymbolTableRecord
100
AcDbLayerTableRecord
  2
0
 70
0
 62
7
  6
CONTINUOUS
370
-3
390
F
  0
LAYER
  5
1FA
100
AcDbSymbolTableRecord
100
AcDbLayerTableRecord
  2
DEFAULT_1
 70
0
 62
7
  6
CENTER
370
-3
390
F
  0
LAYER
  5
1FB
100
AcDbSymbolTableRecord
100
AcDbLayerTableRecord
  2
DEFAULT_2
 70
0
 62
8
  6
HIDDEN
370
-3
390
F
  0
LAYER
  5
1FC
100
AcDbSymbolTableRecord
100
AcDbLayerTableRecord
  2
DEFAULT_3
 70
0
 62
7
  6
PHANTOM
370
-3
390
F
  0
LAYER
  5
1FD
100
AcDbSymbolTableRecord
100
AcDbLayerTableRecord
  2
AUSFORMSCHRAEGEN
 70
0
 62
7
  6
CONTINUOUS
370
-3
390
F
  0
LAYER
  5
1FE
100
AcDbSymbolTableRecord
100
AcDbLayerTableRecord
  2
BEZUGSACHSEN
 70
0
 62
7
  6
CONTINUOUS
370
-3
390
F
  0
LAYER
  5
1FF
100
AcDbSymbolTableRecord
100
AcDbLayerTableRecord
  2
BEZUGSEBENEN
 70
0
 62
7
  6
CONTINUOUS
370
-3
390
F
  0
LAYER
  5
200
100
AcDbSymbolTableRecord
100
AcDbLayerTableRecord
  2
FASEN
 70
0
 62
7
  6
CONTINUOUS
370
-3
390
F
  0
LAYER
  5
201
100
AcDbSymbolTableRecord
100
AcDbLayerTableRecord
  2
FLAECHEN
 70
0
 62
7
  6
CONTINUOUS
370
-3
390
F
  0
LAYER
  5
202
100
AcDbSymbolTableRecord
100
AcDbLayerTableRecord
  2
HILFEN
 70
0
 62
7
  6
CONTINUOUS
370
-3
390
F
  0
LAYER
  5
203
100
AcDbSymbolTableRecord
100
AcDbLayerTableRecord
  2
KONSTRUKTIONSELEMENTE
 70
0
 62
7
  6
CONTINUOUS
370
-3
390
F
  0
LAYER
  5
204
100
AcDbSymbolTableRecord
100
AcDbLayerTableRecord
  2
PLAZIERUNG
 70
0
 62
7
  6
CONTINUOUS
370
-3
390
F
  0
LAYER
  5
205
100
AcDbSymbolTableRecord
100
AcDbLayerTableRecord
  2
RUNDUNGEN
 70
0
 62
7
  6
CONTINUOUS
370
-3
390
F
  0
LAYER
  5
206
100
AcDbSymbolTableRecord
100
AcDbLayerTableRecord
  2
TEIL_STARTBEZUEGE
 70
0
 62
7
  6
CONTINUOUS
370
-3
390
F
  0
ENDTAB
  0
TABLE
  2
STYLE
  5
3
100
AcDbSymbolTable
 70
1
  0
STYLE
  5
11
100
AcDbSymbolTableRecord
100
AcDbTextStyleTableRecord
  2
STANDARD
 70
0
 40
0.0
 41
0.7
 50
0.0
 71
0
 42
0.2
  3
txt
  4

  0
STYLE
  5
207
100
AcDbSymbolTableRecord
100
AcDbTextStyleTableRecord
  2
TEXTSTYLE_1
 70
0
 40
0.0
 41
0.8
 50
0.0
 71
0
 42
0.2
  3
gdt
  4

  0
ENDTAB
  0
TABLE
  2
VIEW
  5
6
100
AcDbSymbolTable
 70
0
  0
ENDTAB
  0
TABLE
  2
UCS
  5
7
100
AcDbSymbolTable
 70
0
  0
ENDTAB
  0
TABLE
  2
APPID
  5
9
100
AcDbSymbolTable
 70
1
  0
APPID
  5
208
100
AcDbSymbolTableRecord
100
AcDbRegAppTableRecord
  2
ACAD
 70
0
  0
ENDTAB
  0
TABLE
  2
BLOCK_RECORD
  5
1
100
AcDbSymbolTable
 70
0
  0
BLOCK_RECORD
  5
209
100
AcDbSymbolTableRecord
100
AcDbBlockTableRecord
  2
*Model_Space
  0
BLOCK_RECORD
  5
20A
100
AcDbSymbolTableRecord
100
AcDbBlockTableRecord
  2
*Paper_Space
  0
ENDTAB
  0
TABLE
  2
DIMSTYLE
  5
A
100
AcDbSymbolTable
 70
1
100
AcDbDimStyleTable
 71
0
  0
DIMSTYLE
105
20B
100
AcDbSymbolTableRecord
100
AcDbDimStyleTableRecord
  2
STANDARD
 70
0
  3

  4

 40
1.0
 41
3.5
 42
0.0625
 43
0.38
 44
0.18
 45
0.0
 46
0.0
 47
0.005
 48
0.005
140
3.5
141
0.09
142
0.0
143
25.4
144
1.0
145
0.0
146
1.0
147
0.09
 71
1.0
 72
0.0
 73
0
 74
0
 75
0
 76
0
 77
1
 78
8
170
0
171
2
172
0
173
0
174
0
175
0
176
0
177
0
178
5
270
2
271
3
272
3
273
2
274
2
275
0
280
0
281
0
282
0
283
1
284
8
285
0
286
0
287
3
288
0
340
11
  0
ENDTAB
  0
ENDSEC
  0
SECTION
  2
BLOCKS
  0
BLOCK
  5
20
100
AcDbEntity
  8
0
100
AcDbBlockBegin
  2
*Model_Space
 70
0
 10
0.0
 20
0.0
 30
0.0
  3
*Model_Space
  1

  0
ENDBLK
  5
21
100
AcDbEntity
  8
0
100
AcDbBlockEnd
  0
BLOCK
  5
1C
100
AcDbEntity
  8
0
100
AcDbBlockBegin
  2
*Paper_Space
 70
0
 10
0.0
 20
0.0
 30
0.0
  3
*Paper_Space
  1

  0
ENDBLK
  5
1D
100
AcDbEntity
  8
0
100
AcDbBlockEnd
  0
ENDSEC
  0
SECTION
  2
ENTITIES
  0
MTEXT
  5
20C
100
AcDbEntity
  8
0
100
AcDbMText
 62
5
  6
CONTINUOUS
  7
STANDARD
 71
1
 72
1
 10
162.1746174273
 20
118.4784439145
 30
0.0
 11
0.0
 21
1.0
 31
0.0
 44
0.9
  1
RUD
 40
3.0
 41
8.0
  0
MTEXT
  5
20D
100
AcDbEntity
  8
0
100
AcDbMText
 62
5
  6
CONTINUOUS
  7
STANDARD
 71
1
 72
1
 10
173.2748640762
 20
113.2924791839
 30
0.0
 11
0.0
 21
1.0
 31
0.0
 44
0.9
  1
VRG 6
 40
3.0
 41
12.5
  0
LINE
  5
20E
100
AcDbEntity
  8
0
100
AcDbLine
 62
7
  6
CONTINUOUS
 10
0.0
 20
0.0
 11
0.0
 21
210.0
  0
LINE
  5
20F
100
AcDbEntity
  8
0
100
AcDbLine
 62
7
  6
CONTINUOUS
 10
0.0
 20
0.0
 11
297.0
 21
0.0
  0
LINE
  5
210
100
AcDbEntity
  8
0
100
AcDbLine
 62
7
  6
CONTINUOUS
 10
0.0
 20
210.0
 11
297.0
 21
210.0
  0
LINE
  5
211
100
AcDbEntity
  8
0
100
AcDbLine
 62
7
  6
CONTINUOUS
 10
297.0
 20
0.0
 11
297.0
 21
210.0
  0
LINE
  5
212
100
AcDbEntity
  8
KONSTRUKTIONSELEMENTE
100
AcDbLine
 62
7
  6
CONTINUOUS
 10
112.8921809381
 20
105.1847849134
 11
110.6932804615
 21
105.1847849134
  0
LINE
  5
213
100
AcDbEntity
  8
KONSTRUKTIONSELEMENTE
100
AcDbLine
 62
7
  6
CONTINUOUS
 10
94.5082087279
 20
105.1847849134
 11
92.3093082513
 21
105.1847849134
  0
LINE
  5
214
100
AcDbEntity
  8
0
100
AcDbLine
 62
7
  6
CONTINUOUS
 10
102.6007445947
 20
156.8368360618
 11
91.1671158028
 21
153.1218248679
  0
LINE
  5
215
100
AcDbEntity
  8
0
100
AcDbLine
 62
7
  6
CONTINUOUS
 10
88.0689603645
 20
109.1267870876
 11
88.1658269283
 21
109.0113460122
  0
LINE
  5
216
100
AcDbEntity
  8
RUNDUNGEN
100
AcDbLine
 62
7
  6
CONTINUOUS
 10
88.2759542224
 20
108.8801014138
 11
88.1658269283
 21
109.0113460122
  0
LINE
  5
217
100
AcDbEntity
  8
0
100
AcDbLine
 62
7
  6
CONTINUOUS
 10
90.777219365
 20
105.899209694
 11
88.2759542224
 21
108.8801014138
  0
LINE
  5
218
100
AcDbEntity
  8
0
100
AcDbLine
 62
7
  6
CONTINUOUS
 10
91.1671158028
 20
153.1218248679
 11
84.1007445947
 21
143.3957992937
  0
LINE
  5
219
100
AcDbEntity
  8
KONSTRUKTIONSELEMENTE
100
AcDbLine
 62
7
  6
CONTINUOUS
 10
94.4026861969
 20
150.5898396814
 11
94.1556696533
 21
150.5027879098
  0
LINE
  5
21A
100
AcDbEntity
  8
0
100
AcDbLine
 62
7
  6
CONTINUOUS
 10
106.1007445947
 20
110.0847849134
 11
99.1007445947
 21
110.0847849134
  0
LINE
  5
21B
100
AcDbEntity
  8
KONSTRUKTIONSELEMENTE
100
AcDbLine
 62
7
  6
CONTINUOUS
 10
90.0414522362
 20
146.6416038209
 11
89.3341395599
 21
145.6484930335
  0
LINE
  5
21C
100
AcDbEntity
  8
KONSTRUKTIONSELEMENTE
100
AcDbLine
 62
7
  6
CONTINUOUS
 10
89.7709236954
 20
145.7116250723
 11
90.330879536
 21
146.4978377395
  0
LINE
  5
21D
100
AcDbEntity
  8
KONSTRUKTIONSELEMENTE
100
AcDbLine
 62
7
  6
CONTINUOUS
 10
92.3918240675
 20
149.2158513044
 11
92.1730987883
 21
149.0035560657
  0
LINE
  5
21E
100
AcDbEntity
  8
KONSTRUKTIONSELEMENTE
100
AcDbLine
 62
7
  6
CONTINUOUS
 10
91.2981976715
 20
148.154375111
 11
91.079472288
 21
147.9420797711
  0
LINE
  5
21F
100
AcDbEntity
  8
KONSTRUKTIONSELEMENTE
100
AcDbLine
 62
7
  6
CONTINUOUS
 10
90.2408002651
 20
146.8114728094
 11
90.0414522362
 21
146.6416038209
  0
LINE
  5
220
100
AcDbEntity
  8
KONSTRUKTIONSELEMENTE
100
AcDbLine
 62
7
  6
CONTINUOUS
 10
94.1556696533
 20
150.5027879098
 11
93.1391790214
 21
149.8295070967
  0
LINE
  5
221
100
AcDbEntity
  8
KONSTRUKTIONSELEMENTE
100
AcDbLine
 62
7
  6
CONTINUOUS
 10
93.6047866819
 20
149.6785362707
 11
94.3671546558
 21
150.1834968806
  0
LINE
  5
222
100
AcDbEntity
  8
KONSTRUKTIONSELEMENTE
100
AcDbLine
 62
7
  6
CONTINUOUS
 10
90.330879536
 20
146.4978377395
 11
90.4712848138
 21
146.5849474563
  0
LINE
  5
223
100
AcDbEntity
  8
KONSTRUKTIONSELEMENTE
100
AcDbLine
 62
7
  6
CONTINUOUS
 10
94.3671546558
 20
150.1834968806
 11
94.5718170999
 21
150.2424950709
  0
LINE
  5
224
100
AcDbEntity
  8
RUNDUNGEN
100
AcDbLine
 62
7
  6
CONTINUOUS
 10
115.4869820165
 20
111.1847849134
 11
111.9521333717
 21
111.1847849134
  0
LINE
  5
225
100
AcDbEntity
  8
RUNDUNGEN
100
AcDbLine
 62
7
  6
CONTINUOUS
 10
93.2493558176
 20
111.1847849134
 11
89.7145071728
 21
111.1847849134
  0
LINE
  5
226
100
AcDbEntity
  8
0
100
AcDbLine
 62
7
  6
CONTINUOUS
 10
84.1007445947
 20
143.3957992937
 11
84.1007445947
 21
131.3737705331
  0
LINE
  5
227
100
AcDbEntity
  8
KONSTRUKTIONSELEMENTE
100
AcDbLine
 62
7
  6
CONTINUOUS
 10
91.1107475808
 20
145.9424006615
 11
90.5507917402
 21
145.1561879942
  0
LINE
  5
228
100
AcDbEntity
  8
KONSTRUKTIONSELEMENTE
100
AcDbLine
 62
7
  6
CONTINUOUS
 10
90.8627388999
 20
144.9340132045
 11
91.3637520315
 21
145.6374666592
  0
LINE
  5
229
100
AcDbEntity
  8
KONSTRUKTIONSELEMENTE
100
AcDbLine
 62
7
  6
CONTINUOUS
 10
93.6312609781
 20
146.7718197749
 11
93.4854440558
 21
146.6302895483
  0
LINE
  5
22A
100
AcDbEntity
  8
KONSTRUKTIONSELEMENTE
100
AcDbLine
 62
7
  6
CONTINUOUS
 10
93.7521812831
 20
146.3554733307
 11
93.8979982054
 21
146.4970035573
  0
LINE
  5
22B
100
AcDbEntity
  8
KONSTRUKTIONSELEMENTE
100
AcDbLine
 62
7
  6
CONTINUOUS
 10
95.6008173429
 20
148.3209656159
 11
94.8384493691
 21
147.8160050061
  0
LINE
  5
22C
100
AcDbEntity
  8
KONSTRUKTIONSELEMENTE
100
AcDbLine
 62
7
  6
CONTINUOUS
 10
94.7958117382
 20
147.3283937363
 11
95.8123023701
 21
148.0016745494
  0
LINE
  5
22D
100
AcDbEntity
  8
KONSTRUKTIONSELEMENTE
100
AcDbLine
 62
7
  6
CONTINUOUS
 10
93.5254540833
 20
146.2243634009
 11
93.7521812831
 21
146.3554733307
  0
LINE
  5
22E
100
AcDbEntity
  8
KONSTRUKTIONSELEMENTE
100
AcDbLine
 62
7
  6
CONTINUOUS
 10
93.4854440558
 20
146.6302895483
 11
93.2951711427
 21
146.5345622217
  0
LINE
  5
22F
100
AcDbEntity
  8
RUNDUNGEN
100
AcDbLine
 62
7
  6
CONTINUOUS
 10
86.7499750996
 20
119.8986925156
 11
84.1007445947
 21
131.3737705331
  0
LINE
  5
230
100
AcDbEntity
  8
0
100
AcDbLine
 62
7
  6
CONTINUOUS
 10
87.6007445947
 20
110.4130884016
 11
87.6007445947
 21
111.1847849134
  0
LINE
  5
231
100
AcDbEntity
  8
0
100
AcDbLine
 62
7
  6
CONTINUOUS
 10
87.6007445947
 20
116.1847849134
 11
87.6007445947
 21
117.1075986232
  0
LINE
  5
232
100
AcDbEntity
  8
KONSTRUKTIONSELEMENTE
100
AcDbLine
 62
7
  6
CONTINUOUS
 10
93.7326217011
 20
146.9591526991
 11
93.6312609781
 21
146.7718197749
  0
LINE
  5
233
100
AcDbEntity
  8
KONSTRUKTIONSELEMENTE
100
AcDbLine
 62
7
  6
CONTINUOUS
 10
93.8979982054
 20
146.4970035573
 11
94.0358129986
 21
146.7197188903
  0
LINE
  5
234
100
AcDbEntity
  8
KONSTRUKTIONSELEMENTE
100
AcDbLine
 62
7
  6
CONTINUOUS
 10
91.7777259353
 20
143.9081236399
 11
91.9545541044
 21
144.1564013368
  0
LINE
  5
235
100
AcDbEntity
  8
KONSTRUKTIONSELEMENTE
100
AcDbLine
 62
7
  6
CONTINUOUS
 10
92.691338114
 20
145.1908917009
 11
92.8976377008
 21
145.4805490928
  0
LINE
  5
236
100
AcDbEntity
  8
KONSTRUKTIONSELEMENTE
100
AcDbLine
 62
7
  6
CONTINUOUS
 10
95.7349847863
 20
148.4863941493
 11
95.6008173429
 21
148.3209656159
  0
LINE
  5
237
100
AcDbEntity
  8
KONSTRUKTIONSELEMENTE
100
AcDbLine
 62
7
  6
CONTINUOUS
 10
95.8123023701
 20
148.0016745494
 11
95.9888239098
 21
148.1951566687
  0
LINE
  5
238
100
AcDbEntity
  8
KONSTRUKTIONSELEMENTE
100
AcDbLine
 62
7
  6
CONTINUOUS
 10
91.147170472
 20
146.1035686415
 11
91.1107475808
 21
145.9424006615
  0
LINE
  5
239
100
AcDbEntity
  8
KONSTRUKTIONSELEMENTE
100
AcDbLine
 62
7
  6
CONTINUOUS
 10
95.9888239098
 20
148.1951566687
 11
96.0877438435
 21
148.4138003876
  0
LINE
  5
23A
100
AcDbEntity
  8
KONSTRUKTIONSELEMENTE
100
AcDbLine
 62
7
  6
CONTINUOUS
 10
110.9294137801
 20
149.2855279713
 11
110.7748712349
 21
149.2332110769
  0
LINE
  5
23B
100
AcDbEntity
  8
KONSTRUKTIONSELEMENTE
100
AcDbLine
 62
7
  6
CONTINUOUS
 10
112.3557384845
 20
148.5781831191
 11
112.561278809
 21
148.6470629455
  0
LINE
  5
23C
100
AcDbEntity
  8
0
100
AcDbLine
 62
7
  6
CONTINUOUS
 10
106.1007445947
 20
117.2847849134
 11
99.1007445947
 21
117.2847849134
  0
LINE
  5
23D
100
AcDbEntity
  8
KONSTRUKTIONSELEMENTE
100
AcDbLine
 62
7
  6
CONTINUOUS
 10
91.4365978562
 20
145.9598026785
 11
91.4505008875
 21
146.1993793668
  0
LINE
  5
23E
100
AcDbEntity
  8
KONSTRUKTIONSELEMENTE
100
AcDbLine
 62
7
  6
CONTINUOUS
 10
93.7530719109
 20
147.1569057457
 11
93.7326217011
 21
146.9591526991
  0
LINE
  5
23F
100
AcDbEntity
  8
KONSTRUKTIONSELEMENTE
100
AcDbLine
 62
7
  6
CONTINUOUS
 10
94.0358129986
 20
146.7197188903
 11
94.0927175106
 21
146.9528545241
  0
LINE
  5
240
100
AcDbEntity
  8
KONSTRUKTIONSELEMENTE
100
AcDbLine
 62
7
  6
CONTINUOUS
 10
95.7915510898
 20
148.6769846313
 11
95.7349847863
 21
148.4863941493
  0
LINE
  5
241
100
AcDbEntity
  8
KONSTRUKTIONSELEMENTE
100
AcDbLine
 62
7
  6
CONTINUOUS
 10
110.8847501624
 20
148.9346880015
 11
111.1511225598
 21
149.0668284654
  0
LINE
  5
242
100
AcDbEntity
  8
KONSTRUKTIONSELEMENTE
100
AcDbLine
 62
7
  6
CONTINUOUS
 10
112.428174139
 20
148.9495362932
 11
112.1786776371
 21
148.8343739387
  0
LINE
  5
243
100
AcDbEntity
  8
KONSTRUKTIONSELEMENTE
100
AcDbLine
 62
7
  6
CONTINUOUS
 10
93.8681792911
 20
113.4117849134
 11
93.8681792911
 21
117.0826666065
  0
LINE
  5
244
100
AcDbEntity
  8
KONSTRUKTIONSELEMENTE
100
AcDbLine
 62
7
  6
CONTINUOUS
 10
112.1786776371
 20
148.8343739387
 11
111.922058675
 21
148.6379462601
  0
LINE
  5
245
100
AcDbEntity
  8
KONSTRUKTIONSELEMENTE
100
AcDbLine
 62
7
  6
CONTINUOUS
 10
112.1430759461
 20
148.4280382279
 11
112.3557384845
 21
148.5781831191
  0
LINE
  5
246
100
AcDbEntity
  8
KONSTRUKTIONSELEMENTE
100
AcDbLine
 62
7
  6
CONTINUOUS
 10
115.6371361521
 20
144.3817514172
 11
115.2104157569
 21
144.2398773288
  0
LINE
  5
247
100
AcDbEntity
  8
KONSTRUKTIONSELEMENTE
100
AcDbLine
 62
7
  6
CONTINUOUS
 10
115.3172717107
 20
144.0094363526
 11
115.6860850207
 21
144.1244588068
  0
LINE
  5
248
100
AcDbEntity
  8
KONSTRUKTIONSELEMENTE
100
AcDbLine
 62
7
  6
CONTINUOUS
 10
94.0927175106
 20
146.9528545241
 11
94.0607096199
 21
147.2775955571
  0
LINE
  5
249
100
AcDbEntity
  8
KONSTRUKTIONSELEMENTE
100
AcDbLine
 62
7
  6
CONTINUOUS
 10
96.0877438435
 20
148.4138003876
 11
96.1161687732
 21
148.7388744542
  0
LINE
  5
24A
100
AcDbEntity
  8
KONSTRUKTIONSELEMENTE
100
AcDbLine
 62
7
  6
CONTINUOUS
 10
111.0758031896
 20
149.4190160334
 11
110.9294137801
 21
149.2855279713
  0
LINE
  5
24B
100
AcDbEntity
  8
KONSTRUKTIONSELEMENTE
100
AcDbLine
 62
7
  6
CONTINUOUS
 10
111.1511225598
 20
149.0668284654
 11
111.2975119693
 21
149.2003165274
  0
LINE
  5
24C
100
AcDbEntity
  8
KONSTRUKTIONSELEMENTE
100
AcDbLine
 62
7
  6
CONTINUOUS
 10
112.2668839813
 20
146.1977443066
 11
112.4795448642
 21
146.3478908317
  0
LINE
  5
24D
100
AcDbEntity
  8
KONSTRUKTIONSELEMENTE
100
AcDbLine
 62
7
  6
CONTINUOUS
 10
112.3024838937
 20
146.6040815216
 11
112.1337793421
 21
146.5002176867
  0
LINE
  5
24E
100
AcDbEntity
  8
KONSTRUKTIONSELEMENTE
100
AcDbLine
 62
7
  6
CONTINUOUS
 10
115.2104157569
 20
144.2398773288
 11
114.8050661612
 21
144.051915889
  0
LINE
  5
24F
100
AcDbEntity
  8
KONSTRUKTIONSELEMENTE
100
AcDbLine
 62
7
  6
CONTINUOUS
 10
115.2014575405
 20
143.9557330841
 11
115.3172717107
 21
144.0094363526
  0
LINE
  5
250
100
AcDbEntity
  8
KONSTRUKTIONSELEMENTE
100
AcDbLine
 62
7
  6
CONTINUOUS
 10
114.5858503227
 20
143.6142777184
 11
114.759571578
 21
143.6948326212
  0
LINE
  5
251
100
AcDbEntity
  8
KONSTRUKTIONSELEMENTE
100
AcDbLine
 62
7
  6
CONTINUOUS
 10
91.1021308366
 20
146.2603861765
 11
91.147170472
 21
146.1035686415
  0
LINE
  5
252
100
AcDbEntity
  8
KONSTRUKTIONSELEMENTE
100
AcDbLine
 62
7
  6
CONTINUOUS
 10
95.7705163027
 20
148.8927369874
 11
95.7915510898
 21
148.6769846313
  0
LINE
  5
253
100
AcDbEntity
  8
KONSTRUKTIONSELEMENTE
100
AcDbLine
 62
7
  6
CONTINUOUS
 10
110.2355846656
 20
151.0229995632
 11
108.6112852815
 21
148.5007681085
  0
LINE
  5
254
100
AcDbEntity
  8
KONSTRUKTIONSELEMENTE
100
AcDbLine
 62
7
  6
CONTINUOUS
 10
108.8675536184
 20
148.3357330952
 11
109.5933044173
 21
149.462687591
  0
LINE
  5
255
100
AcDbEntity
  8
KONSTRUKTIONSELEMENTE
100
AcDbLine
 62
7
  6
CONTINUOUS
 10
109.8006617608
 20
149.7846745468
 11
110.3190552162
 21
150.5896420867
  0
LINE
  5
256
100
AcDbEntity
  8
KONSTRUKTIONSELEMENTE
100
AcDbLine
 62
7
  6
CONTINUOUS
 10
111.922058675
 20
148.6379462601
 11
111.2627141046
 21
147.9437063295
  0
LINE
  5
257
100
AcDbEntity
  8
KONSTRUKTIONSELEMENTE
100
AcDbLine
 62
7
  6
CONTINUOUS
 10
111.4837313758
 20
147.7337982973
 11
112.1430759461
 21
148.4280382279
  0
LINE
  5
258
100
AcDbEntity
  8
KONSTRUKTIONSELEMENTE
100
AcDbLine
 62
7
  6
CONTINUOUS
 10
112.5863462567
 20
147.5669008428
 11
112.3226084532
 21
147.2892048965
  0
LINE
  5
259
100
AcDbEntity
  8
KONSTRUKTIONSELEMENTE
100
AcDbLine
 62
7
  6
CONTINUOUS
 10
114.8050661612
 20
144.051915889
 11
114.4210872838
 21
143.8178670603
  0
LINE
  5
25A
100
AcDbEntity
  8
KONSTRUKTIONSELEMENTE
100
AcDbLine
 62
7
  6
CONTINUOUS
 10
115.2938493902
 20
142.54263196
 11
115.1201281349
 21
142.4620770572
  0
LINE
  5
25B
100
AcDbEntity
  8
KONSTRUKTIONSELEMENTE
100
AcDbLine
 62
7
  6
CONTINUOUS
 10
115.1690770035
 20
142.2047844468
 11
115.4586125101
 21
142.3390426557
  0
LINE
  5
25C
100
AcDbEntity
  8
KONSTRUKTIONSELEMENTE
100
AcDbLine
 62
7
  6
CONTINUOUS
 10
91.4505008875
 20
146.1993793668
 11
91.3309501989
 21
146.4716347417
  0
LINE
  5
25D
100
AcDbEntity
  8
KONSTRUKTIONSELEMENTE
100
AcDbLine
 62
7
  6
CONTINUOUS
 10
93.6926116697
 20
147.3650788505
 11
93.7530719109
 21
147.1569057457
  0
LINE
  5
25E
100
AcDbEntity
  8
0
100
AcDbLine
 62
7
  6
CONTINUOUS
 10
99.1007445947
 20
113.4117849134
 11
99.1007445947
 21
106.4784227538
  0
LINE
  5
25F
100
AcDbEntity
  8
KONSTRUKTIONSELEMENTE
100
AcDbLine
 62
7
  6
CONTINUOUS
 10
99.1007445947
 20
113.4117849134
 11
99.1007445947
 21
121.3847849134
  0
LINE
  5
260
100
AcDbEntity
  8
KONSTRUKTIONSELEMENTE
100
AcDbLine
 62
7
  6
CONTINUOUS
 10
111.1794819582
 20
149.5800096617
 11
111.0758031896
 21
149.4190160334
  0
LINE
  5
261
100
AcDbEntity
  8
KONSTRUKTIONSELEMENTE
100
AcDbLine
 62
7
  6
CONTINUOUS
 10
111.2975119693
 20
149.2003165274
 11
111.4357502951
 21
149.4149746483
  0
LINE
  5
262
100
AcDbEntity
  8
KONSTRUKTIONSELEMENTE
100
AcDbLine
 62
7
  6
CONTINUOUS
 10
111.2627141046
 20
147.9437063295
 11
111.0797699377
 21
147.6773073012
  0
LINE
  5
263
100
AcDbEntity
  8
KONSTRUKTIONSELEMENTE
100
AcDbLine
 62
7
  6
CONTINUOUS
 10
112.6541343599
 20
146.9743428482
 11
112.3024838937
 21
146.6040815216
  0
LINE
  5
264
100
AcDbEntity
  8
KONSTRUKTIONSELEMENTE
100
AcDbLine
 62
7
  6
CONTINUOUS
 10
112.4795448642
 20
146.3478908317
 11
113.1388894346
 21
147.0421307623
  0
LINE
  5
265
100
AcDbEntity
  8
KONSTRUKTIONSELEMENTE
100
AcDbLine
 62
7
  6
CONTINUOUS
 10
114.4334998668
 20
143.4876354643
 11
114.5858503227
 21
143.6142777184
  0
LINE
  5
266
100
AcDbEntity
  8
KONSTRUKTIONSELEMENTE
100
AcDbLine
 62
7
  6
CONTINUOUS
 10
96.1161687732
 20
148.7388744542
 11
96.0598864611
 21
149.0078420191
  0
LINE
  5
267
100
AcDbEntity
  8
KONSTRUKTIONSELEMENTE
100
AcDbLine
 62
7
  6
CONTINUOUS
 10
111.3447435094
 20
147.5136819267
 11
111.4837313758
 21
147.7337982973
  0
LINE
  5
268
100
AcDbEntity
  8
KONSTRUKTIONSELEMENTE
100
AcDbLine
 62
7
  6
CONTINUOUS
 10
113.5344961399
 20
147.4586746818
 11
113.7174421162
 21
147.7250722383
  0
LINE
  5
269
100
AcDbEntity
  8
KONSTRUKTIONSELEMENTE
100
AcDbLine
 62
7
  6
CONTINUOUS
 10
114.4210872838
 20
143.8178670603
 11
114.1742943949
 21
143.5914320578
  0
LINE
  5
26A
100
AcDbEntity
  8
KONSTRUKTIONSELEMENTE
100
AcDbLine
 62
7
  6
CONTINUOUS
 10
115.4461999271
 20
142.6692742517
 11
115.2938493902
 21
142.54263196
  0
LINE
  5
26B
100
AcDbEntity
  8
KONSTRUKTIONSELEMENTE
100
AcDbLine
 62
7
  6
CONTINUOUS
 10
116.458197627
 20
142.9145489598
 11
116.6105480829
 21
143.0411912139
  0
LINE
  5
26C
100
AcDbEntity
  8
KONSTRUKTIONSELEMENTE
100
AcDbLine
 62
7
  6
CONTINUOUS
 10
94.0607096199
 20
147.2775955571
 11
93.9557931483
 21
147.5315713916
  0
LINE
  5
26D
100
AcDbEntity
  8
KONSTRUKTIONSELEMENTE
100
AcDbLine
 62
7
  6
CONTINUOUS
 10
111.0797699377
 20
147.6773073012
 11
110.9776160041
 21
147.4222083615
  0
LINE
  5
26E
100
AcDbEntity
  8
KONSTRUKTIONSELEMENTE
100
AcDbLine
 62
7
  6
CONTINUOUS
 10
113.4085122438
 20
147.842414955
 11
113.3134788687
 21
147.668582714
  0
LINE
  5
26F
100
AcDbEntity
  8
KONSTRUKTIONSELEMENTE
100
AcDbLine
 62
7
  6
CONTINUOUS
 10
114.3025211481
 20
143.3149037304
 11
114.4334998668
 21
143.4876354643
  0
LINE
  5
270
100
AcDbEntity
  8
KONSTRUKTIONSELEMENTE
100
AcDbLine
 62
7
  6
CONTINUOUS
 10
115.4586125101
 20
142.3390426557
 11
115.7054053585
 21
142.5654776393
  0
LINE
  5
271
100
AcDbEntity
  8
KONSTRUKTIONSELEMENTE
100
AcDbLine
 62
7
  6
CONTINUOUS
 10
90.9756285902
 20
146.412853148
 11
91.1021308366
 21
146.2603861765
  0
LINE
  5
272
100
AcDbEntity
  8
KONSTRUKTIONSELEMENTE
100
AcDbLine
 62
7
  6
CONTINUOUS
 10
91.3309501989
 20
146.4716347417
 11
91.2044479525
 21
146.6241017133
  0
LINE
  5
273
100
AcDbEntity
  8
KONSTRUKTIONSELEMENTE
100
AcDbLine
 62
7
  6
CONTINUOUS
 10
93.9557931483
 20
147.5315713916
 11
93.7699664342
 21
147.7959674868
  0
LINE
  5
274
100
AcDbEntity
  8
KONSTRUKTIONSELEMENTE
100
AcDbLine
 62
7
  6
CONTINUOUS
 10
93.551241155
 20
147.5836722481
 11
93.6926116697
 21
147.3650788505
  0
LINE
  5
275
100
AcDbEntity
  8
KONSTRUKTIONSELEMENTE
100
AcDbLine
 62
7
  6
CONTINUOUS
 10
96.0598864611
 20
149.0078420191
 11
95.9260025738
 21
149.301971137
  0
LINE
  5
276
100
AcDbEntity
  8
KONSTRUKTIONSELEMENTE
100
AcDbLine
 62
7
  6
CONTINUOUS
 10
95.6718799159
 20
149.1336509337
 11
95.7705163027
 21
148.8927369874
  0
LINE
  5
277
100
AcDbEntity
  8
0
100
AcDbLine
 62
7
  6
CONTINUOUS
 10
106.1007445947
 20
106.4784227538
 11
106.1007445947
 21
113.4117849134
  0
LINE
  5
278
100
AcDbEntity
  8
KONSTRUKTIONSELEMENTE
100
AcDbLine
 62
7
  6
CONTINUOUS
 10
106.1007445947
 20
113.4117849134
 11
106.1007445947
 21
121.3847849134
  0
LINE
  5
279
100
AcDbEntity
  8
KONSTRUKTIONSELEMENTE
100
AcDbLine
 62
7
  6
CONTINUOUS
 10
110.2343187336
 20
147.4555459377
 11
110.6447861417
 21
148.9373819387
  0
LINE
  5
27A
100
AcDbEntity
  8
KONSTRUKTIONSELEMENTE
100
AcDbLine
 62
7
  6
CONTINUOUS
 10
111.2865459072
 20
147.3048656772
 11
111.3447435094
 21
147.5136819267
  0
LINE
  5
27B
100
AcDbEntity
  8
KONSTRUKTIONSELEMENTE
100
AcDbLine
 62
7
  6
CONTINUOUS
 10
110.3193986903
 20
148.9950879668
 11
109.9353377038
 21
147.648087626
  0
LINE
  5
27C
100
AcDbEntity
  8
KONSTRUKTIONSELEMENTE
100
AcDbLine
 62
7
  6
CONTINUOUS
 10
111.2404498921
 20
149.7685085554
 11
111.1794819582
 21
149.5800096617
  0
LINE
  5
27D
100
AcDbEntity
  8
KONSTRUKTIONSELEMENTE
100
AcDbLine
 62
7
  6
CONTINUOUS
 10
111.4357502951
 20
149.4149746483
 11
111.496718229
 21
149.6034735421
  0
LINE
  5
27E
100
AcDbEntity
  8
KONSTRUKTIONSELEMENTE
100
AcDbLine
 62
7
  6
CONTINUOUS
 10
114.1742943949
 20
143.5914320578
 11
114.0067794108
 21
143.3457613477
  0
LINE
  5
27F
100
AcDbEntity
  8
KONSTRUKTIONSELEMENTE
100
AcDbLine
 62
7
  6
CONTINUOUS
 10
116.4823213297
 20
143.3177195414
 11
116.3513426516
 21
143.1449878262
  0
LINE
  5
280
100
AcDbEntity
  8
KONSTRUKTIONSELEMENTE
100
AcDbLine
 62
7
  6
CONTINUOUS
 10
89.3341395599
 20
145.6484930335
 11
91.7777259353
 21
143.9081236399
  0
LINE
  5
281
100
AcDbEntity
  8
KONSTRUKTIONSELEMENTE
100
AcDbLine
 62
7
  6
CONTINUOUS
 10
91.9545541044
 20
144.1564013368
 11
90.8627388999
 21
144.9340132045
  0
LINE
  5
282
100
AcDbEntity
  8
KONSTRUKTIONSELEMENTE
100
AcDbLine
 62
7
  6
CONTINUOUS
 10
90.5507917402
 20
145.1561879942
 11
89.7709236954
 21
145.7116250723
  0
LINE
  5
283
100
AcDbEntity
  8
KONSTRUKTIONSELEMENTE
100
AcDbLine
 62
7
  6
CONTINUOUS
 10
91.079472288
 20
147.9420797711
 11
92.4576146547
 21
146.5221959535
  0
LINE
  5
284
100
AcDbEntity
  8
KONSTRUKTIONSELEMENTE
100
AcDbLine
 62
7
  6
CONTINUOUS
 10
92.6763400382
 20
146.7344912934
 11
91.2981976715
 21
148.154375111
  0
LINE
  5
285
100
AcDbEntity
  8
KONSTRUKTIONSELEMENTE
100
AcDbLine
 62
7
  6
CONTINUOUS
 10
93.1391790214
 20
149.8295070967
 11
94.7958117382
 21
147.3283937363
  0
LINE
  5
286
100
AcDbEntity
  8
KONSTRUKTIONSELEMENTE
100
AcDbLine
 62
7
  6
CONTINUOUS
 10
94.8384493691
 20
147.8160050061
 11
93.6047866819
 21
149.6785362707
  0
LINE
  5
287
100
AcDbEntity
  8
KONSTRUKTIONSELEMENTE
100
AcDbLine
 62
7
  6
CONTINUOUS
 10
95.1431673603
 20
149.9318785813
 11
95.6718799159
 21
149.1336509337
  0
LINE
  5
288
100
AcDbEntity
  8
KONSTRUKTIONSELEMENTE
100
AcDbLine
 62
7
  6
CONTINUOUS
 10
95.9260025738
 20
149.301971137
 11
95.3972900183
 21
150.1001987846
  0
LINE
  5
289
100
AcDbEntity
  8
KONSTRUKTIONSELEMENTE
100
AcDbLine
 62
7
  6
CONTINUOUS
 10
115.5192715202
 20
142.8151543326
 11
115.4461999271
 21
142.6692742517
  0
LINE
  5
28A
100
AcDbEntity
  8
KONSTRUKTIONSELEMENTE
100
AcDbLine
 62
7
  6
CONTINUOUS
 10
115.7054053585
 20
142.5654776393
 11
115.8150132372
 21
142.7842967058
  0
LINE
  5
28B
100
AcDbEntity
  8
KONSTRUKTIONSELEMENTE
100
AcDbLine
 62
7
  6
CONTINUOUS
 10
116.6105480829
 20
143.0411912139
 11
116.7780630467
 21
143.2868619147
  0
LINE
  5
28C
100
AcDbEntity
  8
KONSTRUKTIONSELEMENTE
100
AcDbLine
 62
7
  6
CONTINUOUS
 10
90.8196548647
 20
146.5239406466
 11
90.9756285902
 21
146.412853148
  0
LINE
  5
28D
100
AcDbEntity
  8
KONSTRUKTIONSELEMENTE
100
AcDbLine
 62
7
  6
CONTINUOUS
 10
91.2044479525
 20
146.6241017133
 11
90.9964830338
 21
146.7722183435
  0
LINE
  5
28E
100
AcDbEntity
  8
KONSTRUKTIONSELEMENTE
100
AcDbLine
 62
7
  6
CONTINUOUS
 10
92.4576146547
 20
146.5221959535
 11
92.7163499342
 21
146.3285650729
  0
LINE
  5
28F
100
AcDbEntity
  8
KONSTRUKTIONSELEMENTE
100
AcDbLine
 62
7
  6
CONTINUOUS
 10
92.1730987883
 20
149.0035560657
 11
93.551241155
 21
147.5836722481
  0
LINE
  5
290
100
AcDbEntity
  8
KONSTRUKTIONSELEMENTE
100
AcDbLine
 62
7
  6
CONTINUOUS
 10
93.7699664342
 20
147.7959674868
 11
92.3918240675
 21
149.2158513044
  0
LINE
  5
291
100
AcDbEntity
  8
KONSTRUKTIONSELEMENTE
100
AcDbLine
 62
7
  6
CONTINUOUS
 10
111.3333098982
 20
113.4117849134
 11
111.3333098982
 21
117.0826666065
  0
LINE
  5
292
100
AcDbEntity
  8
KONSTRUKTIONSELEMENTE
100
AcDbLine
 62
7
  6
CONTINUOUS
 10
111.496718229
 20
149.6034735421
 11
111.5068222895
 21
149.9006490193
  0
LINE
  5
293
100
AcDbEntity
  8
KONSTRUKTIONSELEMENTE
100
AcDbLine
 62
7
  6
CONTINUOUS
 10
110.9776160041
 20
147.4222083615
 11
110.949136758
 21
147.0971379586
  0
LINE
  5
294
100
AcDbEntity
  8
KONSTRUKTIONSELEMENTE
100
AcDbLine
 62
7
  6
CONTINUOUS
 10
114.0067794108
 20
143.3457613477
 11
113.9399140941
 21
143.0347654618
  0
LINE
  5
295
100
AcDbEntity
  8
KONSTRUKTIONSELEMENTE
100
AcDbLine
 62
7
  6
CONTINUOUS
 10
114.2508203545
 20
143.1229362981
 11
114.3025211481
 21
143.3149037304
  0
LINE
  5
296
100
AcDbEntity
  8
KONSTRUKTIONSELEMENTE
100
AcDbLine
 62
7
  6
CONTINUOUS
 10
92.8906189098
 20
146.5866629079
 11
92.6763400382
 21
146.7344912934
  0
LINE
  5
297
100
AcDbEntity
  8
KONSTRUKTIONSELEMENTE
100
AcDbLine
 62
7
  6
CONTINUOUS
 10
94.9598237439
 20
150.1166860072
 11
95.1431673603
 21
149.9318785813
  0
LINE
  5
298
100
AcDbEntity
  8
KONSTRUKTIONSELEMENTE
100
AcDbLine
 62
7
  6
CONTINUOUS
 10
95.3972900183
 20
150.1001987846
 11
95.1786988027
 21
150.3382215311
  0
LINE
  5
299
100
AcDbEntity
  8
KONSTRUKTIONSELEMENTE
100
AcDbLine
 62
7
  6
CONTINUOUS
 10
111.2241455759
 20
149.9308496315
 11
111.2404498921
 21
149.7685085554
  0
LINE
  5
29A
100
AcDbEntity
  8
KONSTRUKTIONSELEMENTE
100
AcDbLine
 62
7
  6
CONTINUOUS
 10
113.7174421162
 20
147.7250722383
 11
113.7459230332
 21
148.0501410235
  0
LINE
  5
29B
100
AcDbEntity
  8
KONSTRUKTIONSELEMENTE
100
AcDbLine
 62
7
  6
CONTINUOUS
 10
115.8150132372
 20
142.7842967058
 11
115.881879517
 21
143.095290475
  0
LINE
  5
29C
100
AcDbEntity
  8
KONSTRUKTIONSELEMENTE
100
AcDbLine
 62
7
  6
CONTINUOUS
 10
115.5709723138
 20
143.0071217648
 11
115.5192715202
 21
142.8151543326
  0
LINE
  5
29D
100
AcDbEntity
  8
KONSTRUKTIONSELEMENTE
100
AcDbLine
 62
7
  6
CONTINUOUS
 10
116.5340221233
 20
143.5096869736
 11
116.4823213297
 21
143.3177195414
  0
LINE
  5
29E
100
AcDbEntity
  8
KONSTRUKTIONSELEMENTE
100
AcDbLine
 62
7
  6
CONTINUOUS
 10
115.1201281349
 20
142.4620770572
 11
114.9250360801
 21
142.4276095058
  0
LINE
  5
29F
100
AcDbEntity
  8
KONSTRUKTIONSELEMENTE
100
AcDbLine
 62
7
  6
CONTINUOUS
 10
114.759571578
 20
143.6948326212
 11
114.9546637138
 21
143.7293002102
  0
LINE
  5
2A0
100
AcDbEntity
  8
KONSTRUKTIONSELEMENTE
100
AcDbLine
 62
7
  6
CONTINUOUS
 10
115.6860850207
 20
144.1244588068
 11
115.8811772377
 21
144.1589264334
  0
LINE
  5
2A1
100
AcDbEntity
  8
KONSTRUKTIONSELEMENTE
100
AcDbLine
 62
7
  6
CONTINUOUS
 10
114.8367989603
 20
142.1627030692
 11
115.1690770035
 21
142.2047844468
  0
LINE
  5
2A2
100
AcDbEntity
  8
KONSTRUKTIONSELEMENTE
100
AcDbLine
 62
7
  6
CONTINUOUS
 10
92.8976377008
 20
145.4805490928
 11
91.4365978562
 21
145.9598026785
  0
LINE
  5
2A3
100
AcDbEntity
  8
KONSTRUKTIONSELEMENTE
100
AcDbLine
 62
7
  6
CONTINUOUS
 10
91.3637520315
 20
145.6374666592
 11
92.691338114
 21
145.1908917009
  0
LINE
  5
2A4
100
AcDbEntity
  8
KONSTRUKTIONSELEMENTE
100
AcDbLine
 62
7
  6
CONTINUOUS
 10
90.6342099515
 20
146.5936484648
 11
90.8196548647
 21
146.5239406466
  0
LINE
  5
2A5
100
AcDbEntity
  8
KONSTRUKTIONSELEMENTE
100
AcDbLine
 62
7
  6
CONTINUOUS
 10
90.9964830338
 20
146.7722183435
 11
90.8110381205
 21
146.8419261616
  0
LINE
  5
2A6
100
AcDbEntity
  8
KONSTRUKTIONSELEMENTE
100
AcDbLine
 62
7
  6
CONTINUOUS
 10
92.7163499342
 20
146.3285650729
 11
92.9670832239
 21
146.2161193637
  0
LINE
  5
2A7
100
AcDbEntity
  8
KONSTRUKTIONSELEMENTE
100
AcDbLine
 62
7
  6
CONTINUOUS
 10
111.3091419109
 20
147.1073463132
 11
111.2865459072
 21
147.3048656772
  0
LINE
  5
2A8
100
AcDbEntity
  8
KONSTRUKTIONSELEMENTE
100
AcDbLine
 62
7
  6
CONTINUOUS
 10
114.257026646
 20
142.9578205002
 11
114.2508203545
 21
143.1229362981
  0
LINE
  5
2A9
100
AcDbEntity
  8
KONSTRUKTIONSELEMENTE
100
AcDbLine
 62
7
  6
CONTINUOUS
 10
116.7780630467
 20
143.2868619147
 11
116.8449283483
 21
143.5978577935
  0
LINE
  5
2AA
100
AcDbEntity
  8
KONSTRUKTIONSELEMENTE
100
AcDbLine
 62
7
  6
CONTINUOUS
 10
115.969414317
 20
144.4238328513
 11
115.6371361521
 21
144.3817514172
  0
LINE
  5
2AB
100
AcDbEntity
  8
KONSTRUKTIONSELEMENTE
100
AcDbLine
 62
7
  6
CONTINUOUS
 10
114.9250360801
 20
142.4276095058
 11
114.7085722071
 21
142.4392313966
  0
LINE
  5
2AC
100
AcDbEntity
  8
KONSTRUKTIONSELEMENTE
100
AcDbLine
 62
7
  6
CONTINUOUS
 10
114.541057223
 20
142.1935606865
 11
114.8367989603
 21
142.1627030692
  0
LINE
  5
2AD
100
AcDbEntity
  8
KONSTRUKTIONSELEMENTE
100
AcDbLine
 62
7
  6
CONTINUOUS
 10
93.0968960733
 20
146.5200200297
 11
92.8906189098
 21
146.5866629079
  0
LINE
  5
2AE
100
AcDbEntity
  8
KONSTRUKTIONSELEMENTE
100
AcDbLine
 62
7
  6
CONTINUOUS
 10
94.7693734297
 20
150.2202248295
 11
94.9598237439
 21
150.1166860072
  0
LINE
  5
2AF
100
AcDbEntity
  8
KONSTRUKTIONSELEMENTE
100
AcDbLine
 62
7
  6
CONTINUOUS
 10
95.1786988027
 20
150.3382215311
 11
94.9530010869
 21
150.4949753759
  0
LINE
  5
2B0
100
AcDbEntity
  8
KONSTRUKTIONSELEMENTE
100
AcDbLine
 62
7
  6
CONTINUOUS
 10
110.949136758
 20
147.0971379586
 11
111.0085684306
 21
146.8646344767
  0
LINE
  5
2B1
100
AcDbEntity
  8
KONSTRUKTIONSELEMENTE
100
AcDbLine
 62
7
  6
CONTINUOUS
 10
113.3859162094
 20
148.0399342866
 11
113.4085122438
 21
147.842414955
  0
LINE
  5
2B2
100
AcDbEntity
  8
KONSTRUKTIONSELEMENTE
100
AcDbLine
 62
7
  6
CONTINUOUS
 10
115.5647660223
 20
143.1722375628
 11
115.5709723138
 21
143.0071217648
  0
LINE
  5
2B3
100
AcDbEntity
  8
KONSTRUKTIONSELEMENTE
100
AcDbLine
 62
7
  6
CONTINUOUS
 10
116.5278158318
 20
143.6748027716
 11
116.5340221233
 21
143.5096869736
  0
LINE
  5
2B4
100
AcDbEntity
  8
KONSTRUKTIONSELEMENTE
100
AcDbLine
 62
7
  6
CONTINUOUS
 10
111.9437144782
 20
146.1525518138
 11
112.2668839813
 21
146.1977443066
  0
LINE
  5
2B5
100
AcDbEntity
  8
KONSTRUKTIONSELEMENTE
100
AcDbLine
 62
7
  6
CONTINUOUS
 10
115.8811772377
 20
144.1589264334
 11
116.0976410702
 21
144.1473045238
  0
LINE
  5
2B6
100
AcDbEntity
  8
KONSTRUKTIONSELEMENTE
100
AcDbLine
 62
7
  6
CONTINUOUS
 10
90.8110381205
 20
146.8419261616
 11
90.5146592629
 21
146.8659038397
  0
LINE
  5
2B7
100
AcDbEntity
  8
KONSTRUKTIONSELEMENTE
100
AcDbLine
 62
7
  6
CONTINUOUS
 10
116.265156034
 20
144.3929752245
 11
115.969414317
 21
144.4238328513
  0
LINE
  5
2B8
100
AcDbEntity
  8
KONSTRUKTIONSELEMENTE
100
AcDbLine
 62
7
  6
CONTINUOUS
 10
92.9670832239
 20
146.2161193637
 11
93.2907247506
 21
146.1744385815
  0
LINE
  5
2B9
100
AcDbEntity
  8
KONSTRUKTIONSELEMENTE
100
AcDbLine
 62
7
  6
CONTINUOUS
 10
114.9546637138
 20
143.7293002102
 11
115.1132204612
 21
143.6908266663
  0
LINE
  5
2BA
100
AcDbEntity
  8
KONSTRUKTIONSELEMENTE
100
AcDbLine
 62
7
  6
CONTINUOUS
 10
113.7459230332
 20
148.0501410235
 11
113.6864896627
 21
148.2826460947
  0
LINE
  5
2BB
100
AcDbEntity
  8
KONSTRUKTIONSELEMENTE
100
AcDbLine
 62
7
  6
CONTINUOUS
 10
111.5068222895
 20
149.9006490193
 11
111.4396560551
 21
150.1716654198
  0
LINE
  5
2BC
100
AcDbEntity
  8
KONSTRUKTIONSELEMENTE
100
AcDbLine
 62
7
  6
CONTINUOUS
 10
113.9399140941
 20
143.0347654618
 11
113.9888619793
 21
142.7774749588
  0
LINE
  5
2BD
100
AcDbEntity
  8
KONSTRUKTIONSELEMENTE
100
AcDbLine
 62
7
  6
CONTINUOUS
 10
93.2907247506
 20
146.1744385815
 11
93.5254540833
 21
146.2243634009
  0
LINE
  5
2BE
100
AcDbEntity
  8
KONSTRUKTIONSELEMENTE
100
AcDbLine
 62
7
  6
CONTINUOUS
 10
112.7513453129
 20
148.9947271683
 11
112.428174139
 21
148.9495362932
  0
LINE
  5
2BF
100
AcDbEntity
  8
KONSTRUKTIONSELEMENTE
100
AcDbLine
 62
7
  6
CONTINUOUS
 10
93.2951711427
 20
146.5345622217
 11
93.0968960733
 21
146.5200200297
  0
LINE
  5
2C0
100
AcDbEntity
  8
KONSTRUKTIONSELEMENTE
100
AcDbLine
 62
7
  6
CONTINUOUS
 10
90.4712848138
 20
146.5849474563
 11
90.6342099515
 21
146.5936484648
  0
LINE
  5
2C1
100
AcDbEntity
  8
KONSTRUKTIONSELEMENTE
100
AcDbLine
 62
7
  6
CONTINUOUS
 10
112.1337793421
 20
146.5002176867
 11
111.9353580746
 21
146.5126063549
  0
LINE
  5
2C2
100
AcDbEntity
  8
KONSTRUKTIONSELEMENTE
100
AcDbLine
 62
7
  6
CONTINUOUS
 10
111.7084558939
 20
146.199926242
 11
111.9437144782
 21
146.1525518138
  0
LINE
  5
2C3
100
AcDbEntity
  8
KONSTRUKTIONSELEMENTE
100
AcDbLine
 62
7
  6
CONTINUOUS
 10
94.9530010869
 20
150.4949753759
 11
94.6425961415
 21
150.5956227002
  0
LINE
  5
2C4
100
AcDbEntity
  8
KONSTRUKTIONSELEMENTE
100
AcDbLine
 62
7
  6
CONTINUOUS
 10
114.7085722071
 20
142.4392313966
 11
114.5286446603
 21
142.5237922919
  0
LINE
  5
2C5
100
AcDbEntity
  8
KONSTRUKTIONSELEMENTE
100
AcDbLine
 62
7
  6
CONTINUOUS
 10
115.1132204612
 20
143.6908266663
 11
115.293148008
 21
143.6062657711
  0
LINE
  5
2C6
100
AcDbEntity
  8
KONSTRUKTIONSELEMENTE
100
AcDbLine
 62
7
  6
CONTINUOUS
 10
115.5613126341
 20
143.7866112937
 11
115.2014575405
 21
143.9557330841
  0
LINE
  5
2C7
100
AcDbEntity
  8
KONSTRUKTIONSELEMENTE
100
AcDbLine
 62
7
  6
CONTINUOUS
 10
114.260480977
 20
142.3434446431
 11
114.541057223
 21
142.1935606865
  0
LINE
  5
2C8
100
AcDbEntity
  8
KONSTRUKTIONSELEMENTE
100
AcDbLine
 62
7
  6
CONTINUOUS
 10
114.5286446603
 20
142.5237922919
 11
114.4066241986
 21
142.6352048214
  0
LINE
  5
2C9
100
AcDbEntity
  8
KONSTRUKTIONSELEMENTE
100
AcDbLine
 62
7
  6
CONTINUOUS
 10
111.1487937476
 20
146.643427921
 11
111.4803196543
 21
146.3285658727
  0
LINE
  5
2CA
100
AcDbEntity
  8
KONSTRUKTIONSELEMENTE
100
AcDbLine
 62
7
  6
CONTINUOUS
 10
114.0957179331
 20
142.5470339826
 11
114.260480977
 21
142.3434446431
  0
LINE
  5
2CB
100
AcDbEntity
  8
KONSTRUKTIONSELEMENTE
100
AcDbLine
 62
7
  6
CONTINUOUS
 10
111.0085684306
 20
146.8646344767
 11
111.1487937476
 21
146.643427921
  0
LINE
  5
2CC
100
AcDbEntity
  8
KONSTRUKTIONSELEMENTE
100
AcDbLine
 62
7
  6
CONTINUOUS
 10
111.4125315819
 20
146.9211238997
 11
111.3091419109
 21
147.1073463132
  0
LINE
  5
2CD
100
AcDbEntity
  8
KONSTRUKTIONSELEMENTE
100
AcDbLine
 62
7
  6
CONTINUOUS
 10
113.9888619793
 20
142.7774749588
 11
114.0957179331
 21
142.5470339826
  0
LINE
  5
2CE
100
AcDbEntity
  8
KONSTRUKTIONSELEMENTE
100
AcDbLine
 62
7
  6
CONTINUOUS
 10
114.4066241986
 20
142.6352048214
 11
114.257026646
 21
142.9578205002
  0
LINE
  5
2CF
100
AcDbEntity
  8
KONSTRUKTIONSELEMENTE
100
AcDbLine
 62
7
  6
CONTINUOUS
 10
115.4151684697
 20
143.4948532416
 11
115.5647660223
 21
143.1722375628
  0
LINE
  5
2D0
100
AcDbEntity
  8
KONSTRUKTIONSELEMENTE
100
AcDbLine
 62
7
  6
CONTINUOUS
 10
115.8329306484
 20
143.3525830854
 11
115.7260746946
 21
143.5830240615
  0
LINE
  5
2D1
100
AcDbEntity
  8
KONSTRUKTIONSELEMENTE
100
AcDbLine
 62
7
  6
CONTINUOUS
 10
115.881879517
 20
143.095290475
 11
115.8329306484
 21
143.3525830854
  0
LINE
  5
2D2
100
AcDbEntity
  8
KONSTRUKTIONSELEMENTE
100
AcDbLine
 62
7
  6
CONTINUOUS
 10
116.8449283483
 20
143.5978577935
 11
116.7959804579
 21
143.8551482942
  0
LINE
  5
2D3
100
AcDbEntity
  8
0
100
AcDbLine
 62
7
  6
CONTINUOUS
 10
121.1007445947
 20
131.3737705331
 11
121.1007445947
 21
143.3957992937
  0
LINE
  5
2D4
100
AcDbEntity
  8
RUNDUNGEN
100
AcDbLine
 62
7
  6
CONTINUOUS
 10
118.4515140897
 20
119.8986925156
 11
121.1007445947
 21
131.3737705331
  0
LINE
  5
2D5
100
AcDbEntity
  8
KONSTRUKTIONSELEMENTE
100
AcDbLine
 62
7
  6
CONTINUOUS
 10
90.5146592629
 20
146.8659038397
 11
90.2408002651
 21
146.8114728094
  0
LINE
  5
2D6
100
AcDbEntity
  8
KONSTRUKTIONSELEMENTE
100
AcDbLine
 62
7
  6
CONTINUOUS
 10
110.6447861417
 20
148.9373819387
 11
110.8847501624
 21
148.9346880015
  0
LINE
  5
2D7
100
AcDbEntity
  8
KONSTRUKTIONSELEMENTE
100
AcDbLine
 62
7
  6
CONTINUOUS
 10
112.561278809
 20
148.6470629455
 11
112.7597000457
 21
148.6346742449
  0
LINE
  5
2D8
100
AcDbEntity
  8
KONSTRUKTIONSELEMENTE
100
AcDbLine
 62
7
  6
CONTINUOUS
 10
94.5718170999
 20
150.2424950709
 11
94.7693734297
 21
150.2202248295
  0
LINE
  5
2D9
100
AcDbEntity
  8
KONSTRUKTIONSELEMENTE
100
AcDbLine
 62
7
  6
CONTINUOUS
 10
110.7748712349
 20
149.2332110769
 11
110.6121775093
 21
149.2620640909
  0
LINE
  5
2DA
100
AcDbEntity
  8
KONSTRUKTIONSELEMENTE
100
AcDbLine
 62
7
  6
CONTINUOUS
 10
116.0976410702
 20
144.1473045238
 11
116.2775686169
 21
144.0627436286
  0
LINE
  5
2DB
100
AcDbEntity
  8
KONSTRUKTIONSELEMENTE
100
AcDbLine
 62
7
  6
CONTINUOUS
 10
111.9353580746
 20
146.5126063549
 11
111.7440574886
 21
146.6062618515
  0
LINE
  5
2DC
100
AcDbEntity
  8
KONSTRUKTIONSELEMENTE
100
AcDbLine
 62
7
  6
CONTINUOUS
 10
116.545733243
 20
144.2430891511
 11
116.265156034
 21
144.3929752245
  0
LINE
  5
2DD
100
AcDbEntity
  8
KONSTRUKTIONSELEMENTE
100
AcDbLine
 62
7
  6
CONTINUOUS
 10
111.4803196543
 20
146.3285658727
 11
111.7084558939
 21
146.199926242
  0
LINE
  5
2DE
100
AcDbEntity
  8
KONSTRUKTIONSELEMENTE
100
AcDbLine
 62
7
  6
CONTINUOUS
 10
108.6112852815
 20
148.5007681085
 11
108.8675536184
 21
148.3357330952
  0
LINE
  5
2DF
100
AcDbEntity
  8
KONSTRUKTIONSELEMENTE
100
AcDbLine
 62
7
  6
CONTINUOUS
 10
109.9353377038
 20
147.648087626
 11
110.2343187336
 21
147.4555459377
  0
LINE
  5
2E0
100
AcDbEntity
  8
KONSTRUKTIONSELEMENTE
100
AcDbLine
 62
7
  6
CONTINUOUS
 10
109.5933044173
 20
149.462687591
 11
110.3193986903
 21
148.9950879668
  0
LINE
  5
2E1
100
AcDbEntity
  8
KONSTRUKTIONSELEMENTE
100
AcDbLine
 62
7
  6
CONTINUOUS
 10
115.293148008
 20
143.6062657711
 11
115.4151684697
 21
143.4948532416
  0
LINE
  5
2E2
100
AcDbEntity
  8
KONSTRUKTIONSELEMENTE
100
AcDbLine
 62
7
  6
CONTINUOUS
 10
116.2775686169
 20
144.0627436286
 11
116.3995890786
 21
143.9513310991
  0
LINE
  5
2E3
100
AcDbEntity
  8
KONSTRUKTIONSELEMENTE
100
AcDbLine
 62
7
  6
CONTINUOUS
 10
111.7440574886
 20
146.6062618515
 11
111.4125315819
 21
146.9211238997
  0
LINE
  5
2E4
100
AcDbEntity
  8
KONSTRUKTIONSELEMENTE
100
AcDbLine
 62
7
  6
CONTINUOUS
 10
112.3226084532
 20
147.2892048965
 11
112.6541343599
 21
146.9743428482
  0
LINE
  5
2E5
100
AcDbEntity
  8
KONSTRUKTIONSELEMENTE
100
AcDbLine
 62
7
  6
CONTINUOUS
 10
113.1388894346
 20
147.0421307623
 11
112.5863462567
 21
147.5669008428
  0
LINE
  5
2E6
100
AcDbEntity
  8
KONSTRUKTIONSELEMENTE
100
AcDbLine
 62
7
  6
CONTINUOUS
 10
113.3134788687
 20
147.668582714
 11
113.5344961399
 21
147.4586746818
  0
LINE
  5
2E7
100
AcDbEntity
  8
KONSTRUKTIONSELEMENTE
100
AcDbLine
 62
7
  6
CONTINUOUS
 10
115.7260746946
 20
143.5830240615
 11
115.5613126341
 21
143.7866112937
  0
LINE
  5
2E8
100
AcDbEntity
  8
KONSTRUKTIONSELEMENTE
100
AcDbLine
 62
7
  6
CONTINUOUS
 10
116.7104953036
 20
144.039501919
 11
116.545733243
 21
144.2430891511
  0
LINE
  5
2E9
100
AcDbEntity
  8
KONSTRUKTIONSELEMENTE
100
AcDbLine
 62
7
  6
CONTINUOUS
 10
111.1305709647
 20
150.0670316308
 11
111.2241455759
 21
149.9308496315
  0
LINE
  5
2EA
100
AcDbEntity
  8
KONSTRUKTIONSELEMENTE
100
AcDbLine
 62
7
  6
CONTINUOUS
 10
113.6864896627
 20
148.2826460947
 11
113.5462660282
 21
148.5038510449
  0
LINE
  5
2EB
100
AcDbEntity
  8
KONSTRUKTIONSELEMENTE
100
AcDbLine
 62
7
  6
CONTINUOUS
 10
113.2825282247
 20
148.2261550986
 11
113.3859162094
 21
148.0399342866
  0
LINE
  5
2EC
100
AcDbEntity
  8
KONSTRUKTIONSELEMENTE
100
AcDbLine
 62
7
  6
CONTINUOUS
 10
116.3513426516
 20
143.1449878262
 11
116.458197627
 21
142.9145489598
  0
LINE
  5
2ED
100
AcDbEntity
  8
KONSTRUKTIONSELEMENTE
100
AcDbLine
 62
7
  6
CONTINUOUS
 10
116.3995890786
 20
143.9513310991
 11
116.5278158318
 21
143.6748027716
  0
LINE
  5
2EE
100
AcDbEntity
  8
KONSTRUKTIONSELEMENTE
100
AcDbLine
 62
7
  6
CONTINUOUS
 10
116.7959804579
 20
143.8551482942
 11
116.7104953036
 21
144.039501919
  0
LINE
  5
2EF
100
AcDbEntity
  8
KONSTRUKTIONSELEMENTE
100
AcDbLine
 62
7
  6
CONTINUOUS
 10
94.6425961415
 20
150.5956227002
 11
94.4026861969
 21
150.5898396814
  0
LINE
  5
2F0
100
AcDbEntity
  8
KONSTRUKTIONSELEMENTE
100
AcDbLine
 62
7
  6
CONTINUOUS
 10
112.9866021995
 20
148.9473543294
 11
112.7513453129
 21
148.9947271683
  0
LINE
  5
2F1
100
AcDbEntity
  8
KONSTRUKTIONSELEMENTE
100
AcDbLine
 62
7
  6
CONTINUOUS
 10
112.7597000457
 20
148.6346742449
 11
112.9510023179
 21
148.5410171469
  0
LINE
  5
2F2
100
AcDbEntity
  8
KONSTRUKTIONSELEMENTE
100
AcDbLine
 62
7
  6
CONTINUOUS
 10
113.2147401214
 20
148.8187130932
 11
112.9866021995
 21
148.9473543294
  0
LINE
  5
2F3
100
AcDbEntity
  8
KONSTRUKTIONSELEMENTE
100
AcDbLine
 62
7
  6
CONTINUOUS
 10
110.6121775093
 20
149.2620640909
 11
109.8006617608
 21
149.7846745468
  0
LINE
  5
2F4
100
AcDbEntity
  8
KONSTRUKTIONSELEMENTE
100
AcDbLine
 62
7
  6
CONTINUOUS
 10
110.3190552162
 20
150.5896420867
 11
111.1305709647
 21
150.0670316308
  0
LINE
  5
2F5
100
AcDbEntity
  8
KONSTRUKTIONSELEMENTE
100
AcDbLine
 62
7
  6
CONTINUOUS
 10
111.2606580132
 20
150.3628595099
 11
110.2355846656
 21
151.0229995632
  0
LINE
  5
2F6
100
AcDbEntity
  8
KONSTRUKTIONSELEMENTE
100
AcDbLine
 62
7
  6
CONTINUOUS
 10
112.9510023179
 20
148.5410171469
 11
113.2825282247
 21
148.2261550986
  0
LINE
  5
2F7
100
AcDbEntity
  8
KONSTRUKTIONSELEMENTE
100
AcDbLine
 62
7
  6
CONTINUOUS
 10
113.5462660282
 20
148.5038510449
 11
113.2147401214
 21
148.8187130932
  0
LINE
  5
2F8
100
AcDbEntity
  8
KONSTRUKTIONSELEMENTE
100
AcDbLine
 62
7
  6
CONTINUOUS
 10
111.4396560551
 20
150.1716654198
 11
111.2606580132
 21
150.3628595099
  0
LINE
  5
2F9
100
AcDbEntity
  8
0
100
AcDbLine
 62
7
  6
CONTINUOUS
 10
121.1007445947
 20
143.3957992937
 11
114.0343733865
 21
153.1218248679
  0
LINE
  5
2FA
100
AcDbEntity
  8
RUNDUNGEN
100
AcDbLine
 62
7
  6
CONTINUOUS
 10
117.0356622611
 20
109.0113460122
 11
116.9255349669
 21
108.8801014138
  0
LINE
  5
2FB
100
AcDbEntity
  8
0
100
AcDbLine
 62
7
  6
CONTINUOUS
 10
116.9255349669
 20
108.8801014138
 11
114.4242698243
 21
105.899209694
  0
LINE
  5
2FC
100
AcDbEntity
  8
0
100
AcDbLine
 62
7
  6
CONTINUOUS
 10
117.0356622611
 20
109.0113460122
 11
117.1325288248
 21
109.1267870876
  0
LINE
  5
2FD
100
AcDbEntity
  8
0
100
AcDbLine
 62
7
  6
CONTINUOUS
 10
114.0343733865
 20
153.1218248679
 11
102.6007445947
 21
156.8368360618
  0
LINE
  5
2FE
100
AcDbEntity
  8
0
100
AcDbLine
 62
7
  6
CONTINUOUS
 10
160.4832643051
 20
111.1847849134
 11
161.8367674898
 21
109.0828740854
  0
LINE
  5
2FF
100
AcDbEntity
  8
0
100
AcDbLine
 62
7
  6
CONTINUOUS
 10
167.3404296373
 20
119.8986925156
 11
170.6260989728
 21
119.8986925156
  0
LINE
  5
300
100
AcDbEntity
  8
0
100
AcDbLine
 62
7
  6
CONTINUOUS
 10
160.4832643051
 20
125.6436508123
 11
160.4832643051
 21
111.1847849134
  0
LINE
  5
301
100
AcDbEntity
  8
0
100
AcDbLine
 62
7
  6
CONTINUOUS
 10
165.3173241068
 20
148.7543844946
 11
167.467898186
 21
156.8368360618
  0
LINE
  5
302
100
AcDbEntity
  8
0
100
AcDbLine
 62
7
  6
CONTINUOUS
 10
165.2332643051
 20
148.1115525117
 11
165.2332643051
 21
131.051904821
  0
LINE
  5
303
100
AcDbEntity
  8
0
100
AcDbLine
 62
7
  6
CONTINUOUS
 10
167.3440581278
 20
133.1137233776
 11
167.4482027401
 21
131.3737705331
  0
LINE
  5
304
100
AcDbEntity
  8
0
100
AcDbLine
 62
7
  6
CONTINUOUS
 10
167.4482027401
 20
122.4452505832
 11
167.4482027401
 21
131.3737705331
  0
LINE
  5
305
100
AcDbEntity
  8
0
100
AcDbLine
 62
7
  6
CONTINUOUS
 10
168.9832643051
 20
110.4130884016
 11
168.9832643051
 21
111.1847849134
  0
LINE
  5
306
100
AcDbEntity
  8
0
100
AcDbLine
 62
7
  6
CONTINUOUS
 10
168.9832643051
 20
116.1847849134
 11
168.9832643051
 21
117.1075986232
  0
LINE
  5
307
100
AcDbEntity
  8
0
100
AcDbLine
 62
7
  6
CONTINUOUS
 10
165.0773468244
 20
129.9015961246
 11
161.3361114324
 21
127.2819549009
  0
LINE
  5
308
100
AcDbEntity
  8
RUNDUNGEN
100
AcDbLine
 62
7
  6
CONTINUOUS
 10
170.51832587
 20
122.4452505832
 11
170.51832587
 21
131.3737705331
  0
LINE
  5
309
100
AcDbEntity
  8
0
100
AcDbLine
 62
7
  6
CONTINUOUS
 10
170.6224704823
 20
133.1137233776
 11
170.51832587
 21
131.3737705331
  0
LINE
  5
30A
100
AcDbEntity
  8
0
100
AcDbLine
 62
7
  6
CONTINUOUS
 10
170.51832587
 20
131.3737705331
 11
167.4482027401
 21
131.3737705331
  0
LINE
  5
30B
100
AcDbEntity
  8
RUNDUNGEN
100
AcDbLine
 62
7
  6
CONTINUOUS
 10
172.8891963175
 20
129.9015859494
 11
176.6304171778
 21
127.2819549009
  0
LINE
  5
30C
100
AcDbEntity
  8
BEZUGSACHSEN
100
AcDbLine
 62
7
  6
CONTINUOUS
 10
172.7332643051
 20
146.1744385815
 11
172.7332643051
 21
146.1144319306
  0
LINE
  5
30D
100
AcDbEntity
  8
BEZUGSACHSEN
100
AcDbLine
 62
7
  6
CONTINUOUS
 10
172.7332643051
 20
143.9081236399
 11
172.7332643051
 21
134.9717872325
  0
LINE
  5
30E
100
AcDbEntity
  8
RUNDUNGEN
100
AcDbLine
 62
7
  6
CONTINUOUS
 10
172.7332643051
 20
134.9717872269
 11
172.7332643051
 21
131.051904821
  0
LINE
  5
30F
100
AcDbEntity
  8
KONSTRUKTIONSELEMENTE
100
AcDbLine
 62
7
  6
CONTINUOUS
 10
172.7332643051
 20
134.9717872325
 11
172.7332643051
 21
131.051904821
  0
LINE
  5
310
100
AcDbEntity
  8
RUNDUNGEN
100
AcDbLine
 62
7
  6
CONTINUOUS
 10
177.4832643051
 20
125.6436508123
 11
177.4832643051
 21
111.1847849134
  0
LINE
  5
311
100
AcDbEntity
  8
KONSTRUKTIONSELEMENTE
100
AcDbLine
 62
7
  6
CONTINUOUS
 10
170.4986304241
 20
156.8368360618
 11
172.1592888972
 21
150.5956227002
  0
LINE
  5
312
100
AcDbEntity
  8
KONSTRUKTIONSELEMENTE
100
AcDbLine
 62
7
  6
CONTINUOUS
 10
172.7332643051
 20
142.1627030692
 11
173.0070870652
 21
142.1627030692
  0
LINE
  5
313
100
AcDbEntity
  8
KONSTRUKTIONSELEMENTE
100
AcDbLine
 62
7
  6
CONTINUOUS
 10
172.7332643051
 20
142.1935606865
 11
173.0772093103
 21
142.1935606865
  0
LINE
  5
314
100
AcDbEntity
  8
KONSTRUKTIONSELEMENTE
100
AcDbLine
 62
7
  6
CONTINUOUS
 10
172.7332643051
 20
142.3434446431
 11
173.1309367462
 21
142.3434446431
  0
LINE
  5
315
100
AcDbEntity
  8
KONSTRUKTIONSELEMENTE
100
AcDbLine
 62
7
  6
CONTINUOUS
 10
172.7332643051
 20
142.5470339826
 11
173.1494100823
 21
142.5470339826
  0
LINE
  5
316
100
AcDbEntity
  8
KONSTRUKTIONSELEMENTE
100
AcDbLine
 62
7
  6
CONTINUOUS
 10
172.7332643051
 20
142.7774749588
 11
173.1495463248
 21
142.7774749588
  0
LINE
  5
317
100
AcDbEntity
  8
KONSTRUKTIONSELEMENTE
100
AcDbLine
 62
7
  6
CONTINUOUS
 10
172.7332643051
 20
143.0347654618
 11
173.1313432676
 21
143.0347654618
  0
LINE
  5
318
100
AcDbEntity
  8
KONSTRUKTIONSELEMENTE
100
AcDbLine
 62
7
  6
CONTINUOUS
 10
172.7332643051
 20
143.3457613477
 11
173.0778762115
 21
143.3457613477
  0
LINE
  5
319
100
AcDbEntity
  8
0
100
AcDbLine
 62
7
  6
CONTINUOUS
 10
170.4986304241
 20
143.3957992937
 11
167.467898186
 21
143.3957992937
  0
LINE
  5
31A
100
AcDbEntity
  8
KONSTRUKTIONSELEMENTE
100
AcDbLine
 62
7
  6
CONTINUOUS
 10
172.7332643051
 20
143.5914320578
 11
173.0078974469
 21
143.5914320578
  0
LINE
  5
31B
100
AcDbEntity
  8
KONSTRUKTIONSELEMENTE
100
AcDbLine
 62
7
  6
CONTINUOUS
 10
172.7332643051
 20
143.8178670603
 11
172.9214848924
 21
143.8178670603
  0
LINE
  5
31C
100
AcDbEntity
  8
KONSTRUKTIONSELEMENTE
100
AcDbLine
 62
7
  6
CONTINUOUS
 10
172.3119973082
 20
143.9081236399
 11
173.1398323686
 21
143.9081236399
  0
LINE
  5
31D
100
AcDbEntity
  8
KONSTRUKTIONSELEMENTE
100
AcDbLine
 62
7
  6
CONTINUOUS
 10
172.7918289876
 20
145.1908917009
 11
173.1457335817
 21
145.1908917009
  0
LINE
  5
31E
100
AcDbEntity
  8
KONSTRUKTIONSELEMENTE
100
AcDbLine
 62
7
  6
CONTINUOUS
 10
171.5156440255
 20
145.6484930335
 11
172.3434790859
 21
145.6484930335
  0
LINE
  5
31F
100
AcDbEntity
  8
KONSTRUKTIONSELEMENTE
100
AcDbLine
 62
7
  6
CONTINUOUS
 10
172.435057285
 20
145.9424006615
 11
172.6902300409
 21
145.9424006615
  0
LINE
  5
320
100
AcDbEntity
  8
KONSTRUKTIONSELEMENTE
100
AcDbLine
 62
7
  6
CONTINUOUS
 10
172.4360543049
 20
146.1035686415
 11
172.6721765373
 21
146.1035686415
  0
LINE
  5
321
100
AcDbEntity
  8
KONSTRUKTIONSELEMENTE
100
AcDbLine
 62
7
  6
CONTINUOUS
 10
172.7332643051
 20
146.1525518138
 11
173.0930649938
 21
146.1525518138
  0
LINE
  5
322
100
AcDbEntity
  8
KONSTRUKTIONSELEMENTE
100
AcDbLine
 62
7
  6
CONTINUOUS
 10
172.7203228059
 20
146.1744385815
 11
173.0954575711
 21
146.1744385815
  0
LINE
  5
323
100
AcDbEntity
  8
KONSTRUKTIONSELEMENTE
100
AcDbLine
 62
7
  6
CONTINUOUS
 10
173.1138802036
 20
146.199926242
 11
173.1296836585
 21
146.199926242
  0
LINE
  5
324
100
AcDbEntity
  8
KONSTRUKTIONSELEMENTE
100
AcDbLine
 62
7
  6
CONTINUOUS
 10
172.7203228059
 20
146.2161193637
 11
173.0248524841
 21
146.2161193637
  0
LINE
  5
325
100
AcDbEntity
  8
KONSTRUKTIONSELEMENTE
100
AcDbLine
 62
7
  6
CONTINUOUS
 10
172.4363000632
 20
146.2603861765
 11
172.6372803184
 21
146.2603861765
  0
LINE
  5
326
100
AcDbEntity
  8
KONSTRUKTIONSELEMENTE
100
AcDbLine
 62
7
  6
CONTINUOUS
 10
172.6871237661
 20
146.3285650729
 11
172.9553818005
 21
146.3285650729
  0
LINE
  5
327
100
AcDbEntity
  8
KONSTRUKTIONSELEMENTE
100
AcDbLine
 62
7
  6
CONTINUOUS
 10
172.4359347598
 20
146.412853148
 11
172.5858296115
 21
146.412853148
  0
LINE
  5
328
100
AcDbEntity
  8
KONSTRUKTIONSELEMENTE
100
AcDbLine
 62
7
  6
CONTINUOUS
 10
172.6331294814
 20
146.5221959535
 11
172.8697567107
 21
146.5221959535
  0
LINE
  5
329
100
AcDbEntity
  8
KONSTRUKTIONSELEMENTE
100
AcDbLine
 62
7
  6
CONTINUOUS
 10
172.4355271796
 20
146.5239406466
 11
172.5349213489
 21
146.5239406466
  0
LINE
  5
32A
100
AcDbEntity
  8
KONSTRUKTIONSELEMENTE
100
AcDbLine
 62
7
  6
CONTINUOUS
 10
172.9833698842
 20
146.5345622217
 11
173.0298214919
 21
146.5345622217
  0
LINE
  5
32B
100
AcDbEntity
  8
KONSTRUKTIONSELEMENTE
100
AcDbLine
 62
7
  6
CONTINUOUS
 10
172.9225434288
 20
146.6302895483
 11
173.0476467825
 21
146.6302895483
  0
LINE
  5
32C
100
AcDbEntity
  8
KONSTRUKTIONSELEMENTE
100
AcDbLine
 62
7
  6
CONTINUOUS
 10
171.523031776
 20
146.6416038209
 11
172.3508668364
 21
146.6416038209
  0
LINE
  5
32D
100
AcDbEntity
  8
KONSTRUKTIONSELEMENTE
100
AcDbLine
 62
7
  6
CONTINUOUS
 10
173.1377291677
 20
146.643427921
 11
173.1493215324
 21
146.643427921
  0
LINE
  5
32E
100
AcDbEntity
  8
KONSTRUKTIONSELEMENTE
100
AcDbLine
 62
7
  6
CONTINUOUS
 10
172.8604586125
 20
146.7718197749
 11
173.0476467828
 21
146.7718197749
  0
LINE
  5
32F
100
AcDbEntity
  8
KONSTRUKTIONSELEMENTE
100
AcDbLine
 62
7
  6
CONTINUOUS
 10
171.5383563407
 20
146.8114728094
 11
172.3661914011
 21
146.8114728094
  0
LINE
  5
330
100
AcDbEntity
  8
KONSTRUKTIONSELEMENTE
100
AcDbLine
 62
7
  6
CONTINUOUS
 10
173.1091314126
 20
146.8646344767
 11
173.1307132008
 21
146.8646344767
  0
LINE
  5
331
100
AcDbEntity
  8
KONSTRUKTIONSELEMENTE
100
AcDbLine
 62
7
  6
CONTINUOUS
 10
171.5871337969
 20
146.8659038397
 11
172.4149688573
 21
146.8659038397
  0
LINE
  5
332
100
AcDbEntity
  8
KONSTRUKTIONSELEMENTE
100
AcDbLine
 62
7
  6
CONTINUOUS
 10
172.7910627181
 20
146.9591526991
 11
173.029821491
 21
146.9591526991
  0
LINE
  5
333
100
AcDbEntity
  8
KONSTRUKTIONSELEMENTE
100
AcDbLine
 62
7
  6
CONTINUOUS
 10
173.0641769743
 20
147.0971379586
 11
173.0945124335
 21
147.0971379586
  0
LINE
  5
334
100
AcDbEntity
  8
KONSTRUKTIONSELEMENTE
100
AcDbLine
 62
7
  6
CONTINUOUS
 10
172.717803807
 20
147.1569057457
 11
172.9946907916
 21
147.1569057457
  0
LINE
  5
335
100
AcDbEntity
  8
KONSTRUKTIONSELEMENTE
100
AcDbLine
 62
7
  6
CONTINUOUS
 10
173.0109690902
 20
147.3283937363
 11
173.1387728823
 21
147.3283937363
  0
LINE
  5
336
100
AcDbEntity
  8
KONSTRUKTIONSELEMENTE
100
AcDbLine
 62
7
  6
CONTINUOUS
 10
172.6406819892
 20
147.3650788505
 11
172.9427428388
 21
147.3650788505
  0
LINE
  5
337
100
AcDbEntity
  8
KONSTRUKTIONSELEMENTE
100
AcDbLine
 62
7
  6
CONTINUOUS
 10
172.5596968882
 20
147.5836722481
 11
172.8742866305
 21
147.5836722481
  0
LINE
  5
338
100
AcDbEntity
  8
RUNDUNGEN
100
AcDbLine
 62
7
  6
CONTINUOUS
 10
176.1297611203
 20
109.0828740854
 11
177.4832643051
 21
111.1847849134
  0
LINE
  5
339
100
AcDbEntity
  8
KONSTRUKTIONSELEMENTE
100
AcDbLine
 62
7
  6
CONTINUOUS
 10
171.5164569136
 20
147.9420797711
 11
172.344291974
 21
147.9420797711
  0
LINE
  5
33A
100
AcDbEntity
  8
KONSTRUKTIONSELEMENTE
100
AcDbLine
 62
7
  6
CONTINUOUS
 10
171.5204137792
 20
148.154375111
 11
172.3482488396
 21
148.154375111
  0
LINE
  5
33B
100
AcDbEntity
  8
KONSTRUKTIONSELEMENTE
100
AcDbLine
 62
7
  6
CONTINUOUS
 10
172.8816428117
 20
148.3209656159
 11
173.0473294495
 21
148.3209656159
  0
LINE
  5
33C
100
AcDbEntity
  8
KONSTRUKTIONSELEMENTE
100
AcDbLine
 62
7
  6
CONTINUOUS
 10
173.1072255269
 20
148.3357330952
 11
173.1450531836
 21
148.3357330952
  0
LINE
  5
33D
100
AcDbEntity
  8
KONSTRUKTIONSELEMENTE
100
AcDbLine
 62
7
  6
CONTINUOUS
 10
172.8289172747
 20
148.4863941493
 11
173.0290848943
 21
148.4863941493
  0
LINE
  5
33E
100
AcDbEntity
  8
KONSTRUKTIONSELEMENTE
100
AcDbLine
 62
7
  6
CONTINUOUS
 10
173.0752451026
 20
148.5007681085
 11
173.1398323612
 21
148.5007681085
  0
LINE
  5
33F
100
AcDbEntity
  8
KONSTRUKTIONSELEMENTE
100
AcDbLine
 62
7
  6
CONTINUOUS
 10
172.7681691825
 20
148.6769846313
 11
172.993649094
 21
148.6769846313
  0
LINE
  5
340
100
AcDbEntity
  8
KONSTRUKTIONSELEMENTE
100
AcDbLine
 62
7
  6
CONTINUOUS
 10
172.6993977414
 20
148.8927369874
 11
172.9415110716
 21
148.8927369874
  0
LINE
  5
341
100
AcDbEntity
  8
KONSTRUKTIONSELEMENTE
100
AcDbLine
 62
7
  6
CONTINUOUS
 10
171.5204137777
 20
149.0035560657
 11
172.3482488381
 21
149.0035560657
  0
LINE
  5
342
100
AcDbEntity
  8
KONSTRUKTIONSELEMENTE
100
AcDbLine
 62
7
  6
CONTINUOUS
 10
172.6226029094
 20
149.1336509337
 11
172.8729774086
 21
149.1336509337
  0
LINE
  5
343
100
AcDbEntity
  8
KONSTRUKTIONSELEMENTE
100
AcDbLine
 62
7
  6
CONTINUOUS
 10
171.5164569136
 20
149.2158513044
 11
172.344291974
 21
149.2158513044
  0
LINE
  5
344
100
AcDbEntity
  8
KONSTRUKTIONSELEMENTE
100
AcDbLine
 62
7
  6
CONTINUOUS
 10
171.5147873708
 20
149.8295070967
 11
172.3426224312
 21
149.8295070967
  0
LINE
  5
345
100
AcDbEntity
  8
KONSTRUKTIONSELEMENTE
100
AcDbLine
 62
7
  6
CONTINUOUS
 10
172.4527604604
 20
149.9318785813
 11
172.6185443678
 21
149.9318785813
  0
LINE
  5
346
100
AcDbEntity
  8
KONSTRUKTIONSELEMENTE
100
AcDbLine
 62
7
  6
CONTINUOUS
 10
172.4532274075
 20
150.1166860072
 11
172.5513127957
 21
150.1166860072
  0
LINE
  5
347
100
AcDbEntity
  8
KONSTRUKTIONSELEMENTE
100
AcDbLine
 62
7
  6
CONTINUOUS
 10
172.4629378796
 20
150.2202248295
 11
172.5015071117
 21
150.2202248295
  0
LINE
  5
348
100
AcDbEntity
  8
KONSTRUKTIONSELEMENTE
100
AcDbLine
 62
7
  6
CONTINUOUS
 10
171.5232298425
 20
150.5027879098
 11
172.3510649029
 21
150.5027879098
  0
LINE
  5
349
100
AcDbEntity
  8
KONSTRUKTIONSELEMENTE
100
AcDbLine
 62
7
  6
CONTINUOUS
 10
171.5387760406
 20
150.5898396814
 11
172.366611101
 21
150.5898396814
  0
LINE
  5
34A
100
AcDbEntity
  8
KONSTRUKTIONSELEMENTE
100
AcDbLine
 62
7
  6
CONTINUOUS
 10
171.5707691978
 20
150.5956227002
 11
172.3986042582
 21
150.5956227002
  0
LINE
  5
34B
100
AcDbEntity
  8
KONSTRUKTIONSELEMENTE
100
AcDbLine
 62
7
  6
CONTINUOUS
 10
172.0455727065
 20
151.0229995632
 11
172.3434790799
 21
151.0229995632
  0
LINE
  5
34C
100
AcDbEntity
  8
0
100
AcDbLine
 62
7
  6
CONTINUOUS
 10
170.4986304241
 20
153.1218248679
 11
167.467898186
 21
153.1218248679
  0
LINE
  5
34D
100
AcDbEntity
  8
0
100
AcDbLine
 62
7
  6
CONTINUOUS
 10
167.467898186
 20
156.8368360618
 11
170.4986304241
 21
156.8368360618
  0
ARC
  5
34E
100
AcDbEntity
  8
0
100
AcDbCircle
 62
7
  6
CONTINUOUS
 10
102.6007445947
 20
85.2650980879
 40
21.5
100
AcDbArc
 50
67.8893166331
 51
80.6310844215
  0
ARC
  5
34F
100
AcDbEntity
  8
0
100
AcDbCircle
 62
7
  6
CONTINUOUS
 10
102.6007445947
 20
85.2650980879
 40
21.5
100
AcDbArc
 50
99.3689155785
 51
112.1106833669
  0
ARC
  5
350
100
AcDbEntity
  8
0
100
AcDbCircle
 62
7
  6
CONTINUOUS
 10
126.8162699416
 20
116.6251499076
 40
9.2476105523
100
AcDbArc
 50
177.2024308967
 51
177.4891159538
  0
CIRCLE
  5
351
100
AcDbEntity
  8
BEZUGSACHSEN
100
AcDbCircle
 62
7
  6
CONTINUOUS
 10
102.6007445947
 20
137.3847849134
 40
8.0
  0
ARC
  5
352
100
AcDbEntity
  8
RUNDUNGEN
100
AcDbCircle
 62
7
  6
CONTINUOUS
 10
82.4892827849
 20
116.9774012694
 40
5.16605851
100
AcDbArc
 50
0.566119561
 51
34.4360042568
  0
ARC
  5
353
100
AcDbEntity
  8
RUNDUNGEN
100
AcDbCircle
 62
7
  6
CONTINUOUS
 10
122.7121424174
 20
116.9772679084
 40
5.1660115643
100
AcDbArc
 50
145.5623745369
 51
178.8879274832
  0
ARC
  5
354
100
AcDbEntity
  8
RUNDUNGEN
100
AcDbCircle
 62
7
  6
CONTINUOUS
 10
122.6997651625
 20
116.9776834807
 40
5.1536285782
100
AcDbArc
 50
178.8898761129
 51
179.435651155
  0
ARC
  5
355
100
AcDbEntity
  8
0
100
AcDbCircle
 62
7
  6
CONTINUOUS
 10
122.6051000979
 20
117.1074117719
 40
5.0043612832
100
AcDbArc
 50
146.3806802082
 51
177.9688101783
  0
ARC
  5
356
100
AcDbEntity
  8
0
100
AcDbCircle
 62
7
  6
CONTINUOUS
 10
82.5972518056
 20
117.1075565719
 40
5.0034930261
100
AcDbArc
 50
0.0004815348
 51
33.6193368649
  0
ARC
  5
357
100
AcDbEntity
  8
KONSTRUKTIONSELEMENTE
100
AcDbCircle
 62
7
  6
CONTINUOUS
 10
102.6007445947
 20
121.3847849134
 40
3.5
100
AcDbArc
 50
0.0
 51
180.0
  0
ARC
  5
358
100
AcDbEntity
  8
0
100
AcDbCircle
 62
7
  6
CONTINUOUS
 10
115.5995901175
 20
110.4131516792
 40
2.0011584002
100
AcDbArc
 50
319.9983267928
 51
350.5556831093
  0
ARC
  5
359
100
AcDbEntity
  8
0
100
AcDbCircle
 62
7
  6
CONTINUOUS
 10
89.6017021867
 20
110.4130739109
 40
2.0009575921
100
AcDbArc
 50
179.99958507
 51
220.0035913308
  0
ARC
  5
35A
100
AcDbEntity
  8
0
100
AcDbCircle
 62
7
  6
CONTINUOUS
 10
112.8921831991
 20
107.184787608
 40
2.0
100
AcDbArc
 50
269.9999352266
 51
319.9998992299
  0
ARC
  5
35B
100
AcDbEntity
  8
0
100
AcDbCircle
 62
7
  6
CONTINUOUS
 10
92.3093072388
 20
107.18478612
 40
2.0
100
AcDbArc
 50
220.0000451247
 51
270.0000290055
  0
CIRCLE
  5
35C
100
AcDbEntity
  8
BEZUGSACHSEN
100
AcDbCircle
 62
7
  6
CONTINUOUS
 10
113.6007445947
 20
113.6847849134
 40
1.0
  0
ARC
  5
35D
100
AcDbEntity
  8
KONSTRUKTIONSELEMENTE
100
AcDbCircle
 62
7
  6
CONTINUOUS
 10
20.4400059481
 20
115.2430275248
 40
156.2164977234
100
AcDbArc
 50
12.259428145
 51
12.3814667239
  0
ARC
  5
35E
100
AcDbEntity
  8
KONSTRUKTIONSELEMENTE
100
AcDbCircle
 62
7
  6
CONTINUOUS
 10
24.2079635819
 20
114.7518294661
 40
152.3298784929
100
AcDbArc
 50
12.2038268713
 51
12.3288252543
  0
ARC
  5
35F
100
AcDbEntity
  8
KONSTRUKTIONSELEMENTE
100
AcDbCircle
 62
7
  6
CONTINUOUS
 10
90.2124590826
 20
79.9737875804
 40
105.5044960606
100
AcDbArc
 50
38.1808176586
 51
38.4899986147
  0
ARC
  5
360
100
AcDbEntity
  8
KONSTRUKTIONSELEMENTE
100
AcDbCircle
 62
7
  6
CONTINUOUS
 10
83.0023737947
 20
131.0678324724
 40
91.4192288157
100
AcDbArc
 50
10.0105248713
 51
10.1364044981
  0
ARC
  5
361
100
AcDbEntity
  8
KONSTRUKTIONSELEMENTE
100
AcDbCircle
 62
7
  6
CONTINUOUS
 10
87.967823484
 20
132.769850373
 40
86.5010285544
100
AcDbArc
 50
10.4683288087
 51
10.5967339199
  0
ARC
  5
362
100
AcDbEntity
  8
KONSTRUKTIONSELEMENTE
100
AcDbCircle
 62
7
  6
CONTINUOUS
 10
92.7361121226
 20
133.9694051452
 40
80.9138197596
100
AcDbArc
 50
8.5218904147
 51
8.6934694244
  0
ARC
  5
363
100
AcDbEntity
  8
KONSTRUKTIONSELEMENTE
100
AcDbCircle
 62
7
  6
CONTINUOUS
 10
94.5259087006
 20
129.6808505489
 40
79.7316837084
100
AcDbArc
 50
9.641662976
 51
9.8684258038
  0
ARC
  5
364
100
AcDbEntity
  8
KONSTRUKTIONSELEMENTE
100
AcDbCircle
 62
7
  6
CONTINUOUS
 10
109.5694572666
 20
95.0381635304
 40
81.1518752207
100
AcDbArc
 50
38.4316091381
 51
38.8648628016
  0
ARC
  5
365
100
AcDbEntity
  8
KONSTRUKTIONSELEMENTE
100
AcDbCircle
 62
7
  6
CONTINUOUS
 10
162.1969423269
 20
118.7455171839
 40
29.9192949757
100
AcDbArc
 50
69.8964954689
 51
70.0305148303
  0
ARC
  5
366
100
AcDbEntity
  8
0
100
AcDbCircle
 62
7
  6
CONTINUOUS
 10
168.9832643051
 20
113.6847849134
 40
8.5
100
AcDbArc
 50
212.7790806681
 51
327.2209193319
  0
CIRCLE
  5
367
100
AcDbEntity
  8
0
100
AcDbCircle
 62
7
  6
CONTINUOUS
 10
168.9832643051
 20
113.6847849134
 40
2.5
  0
ARC
  5
368
100
AcDbEntity
  8
RUNDUNGEN
100
AcDbCircle
 62
7
  6
CONTINUOUS
 10
175.4832643051
 20
125.6436508123
 40
2.0
100
AcDbArc
 50
0.0
 51
55.0
  0
ARC
  5
369
100
AcDbEntity
  8
0
100
AcDbCircle
 62
7
  6
CONTINUOUS
 10
162.4832643051
 20
125.6436508123
 40
2.0
100
AcDbArc
 50
125.0
 51
180.0
  0
ARC
  5
36A
100
AcDbEntity
  8
KONSTRUKTIONSELEMENTE
100
AcDbCircle
 62
7
  6
CONTINUOUS
 10
105.2816986745
 20
136.4194346915
 40
68.6483139903
100
AcDbArc
 50
8.784467693
 51
8.9153937283
  0
ARC
  5
36B
100
AcDbEntity
  8
KONSTRUKTIONSELEMENTE
100
AcDbCircle
 62
7
  6
CONTINUOUS
 10
105.5208795863
 20
136.4320245692
 40
68.3886792751
100
AcDbArc
 50
8.6518340426
 51
8.8494546441
  0
ARC
  5
36C
100
AcDbEntity
  8
KONSTRUKTIONSELEMENTE
100
AcDbCircle
 62
7
  6
CONTINUOUS
 10
110.1436130186
 20
139.0177308131
 40
62.9287720637
100
AcDbArc
 50
6.3176101955
 51
6.4652692258
  0
ARC
  5
36D
100
AcDbEntity
  8
KONSTRUKTIONSELEMENTE
100
AcDbCircle
 62
7
  6
CONTINUOUS
 10
112.7618376821
 20
138.2833633495
 40
61.1769249891
100
AcDbArc
 50
9.3240763523
 51
9.531652952
  0
ARC
  5
36E
100
AcDbEntity
  8
KONSTRUKTIONSELEMENTE
100
AcDbCircle
 62
7
  6
CONTINUOUS
 10
123.7131070491
 20
139.4091833179
 40
49.55105364
100
AcDbArc
 50
3.8977542727
 51
4.1960027181
  0
ARC
  5
36F
100
AcDbEntity
  8
KONSTRUKTIONSELEMENTE
100
AcDbCircle
 62
7
  6
CONTINUOUS
 10
130.6619397836
 20
142.8332066579
 40
42.5683078253
100
AcDbArc
 50
5.3088587916
 51
5.5621428968
  0
ARC
  5
370
100
AcDbEntity
  8
KONSTRUKTIONSELEMENTE
100
AcDbCircle
 62
7
  6
CONTINUOUS
 10
134.1730734799
 20
142.6852982984
 40
38.9765818404
100
AcDbArc
 50
359.7967503051
 51
0.1355003
  0
ARC
  5
371
100
AcDbEntity
  8
KONSTRUKTIONSELEMENTE
100
AcDbCircle
 62
7
  6
CONTINUOUS
 10
133.3855955007
 20
146.4348835766
 40
38.9658196824
100
AcDbArc
 50
358.8436039928
 51
0.3039651981
  0
ARC
  5
372
100
AcDbEntity
  8
KONSTRUKTIONSELEMENTE
100
AcDbCircle
 62
7
  6
CONTINUOUS
 10
132.5577604405
 20
146.4348835766
 40
38.9658196822
100
AcDbArc
 50
358.8436039928
 51
0.3039651981
  0
ARC
  5
373
100
AcDbEntity
  8
KONSTRUKTIONSELEMENTE
100
AcDbCircle
 62
7
  6
CONTINUOUS
 10
134.3036269515
 20
146.2495856069
 40
38.1327083241
100
AcDbArc
 50
359.1916679396
 51
0.3730104824
  0
ARC
  5
374
100
AcDbEntity
  8
KONSTRUKTIONSELEMENTE
100
AcDbCircle
 62
7
  6
CONTINUOUS
 10
136.0434994314
 20
143.5763380087
 40
37.2208141156
100
AcDbArc
 50
4.5005468164
 51
4.8445268979
  0
ARC
  5
375
100
AcDbEntity
  8
KONSTRUKTIONSELEMENTE
100
AcDbCircle
 62
7
  6
CONTINUOUS
 10
136.4048561896
 20
143.6637035609
 40
36.8650852597
100
AcDbArc
 50
4.6936571372
 51
4.9236656563
  0
ARC
  5
376
100
AcDbEntity
  8
KONSTRUKTIONSELEMENTE
100
AcDbCircle
 62
7
  6
CONTINUOUS
 10
136.9436928474
 20
145.6941520447
 40
35.747399188
100
AcDbArc
 50
359.1377209566
 51
0.3978950262
  0
ARC
  5
377
100
AcDbEntity
  8
KONSTRUKTIONSELEMENTE
100
AcDbCircle
 62
7
  6
CONTINUOUS
 10
137.9983320926
 20
145.4720083014
 40
34.7946629139
100
AcDbArc
 50
359.1140573227
 51
0.2724584899
  0
ARC
  5
378
100
AcDbEntity
  8
KONSTRUKTIONSELEMENTE
100
AcDbCircle
 62
7
  6
CONTINUOUS
 10
139.7109810464
 20
144.7281324666
 40
33.5293986659
100
AcDbArc
 50
6.151323152
 51
6.4357253785
  0
ARC
  5
379
100
AcDbEntity
  8
KONSTRUKTIONSELEMENTE
100
AcDbCircle
 62
7
  6
CONTINUOUS
 10
141.51222919
 20
144.6973872887
 40
31.6374496432
100
AcDbArc
 50
358.5704862912
 51
359.020220565
  0
ARC
  5
37A
100
AcDbEntity
  8
KONSTRUKTIONSELEMENTE
100
AcDbCircle
 62
7
  6
CONTINUOUS
 10
141.5246610204
 20
144.6915618804
 40
31.6250147857
100
AcDbArc
 50
0.9046851147
 51
1.4295749237
  0
ARC
  5
37B
100
AcDbEntity
  8
KONSTRUKTIONSELEMENTE
100
AcDbCircle
 62
7
  6
CONTINUOUS
 10
142.0228704055
 20
145.2687682697
 40
31.2453086043
100
AcDbArc
 50
354.6278484953
 51
355.0027128688
  0
ARC
  5
37C
100
AcDbEntity
  8
KONSTRUKTIONSELEMENTE
100
AcDbCircle
 62
7
  6
CONTINUOUS
 10
142.9651168665
 20
148.5775127546
 40
28.5584750046
100
AcDbArc
 50
0.8547861589
 51
1.2807809575
  0
ARC
  5
37D
100
AcDbEntity
  8
KONSTRUKTIONSELEMENTE
100
AcDbCircle
 62
7
  6
CONTINUOUS
 10
143.7929519318
 20
148.5775127547
 40
28.5584749997
100
AcDbArc
 50
0.8547861589
 51
1.2807809575
  0
ARC
  5
37E
100
AcDbEntity
  8
KONSTRUKTIONSELEMENTE
100
AcDbCircle
 62
7
  6
CONTINUOUS
 10
142.9651168907
 20
148.5804183205
 40
28.5584749804
100
AcDbArc
 50
358.7192190424
 51
359.1452140444
  0
ARC
  5
37F
100
AcDbEntity
  8
KONSTRUKTIONSELEMENTE
100
AcDbCircle
 62
7
  6
CONTINUOUS
 10
143.7929519512
 20
148.5804183205
 40
28.5584749804
100
AcDbArc
 50
358.7192190424
 51
359.1452140444
  0
ARC
  5
380
100
AcDbEntity
  8
KONSTRUKTIONSELEMENTE
100
AcDbCircle
 62
7
  6
CONTINUOUS
 10
144.9378189699
 20
145.3663921787
 40
28.3342164978
100
AcDbArc
 50
5.336625257
 51
5.7297056791
  0
ARC
  5
381
100
AcDbEntity
  8
KONSTRUKTIONSELEMENTE
100
AcDbCircle
 62
7
  6
CONTINUOUS
 10
146.2760434306
 20
149.0795442629
 40
26.1885465279
100
AcDbArc
 50
354.6584954321
 51
355.031647816
  0
ARC
  5
382
100
AcDbEntity
  8
KONSTRUKTIONSELEMENTE
100
AcDbCircle
 62
7
  6
CONTINUOUS
 10
145.4482083765
 20
149.0795442624
 40
26.1885465215
100
AcDbArc
 50
354.6584954321
 51
355.0316478161
  0
ARC
  5
383
100
AcDbEntity
  8
KONSTRUKTIONSELEMENTE
100
AcDbCircle
 62
7
  6
CONTINUOUS
 10
149.3778084889
 20
146.7010547122
 40
23.6699440758
100
AcDbArc
 50
359.8287046536
 51
0.1712951013
  0
ARC
  5
384
100
AcDbEntity
  8
KONSTRUKTIONSELEMENTE
100
AcDbCircle
 62
7
  6
CONTINUOUS
 10
150.1778867703
 20
146.4262384946
 40
22.9717685531
100
AcDbArc
 50
359.8234984985
 51
0.176501249
  0
ARC
  5
385
100
AcDbEntity
  8
KONSTRUKTIONSELEMENTE
100
AcDbCircle
 62
7
  6
CONTINUOUS
 10
150.6917740617
 20
146.5209825483
 40
22.4578812622
100
AcDbArc
 50
359.8849633929
 51
0.1785064089
  0
ARC
  5
386
100
AcDbEntity
  8
KONSTRUKTIONSELEMENTE
100
AcDbCircle
 62
7
  6
CONTINUOUS
 10
152.9645315054
 20
149.4877271362
 40
21.3945009916
100
AcDbArc
 50
340.0660585624
 51
340.4924674
  0
ARC
  5
387
100
AcDbEntity
  8
KONSTRUKTIONSELEMENTE
100
AcDbCircle
 62
7
  6
CONTINUOUS
 10
154.6629010848
 20
139.0426150228
 40
21.1666519188
100
AcDbArc
 50
32.7556068804
 51
33.0801543922
  0
ARC
  5
388
100
AcDbEntity
  8
KONSTRUKTIONSELEMENTE
100
AcDbCircle
 62
7
  6
CONTINUOUS
 10
153.4732199625
 20
150.0182437197
 40
19.2863255511
100
AcDbArc
 50
349.4826195342
 51
349.7457156906
  0
ARC
  5
389
100
AcDbEntity
  8
KONSTRUKTIONSELEMENTE
100
AcDbCircle
 62
7
  6
CONTINUOUS
 10
153.6046335363
 20
150.390781271
 40
17.9189463717
100
AcDbArc
 50
358.2050338446
 51
0.3581432381
  0
ARC
  5
38A
100
AcDbEntity
  8
KONSTRUKTIONSELEMENTE
100
AcDbCircle
 62
7
  6
CONTINUOUS
 10
154.4324685966
 20
150.390781271
 40
17.9189463718
100
AcDbArc
 50
358.2050338446
 51
0.3581432381
  0
ARC
  5
38B
100
AcDbEntity
  8
KONSTRUKTIONSELEMENTE
100
AcDbCircle
 62
7
  6
CONTINUOUS
 10
164.000608841
 20
130.8488768172
 40
17.8210301838
100
AcDbArc
 50
59.3132804114
 51
59.5768839792
  0
ARC
  5
38C
100
AcDbEntity
  8
KONSTRUKTIONSELEMENTE
100
AcDbCircle
 62
7
  6
CONTINUOUS
 10
154.9944705769
 20
150.0713387581
 40
17.4588484747
100
AcDbArc
 50
358.7108070785
 51
0.3680787577
  0
ARC
  5
38D
100
AcDbEntity
  8
KONSTRUKTIONSELEMENTE
100
AcDbCircle
 62
7
  6
CONTINUOUS
 10
158.1458368613
 20
148.2088281444
 40
14.9019145135
100
AcDbArc
 50
358.4894749371
 51
0.4311569819
  0
ARC
  5
38E
100
AcDbEntity
  8
KONSTRUKTIONSELEMENTE
100
AcDbCircle
 62
7
  6
CONTINUOUS
 10
158.6591517203
 20
147.8897775875
 40
14.4904996748
100
AcDbArc
 50
357.7797192916
 51
0.4424476396
  0
ARC
  5
38F
100
AcDbEntity
  8
KONSTRUKTIONSELEMENTE
100
AcDbCircle
 62
7
  6
CONTINUOUS
 10
159.152273263
 20
147.9756610741
 40
13.9974121509
100
AcDbArc
 50
1.5867079162
 51
2.1499315735
  0
ARC
  5
390
100
AcDbEntity
  8
KONSTRUKTIONSELEMENTE
100
AcDbCircle
 62
7
  6
CONTINUOUS
 10
160.1234747821
 20
148.0971708363
 40
13.1419956655
100
AcDbArc
 50
351.8071418171
 51
352.384233269
  0
ARC
  5
391
100
AcDbEntity
  8
KONSTRUKTIONSELEMENTE
100
AcDbCircle
 62
7
  6
CONTINUOUS
 10
160.4926249023
 20
148.1467397247
 40
12.7861376891
100
AcDbArc
 50
351.4364230858
 51
351.7277982366
  0
ARC
  5
392
100
AcDbEntity
  8
KONSTRUKTIONSELEMENTE
100
AcDbCircle
 62
7
  6
CONTINUOUS
 10
161.692235815
 20
148.6952460905
 40
11.5416378284
100
AcDbArc
 50
349.2101245804
 51
349.6935106531
  0
ARC
  5
393
100
AcDbEntity
  8
KONSTRUKTIONSELEMENTE
100
AcDbCircle
 62
7
  6
CONTINUOUS
 10
165.3967796923
 20
153.1060654514
 40
9.3911977988
100
AcDbArc
 50
317.9124671614
 51
318.3583838835
  0
ARC
  5
394
100
AcDbEntity
  8
KONSTRUKTIONSELEMENTE
100
AcDbCircle
 62
7
  6
CONTINUOUS
 10
164.5689446319
 20
153.1060654514
 40
9.3911977988
100
AcDbArc
 50
317.9124671614
 51
318.3583838835
  0
ARC
  5
395
100
AcDbEntity
  8
KONSTRUKTIONSELEMENTE
100
AcDbCircle
 62
7
  6
CONTINUOUS
 10
164.5099526864
 20
151.8001726877
 40
7.1322691852
100
AcDbArc
 50
349.5193466226
 51
350.2297296898
  0
ARC
  5
396
100
AcDbEntity
  8
KONSTRUKTIONSELEMENTE
100
AcDbCircle
 62
7
  6
CONTINUOUS
 10
165.3377877485
 20
151.8001726874
 40
7.1322691835
100
AcDbArc
 50
349.5193466225
 51
350.2297296899
  0
ARC
  5
397
100
AcDbEntity
  8
KONSTRUKTIONSELEMENTE
100
AcDbCircle
 62
7
  6
CONTINUOUS
 10
168.8466111818
 20
144.8963004001
 40
6.4577424988
100
AcDbArc
 50
55.5882961091
 51
55.8809231428
  0
ARC
  5
398
100
AcDbEntity
  8
KONSTRUKTIONSELEMENTE
100
AcDbCircle
 62
7
  6
CONTINUOUS
 10
168.5212735099
 20
149.5001970136
 40
5.6554247386
100
AcDbArc
 50
323.9801717962
 51
324.6030755897
  0
ARC
  5
399
100
AcDbEntity
  8
KONSTRUKTIONSELEMENTE
100
AcDbCircle
 62
7
  6
CONTINUOUS
 10
168.7110430875
 20
149.5776909335
 40
5.561805355
100
AcDbArc
 50
322.1943110743
 51
322.6044283868
  0
ARC
  5
39A
100
AcDbEntity
  8
KONSTRUKTIONSELEMENTE
100
AcDbCircle
 62
7
  6
CONTINUOUS
 10
167.3623729914
 20
151.5866082741
 40
5.2804152617
100
AcDbArc
 50
344.5902664925
 51
345.2532629708
  0
ARC
  5
39B
100
AcDbEntity
  8
0
100
AcDbCircle
 62
7
  6
CONTINUOUS
 10
167.7332643051
 20
148.1115525117
 40
2.5
100
AcDbArc
 50
165.1
 51
180.0
  0
ARC
  5
39C
100
AcDbEntity
  8
RUNDUNGEN
100
AcDbCircle
 62
7
  6
CONTINUOUS
 10
174.7332643051
 20
131.051904821
 40
2.0
100
AcDbArc
 50
180.0
 51
235.0
  0
ARC
  5
39D
100
AcDbEntity
  8
0
100
AcDbCircle
 62
7
  6
CONTINUOUS
 10
163.2332643051
 20
131.051904821
 40
2.0
100
AcDbArc
 50
305.0
 51
360.0
  0
ARC
  5
39E
100
AcDbEntity
  8
KONSTRUKTIONSELEMENTE
100
AcDbCircle
 62
7
  6
CONTINUOUS
 10
157.9174070647
 20
176.5482775889
 40
37.5508478941
100
AcDbArc
 50
293.6936683027
 51
293.8105635679
  0
ARC
  5
39F
100
AcDbEntity
  8
KONSTRUKTIONSELEMENTE
100
AcDbCircle
 62
7
  6
CONTINUOUS
 10
169.7869213937
 20
154.3189819206
 40
8.4328874708
100
AcDbArc
 50
292.3577198066
 51
292.616051076
  0
ARC
  5
3A0
100
AcDbEntity
  8
KONSTRUKTIONSELEMENTE
100
AcDbCircle
 62
7
  6
CONTINUOUS
 10
170.9569713835
 20
158.4797203191
 40
8.0148175657
100
AcDbArc
 50
280.1298262811
 51
280.3622432831
  0
ARC
  5
3A1
100
AcDbEntity
  8
KONSTRUKTIONSELEMENTE
100
AcDbCircle
 62
7
  6
CONTINUOUS
 10
170.1291363236
 20
158.4797203162
 40
8.0148175627
100
AcDbArc
 50
280.129826281
 51
280.3622432832
  0
SPLINE
  5
3A2
100
AcDbEntity
  8
0
100
AcDbSpline
 62
7
  6
CONTINUOUS
 70
0
 71
3
 72
17
 73
13
 74
0
 42
0.0000001
 43
0.0000001
 44
0.0000000001
 40
0.0
 40
0.0
 40
0.0
 40
0.0
 40
0.0053855756
 40
0.0174805465
 40
0.0372662659
 40
0.0648990663
 40
0.1437847966
 40
0.2539783776
 40
0.3951344648
 40
0.5668254644
 40
0.7686248983
 40
1.0
 40
1.0
 40
1.0
 40
1.0
 10
117.5736238919
 20
110.0847835927
 30
0.0
 10
117.573086966
 20
110.0847835927
 30
0.0
 10
117.572044154
 20
110.0867618041
 30
0.0
 10
117.5717505761
 20
110.0901645735
 30
0.0
 10
117.5713358391
 20
110.0962480371
 30
0.0
 10
117.5714567136
 20
110.1087503292
 30
0.0
 10
117.5723146414
 20
110.1304089751
 30
0.0
 10
117.5739668252
 20
110.163257577
 30
0.0
 10
117.5758510893
 20
110.2054050737
 30
0.0
 10
117.5773089616
 20
110.2566918432
 30
0.0
 10
117.5776535025
 20
110.3170021126
 30
0.0
 10
117.5766188431
 20
110.3601846366
 30
0.0
 10
117.5756933345
 20
110.3832334724
 30
0.0
  0
SPLINE
  5
3A3
100
AcDbEntity
  8
0
100
AcDbSpline
 62
7
  6
CONTINUOUS
 70
0
 71
3
 72
12
 73
8
 74
0
 42
0.0000001
 43
0.0000001
 44
0.0000000001
 40
0.0
 40
0.0
 40
0.0
 40
0.0
 40
0.3160594781
 40
0.6042220534
 40
0.8390963602
 40
0.9298444246
 40
1.0
 40
1.0
 40
1.0
 40
1.0
 10
117.5379063609
 20
113.6847849134
 30
0.0
 10
117.5379063609
 20
114.0372843018
 30
0.0
 10
117.5395832294
 20
114.7111721576
 30
0.0
 10
117.5470784651
 20
115.6469840692
 30
0.0
 10
117.5571836741
 20
116.3314746662
 30
0.0
 10
117.5680253387
 20
116.7727522909
 30
0.0
 10
117.574105398
 20
116.9521112333
 30
0.0
 10
117.5775378583
 20
117.0302800339
 30
0.0
  0
SPLINE
  5
3A4
100
AcDbEntity
  8
0
100
AcDbSpline
 62
7
  6
CONTINUOUS
 70
0
 71
3
 72
14
 73
10
 74
0
 42
0.0000001
 43
0.0000001
 44
0.0000000001
 40
0.0
 40
0.0
 40
0.0
 40
0.0
 40
0.431062255
 40
0.6017640511
 40
0.7421475866
 40
0.8519935606
 40
0.9312046449
 40
0.9799301424
 40
1.0
 40
1.0
 40
1.0
 40
1.0
 10
117.5796791951
 20
117.0765016689
 30
0.0
 10
117.5811624583
 20
117.1067357125
 30
0.0
 10
117.5837829209
 20
117.148947142
 30
0.0
 10
117.5884126624
 20
117.2008036249
 30
0.0
 10
117.5916671969
 20
117.2303014525
 30
0.0
 10
117.5947459325
 20
117.2529305841
 30
0.0
 10
117.5977960228
 20
117.2700560074
 30
0.0
 10
117.6001505337
 20
117.2788921602
 30
0.0
 10
117.6024737842
 20
117.2847849134
 30
0.0
 10
117.6038831461
 20
117.2847849134
 30
0.0
  0
LINE
  5
3A5
100
AcDbEntity
  8
0
100
AcDbLine
 62
7
  6
CONTINUOUS
 10
111.0003288248
 20
109.0828740854
 11
110.6912390489
 21
105.1847977392
  0
SPLINE
  5
3A6
100
AcDbEntity
  8
KONSTRUKTIONSELEMENTE
100
AcDbSpline
 62
7
  6
CONTINUOUS
 70
0
 71
3
 72
11
 73
7
 74
0
 42
0.0000001
 43
0.0000001
 44
0.0000000001
 40
0.0
 40
0.0
 40
0.0
 40
0.0
 40
0.2499628622
 40
0.4999540474
 40
0.7499781604
 40
1.0
 40
1.0
 40
1.0
 40
1.0
 10
111.3333098982
 20
113.4117849134
 30
0.0
 10
111.3333098982
 20
113.217380645
 30
0.0
 10
111.3637582602
 20
112.8279344934
 30
0.0
 10
111.4941490694
 20
112.2576545912
 30
0.0
 10
111.693756619
 20
111.708286952
 30
0.0
 10
111.8617871367
 20
111.3569720604
 30
0.0
 10
111.9521333717
 20
111.1847849134
 30
0.0
  0
SPLINE
  5
3A7
100
AcDbEntity
  8
KONSTRUKTIONSELEMENTE
100
AcDbSpline
 62
7
  6
CONTINUOUS
 70
0
 71
3
 72
11
 73
7
 74
0
 42
0.0000001
 43
0.0000001
 44
0.0000000001
 40
0.0
 40
0.0
 40
0.0
 40
0.0
 40
0.2500218396
 40
0.5000459526
 40
0.7500371378
 40
1.0
 40
1.0
 40
1.0
 40
1.0
 10
93.2493558176
 20
111.1847849134
 30
0.0
 10
93.3397020526
 20
111.3569720604
 30
0.0
 10
93.5077325703
 20
111.708286952
 30
0.0
 10
93.7073401199
 20
112.2576545912
 30
0.0
 10
93.8377309291
 20
112.8279344934
 30
0.0
 10
93.8681792911
 20
113.217380645
 30
0.0
 10
93.8681792911
 20
113.4117849134
 30
0.0
  0
SPLINE
  5
3A8
100
AcDbEntity
  8
KONSTRUKTIONSELEMENTE
100
AcDbSpline
 62
7
  6
CONTINUOUS
 70
0
 71
3
 72
21
 73
17
 74
0
 42
0.0000001
 43
0.0000001
 44
0.0000000001
 40
0.0
 40
0.0
 40
0.0
 40
0.0
 40
0.0312763683
 40
0.062569617
 40
0.0938594131
 40
0.1251304747
 40
0.187615212
 40
0.2501081482
 40
0.3126033635
 40
0.3750989257
 40
0.4375943914
 40
0.5000888936
 40
0.6250610047
 40
0.7500376457
 40
0.8750181697
 40
1.0
 40
1.0
 40
1.0
 40
1.0
 10
93.8681792911
 20
117.0826666065
 30
0.0
 10
93.8681792911
 20
117.148314558
 30
0.0
 10
93.8831861207
 20
117.280037772
 30
0.0
 10
93.9453446209
 20
117.4681438827
 30
0.0
 10
94.0382854779
 20
117.6426896272
 30
0.0
 10
94.1910105116
 20
117.8567998125
 30
0.0
 10
94.420045383
 20
118.0937536392
 30
0.0
 10
94.7264720775
 20
118.3414415954
 30
0.0
 10
95.052710425
 20
118.5621709268
 30
0.0
 10
95.3921760533
 20
118.761621184
 30
0.0
 10
95.7412800445
 20
118.9435595064
 30
0.0
 10
96.2165458625
 20
119.1660891944
 30
0.0
 10
96.8254304016
 20
119.4111482262
 30
0.0
 10
97.5722259737
 20
119.6605918751
 30
0.0
 10
98.3312210824
 20
119.8698579303
 30
0.0
 10
98.8434706821
 20
119.9843705686
 30
0.0
 10
99.1007445947
 20
120.035638115
 30
0.0
  0
SPLINE
  5
3A9
100
AcDbEntity
  8
KONSTRUKTIONSELEMENTE
100
AcDbSpline
 62
7
  6
CONTINUOUS
 70
0
 71
3
 72
21
 73
17
 74
0
 42
0.0000001
 43
0.0000001
 44
0.0000000001
 40
0.0
 40
0.0
 40
0.0
 40
0.0
 40
0.1249818079
 40
0.2499623095
 40
0.3749389294
 40
0.4999110205
 40
0.5624055122
 40
0.624900966
 40
0.687396515
 40
0.74989171
 40
0.8123846246
 40
0.8748693181
 40
0.9061403343
 40
0.9374302321
 40
0.9687235855
 40
1.0
 40
1.0
 40
1.0
 40
1.0
 10
106.1007445947
 20
120.035638115
 30
0.0
 10
106.3580184606
 20
119.9843705779
 30
0.0
 10
106.8702679677
 20
119.8698579624
 30
0.0
 10
107.6292629442
 20
119.6605919538
 30
0.0
 10
108.3760583942
 20
119.4111483666
 30
0.0
 10
108.9849428432
 20
119.1660894039
 30
0.0
 10
109.4602085896
 20
118.9435597771
 30
0.0
 10
109.8093125308
 20
118.7616215191
 30
0.0
 10
110.1487780798
 20
118.5621713262
 30
0.0
 10
110.4750164075
 20
118.3414421507
 30
0.0
 10
110.781442924
 20
118.0937543326
 30
0.0
 10
111.0104781266
 20
117.856801048
 30
0.0
 10
111.1632027049
 20
117.6426905715
 30
0.0
 10
111.2561446587
 20
117.4681449827
 30
0.0
 10
111.3183024839
 20
117.2800380825
 30
0.0
 10
111.3333098982
 20
117.1483146549
 30
0.0
 10
111.3333098982
 20
117.0826666065
 30
0.0
  0
SPLINE
  5
3AA
100
AcDbEntity
  8
KONSTRUKTIONSELEMENTE
100
AcDbSpline
 62
7
  6
CONTINUOUS
 70
0
 71
3
 72
11
 73
7
 74
0
 42
0.0000001
 43
0.0000001
 44
0.0000000001
 40
0.0
 40
0.0
 40
0.0
 40
0.0
 40
0.2558252066
 40
0.507988463
 40
0.755860403
 40
1.0
 40
1.0
 40
1.0
 40
1.0
 10
111.9521333717
 20
111.1847849134
 30
0.0
 10
111.8310247121
 20
111.0264514522
 30
0.0
 10
111.6007878737
 20
110.7039005635
 30
0.0
 10
111.3061192734
 20
110.1924118716
 30
0.0
 10
111.0884619285
 20
109.652326507
 30
0.0
 10
111.0149311952
 20
109.2725482036
 30
0.0
 10
111.0003288248
 20
109.0828740854
 30
0.0
  0
LINE
  5
3AB
100
AcDbEntity
  8
0
100
AcDbLine
 62
7
  6
CONTINUOUS
 10
94.5102501404
 20
105.1847977392
 11
94.2011603645
 21
109.0828740854
  0
SPLINE
  5
3AC
100
AcDbEntity
  8
KONSTRUKTIONSELEMENTE
100
AcDbSpline
 62
7
  6
CONTINUOUS
 70
0
 71
3
 72
11
 73
7
 74
0
 42
0.0000001
 43
0.0000001
 44
0.0000000001
 40
0.0
 40
0.0
 40
0.0
 40
0.0
 40
0.2441398041
 40
0.4920116447
 40
0.744174815
 40
1.0
 40
1.0
 40
1.0
 40
1.0
 10
94.2011603645
 20
109.0828740854
 30
0.0
 10
94.1865579817
 20
109.2725483652
 30
0.0
 10
94.1130273088
 20
109.6523267781
 30
0.0
 10
93.8953697537
 20
110.1924120833
 30
0.0
 10
93.6007012574
 20
110.7039006398
 30
0.0
 10
93.3704644675
 20
111.026451465
 30
0.0
 10
93.2493558176
 20
111.1847849134
 30
0.0
  0
SPLINE
  5
3AD
100
AcDbEntity
  8
RUNDUNGEN
100
AcDbSpline
 62
7
  6
CONTINUOUS
 70
0
 71
3
 72
17
 73
13
 74
0
 42
0.0000001
 43
0.0000001
 44
0.0000000001
 40
0.0
 40
0.0
 40
0.0
 40
0.0
 40
0.0262441388
 40
0.0552559651
 40
0.0886514677
 40
0.1274227546
 40
0.2227973039
 40
0.3424646063
 40
0.4845128643
 40
0.6451226142
 40
0.8191201485
 40
1.0
 40
1.0
 40
1.0
 40
1.0
 10
117.4866774069
 20
111.7730202075
 30
0.0
 10
117.4855462103
 20
111.7539542128
 30
0.0
 10
117.4762581229
 20
111.7140328539
 30
0.0
 10
117.4439642545
 20
111.6574296327
 30
0.0
 10
117.3940866988
 20
111.6026564386
 30
0.0
 10
117.2980502794
 20
111.5268993062
 30
0.0
 10
117.1328857546
 20
111.441237342
 30
0.0
 10
116.8872432935
 20
111.3552019731
 30
0.0
 10
116.5879783329
 20
111.2831886647
 30
0.0
 10
116.2451241128
 20
111.2286221769
 30
0.0
 10
115.871366563
 20
111.1939737381
 30
0.0
 10
115.6130608067
 20
111.1847849134
 30
0.0
 10
115.4814230787
 20
111.1847849134
 30
0.0
  0
SPLINE
  5
3AE
100
AcDbEntity
  8
RUNDUNGEN
100
AcDbSpline
 62
7
  6
CONTINUOUS
 70
0
 71
3
 72
17
 73
13
 74
0
 42
0.0000001
 43
0.0000001
 44
0.0000000001
 40
0.0
 40
0.0
 40
0.0
 40
0.0
 40
0.0262639486
 40
0.0552898815
 40
0.0886909261
 40
0.1274589115
 40
0.222804019
 40
0.3424228945
 40
0.4844225186
 40
0.6450067736
 40
0.8190263141
 40
1.0
 40
1.0
 40
1.0
 40
1.0
 10
87.7148117825
 20
111.7730202075
 30
0.0
 10
87.7159409534
 20
111.7539883543
 30
0.0
 10
87.7251982701
 20
111.7141436635
 30
0.0
 10
87.7573827381
 20
111.6576371707
 30
0.0
 10
87.8070934455
 20
111.6029511126
 30
0.0
 10
87.902803337
 20
111.5273143425
 30
0.0
 10
88.0674231666
 20
111.4417567682
 30
0.0
 10
88.3122920407
 20
111.3557920607
 30
0.0
 10
88.6106551076
 20
111.2837590166
 30
0.0
 10
88.9525677583
 20
111.2291217706
 30
0.0
 10
89.3254104055
 20
111.1943123598
 30
0.0
 10
89.5831361643
 20
111.1847849134
 30
0.0
 10
89.7145071728
 20
111.1847849134
 30
0.0
  0
LINE
  5
3AF
100
AcDbEntity
  8
KONSTRUKTIONSELEMENTE
100
AcDbLine
 62
7
  6
CONTINUOUS
 10
173.1450531887
 20
144.1564013368
 11
172.7888355177
 21
144.9340132045
  0
LINE
  5
3B0
100
AcDbEntity
  8
KONSTRUKTIONSELEMENTE
100
AcDbLine
 62
7
  6
CONTINUOUS
 10
172.5307784956
 20
146.7722183435
 11
172.4807166536
 21
146.8419261616
  0
LINE
  5
3B1
100
AcDbEntity
  8
KONSTRUKTIONSELEMENTE
100
AcDbLine
 62
7
  6
CONTINUOUS
 10
172.5985838757
 20
146.6241017133
 11
172.5307784956
 21
146.7722183435
  0
LINE
  5
3B2
100
AcDbEntity
  8
KONSTRUKTIONSELEMENTE
100
AcDbLine
 62
7
  6
CONTINUOUS
 10
172.6502648926
 20
146.4716347417
 11
172.5985838757
 21
146.6241017133
  0
LINE
  5
3B3
100
AcDbEntity
  8
KONSTRUKTIONSELEMENTE
100
AcDbLine
 62
7
  6
CONTINUOUS
 10
172.7203228059
 20
146.1993793668
 11
172.6502648926
 21
146.4716347417
  0
LINE
  5
3B4
100
AcDbEntity
  8
KONSTRUKTIONSELEMENTE
100
AcDbLine
 62
7
  6
CONTINUOUS
 10
172.4514925401
 20
146.5849474563
 11
172.4845350041
 21
146.5936484648
  0
LINE
  5
3B5
100
AcDbEntity
  8
KONSTRUKTIONSELEMENTE
100
AcDbLine
 62
7
  6
CONTINUOUS
 10
172.6870438848
 20
145.1561879942
 11
172.432540424
 21
145.7116250723
  0
LINE
  5
3B6
100
AcDbEntity
  8
KONSTRUKTIONSELEMENTE
100
AcDbLine
 62
7
  6
CONTINUOUS
 10
172.8697567107
 20
147.7959674868
 11
172.7837365538
 21
148.0284607992
  0
LINE
  5
3B7
100
AcDbEntity
  8
KONSTRUKTIONSELEMENTE
100
AcDbLine
 62
7
  6
CONTINUOUS
 10
172.7837365538
 20
148.0284607992
 11
172.7506157109
 21
148.1179727947
  0
LINE
  5
3B8
100
AcDbEntity
  8
KONSTRUKTIONSELEMENTE
100
AcDbLine
 62
7
  6
CONTINUOUS
 10
172.7506157109
 20
148.1179727947
 11
172.5312556968
 21
148.7107322638
  0
LINE
  5
3B9
100
AcDbEntity
  8
KONSTRUKTIONSELEMENTE
100
AcDbLine
 62
7
  6
CONTINUOUS
 10
172.5312556968
 20
148.7107322638
 11
172.4334186947
 21
148.9750684692
  0
LINE
  5
3BA
100
AcDbEntity
  8
KONSTRUKTIONSELEMENTE
100
AcDbLine
 62
7
  6
CONTINUOUS
 10
172.4334186947
 20
148.9750684692
 11
172.4138818547
 21
149.0278503548
  0
LINE
  5
3BB
100
AcDbEntity
  8
KONSTRUKTIONSELEMENTE
100
AcDbLine
 62
7
  6
CONTINUOUS
 10
172.4138818547
 20
149.0278503548
 11
172.344291974
 21
149.2158513044
  0
LINE
  5
3BC
100
AcDbEntity
  8
KONSTRUKTIONSELEMENTE
100
AcDbLine
 62
7
  6
CONTINUOUS
 10
172.9553818005
 20
147.5315713916
 11
172.926921859
 21
147.6194569464
  0
LINE
  5
3BD
100
AcDbEntity
  8
KONSTRUKTIONSELEMENTE
100
AcDbLine
 62
7
  6
CONTINUOUS
 10
172.926921859
 20
147.6194569464
 11
172.8697567107
 21
147.7959674868
  0
LINE
  5
3BE
100
AcDbEntity
  8
KONSTRUKTIONSELEMENTE
100
AcDbLine
 62
7
  6
CONTINUOUS
 10
173.0248524819
 20
147.2775955571
 11
172.9553818005
 21
147.5315713916
  0
LINE
  5
3BF
100
AcDbEntity
  8
KONSTRUKTIONSELEMENTE
100
AcDbLine
 62
7
  6
CONTINUOUS
 10
172.8742866322
 20
146.7344912934
 11
172.4371858184
 21
147.9143385495
  0
LINE
  5
3C0
100
AcDbEntity
  8
KONSTRUKTIONSELEMENTE
100
AcDbLine
 62
7
  6
CONTINUOUS
 10
172.4371858184
 20
147.9143385495
 11
172.4169350639
 21
147.9689950642
  0
LINE
  5
3C1
100
AcDbEntity
  8
KONSTRUKTIONSELEMENTE
100
AcDbLine
 62
7
  6
CONTINUOUS
 10
172.4169350639
 20
147.9689950642
 11
172.3482488396
 21
148.154375111
  0
LINE
  5
3C2
100
AcDbEntity
  8
KONSTRUKTIONSELEMENTE
100
AcDbLine
 62
7
  6
CONTINUOUS
 10
172.9427428372
 20
146.5866629079
 11
172.8742866322
 21
146.7344912934
  0
LINE
  5
3C3
100
AcDbEntity
  8
KONSTRUKTIONSELEMENTE
100
AcDbLine
 62
7
  6
CONTINUOUS
 10
172.9946907929
 20
146.5200200297
 11
172.9427428372
 21
146.5866629079
  0
LINE
  5
3C4
100
AcDbEntity
  8
KONSTRUKTIONSELEMENTE
100
AcDbLine
 62
7
  6
CONTINUOUS
 10
172.5299274416
 20
150.3382215311
 11
172.4637604964
 21
150.4949753759
  0
LINE
  5
3C5
100
AcDbEntity
  8
KONSTRUKTIONSELEMENTE
100
AcDbLine
 62
7
  6
CONTINUOUS
 10
172.6137484945
 20
150.1001987846
 11
172.5998563875
 21
150.1396660738
  0
LINE
  5
3C6
100
AcDbEntity
  8
KONSTRUKTIONSELEMENTE
100
AcDbLine
 62
7
  6
CONTINUOUS
 10
172.5998563875
 20
150.1396660738
 11
172.5299274416
 21
150.3382215311
  0
LINE
  5
3C7
100
AcDbEntity
  8
KONSTRUKTIONSELEMENTE
100
AcDbLine
 62
7
  6
CONTINUOUS
 10
172.8678457766
 20
149.301971137
 11
172.6990710967
 21
149.8321951131
  0
LINE
  5
3C8
100
AcDbEntity
  8
KONSTRUKTIONSELEMENTE
100
AcDbLine
 62
7
  6
CONTINUOUS
 10
172.6990710967
 20
149.8321951131
 11
172.6564875579
 21
149.9659563845
  0
LINE
  5
3C9
100
AcDbEntity
  8
KONSTRUKTIONSELEMENTE
100
AcDbLine
 62
7
  6
CONTINUOUS
 10
172.6564875579
 20
149.9659563845
 11
172.6137484945
 21
150.1001987846
  0
LINE
  5
3CA
100
AcDbEntity
  8
KONSTRUKTIONSELEMENTE
100
AcDbLine
 62
7
  6
CONTINUOUS
 10
172.9535277295
 20
149.0078420191
 11
172.8678457766
 21
149.301971137
  0
LINE
  5
3CB
100
AcDbEntity
  8
KONSTRUKTIONSELEMENTE
100
AcDbLine
 62
7
  6
CONTINUOUS
 10
173.023171466
 20
148.7388744542
 11
172.9535277295
 21
149.0078420191
  0
LINE
  5
3CC
100
AcDbEntity
  8
KONSTRUKTIONSELEMENTE
100
AcDbLine
 62
7
  6
CONTINUOUS
 10
173.0425729518
 20
147.8160050061
 11
172.4488997073
 21
149.6785362707
  0
LINE
  5
3CD
100
AcDbEntity
  8
KONSTRUKTIONSELEMENTE
100
AcDbLine
 62
7
  6
CONTINUOUS
 10
173.144318326
 20
148.3632457463
 11
173.1450531836
 21
148.3357330952
  0
LINE
  5
3CE
100
AcDbEntity
  8
KONSTRUKTIONSELEMENTE
100
AcDbLine
 62
7
  6
CONTINUOUS
 10
172.3434790799
 20
151.0229995632
 11
172.4712243471
 21
150.6185603458
  0
LINE
  5
3CF
100
AcDbEntity
  8
KONSTRUKTIONSELEMENTE
100
AcDbLine
 62
7
  6
CONTINUOUS
 10
172.4712243471
 20
150.6185603458
 11
172.4760202613
 21
150.6033755791
  0
LINE
  5
3D0
100
AcDbEntity
  8
KONSTRUKTIONSELEMENTE
100
AcDbLine
 62
7
  6
CONTINUOUS
 10
172.4760202613
 20
150.6033755791
 11
172.4799433722
 21
150.590954217
  0
LINE
  5
3D1
100
AcDbEntity
  8
KONSTRUKTIONSELEMENTE
100
AcDbLine
 62
7
  6
CONTINUOUS
 10
172.4799433722
 20
150.590954217
 11
172.5060394593
 21
150.508327459
  0
LINE
  5
3D2
100
AcDbEntity
  8
KONSTRUKTIONSELEMENTE
100
AcDbLine
 62
7
  6
CONTINUOUS
 10
172.5060394593
 20
150.508327459
 11
172.5570562666
 21
150.3467889334
  0
LINE
  5
3D3
100
AcDbEntity
  8
KONSTRUKTIONSELEMENTE
100
AcDbLine
 62
7
  6
CONTINUOUS
 10
172.5570562666
 20
150.3467889334
 11
172.6149197914
 21
150.1635603327
  0
LINE
  5
3D4
100
AcDbEntity
  8
KONSTRUKTIONSELEMENTE
100
AcDbLine
 62
7
  6
CONTINUOUS
 10
172.6149197914
 20
150.1635603327
 11
172.6330080774
 21
150.1062801823
  0
LINE
  5
3D5
100
AcDbEntity
  8
KONSTRUKTIONSELEMENTE
100
AcDbLine
 62
7
  6
CONTINUOUS
 10
172.6330080774
 20
150.1062801823
 11
172.8319241164
 21
149.4762909567
  0
LINE
  5
3D6
100
AcDbEntity
  8
KONSTRUKTIONSELEMENTE
100
AcDbLine
 62
7
  6
CONTINUOUS
 10
172.8319241164
 20
149.4762909567
 11
172.8804038385
 21
149.322725795
  0
LINE
  5
3D7
100
AcDbEntity
  8
KONSTRUKTIONSELEMENTE
100
AcDbLine
 62
7
  6
CONTINUOUS
 10
172.8804038385
 20
149.322725795
 11
172.8852240697
 21
149.307456593
  0
LINE
  5
3D8
100
AcDbEntity
  8
KONSTRUKTIONSELEMENTE
100
AcDbLine
 62
7
  6
CONTINUOUS
 10
172.8852240697
 20
149.307456593
 11
172.9774202472
 21
149.0153834757
  0
LINE
  5
3D9
100
AcDbEntity
  8
KONSTRUKTIONSELEMENTE
100
AcDbLine
 62
7
  6
CONTINUOUS
 10
172.9774202472
 20
149.0153834757
 11
173.0108759248
 21
148.9093875427
  0
LINE
  5
3DA
100
AcDbEntity
  8
KONSTRUKTIONSELEMENTE
100
AcDbLine
 62
7
  6
CONTINUOUS
 10
173.0108759248
 20
148.9093875427
 11
173.0609308322
 21
148.7507907108
  0
LINE
  5
3DB
100
AcDbEntity
  8
KONSTRUKTIONSELEMENTE
100
AcDbLine
 62
7
  6
CONTINUOUS
 10
173.0609308322
 20
148.7507907108
 11
173.1398323612
 21
148.5007681085
  0
LINE
  5
3DC
100
AcDbEntity
  8
KONSTRUKTIONSELEMENTE
100
AcDbLine
 62
7
  6
CONTINUOUS
 10
173.1053929766
 20
146.1683848665
 11
173.0992442313
 21
146.1604736056
  0
LINE
  5
3DD
100
AcDbEntity
  8
KONSTRUKTIONSELEMENTE
100
AcDbLine
 62
7
  6
CONTINUOUS
 10
173.0992442313
 20
146.1604736056
 11
173.0930649938
 21
146.1525518138
  0
LINE
  5
3DE
100
AcDbEntity
  8
KONSTRUKTIONSELEMENTE
100
AcDbLine
 62
7
  6
CONTINUOUS
 10
173.1488310973
 20
146.3285658727
 11
173.145731907
 21
146.3071201631
  0
LINE
  5
3DF
100
AcDbEntity
  8
KONSTRUKTIONSELEMENTE
100
AcDbLine
 62
7
  6
CONTINUOUS
 10
173.1362130273
 20
146.2427974128
 11
173.1329666148
 21
146.2213607959
  0
LINE
  5
3E0
100
AcDbEntity
  8
KONSTRUKTIONSELEMENTE
100
AcDbLine
 62
7
  6
CONTINUOUS
 10
173.1329666148
 20
146.2213607959
 11
173.1296836585
 21
146.199926242
  0
LINE
  5
3E1
100
AcDbEntity
  8
KONSTRUKTIONSELEMENTE
100
AcDbLine
 62
7
  6
CONTINUOUS
 10
173.1493215324
 20
146.643427921
 11
173.1495463304
 21
146.590950516
  0
LINE
  5
3E2
100
AcDbEntity
  8
KONSTRUKTIONSELEMENTE
100
AcDbLine
 62
7
  6
CONTINUOUS
 10
173.1307132008
 20
146.8646344767
 11
173.1339067146
 21
146.8277766845
  0
LINE
  5
3E3
100
AcDbEntity
  8
KONSTRUKTIONSELEMENTE
100
AcDbLine
 62
7
  6
CONTINUOUS
 10
173.1463126022
 20
146.6803062658
 11
173.1493215324
 21
146.643427921
  0
LINE
  5
3E4
100
AcDbEntity
  8
KONSTRUKTIONSELEMENTE
100
AcDbLine
 62
7
  6
CONTINUOUS
 10
173.0945124335
 20
147.0971379586
 11
173.1006218501
 21
147.0582632459
  0
LINE
  5
3E5
100
AcDbEntity
  8
KONSTRUKTIONSELEMENTE
100
AcDbLine
 62
7
  6
CONTINUOUS
 10
173.124755451
 20
146.903263235
 11
173.1307132008
 21
146.8646344767
  0
LINE
  5
3E6
100
AcDbEntity
  8
KONSTRUKTIONSELEMENTE
100
AcDbLine
 62
7
  6
CONTINUOUS
 10
173.0441477127
 20
147.328394162
 11
173.0711509075
 21
147.2046182991
  0
LINE
  5
3E7
100
AcDbEntity
  8
KONSTRUKTIONSELEMENTE
100
AcDbLine
 62
7
  6
CONTINUOUS
 10
173.0711509075
 20
147.2046182991
 11
173.0945124335
 21
147.0971379586
  0
LINE
  5
3E8
100
AcDbEntity
  8
KONSTRUKTIONSELEMENTE
100
AcDbLine
 62
7
  6
CONTINUOUS
 10
173.0078974469
 20
143.5914320578
 11
173.0778762115
 21
143.3457613477
  0
LINE
  5
3E9
100
AcDbEntity
  8
KONSTRUKTIONSELEMENTE
100
AcDbLine
 62
7
  6
CONTINUOUS
 10
172.9214848924
 20
143.8178670603
 11
173.0078974469
 21
143.5914320578
  0
LINE
  5
3EA
100
AcDbEntity
  8
KONSTRUKTIONSELEMENTE
100
AcDbLine
 62
7
  6
CONTINUOUS
 10
172.8753977791
 20
143.9081236435
 11
172.9214848924
 21
143.8178670603
  0
SPLINE
  5
3EB
100
AcDbEntity
  8
0
100
AcDbSpline
 62
7
  6
CONTINUOUS
 70
0
 71
3
 72
11
 73
7
 74
0
 42
0.0000001
 43
0.0000001
 44
0.0000000001
 40
0.0
 40
0.0
 40
0.0
 40
0.0
 40
0.2501153763
 40
0.5000000002
 40
0.7498846243
 40
1.0
 40
1.0
 40
1.0
 40
1.0
 10
167.467898186
 20
153.1218248679
 30
0.0
 10
167.3857707201
 20
152.3137484979
 30
0.0
 10
167.2583644904
 20
150.6942760379
 30
0.0
 10
167.1926933027
 20
148.258812078
 30
0.0
 10
167.2583644886
 20
145.8233481199
 30
0.0
 10
167.3857707203
 20
144.2038756617
 30
0.0
 10
167.467898186
 20
143.3957992937
 30
0.0
  0
SPLINE
  5
3EC
100
AcDbEntity
  8
0
100
AcDbSpline
 62
7
  6
CONTINUOUS
 70
0
 71
3
 72
11
 73
7
 74
0
 42
0.0000001
 43
0.0000001
 44
0.0000000001
 40
0.0
 40
0.0
 40
0.0
 40
0.0
 40
0.2500007761
 40
0.5000003897
 40
0.7499997461
 40
1.0
 40
1.0
 40
1.0
 40
1.0
 10
167.467898186
 20
143.3957992937
 30
0.0
 10
167.3976207895
 20
142.5410829581
 30
0.0
 10
167.2840710044
 20
140.8292750704
 30
0.0
 10
167.2041575431
 20
138.2571673121
 30
0.0
 10
167.2196054635
 20
135.6838453298
 30
0.0
 10
167.2928183808
 20
133.969790164
 30
0.0
 10
167.3440581278
 20
133.1137233776
 30
0.0
  0
LINE
  5
3ED
100
AcDbEntity
  8
KONSTRUKTIONSELEMENTE
100
AcDbLine
 62
7
  6
CONTINUOUS
 10
171.5147873708
 20
149.8295070967
 11
171.7102029097
 21
149.2158517669
  0
LINE
  5
3EE
100
AcDbEntity
  8
KONSTRUKTIONSELEMENTE
100
AcDbLine
 62
7
  6
CONTINUOUS
 10
171.5164569136
 20
147.9420797711
 11
171.9147501276
 21
146.8659039797
  0
SPLINE
  5
3EF
100
AcDbEntity
  8
0
100
AcDbSpline
 62
7
  6
CONTINUOUS
 70
0
 71
3
 72
11
 73
7
 74
0
 42
0.0000001
 43
0.0000001
 44
0.0000000001
 40
0.0
 40
0.0
 40
0.0
 40
0.0
 40
0.2621661666
 40
0.5197709573
 40
0.7678634178
 40
1.0
 40
1.0
 40
1.0
 40
1.0
 10
165.8690956344
 20
117.0284445897
 30
0.0
 10
166.0077095558
 20
117.2740919872
 30
0.0
 10
166.2820278655
 20
117.761389828
 30
0.0
 10
166.6778363057
 20
118.4866093115
 30
0.0
 10
167.0384806398
 20
119.1938586271
 30
0.0
 10
167.249920439
 20
119.6659202843
 30
0.0
 10
167.3404296373
 20
119.8986925156
 30
0.0
  0
SPLINE
  5
3F0
100
AcDbEntity
  8
0
100
AcDbSpline
 62
7
  6
CONTINUOUS
 70
0
 71
3
 72
14
 73
10
 74
0
 42
0.0000001
 43
0.0000001
 44
0.0000000001
 40
0.0
 40
0.0
 40
0.0
 40
0.0
 40
0.376886207
 40
0.5483851155
 40
0.700162727
 40
0.8261459658
 40
0.9208373109
 40
0.979802274
 40
1.0
 40
1.0
 40
1.0
 40
1.0
 10
162.4483594922
 20
111.7730202075
 30
0.0
 10
162.2011346076
 20
111.7002866163
 30
0.0
 10
161.8414999784
 20
111.5941582723
 30
0.0
 10
161.3825421146
 20
111.4579311725
 30
0.0
 10
161.088167114
 20
111.3701423571
 30
0.0
 10
160.844218965
 20
111.29700247
 30
0.0
 10
160.6613128079
 20
111.2413197347
 30
0.0
 10
160.5474832323
 20
111.2069632656
 30
0.0
 10
160.496274725
 20
111.1894261868
 30
0.0
 10
160.4832643051
 20
111.1847849134
 30
0.0
  0
LINE
  5
3F1
100
AcDbEntity
  8
KONSTRUKTIONSELEMENTE
100
AcDbLine
 62
7
  6
CONTINUOUS
 10
171.8350329634
 20
148.1543752999
 11
171.5204137777
 21
149.0035560657
  0
LINE
  5
3F2
100
AcDbEntity
  8
KONSTRUKTIONSELEMENTE
100
AcDbLine
 62
7
  6
CONTINUOUS
 10
172.3434790859
 20
145.6484930335
 11
172.589299241
 21
145.1114509123
  0
LINE
  5
3F3
100
AcDbEntity
  8
KONSTRUKTIONSELEMENTE
100
AcDbLine
 62
7
  6
CONTINUOUS
 10
172.589299241
 20
145.1114509123
 11
172.6909938729
 21
144.8892379195
  0
LINE
  5
3F4
100
AcDbEntity
  8
KONSTRUKTIONSELEMENTE
100
AcDbLine
 62
7
  6
CONTINUOUS
 10
172.6909938729
 20
144.8892379195
 11
173.0468283472
 21
144.1114749607
  0
LINE
  5
3F5
100
AcDbEntity
  8
KONSTRUKTIONSELEMENTE
100
AcDbLine
 62
7
  6
CONTINUOUS
 10
173.0468283472
 20
144.1114749607
 11
173.1398323686
 21
143.9081236399
  0
LINE
  5
3F6
100
AcDbEntity
  8
0
100
AcDbLine
 62
7
  6
CONTINUOUS
 10
168.9832597037
 20
118.5169438264
 11
168.9832643051
 21
117.1075986231
  0
LINE
  5
3F7
100
AcDbEntity
  8
KONSTRUKTIONSELEMENTE
100
AcDbLine
 62
7
  6
CONTINUOUS
 10
172.6372803184
 20
146.2603861765
 11
172.6721765373
 21
146.1035686415
  0
LINE
  5
3F8
100
AcDbEntity
  8
KONSTRUKTIONSELEMENTE
100
AcDbLine
 62
7
  6
CONTINUOUS
 10
172.5858296115
 20
146.412853148
 11
172.6372803184
 21
146.2603861765
  0
LINE
  5
3F9
100
AcDbEntity
  8
KONSTRUKTIONSELEMENTE
100
AcDbLine
 62
7
  6
CONTINUOUS
 10
172.5349213489
 20
146.5239406466
 11
172.5858296115
 21
146.412853148
  0
LINE
  5
3FA
100
AcDbEntity
  8
KONSTRUKTIONSELEMENTE
100
AcDbLine
 62
7
  6
CONTINUOUS
 10
172.4845350041
 20
146.5936484648
 11
172.5013867513
 21
146.5703438714
  0
LINE
  5
3FB
100
AcDbEntity
  8
KONSTRUKTIONSELEMENTE
100
AcDbLine
 62
7
  6
CONTINUOUS
 10
172.5013867513
 20
146.5703438714
 11
172.5097915164
 21
146.5587173216
  0
LINE
  5
3FC
100
AcDbEntity
  8
KONSTRUKTIONSELEMENTE
100
AcDbLine
 62
7
  6
CONTINUOUS
 10
172.5097915164
 20
146.5587173216
 11
172.5349213489
 21
146.5239406466
  0
LINE
  5
3FD
100
AcDbEntity
  8
KONSTRUKTIONSELEMENTE
100
AcDbLine
 62
7
  6
CONTINUOUS
 10
172.9553818005
 20
146.3285650729
 11
173.0248524841
 21
146.2161193637
  0
LINE
  5
3FE
100
AcDbEntity
  8
KONSTRUKTIONSELEMENTE
100
AcDbLine
 62
7
  6
CONTINUOUS
 10
172.8697567107
 20
146.5221959535
 11
172.9553818005
 21
146.3285650729
  0
LINE
  5
3FF
100
AcDbEntity
  8
KONSTRUKTIONSELEMENTE
100
AcDbLine
 62
7
  6
CONTINUOUS
 10
172.344291974
 20
147.9420797711
 11
172.7837029743
 21
146.754780019
  0
LINE
  5
400
100
AcDbEntity
  8
KONSTRUKTIONSELEMENTE
100
AcDbLine
 62
7
  6
CONTINUOUS
 10
172.7837029743
 20
146.754780019
 11
172.8012135433
 21
146.7074547846
  0
LINE
  5
401
100
AcDbEntity
  8
KONSTRUKTIONSELEMENTE
100
AcDbLine
 62
7
  6
CONTINUOUS
 10
172.8012135433
 20
146.7074547846
 11
172.8697567107
 21
146.5221959535
  0
LINE
  5
402
100
AcDbEntity
  8
KONSTRUKTIONSELEMENTE
100
AcDbLine
 62
7
  6
CONTINUOUS
 10
172.9427428388
 20
147.3650788505
 11
172.9946907916
 21
147.1569057457
  0
LINE
  5
403
100
AcDbEntity
  8
KONSTRUKTIONSELEMENTE
100
AcDbLine
 62
7
  6
CONTINUOUS
 10
172.8742866305
 20
147.5836722481
 11
172.8971743549
 21
147.5105984941
  0
LINE
  5
404
100
AcDbEntity
  8
KONSTRUKTIONSELEMENTE
100
AcDbLine
 62
7
  6
CONTINUOUS
 10
172.8971743549
 20
147.5105984941
 11
172.9427428388
 21
147.3650788505
  0
LINE
  5
405
100
AcDbEntity
  8
KONSTRUKTIONSELEMENTE
100
AcDbLine
 62
7
  6
CONTINUOUS
 10
172.3482488381
 20
149.0035560657
 11
172.6853137823
 21
148.0937880877
  0
LINE
  5
406
100
AcDbEntity
  8
KONSTRUKTIONSELEMENTE
100
AcDbLine
 62
7
  6
CONTINUOUS
 10
172.6853137823
 20
148.0937880877
 11
172.7009305769
 21
148.0516337329
  0
LINE
  5
407
100
AcDbEntity
  8
KONSTRUKTIONSELEMENTE
100
AcDbLine
 62
7
  6
CONTINUOUS
 10
172.7009305769
 20
148.0516337329
 11
172.787858621
 21
147.8169833093
  0
LINE
  5
408
100
AcDbEntity
  8
KONSTRUKTIONSELEMENTE
100
AcDbLine
 62
7
  6
CONTINUOUS
 10
172.787858621
 20
147.8169833093
 11
172.8045870945
 21
147.7718258893
  0
LINE
  5
409
100
AcDbEntity
  8
KONSTRUKTIONSELEMENTE
100
AcDbLine
 62
7
  6
CONTINUOUS
 10
172.8045870945
 20
147.7718258893
 11
172.8742866305
 21
147.5836722481
  0
SPLINE
  5
40A
100
AcDbEntity
  8
RUNDUNGEN
100
AcDbSpline
 62
7
  6
CONTINUOUS
 70
0
 71
3
 72
11
 73
7
 74
0
 42
0.0000001
 43
0.0000001
 44
0.0000000001
 40
0.0
 40
0.0
 40
0.0
 40
0.0
 40
0.2621661666
 40
0.5197709573
 40
0.7678634178
 40
1.0
 40
1.0
 40
1.0
 40
1.0
 10
172.0974329758
 20
117.0284445897
 30
0.0
 10
171.9588190543
 20
117.2740919872
 30
0.0
 10
171.6845007447
 20
117.761389828
 30
0.0
 10
171.2886923044
 20
118.4866093115
 30
0.0
 10
170.9280479703
 20
119.1938586271
 30
0.0
 10
170.7166081711
 20
119.6659202843
 30
0.0
 10
170.6260989728
 20
119.8986925156
 30
0.0
  0
SPLINE
  5
40B
100
AcDbEntity
  8
RUNDUNGEN
100
AcDbSpline
 62
7
  6
CONTINUOUS
 70
0
 71
3
 72
14
 73
10
 74
0
 42
0.0000001
 43
0.0000001
 44
0.0000000001
 40
0.0
 40
0.0
 40
0.0
 40
0.0
 40
0.376886207
 40
0.5483851155
 40
0.700162727
 40
0.8261459658
 40
0.9208373109
 40
0.979802274
 40
1.0
 40
1.0
 40
1.0
 40
1.0
 10
175.5181691179
 20
111.7730202075
 30
0.0
 10
175.7653940025
 20
111.7002866163
 30
0.0
 10
176.1250286318
 20
111.5941582723
 30
0.0
 10
176.5839864955
 20
111.4579311725
 30
0.0
 10
176.8783614961
 20
111.3701423571
 30
0.0
 10
177.1223096452
 20
111.29700247
 30
0.0
 10
177.3052158022
 20
111.2413197347
 30
0.0
 10
177.4190453778
 20
111.2069632656
 30
0.0
 10
177.4702538851
 20
111.1894261868
 30
0.0
 10
177.4832643051
 20
111.1847849134
 30
0.0
  0
LINE
  5
40C
100
AcDbEntity
  8
KONSTRUKTIONSELEMENTE
100
AcDbLine
 62
7
  6
CONTINUOUS
 10
172.3426224312
 20
149.8295070967
 11
172.3960609658
 21
149.6617092014
  0
LINE
  5
40D
100
AcDbEntity
  8
KONSTRUKTIONSELEMENTE
100
AcDbLine
 62
7
  6
CONTINUOUS
 10
172.3960609658
 20
149.6617092014
 11
172.9789504136
 21
147.8307156237
  0
LINE
  5
40E
100
AcDbEntity
  8
KONSTRUKTIONSELEMENTE
100
AcDbLine
 62
7
  6
CONTINUOUS
 10
172.9789504136
 20
147.8307156237
 11
172.9890513165
 21
147.7989726994
  0
LINE
  5
40F
100
AcDbEntity
  8
KONSTRUKTIONSELEMENTE
100
AcDbLine
 62
7
  6
CONTINUOUS
 10
172.9890513165
 20
147.7989726994
 11
173.0632181273
 21
147.5658803409
  0
LINE
  5
410
100
AcDbEntity
  8
KONSTRUKTIONSELEMENTE
100
AcDbLine
 62
7
  6
CONTINUOUS
 10
173.0632181273
 20
147.5658803409
 11
173.1387728823
 21
147.3283937363
  0
LINE
  5
411
100
AcDbEntity
  8
KONSTRUKTIONSELEMENTE
100
AcDbLine
 62
7
  6
CONTINUOUS
 10
172.9415110716
 20
148.8927369874
 11
172.993649094
 21
148.6769846313
  0
LINE
  5
412
100
AcDbEntity
  8
KONSTRUKTIONSELEMENTE
100
AcDbLine
 62
7
  6
CONTINUOUS
 10
172.8729774086
 20
149.1336509337
 11
172.9415110716
 21
148.8927369874
  0
LINE
  5
413
100
AcDbEntity
  8
KONSTRUKTIONSELEMENTE
100
AcDbLine
 62
7
  6
CONTINUOUS
 10
172.6185443678
 20
149.9318785813
 11
172.7886826052
 21
149.3981227524
  0
LINE
  5
414
100
AcDbEntity
  8
KONSTRUKTIONSELEMENTE
100
AcDbLine
 62
7
  6
CONTINUOUS
 10
172.7886826052
 20
149.3981227524
 11
172.8308947088
 21
149.2656858658
  0
LINE
  5
415
100
AcDbEntity
  8
KONSTRUKTIONSELEMENTE
100
AcDbLine
 62
7
  6
CONTINUOUS
 10
172.8308947088
 20
149.2656858658
 11
172.8729774086
 21
149.1336509337
  0
LINE
  5
416
100
AcDbEntity
  8
KONSTRUKTIONSELEMENTE
100
AcDbLine
 62
7
  6
CONTINUOUS
 10
172.5513127957
 20
150.1166860072
 11
172.5738081289
 21
150.0548720435
  0
LINE
  5
417
100
AcDbEntity
  8
KONSTRUKTIONSELEMENTE
100
AcDbLine
 62
7
  6
CONTINUOUS
 10
172.5738081289
 20
150.0548720435
 11
172.6185443678
 21
149.9318785813
  0
LINE
  5
418
100
AcDbEntity
  8
KONSTRUKTIONSELEMENTE
100
AcDbLine
 62
7
  6
CONTINUOUS
 10
172.5015071117
 20
150.2202248295
 11
172.5098698658
 21
150.2028706132
  0
LINE
  5
419
100
AcDbEntity
  8
KONSTRUKTIONSELEMENTE
100
AcDbLine
 62
7
  6
CONTINUOUS
 10
172.5098698658
 20
150.2028706132
 11
172.5182078769
 21
150.1855555288
  0
LINE
  5
41A
100
AcDbEntity
  8
KONSTRUKTIONSELEMENTE
100
AcDbLine
 62
7
  6
CONTINUOUS
 10
172.5182078769
 20
150.1855555288
 11
172.5513127957
 21
150.1166860072
  0
LINE
  5
41B
100
AcDbEntity
  8
KONSTRUKTIONSELEMENTE
100
AcDbLine
 62
7
  6
CONTINUOUS
 10
172.496110968
 20
150.2239255269
 11
172.5015071117
 21
150.2202248295
  0
LINE
  5
41C
100
AcDbEntity
  8
0
100
AcDbLine
 62
7
  6
CONTINUOUS
 10
168.9832643051
 20
110.4130884016
 11
168.9832643051
 21
109.1267870876
  0
LINE
  5
41D
100
AcDbEntity
  8
KONSTRUKTIONSELEMENTE
100
AcDbLine
 62
7
  6
CONTINUOUS
 10
171.5156440255
 20
145.6484930335
 11
172.3119973082
 21
143.9081236399
  0
SPLINE
  5
41E
100
AcDbEntity
  8
0
100
AcDbSpline
 62
7
  6
CONTINUOUS
 70
0
 71
3
 72
11
 73
7
 74
0
 42
0.0000001
 43
0.0000001
 44
0.0000000001
 40
0.0
 40
0.0
 40
0.0
 40
0.0
 40
0.2500007761
 40
0.5000003897
 40
0.7499997461
 40
1.0
 40
1.0
 40
1.0
 40
1.0
 10
170.4986304241
 20
143.3957992937
 30
0.0
 10
170.5689078206
 20
142.5410829581
 30
0.0
 10
170.6824576058
 20
140.8292750704
 30
0.0
 10
170.762371067
 20
138.2571673121
 30
0.0
 10
170.7469231466
 20
135.6838453298
 30
0.0
 10
170.6737102293
 20
133.969790164
 30
0.0
 10
170.6224704823
 20
133.1137233776
 30
0.0
  0
SPLINE
  5
41F
100
AcDbEntity
  8
0
100
AcDbSpline
 62
7
  6
CONTINUOUS
 70
0
 71
3
 72
11
 73
7
 74
0
 42
0.0000001
 43
0.0000001
 44
0.0000000001
 40
0.0
 40
0.0
 40
0.0
 40
0.0
 40
0.2501153763
 40
0.5000000002
 40
0.7498846243
 40
1.0
 40
1.0
 40
1.0
 40
1.0
 10
170.4986304241
 20
153.1218248679
 30
0.0
 10
170.58075789
 20
152.3137484979
 30
0.0
 10
170.7081641197
 20
150.6942760379
 30
0.0
 10
170.7738353074
 20
148.258812078
 30
0.0
 10
170.7081641215
 20
145.8233481199
 30
0.0
 10
170.5807578898
 20
144.2038756617
 30
0.0
 10
170.4986304241
 20
143.3957992937
 30
0.0
  0
SPLINE
  5
420
100
AcDbEntity
  8
0
100
AcDbSpline
 62
7
  6
CONTINUOUS
 70
0
 71
3
 72
11
 73
7
 74
0
 42
0.0000001
 43
0.0000001
 44
0.0000000001
 40
0.0
 40
0.0
 40
0.0
 40
0.0
 40
0.2520136566
 40
0.5000000002
 40
0.747986344
 40
1.0
 40
1.0
 40
1.0
 40
1.0
 10
167.467898186
 20
156.8368360618
 30
0.0
 10
167.3867355319
 20
156.5318043832
 30
0.0
 10
167.2591870692
 20
155.9168037677
 30
0.0
 10
167.1924515681
 20
154.9793304639
 30
0.0
 10
167.2591870674
 20
154.0418571603
 30
0.0
 10
167.386735532
 20
153.4268565459
 30
0.0
 10
167.467898186
 20
153.1218248679
 30
0.0
  0
SPLINE
  5
421
100
AcDbEntity
  8
0
100
AcDbSpline
 62
7
  6
CONTINUOUS
 70
0
 71
3
 72
11
 73
7
 74
0
 42
0.0000001
 43
0.0000001
 44
0.0000000001
 40
0.0
 40
0.0
 40
0.0
 40
0.0
 40
0.2520136566
 40
0.5000000002
 40
0.747986344
 40
1.0
 40
1.0
 40
1.0
 40
1.0
 10
170.4986304241
 20
156.8368360618
 30
0.0
 10
170.5797930783
 20
156.5318043832
 30
0.0
 10
170.7073415409
 20
155.9168037677
 30
0.0
 10
170.774077042
 20
154.9793304639
 30
0.0
 10
170.7073415427
 20
154.0418571603
 30
0.0
 10
170.5797930781
 20
153.4268565459
 30
0.0
 10
170.4986304241
 20
153.1218248679
 30
0.0
  0
ELLIPSE
  5
422
100
AcDbEntity
  8
0
100
AcDbEllipse
 62
7
  6
CONTINUOUS
 10
117.6007445947
 20
113.6847849134
 30
0.0
 11
-0.0
 21
3.6
 31
0.0
 40
0.0174550649
 41
-4.7123889804
 42
-3.5516508528
  0
ELLIPSE
  5
423
100
AcDbEntity
  8
0
100
AcDbEllipse
 62
7
  6
CONTINUOUS
 10
87.6007445947
 20
113.6847849134
 30
0.0
 11
-0.0
 21
2.5
 31
0.0
 40
0.0174550649
 41
-3.1415926536
 42
0.0
  0
ELLIPSE
  5
424
100
AcDbEntity
  8
0
100
AcDbEllipse
 62
7
  6
CONTINUOUS
 10
165.3786150891
 20
124.6053425292
 30
0.0
 11
-0.5477953176
 21
8.6228211114
 31
0.0
 40
0.2314525424
 41
-2.1628157657
 42
-1.8386768464
  0
ELLIPSE
  5
425
100
AcDbEntity
  8
RUNDUNGEN
100
AcDbEllipse
 62
7
  6
CONTINUOUS
 10
172.587913521
 20
124.6053425292
 30
0.0
 11
0.5477953176
 21
8.6228211114
 31
0.0
 40
0.2314525424
 41
-4.4445084607
 42
-4.1203695415
  0
ENDSEC
  0
SECTION
  2
OBJECTS
  0
DICTIONARY
  5
C
100
AcDbDictionary
280
0
281
1
  3
ACAD_GROUP
350
D
  3
ACAD_MLINESTYLE
350
17
  3
ACAD_LAYOUT
350
1A
  3
ACAD_PLOTSETTINGS
350
19
  3
ACAD_PLOTSTYLENAME
350
E
  0
DICTIONARY
  5
D
102
{ACAD_REACTORS
330
C
102
}
100
AcDbDictionary
280
0
281
1
  0
ACDBDICTIONARYWDFLT
  5
E
102
{ACAD_REACTORS
330
C
102
}
100
AcDbDictionary
281
1
  3
Normal
350
F
100
AcDbDictionaryWithDefault
340
F
  0
DICTIONARY
  5
17
102
{ACAD_REACTORS
330
C
102
}
100
AcDbDictionary
280
0
281
1
  3
Standard
350
18
  0
DICTIONARY
  5
19
102
{ACAD_REACTORS
330
C
102
}
100
AcDbDictionary
281
1
  0
DICTIONARY
  5
1A
102
{ACAD_REACTORS
330
C
102
}
100
AcDbDictionary
281
1
  3
Model
350
426
  3
Layout1
350
427
  0
ACDBPLACEHOLDER
  5
F
102
{ACAD_REACTORS
330
E
102
}
  0
MLINESTYLE
  5
18
102
{ACAD_REACTORS
330
17
102
}
100
AcDbMlineStyle
  2
STANDARD
 70
0
  3

 62
256
 51
90.0
 52
90.0
 71
2
 49
0.5
 62
256
  6
BYLAYER
 49
-0.5
 62
256
  6
BYLAYER
  0
LAYOUT
  5
426
102
{ACAD_REACTORS
330
1A
102
}
100
AcDbPlotSettings
  1

  2
none_device
  4
ISO_A4_(297.00_x_210.00_MM)
  6

 40
0.0
 41
0.0
 42
0.0
 43
0.0
 44
297.0
 45
210.0
 46
0.0
 47
0.0
 48
0.0
 49
0.0
140
0.0
141
0.0
142
1.0
143
1.0
 70
1024
 72
1
 73
0
 74
0
  7

 75
0
147
1.0
148
0.0
149
0.0
100
AcDbLayout
  1
Model
 70
0
 71
0
 10
0.0
 20
0.0
 11
297.0
 21
210.0
 12
0.0
 22
0.0
 32
0.0
 14
0.0
 24
0.0
 34
0.0
 15
0.0
 25
0.0
 35
0.0
146
0.0
 13
0.0
 23
0.0
 33
0.0
 16
1.0
 26
0.0
 36
0.0
 17
0.0
 27
1.0
 37
0.0
 76
0
330
209
345
0
346
0
  0
LAYOUT
  5
427
102
{ACAD_REACTORS
330
1A
102
}
100
AcDbPlotSettings
  1

  2
none_device
  4
ISO_A4_(297.00_x_210.00_MM)
  6

 40
0.0
 41
0.0
 42
0.0
 43
0.0
 44
297.0
 45
210.0
 46
0.0
 47
0.0
 48
0.0
 49
0.0
140
0.0
141
0.0
142
1.0
143
1.0
 70
0
 72
1
 73
0
 74
0
  7

 75
0
147
1.0
148
0.0
149
0.0
100
AcDbLayout
  1
Layout1
 70
0
 71
1
 10
0.0
 20
0.0
 11
297.0
 21
210.0
 12
0.0
 22
0.0
 32
0.0
 14
0.0
 24
0.0
 34
0.0
 15
0.0
 25
0.0
 35
0.0
146
0.0
 13
0.0
 23
0.0
 33
0.0
 16
1.0
 26
0.0
 36
0.0
 17
0.0
 27
1.0
 37
0.0
 76
0
330
20A
345
0
346
0
  0
ENDSEC
  0
EOF
