999
DXF file: VRG-22_7101611_M31494-P-1.dxf
999
Pro/ENGINEER 2010140 by Parametric Technology Corporation
  0
SECTION
  2
HEADER
  9
$ACADVER
  1
AC1015
  9
$DWGCODEPAGE
  3
ANSI_1252
  9
$EXTMAX
 10
420.0
 20
297.0
 30
0.0
  9
$EXTMIN
 10
0.0
 20
0.0
 30
0.0
  9
$LIMMIN
 10
0.0
 20
0.0
  9
$LIMMAX
 10
420.0
 20
297.0
  9
$VIEWCTR
 10
210.0
 20
148.5
  9
$VIEWSIZE
 40
297.0
  9
$CLAYER
  8
0
  9
$LTSCALE
 40
23.1
  9
$CELTYPE
  6
BYLAYER
  9
$DIMSCALE
 40
1.0
  9
$DIMASZ
 40
3.5
  9
$DIMEXO
 40
2.625
  9
$DIMDLI
 40
15.96
  9
$DIMEXE
 40
7.56
  9
$DIMCEN
 40
3.78
  9
$DIMLFAC
 40
1.0
  9
$DIMBLK
  1
_FILLED
  9
$DIMTXT
 40
3.5
  9
$DIMTOL
 70
1
  9
$DIMLIM
 70
0
  9
$DIMTFAC
 40
1.0
  9
$DIMTP
 40
0.005
  9
$DIMTM
 40
0.005
  9
$PDMODE
 70
3
  9
$PDSIZE
 40
0.3125
  9
$HANDSEED
  5
510
  9
$TILEMODE
 70
1
  9
$MEASUREMENT
 70
1
  9
$INSUNITS
 70
4
  0
ENDSEC
  0
SECTION
  2
CLASSES
  0
CLASS
  1
ACDBDICTIONARYWDFLT
  2
AcDbDictionaryWithDefault
  3
AutoCAD 2000
 90
0
280
0
281
0
  0
CLASS
  1
ACDBPLACEHOLDER
  2
AcDbPlaceHolder
  3
AutoCAD 2000
 90
0
280
0
281
0
  0
CLASS
  1
LAYOUT
  2
AcDbLayout
  3
AutoCAD 2000
 90
0
280
0
281
0
  0
ENDSEC
  0
SECTION
  2
TABLES
  0
TABLE
  2
VPORT
  5
8
100
AcDbSymbolTable
 70
2
  0
VPORT
  5
1F4
100
AcDbSymbolTableRecord
100
AcDbViewportTableRecord
  2
*ACTIVE
 70
0
 10
0.0
 20
0.0
 11
1.0
 21
1.0
 12
210.0
 22
148.5
 13
0.0
 23
0.0
 14
1.0
 24
1.0
 15
0.0
 25
0.0
 16
0.0
 26
0.0
 36
1.0
 17
0.0
 27
0.0
 37
0.0
 40
297.0
 41
1.4141414141
 42
50.0
 43
0.0
 44
0.0
 50
0.0
 51
0.0
 71
0
 72
100
 73
1
 74
1
 75
0
 76
0
 77
0
 78
0
  0
ENDTAB
  0
TABLE
  2
LTYPE
  5
5
100
AcDbSymbolTable
 70
6
  0
LTYPE
  5
14
100
AcDbSymbolTableRecord
100
AcDbLinetypeTableRecord
  2
BYBLOCK
 70
0
  3

 72
65
 73
0
 40
0.0
  0
LTYPE
  5
15
100
AcDbSymbolTableRecord
100
AcDbLinetypeTableRecord
  2
BYLAYER
 70
0
  3

 72
65
 73
0
 40
0.0
  0
LTYPE
  5
16
100
AcDbSymbolTableRecord
100
AcDbLinetypeTableRecord
  2
CONTINUOUS
 70
64
  3
Solid line
 72
65
 73
0
 40
0.0
  0
LTYPE
  5
1F5
100
AcDbSymbolTableRecord
100
AcDbLinetypeTableRecord
  2
CENTER
 70
64
  3
____ _ ____ _ ____ _ ____ _ ____ _ ____ _ ____
 72
65
 73
4
 40
0.6
 49
0.375
 74
0
 49
-0.075
 74
0
 49
0.075
 74
0
 49
-0.075
 74
0
  0
LTYPE
  5
1F6
100
AcDbSymbolTableRecord
100
AcDbLinetypeTableRecord
  2
HIDDEN
 70
64
  3
- - - - - - - - - - - - - - - - - - - -
 72
65
 73
2
 40
0.2
 49
0.1
 74
0
 49
-0.1
 74
0
  0
LTYPE
  5
1F7
100
AcDbSymbolTableRecord
100
AcDbLinetypeTableRecord
  2
PHANTOM
 70
64
  3
_____ _ _ _____ _ _ _____ _ _ _____
 72
65
 73
6
 40
0.8
 49
0.45
 74
0
 49
-0.05
 74
0
 49
0.1
 74
0
 49
-0.05
 74
0
 49
0.1
 74
0
 49
-0.05
 74
0
  0
LTYPE
  5
1F8
100
AcDbSymbolTableRecord
100
AcDbLinetypeTableRecord
  2
DOT
 70
64
  3
. . . . . . . . . . . . . . . . . . . .
 72
65
 73
2
 40
0.2
 49
0.1
 74
0
 49
-0.1
 74
0
  0
LTYPE
  5
1F9
100
AcDbSymbolTableRecord
100
AcDbLinetypeTableRecord
  2
DASHED
 70
64
  3
- - - - - - - - - - - - - - - - - - - -
 72
65
 73
2
 40
0.2
 49
0.1
 74
0
 49
-0.1
 74
0
  0
ENDTAB
  0
TABLE
  2
LAYER
  5
2
100
AcDbSymbolTable
 70
36
  0
LAYER
  5
10
100
AcDbSymbolTableRecord
100
AcDbLayerTableRecord
  2
0
 70
0
 62
7
  6
CONTINUOUS
370
-3
390
F
  0
LAYER
  5
1FA
100
AcDbSymbolTableRecord
100
AcDbLayerTableRecord
  2
DEFAULT_1
 70
0
 62
7
  6
CENTER
370
-3
390
F
  0
LAYER
  5
1FB
100
AcDbSymbolTableRecord
100
AcDbLayerTableRecord
  2
DEFAULT_2
 70
0
 62
8
  6
HIDDEN
370
-3
390
F
  0
LAYER
  5
1FC
100
AcDbSymbolTableRecord
100
AcDbLayerTableRecord
  2
DEFAULT_3
 70
0
 62
7
  6
PHANTOM
370
-3
390
F
  0
LAYER
  5
1FD
100
AcDbSymbolTableRecord
100
AcDbLayerTableRecord
  2
BEZUGSACHSEN
 70
0
 62
7
  6
CONTINUOUS
370
-3
390
F
  0
LAYER
  5
1FE
100
AcDbSymbolTableRecord
100
AcDbLayerTableRecord
  2
BEZUGSEBENEN
 70
0
 62
7
  6
CONTINUOUS
370
-3
390
F
  0
LAYER
  5
1FF
100
AcDbSymbolTableRecord
100
AcDbLayerTableRecord
  2
FASEN
 70
0
 62
7
  6
CONTINUOUS
370
-3
390
F
  0
LAYER
  5
200
100
AcDbSymbolTableRecord
100
AcDbLayerTableRecord
  2
HILFEN
 70
0
 62
7
  6
CONTINUOUS
370
-3
390
F
  0
LAYER
  5
201
100
AcDbSymbolTableRecord
100
AcDbLayerTableRecord
  2
KONSTRUKTIONSELEMENTE
 70
0
 62
7
  6
CONTINUOUS
370
-3
390
F
  0
LAYER
  5
202
100
AcDbSymbolTableRecord
100
AcDbLayerTableRecord
  2
PLATZIERUNG
 70
0
 62
7
  6
CONTINUOUS
370
-3
390
F
  0
LAYER
  5
203
100
AcDbSymbolTableRecord
100
AcDbLayerTableRecord
  2
RUNDUNGEN
 70
0
 62
7
  6
CONTINUOUS
370
-3
390
F
  0
LAYER
  5
204
100
AcDbSymbolTableRecord
100
AcDbLayerTableRecord
  2
TEIL_STARTBEZUEGE
 70
0
 62
7
  6
CONTINUOUS
370
-3
390
F
  0
ENDTAB
  0
TABLE
  2
STYLE
  5
3
100
AcDbSymbolTable
 70
1
  0
STYLE
  5
11
100
AcDbSymbolTableRecord
100
AcDbTextStyleTableRecord
  2
STANDARD
 70
0
 40
0.0
 41
0.7
 50
0.0
 71
0
 42
0.2
  3
txt
  4

  0
STYLE
  5
205
100
AcDbSymbolTableRecord
100
AcDbTextStyleTableRecord
  2
TEXTSTYLE_1
 70
0
 40
0.0
 41
0.8
 50
0.0
 71
0
 42
0.2
  3
gdt
  4

  0
ENDTAB
  0
TABLE
  2
VIEW
  5
6
100
AcDbSymbolTable
 70
0
  0
ENDTAB
  0
TABLE
  2
UCS
  5
7
100
AcDbSymbolTable
 70
0
  0
ENDTAB
  0
TABLE
  2
APPID
  5
9
100
AcDbSymbolTable
 70
1
  0
APPID
  5
206
100
AcDbSymbolTableRecord
100
AcDbRegAppTableRecord
  2
ACAD
 70
0
  0
ENDTAB
  0
TABLE
  2
BLOCK_RECORD
  5
1
100
AcDbSymbolTable
 70
0
  0
BLOCK_RECORD
  5
207
100
AcDbSymbolTableRecord
100
AcDbBlockTableRecord
  2
*Model_Space
  0
BLOCK_RECORD
  5
208
100
AcDbSymbolTableRecord
100
AcDbBlockTableRecord
  2
*Paper_Space
  0
ENDTAB
  0
TABLE
  2
DIMSTYLE
  5
A
100
AcDbSymbolTable
 70
1
100
AcDbDimStyleTable
 71
0
  0
DIMSTYLE
105
209
100
AcDbSymbolTableRecord
100
AcDbDimStyleTableRecord
  2
STANDARD
 70
0
  3

  4

 40
1.0
 41
3.5
 42
0.0625
 43
0.38
 44
0.18
 45
0.0
 46
0.0
 47
0.005
 48
0.005
140
3.5
141
0.09
142
0.0
143
25.4
144
1.0
145
0.0
146
1.0
147
0.09
 71
1.0
 72
0.0
 73
0
 74
0
 75
0
 76
0
 77
1
 78
8
170
0
171
2
172
0
173
0
174
0
175
0
176
0
177
0
178
5
270
2
271
3
272
3
273
2
274
2
275
0
280
0
281
0
282
0
283
1
284
8
285
0
286
0
287
3
288
0
340
11
  0
ENDTAB
  0
ENDSEC
  0
SECTION
  2
BLOCKS
  0
BLOCK
  5
20
100
AcDbEntity
  8
0
100
AcDbBlockBegin
  2
*Model_Space
 70
0
 10
0.0
 20
0.0
 30
0.0
  3
*Model_Space
  1

  0
ENDBLK
  5
21
100
AcDbEntity
  8
0
100
AcDbBlockEnd
  0
BLOCK
  5
1C
100
AcDbEntity
  8
0
100
AcDbBlockBegin
  2
*Paper_Space
 70
0
 10
0.0
 20
0.0
 30
0.0
  3
*Paper_Space
  1

  0
ENDBLK
  5
1D
100
AcDbEntity
  8
0
100
AcDbBlockEnd
  0
ENDSEC
  0
SECTION
  2
ENTITIES
  0
MTEXT
  5
20A
100
AcDbEntity
  8
0
100
AcDbMText
 62
5
  6
CONTINUOUS
  7
STANDARD
 71
1
 72
1
 10
262.4493957117
 20
100.8991065693
 30
0.0
 11
0.0
 21
1.0
 31
0.0
 44
0.9
  1
RUD
 40
7.0
 41
18.6666666667
  0
MTEXT
  5
20B
100
AcDbEntity
  8
0
100
AcDbMText
 62
5
  6
CONTINUOUS
  7
STANDARD
 71
1
 72
1
 10
305.7673679745
 20
93.610880292
 30
0.0
 11
0.0
 21
1.0
 31
0.0
 44
0.9
  1
VRG 22
 40
7.0
 41
34.6666666667
  0
LINE
  5
20C
100
AcDbEntity
  8
0
100
AcDbLine
 62
7
  6
CONTINUOUS
 10
0.0
 20
0.0
 11
0.0
 21
297.0
  0
LINE
  5
20D
100
AcDbEntity
  8
0
100
AcDbLine
 62
7
  6
CONTINUOUS
 10
0.0
 20
0.0
 11
420.0
 21
0.0
  0
LINE
  5
20E
100
AcDbEntity
  8
0
100
AcDbLine
 62
7
  6
CONTINUOUS
 10
0.0
 20
297.0
 11
420.0
 21
297.0
  0
LINE
  5
20F
100
AcDbEntity
  8
0
100
AcDbLine
 62
7
  6
CONTINUOUS
 10
420.0
 20
0.0
 11
420.0
 21
297.0
  0
LINE
  5
210
100
AcDbEntity
  8
0
100
AcDbLine
 62
7
  6
CONTINUOUS
 10
182.7852890443
 20
75.5333206837
 11
176.1236743499
 21
75.5333206837
  0
LINE
  5
211
100
AcDbEntity
  8
0
100
AcDbLine
 62
7
  6
CONTINUOUS
 10
115.6047699932
 20
75.5333206837
 11
108.9431552988
 21
75.5333206837
  0
LINE
  5
212
100
AcDbEntity
  8
BEZUGSACHSEN
100
AcDbLine
 62
7
  6
CONTINUOUS
 10
96.0339999559
 20
88.1392338065
 11
105.1129330832
 21
77.3193826352
  0
LINE
  5
213
100
AcDbEntity
  8
0
100
AcDbLine
 62
7
  6
CONTINUOUS
 10
145.8642221715
 20
254.7239785864
 11
107.546114869
 21
242.2736708015
  0
LINE
  5
214
100
AcDbEntity
  8
BEZUGSACHSEN
100
AcDbLine
 62
7
  6
CONTINUOUS
 10
126.3477320896
 20
242.45987273
 11
130.2298761094
 21
243.6449629414
  0
LINE
  5
215
100
AcDbEntity
  8
0
100
AcDbLine
 62
7
  6
CONTINUOUS
 10
107.546114869
 20
242.2736708015
 11
83.8642221715
 21
209.6783418501
  0
LINE
  5
216
100
AcDbEntity
  8
BEZUGSACHSEN
100
AcDbLine
 62
7
  6
CONTINUOUS
 10
102.87323841
 20
226.0412690873
 11
103.5708721802
 21
226.7781718402
  0
LINE
  5
217
100
AcDbEntity
  8
BEZUGSACHSEN
100
AcDbLine
 62
7
  6
CONTINUOUS
 10
106.3614059304
 20
229.7257814461
 11
107.0590393679
 21
230.4626838476
  0
LINE
  5
218
100
AcDbEntity
  8
BEZUGSACHSEN
100
AcDbLine
 62
7
  6
CONTINUOUS
 10
99.6398774557
 20
221.7173626764
 11
100.2916123411
 21
222.297826447
  0
LINE
  5
219
100
AcDbEntity
  8
BEZUGSACHSEN
100
AcDbLine
 62
7
  6
CONTINUOUS
 10
109.3340986861
 20
232.5307497242
 11
112.579432104
 21
234.9686365154
  0
LINE
  5
21A
100
AcDbEntity
  8
BEZUGSACHSEN
100
AcDbLine
 62
7
  6
CONTINUOUS
 10
110.9234809237
 20
232.1044768377
 11
113.3574809871
 21
233.9328919311
  0
LINE
  5
21B
100
AcDbEntity
  8
BEZUGSACHSEN
100
AcDbLine
 62
7
  6
CONTINUOUS
 10
100.6295145851
 20
221.2541268056
 11
101.0921629839
 21
221.5541276157
  0
LINE
  5
21C
100
AcDbEntity
  8
BEZUGSACHSEN
100
AcDbLine
 62
7
  6
CONTINUOUS
 10
137.7209757516
 20
243.7471205848
 11
138.3649925575
 21
244.0462956984
  0
LINE
  5
21D
100
AcDbEntity
  8
BEZUGSACHSEN
100
AcDbLine
 62
7
  6
CONTINUOUS
 10
112.579432104
 20
234.9686365154
 11
113.3852185624
 21
235.3039058871
  0
LINE
  5
21E
100
AcDbEntity
  8
BEZUGSACHSEN
100
AcDbLine
 62
7
  6
CONTINUOUS
 10
137.3904586987
 20
245.0110387342
 11
138.2022620634
 21
245.3314593825
  0
LINE
  5
21F
100
AcDbEntity
  8
BEZUGSACHSEN
100
AcDbLine
 62
7
  6
CONTINUOUS
 10
113.3574809871
 20
233.9328919311
 11
114.0280441881
 21
234.1665819114
  0
LINE
  5
220
100
AcDbEntity
  8
BEZUGSACHSEN
100
AcDbLine
 62
7
  6
CONTINUOUS
 10
127.6334516238
 20
241.7236602943
 11
130.7068168736
 21
242.6618570884
  0
LINE
  5
221
100
AcDbEntity
  8
BEZUGSACHSEN
100
AcDbLine
 62
7
  6
CONTINUOUS
 10
128.5790023883
 20
238.6262047501
 11
131.6523676381
 21
239.5644015441
  0
LINE
  5
222
100
AcDbEntity
  8
BEZUGSACHSEN
100
AcDbLine
 62
7
  6
CONTINUOUS
 10
128.9572226234
 20
237.3872227638
 11
131.7070734034
 21
238.2266612868
  0
LINE
  5
223
100
AcDbEntity
  8
0
100
AcDbLine
 62
7
  6
CONTINUOUS
 10
158.2142221715
 20
92.7833206837
 11
133.5142221715
 21
92.7833206837
  0
LINE
  5
224
100
AcDbEntity
  8
BEZUGSACHSEN
100
AcDbLine
 62
7
  6
CONTINUOUS
 10
97.3708406995
 20
218.3518087548
 11
99.6398774557
 21
221.7173626764
  0
LINE
  5
225
100
AcDbEntity
  8
BEZUGSACHSEN
100
AcDbLine
 62
7
  6
CONTINUOUS
 10
98.8331939099
 20
218.5897300848
 11
100.6295145851
 21
221.2541268056
  0
LINE
  5
226
100
AcDbEntity
  8
BEZUGSACHSEN
100
AcDbLine
 62
7
  6
CONTINUOUS
 10
101.5184764756
 20
216.7793282953
 11
103.3147971507
 21
219.4437250161
  0
LINE
  5
227
100
AcDbEntity
  8
BEZUGSACHSEN
100
AcDbLine
 62
7
  6
CONTINUOUS
 10
131.6523676381
 20
239.5644015441
 11
132.0745989347
 21
239.9190348183
  0
LINE
  5
228
100
AcDbEntity
  8
BEZUGSACHSEN
100
AcDbLine
 62
7
  6
CONTINUOUS
 10
136.7735598016
 20
244.4976691871
 11
137.3904586987
 21
245.0110387342
  0
LINE
  5
229
100
AcDbEntity
  8
BEZUGSACHSEN
100
AcDbLine
 62
7
  6
CONTINUOUS
 10
115.4621000447
 20
226.0626325826
 11
117.8961001081
 21
227.891047676
  0
LINE
  5
22A
100
AcDbEntity
  8
BEZUGSACHSEN
100
AcDbLine
 62
7
  6
CONTINUOUS
 10
115.4288156642
 20
224.4174161795
 11
118.6741490821
 21
226.8553029708
  0
LINE
  5
22B
100
AcDbEntity
  8
BEZUGSACHSEN
100
AcDbLine
 62
7
  6
CONTINUOUS
 10
111.3644694312
 20
220.5643552066
 11
112.1026181475
 21
221.0300076653
  0
LINE
  5
22C
100
AcDbEntity
  8
BEZUGSACHSEN
100
AcDbLine
 62
7
  6
CONTINUOUS
 10
110.5400154387
 20
221.5777683703
 11
111.1618916798
 21
221.9206035408
  0
LINE
  5
22D
100
AcDbEntity
  8
BEZUGSACHSEN
100
AcDbLine
 62
7
  6
CONTINUOUS
 10
140.8243214146
 20
236.7407148443
 11
141.4683420607
 21
237.0398904441
  0
LINE
  5
22E
100
AcDbEntity
  8
BEZUGSACHSEN
100
AcDbLine
 62
7
  6
CONTINUOUS
 10
140.9870519276
 20
235.4555510102
 11
141.7988591302
 21
235.7759721634
  0
LINE
  5
22F
100
AcDbEntity
  8
BEZUGSACHSEN
100
AcDbLine
 62
7
  6
CONTINUOUS
 10
155.8430383443
 20
244.3401868193
 11
156.5965155176
 21
244.616564623
  0
LINE
  5
230
100
AcDbEntity
  8
BEZUGSACHSEN
100
AcDbLine
 62
7
  6
CONTINUOUS
 10
164.42514696
 20
240.9003566555
 11
165.0560059773
 21
241.1146107949
  0
LINE
  5
231
100
AcDbEntity
  8
BEZUGSACHSEN
100
AcDbLine
 62
7
  6
CONTINUOUS
 10
129.3104576181
 20
232.7545126804
 11
130.280993623
 21
233.0507852332
  0
LINE
  5
232
100
AcDbEntity
  8
BEZUGSACHSEN
100
AcDbLine
 62
7
  6
CONTINUOUS
 10
134.3248948778
 20
234.2852545802
 11
135.4571844154
 21
234.6309051384
  0
LINE
  5
233
100
AcDbEntity
  8
RUNDUNGEN
100
AcDbLine
 62
7
  6
CONTINUOUS
 10
94.1943491905
 20
125.190502683
 11
89.734287251
 21
132.915556567
  0
LINE
  5
234
100
AcDbEntity
  8
0
100
AcDbLine
 62
7
  6
CONTINUOUS
 10
89.734287251
 20
132.915556567
 11
89.3642221715
 21
143.5128339151
  0
LINE
  5
235
100
AcDbEntity
  8
0
100
AcDbLine
 62
7
  6
CONTINUOUS
 10
83.8642221715
 20
209.6783418501
 11
83.8642221715
 21
169.3882995172
  0
LINE
  5
236
100
AcDbEntity
  8
BEZUGSACHSEN
100
AcDbLine
 62
7
  6
CONTINUOUS
 10
102.5925893012
 20
216.0551677147
 11
104.1998236251
 21
218.4391016756
  0
LINE
  5
237
100
AcDbEntity
  8
BEZUGSACHSEN
100
AcDbLine
 62
7
  6
CONTINUOUS
 10
105.7847255034
 20
212.6792168643
 11
106.3519846925
 21
213.5206053447
  0
LINE
  5
238
100
AcDbEntity
  8
BEZUGSACHSEN
100
AcDbLine
 62
7
  6
CONTINUOUS
 10
108.7155645567
 20
217.0263905459
 11
109.3773671243
 21
218.0080107071
  0
LINE
  5
239
100
AcDbEntity
  8
BEZUGSACHSEN
100
AcDbLine
 62
7
  6
CONTINUOUS
 10
117.8961001081
 20
227.891047676
 11
118.3073136813
 21
228.4699858512
  0
LINE
  5
23A
100
AcDbEntity
  8
BEZUGSACHSEN
100
AcDbLine
 62
7
  6
CONTINUOUS
 10
118.6741490821
 20
226.8553029708
 11
119.2205859014
 21
227.5358205523
  0
LINE
  5
23B
100
AcDbEntity
  8
BEZUGSACHSEN
100
AcDbLine
 62
7
  6
CONTINUOUS
 10
132.5515359966
 20
238.9359278351
 11
133.0724878223
 21
239.5464372425
  0
LINE
  5
23C
100
AcDbEntity
  8
BEZUGSACHSEN
100
AcDbLine
 62
7
  6
CONTINUOUS
 10
137.2718634134
 20
243.2549965724
 11
137.7209757516
 21
243.7471205848
  0
LINE
  5
23D
100
AcDbEntity
  8
BEZUGSACHSEN
100
AcDbLine
 62
7
  6
CONTINUOUS
 10
111.1618916798
 20
221.9206035408
 11
111.6269808599
 21
222.4118720428
  0
LINE
  5
23E
100
AcDbEntity
  8
BEZUGSACHSEN
100
AcDbLine
 62
7
  6
CONTINUOUS
 10
112.1026181475
 20
221.0300076653
 11
112.5677073276
 21
221.5212761672
  0
LINE
  5
23F
100
AcDbEntity
  8
BEZUGSACHSEN
100
AcDbLine
 62
7
  6
CONTINUOUS
 10
155.9414523012
 20
243.2132028835
 11
156.5297527977
 21
243.5259175487
  0
LINE
  5
240
100
AcDbEntity
  8
RUNDUNGEN
100
AcDbLine
 62
7
  6
CONTINUOUS
 10
89.3642221715
 20
143.5128339151
 11
83.8642221715
 21
169.3882995172
  0
LINE
  5
241
100
AcDbEntity
  8
RUNDUNGEN
100
AcDbLine
 62
7
  6
CONTINUOUS
 10
94.8642221715
 20
91.353171855
 11
94.8642221715
 21
151.194141436
  0
LINE
  5
242
100
AcDbEntity
  8
BEZUGSACHSEN
100
AcDbLine
 62
7
  6
CONTINUOUS
 10
103.3147971507
 20
219.4437250161
 11
103.419407941
 21
219.9851126864
  0
LINE
  5
243
100
AcDbEntity
  8
BEZUGSACHSEN
100
AcDbLine
 62
7
  6
CONTINUOUS
 10
111.6269808599
 20
222.4118720428
 11
111.9352823138
 21
223.0515731733
  0
LINE
  5
244
100
AcDbEntity
  8
BEZUGSACHSEN
100
AcDbLine
 62
7
  6
CONTINUOUS
 10
112.5677073276
 20
221.5212761672
 11
112.9922805637
 21
222.2837939092
  0
LINE
  5
245
100
AcDbEntity
  8
BEZUGSACHSEN
100
AcDbLine
 62
7
  6
CONTINUOUS
 10
141.4683420607
 20
237.0398904441
 11
141.91745438
 21
237.5320146066
  0
LINE
  5
246
100
AcDbEntity
  8
BEZUGSACHSEN
100
AcDbLine
 62
7
  6
CONTINUOUS
 10
141.7988591302
 20
235.7759721634
 11
142.4157541799
 21
236.2893412805
  0
LINE
  5
247
100
AcDbEntity
  8
BEZUGSACHSEN
100
AcDbLine
 62
7
  6
CONTINUOUS
 10
154.9967869244
 20
243.6420845977
 11
155.8430383443
 21
244.3401868193
  0
LINE
  5
248
100
AcDbEntity
  8
BEZUGSACHSEN
100
AcDbLine
 62
7
  6
CONTINUOUS
 10
153.04288781
 20
236.3345791432
 11
158.8274789158
 21
240.5887101739
  0
LINE
  5
249
100
AcDbEntity
  8
BEZUGSACHSEN
100
AcDbLine
 62
7
  6
CONTINUOUS
 10
154.3642898832
 20
236.0438867467
 11
159.5141933692
 21
239.7744409033
  0
LINE
  5
24A
100
AcDbEntity
  8
BEZUGSACHSEN
100
AcDbLine
 62
7
  6
CONTINUOUS
 10
163.561549504
 20
241.4752754609
 11
164.5088579494
 21
242.0285291544
  0
LINE
  5
24B
100
AcDbEntity
  8
BEZUGSACHSEN
100
AcDbLine
 62
7
  6
CONTINUOUS
 10
160.4602954733
 20
234.5760303013
 11
166.8526004016
 21
237.8467431886
  0
LINE
  5
24C
100
AcDbEntity
  8
BEZUGSACHSEN
100
AcDbLine
 62
7
  6
CONTINUOUS
 10
161.7179266343
 20
234.0770514981
 11
167.3997484295
 21
236.9328248291
  0
LINE
  5
24D
100
AcDbEntity
  8
BEZUGSACHSEN
100
AcDbLine
 62
7
  6
CONTINUOUS
 10
104.4090453409
 20
219.5218772168
 11
104.4291804349
 21
220.3241895968
  0
LINE
  5
24E
100
AcDbEntity
  8
BEZUGSACHSEN
100
AcDbLine
 62
7
  6
CONTINUOUS
 10
112.9922805637
 20
222.2837939092
 11
113.1437942501
 21
223.0719277072
  0
LINE
  5
24F
100
AcDbEntity
  8
BEZUGSACHSEN
100
AcDbLine
 62
7
  6
CONTINUOUS
 10
119.2205859014
 20
227.5358205523
 11
119.5021246268
 21
228.2873828701
  0
LINE
  5
250
100
AcDbEntity
  8
BEZUGSACHSEN
100
AcDbLine
 62
7
  6
CONTINUOUS
 10
136.2109082428
 20
243.5559122315
 11
136.7735598016
 21
244.4976691871
  0
LINE
  5
251
100
AcDbEntity
  8
BEZUGSACHSEN
100
AcDbLine
 62
7
  6
CONTINUOUS
 10
163.8718650234
 20
240.4230458194
 11
164.42514696
 21
240.9003566555
  0
LINE
  5
252
100
AcDbEntity
  8
0
100
AcDbLine
 62
7
  6
CONTINUOUS
 10
158.2142221715
 20
120.2833206837
 11
133.5142221715
 21
120.2833206837
  0
LINE
  5
253
100
AcDbEntity
  8
BEZUGSACHSEN
100
AcDbLine
 62
7
  6
CONTINUOUS
 10
111.9352823138
 20
223.0515731733
 11
111.9705234701
 21
223.7168897351
  0
LINE
  5
254
100
AcDbEntity
  8
BEZUGSACHSEN
100
AcDbLine
 62
7
  6
CONTINUOUS
 10
118.3073136813
 20
228.4699858512
 11
118.45363064
 21
229.1199700157
  0
LINE
  5
255
100
AcDbEntity
  8
BEZUGSACHSEN
100
AcDbLine
 62
7
  6
CONTINUOUS
 10
132.0745989347
 20
239.9190348183
 11
132.2720362905
 21
240.4307859546
  0
LINE
  5
256
100
AcDbEntity
  8
BEZUGSACHSEN
100
AcDbLine
 62
7
  6
CONTINUOUS
 10
142.4157541799
 20
236.2893412805
 11
142.9784095695
 21
237.2310987974
  0
LINE
  5
257
100
AcDbEntity
  8
BEZUGSACHSEN
100
AcDbLine
 62
7
  6
CONTINUOUS
 10
155.4719413583
 20
242.653289148
 11
155.9414523012
 21
243.2132028835
  0
LINE
  5
258
100
AcDbEntity
  8
BEZUGSACHSEN
100
AcDbLine
 62
7
  6
CONTINUOUS
 10
159.5141933692
 20
239.7744409033
 11
159.9837043121
 21
240.3343546389
  0
LINE
  5
259
100
AcDbEntity
  8
BEZUGSACHSEN
100
AcDbLine
 62
7
  6
CONTINUOUS
 10
167.3997484295
 20
236.9328248291
 11
167.9530231698
 21
237.4101385203
  0
LINE
  5
25A
100
AcDbEntity
  8
0
100
AcDbLine
 62
7
  6
CONTINUOUS
 10
113.8213893409
 20
105.7793206837
 11
113.8213893409
 21
121.8538287593
  0
LINE
  5
25B
100
AcDbEntity
  8
BEZUGSACHSEN
100
AcDbLine
 62
7
  6
CONTINUOUS
 10
133.0724878223
 20
239.5464372425
 11
133.3056090014
 21
240.5205615097
  0
LINE
  5
25C
100
AcDbEntity
  8
BEZUGSACHSEN
100
AcDbLine
 62
7
  6
CONTINUOUS
 10
135.9838221211
 20
242.6566453728
 11
136.2109082428
 21
243.5559122315
  0
LINE
  5
25D
100
AcDbEntity
  8
BEZUGSACHSEN
100
AcDbLine
 62
7
  6
CONTINUOUS
 10
137.0176556187
 20
242.5699230609
 11
137.2718634134
 21
243.2549965724
  0
LINE
  5
25E
100
AcDbEntity
  8
BEZUGSACHSEN
100
AcDbLine
 62
7
  6
CONTINUOUS
 10
158.8274789158
 20
240.5887101739
 11
159.3433769819
 21
241.3594861184
  0
LINE
  5
25F
100
AcDbEntity
  8
BEZUGSACHSEN
100
AcDbLine
 62
7
  6
CONTINUOUS
 10
166.8526004016
 20
237.8467431886
 11
167.4855064539
 21
238.5247394415
  0
LINE
  5
260
100
AcDbEntity
  8
BEZUGSACHSEN
100
AcDbLine
 62
7
  6
CONTINUOUS
 10
171.845629591
 20
222.2691120304
 11
185.0100404695
 21
231.4412259512
  0
LINE
  5
261
100
AcDbEntity
  8
BEZUGSACHSEN
100
AcDbLine
 62
7
  6
CONTINUOUS
 10
171.9898450268
 20
224.5851263673
 11
183.4845122567
 21
232.5782679371
  0
LINE
  5
262
100
AcDbEntity
  8
BEZUGSACHSEN
100
AcDbLine
 62
7
  6
CONTINUOUS
 10
119.5021246268
 20
228.2873828701
 11
119.524313713
 21
229.3841933979
  0
LINE
  5
263
100
AcDbEntity
  8
BEZUGSACHSEN
100
AcDbLine
 62
7
  6
CONTINUOUS
 10
154.6460655351
 20
242.8349717918
 11
154.9967869244
 21
243.6420845977
  0
LINE
  5
264
100
AcDbEntity
  8
BEZUGSACHSEN
100
AcDbLine
 62
7
  6
CONTINUOUS
 10
163.0858482464
 20
240.7349065007
 11
163.561549504
 21
241.4752754609
  0
LINE
  5
265
100
AcDbEntity
  8
BEZUGSACHSEN
100
AcDbLine
 62
7
  6
CONTINUOUS
 10
180.4269383055
 20
213.7178485217
 11
193.9906757622
 21
220.6251980689
  0
LINE
  5
266
100
AcDbEntity
  8
BEZUGSACHSEN
100
AcDbLine
 62
7
  6
CONTINUOUS
 10
181.2903569989
 20
212.0223813397
 11
187.3507504166
 21
215.1086439471
  0
LINE
  5
267
100
AcDbEntity
  8
BEZUGSACHSEN
100
AcDbLine
 62
7
  6
CONTINUOUS
 10
189.0822911621
 20
215.9904331458
 11
193.4111438344
 21
218.1949065545
  0
LINE
  5
268
100
AcDbEntity
  8
BEZUGSACHSEN
100
AcDbLine
 62
7
  6
CONTINUOUS
 10
103.419407941
 20
219.9851126864
 11
103.250456819
 21
220.5069625071
  0
LINE
  5
269
100
AcDbEntity
  8
BEZUGSACHSEN
100
AcDbLine
 62
7
  6
CONTINUOUS
 10
113.1437942501
 20
223.0719277072
 11
112.9817324701
 21
224.1569267755
  0
LINE
  5
26A
100
AcDbEntity
  8
BEZUGSACHSEN
100
AcDbLine
 62
7
  6
CONTINUOUS
 10
136.9583598961
 20
241.6919022231
 11
137.0176556187
 21
242.5699230609
  0
LINE
  5
26B
100
AcDbEntity
  8
BEZUGSACHSEN
100
AcDbLine
 62
7
  6
CONTINUOUS
 10
159.9837043121
 20
240.3343546389
 11
160.334429482
 21
241.1414666131
  0
LINE
  5
26C
100
AcDbEntity
  8
BEZUGSACHSEN
100
AcDbLine
 62
7
  6
CONTINUOUS
 10
167.9530231698
 20
237.4101385203
 11
168.4287280256
 21
238.1505060529
  0
LINE
  5
26D
100
AcDbEntity
  8
BEZUGSACHSEN
100
AcDbLine
 62
7
  6
CONTINUOUS
 10
177.3407284006
 20
217.0140632742
 11
189.0318714178
 21
226.7610436535
  0
LINE
  5
26E
100
AcDbEntity
  8
BEZUGSACHSEN
100
AcDbLine
 62
7
  6
CONTINUOUS
 10
178.559100948
 20
215.5526703971
 11
190.2502439652
 21
225.2996507764
  0
LINE
  5
26F
100
AcDbEntity
  8
BEZUGSACHSEN
100
AcDbLine
 62
7
  6
CONTINUOUS
 10
195.2771812525
 20
210.2486702247
 11
194.4114100712
 21
209.8077752136
  0
LINE
  5
270
100
AcDbEntity
  8
BEZUGSACHSEN
100
AcDbLine
 62
7
  6
CONTINUOUS
 10
196.1405999459
 20
208.5532030426
 11
194.9862386404
 21
207.965343165
  0
LINE
  5
271
100
AcDbEntity
  8
BEZUGSACHSEN
100
AcDbLine
 62
7
  6
CONTINUOUS
 10
118.45363064
 20
229.1199700157
 11
118.3350511658
 21
229.840999928
  0
LINE
  5
272
100
AcDbEntity
  8
BEZUGSACHSEN
100
AcDbLine
 62
7
  6
CONTINUOUS
 10
132.2720362905
 20
240.4307859546
 11
132.2446834079
 21
241.0996560833
  0
LINE
  5
273
100
AcDbEntity
  8
BEZUGSACHSEN
100
AcDbLine
 62
7
  6
CONTINUOUS
 10
133.3056090014
 20
240.5205615097
 11
133.2782561187
 21
241.1894316384
  0
LINE
  5
274
100
AcDbEntity
  8
BEZUGSACHSEN
100
AcDbLine
 62
7
  6
CONTINUOUS
 10
133.5142221715
 20
105.7793206837
 11
133.5142221715
 21
80.5178044455
  0
LINE
  5
275
100
AcDbEntity
  8
0
100
AcDbLine
 62
7
  6
CONTINUOUS
 10
133.5142221715
 20
105.7793206837
 11
133.5142221715
 21
134.1833206837
  0
LINE
  5
276
100
AcDbEntity
  8
BEZUGSACHSEN
100
AcDbLine
 62
7
  6
CONTINUOUS
 10
135.9516482236
 20
241.5644299875
 11
135.9838221211
 21
242.6566453728
  0
LINE
  5
277
100
AcDbEntity
  8
BEZUGSACHSEN
100
AcDbLine
 62
7
  6
CONTINUOUS
 10
142.9784095695
 20
237.2310987974
 11
143.0377091134
 21
238.1091202715
  0
LINE
  5
278
100
AcDbEntity
  8
BEZUGSACHSEN
100
AcDbLine
 62
7
  6
CONTINUOUS
 10
141.91745438
 20
237.5320146066
 11
142.0038756918
 21
238.1958419833
  0
LINE
  5
279
100
AcDbEntity
  8
BEZUGSACHSEN
100
AcDbLine
 62
7
  6
CONTINUOUS
 10
152.8109521613
 20
235.280267951
 11
153.04288781
 21
236.3345791432
  0
LINE
  5
27A
100
AcDbEntity
  8
BEZUGSACHSEN
100
AcDbLine
 62
7
  6
CONTINUOUS
 10
160.0621748388
 20
233.5726030764
 11
160.4602954733
 21
234.5760303013
  0
LINE
  5
27B
100
AcDbEntity
  8
BEZUGSACHSEN
100
AcDbLine
 62
7
  6
CONTINUOUS
 10
167.6447549084
 20
238.9261108374
 11
167.4855064539
 21
238.5247394415
  0
LINE
  5
27C
100
AcDbEntity
  8
BEZUGSACHSEN
100
AcDbLine
 62
7
  6
CONTINUOUS
 10
168.6658476568
 20
233.8717294639
 11
169.1839971107
 21
234.818771018
  0
LINE
  5
27D
100
AcDbEntity
  8
BEZUGSACHSEN
100
AcDbLine
 62
7
  6
CONTINUOUS
 10
171.2611768489
 20
233.6822954933
 11
170.743027395
 21
232.7352539392
  0
LINE
  5
27E
100
AcDbEntity
  8
BEZUGSACHSEN
100
AcDbLine
 62
7
  6
CONTINUOUS
 10
104.4291804349
 20
220.3241895968
 11
103.9967348123
 21
221.2276575574
  0
LINE
  5
27F
100
AcDbEntity
  8
BEZUGSACHSEN
100
AcDbLine
 62
7
  6
CONTINUOUS
 10
111.9705234701
 20
223.7168897351
 11
111.7327045486
 21
224.4078215205
  0
LINE
  5
280
100
AcDbEntity
  8
BEZUGSACHSEN
100
AcDbLine
 62
7
  6
CONTINUOUS
 10
119.524313713
 20
229.3841933979
 11
119.2760593341
 21
230.2778475284
  0
LINE
  5
281
100
AcDbEntity
  8
BEZUGSACHSEN
100
AcDbLine
 62
7
  6
CONTINUOUS
 10
159.4361513584
 20
241.7812111269
 11
159.3433769819
 21
241.3594861184
  0
LINE
  5
282
100
AcDbEntity
  8
BEZUGSACHSEN
100
AcDbLine
 62
7
  6
CONTINUOUS
 10
160.4272038584
 20
241.5631916216
 11
160.334429482
 21
241.1414666131
  0
LINE
  5
283
100
AcDbEntity
  8
BEZUGSACHSEN
100
AcDbLine
 62
7
  6
CONTINUOUS
 10
158.9892028102
 20
235.0264621116
 11
158.7572671615
 21
233.9721509193
  0
LINE
  5
284
100
AcDbEntity
  8
BEZUGSACHSEN
100
AcDbLine
 62
7
  6
CONTINUOUS
 10
168.5879764801
 20
238.5518774488
 11
168.4287280256
 21
238.1505060529
  0
LINE
  5
285
100
AcDbEntity
  8
BEZUGSACHSEN
100
AcDbLine
 62
7
  6
CONTINUOUS
 10
166.1196285017
 20
232.3306285421
 11
165.7215078672
 21
231.3272013172
  0
LINE
  5
286
100
AcDbEntity
  8
BEZUGSACHSEN
100
AcDbLine
 62
7
  6
CONTINUOUS
 10
112.9817324701
 20
224.1569267755
 11
112.5871257125
 21
224.9962912934
  0
LINE
  5
287
100
AcDbEntity
  8
BEZUGSACHSEN
100
AcDbLine
 62
7
  6
CONTINUOUS
 10
136.3584744967
 20
238.3515204773
 11
135.9516482236
 21
241.5644299875
  0
LINE
  5
288
100
AcDbEntity
  8
BEZUGSACHSEN
100
AcDbLine
 62
7
  6
CONTINUOUS
 10
137.3651861693
 20
238.4789927128
 11
136.9583598961
 21
241.6919022231
  0
LINE
  5
289
100
AcDbEntity
  8
BEZUGSACHSEN
100
AcDbLine
 62
7
  6
CONTINUOUS
 10
176.3653808395
 20
237.8844636904
 11
171.9898450268
 21
224.5851263673
  0
LINE
  5
28A
100
AcDbEntity
  8
BEZUGSACHSEN
100
AcDbLine
 62
7
  6
CONTINUOUS
 10
174.8398526267
 20
239.0215056762
 11
169.8115920951
 21
223.7851679212
  0
LINE
  5
28B
100
AcDbEntity
  8
BEZUGSACHSEN
100
AcDbLine
 62
7
  6
CONTINUOUS
 10
195.9990482352
 20
210.9721432267
 11
195.2771812525
 21
210.2486702247
  0
LINE
  5
28C
100
AcDbEntity
  8
BEZUGSACHSEN
100
AcDbLine
 62
7
  6
CONTINUOUS
 10
196.862467752
 20
209.2766744277
 11
196.1405999459
 21
208.5532030426
  0
LINE
  5
28D
100
AcDbEntity
  8
BEZUGSACHSEN
100
AcDbLine
 62
7
  6
CONTINUOUS
 10
103.250456819
 20
220.5069625071
 11
102.8079435142
 21
221.009274077
  0
LINE
  5
28E
100
AcDbEntity
  8
BEZUGSACHSEN
100
AcDbLine
 62
7
  6
CONTINUOUS
 10
103.9967348123
 20
221.2276575574
 11
103.5542215075
 21
221.7299691273
  0
LINE
  5
28F
100
AcDbEntity
  8
BEZUGSACHSEN
100
AcDbLine
 62
7
  6
CONTINUOUS
 10
111.7327045486
 20
224.4078215205
 11
111.2218261047
 21
225.124369336
  0
LINE
  5
290
100
AcDbEntity
  8
BEZUGSACHSEN
100
AcDbLine
 62
7
  6
CONTINUOUS
 10
119.2760593341
 20
230.2778475284
 11
118.7629069747
 21
231.2425462442
  0
LINE
  5
291
100
AcDbEntity
  8
BEZUGSACHSEN
100
AcDbLine
 62
7
  6
CONTINUOUS
 10
118.3350511658
 20
229.840999928
 11
117.9515736202
 21
230.6330745464
  0
LINE
  5
292
100
AcDbEntity
  8
BEZUGSACHSEN
100
AcDbLine
 62
7
  6
CONTINUOUS
 10
129.3104576181
 20
232.7545126804
 11
126.3477320896
 21
242.45987273
  0
LINE
  5
293
100
AcDbEntity
  8
BEZUGSACHSEN
100
AcDbLine
 62
7
  6
CONTINUOUS
 10
130.280993623
 20
233.0507852332
 11
128.9572226234
 21
237.3872227638
  0
LINE
  5
294
100
AcDbEntity
  8
BEZUGSACHSEN
100
AcDbLine
 62
7
  6
CONTINUOUS
 10
128.5790023883
 20
238.6262047501
 11
127.6334516238
 21
241.7236602943
  0
LINE
  5
295
100
AcDbEntity
  8
BEZUGSACHSEN
100
AcDbLine
 62
7
  6
CONTINUOUS
 10
140.1141036589
 20
241.0033491929
 11
140.2768341529
 21
239.7181855088
  0
LINE
  5
296
100
AcDbEntity
  8
BEZUGSACHSEN
100
AcDbLine
 62
7
  6
CONTINUOUS
 10
141.7869016617
 20
239.9093938621
 11
142.0038756918
 21
238.1958419833
  0
LINE
  5
297
100
AcDbEntity
  8
BEZUGSACHSEN
100
AcDbLine
 62
7
  6
CONTINUOUS
 10
142.6308828403
 20
241.3220297818
 11
143.0377091134
 21
238.1091202715
  0
LINE
  5
298
100
AcDbEntity
  8
BEZUGSACHSEN
100
AcDbLine
 62
7
  6
CONTINUOUS
 10
158.2142221715
 20
80.5178044455
 11
158.2142221715
 21
105.7793206837
  0
LINE
  5
299
100
AcDbEntity
  8
0
100
AcDbLine
 62
7
  6
CONTINUOUS
 10
158.2142221715
 20
105.7793206837
 11
158.2142221715
 21
134.1833206837
  0
LINE
  5
29A
100
AcDbEntity
  8
BEZUGSACHSEN
100
AcDbLine
 62
7
  6
CONTINUOUS
 10
160.4475756746
 20
242.4429773187
 11
160.4272038584
 21
241.5631916216
  0
LINE
  5
29B
100
AcDbEntity
  8
BEZUGSACHSEN
100
AcDbLine
 62
7
  6
CONTINUOUS
 10
168.7492645503
 20
239.4169932512
 11
168.5879764801
 21
238.5518774488
  0
LINE
  5
29C
100
AcDbEntity
  8
BEZUGSACHSEN
100
AcDbLine
 62
7
  6
CONTINUOUS
 10
107.7336585844
 20
221.4398569772
 11
102.87323841
 21
226.0412690873
  0
LINE
  5
29D
100
AcDbEntity
  8
BEZUGSACHSEN
100
AcDbLine
 62
7
  6
CONTINUOUS
 10
112.5871257125
 20
224.9962912934
 11
111.9194595423
 21
225.8612717375
  0
LINE
  5
29E
100
AcDbEntity
  8
BEZUGSACHSEN
100
AcDbLine
 62
7
  6
CONTINUOUS
 10
115.4288156642
 20
224.4174161795
 11
109.3340986861
 21
232.5307497242
  0
LINE
  5
29F
100
AcDbEntity
  8
BEZUGSACHSEN
100
AcDbLine
 62
7
  6
CONTINUOUS
 10
115.4621000447
 20
226.0626325826
 11
110.9234809237
 21
232.1044768377
  0
LINE
  5
2A0
100
AcDbEntity
  8
BEZUGSACHSEN
100
AcDbLine
 62
7
  6
CONTINUOUS
 10
137.3651861693
 20
238.4789927128
 11
137.6414558838
 21
237.6434619718
  0
LINE
  5
2A1
100
AcDbEntity
  8
BEZUGSACHSEN
100
AcDbLine
 62
7
  6
CONTINUOUS
 10
132.0555731137
 20
241.7191476549
 11
132.2446834079
 21
241.0996560833
  0
LINE
  5
2A2
100
AcDbEntity
  8
BEZUGSACHSEN
100
AcDbLine
 62
7
  6
CONTINUOUS
 10
133.0261091187
 20
242.0154202078
 11
133.2782561187
 21
241.1894316384
  0
LINE
  5
2A3
100
AcDbEntity
  8
BEZUGSACHSEN
100
AcDbLine
 62
7
  6
CONTINUOUS
 10
136.3584744967
 20
238.3515204773
 11
136.6618659603
 21
237.3017957889
  0
LINE
  5
2A4
100
AcDbEntity
  8
BEZUGSACHSEN
100
AcDbLine
 62
7
  6
CONTINUOUS
 10
105.7847255034
 20
212.6792168643
 11
97.3708406995
 21
218.3518087548
  0
LINE
  5
2A5
100
AcDbEntity
  8
BEZUGSACHSEN
100
AcDbLine
 62
7
  6
CONTINUOUS
 10
106.3519846925
 20
213.5206053447
 11
102.5925893012
 21
216.0551677147
  0
LINE
  5
2A6
100
AcDbEntity
  8
BEZUGSACHSEN
100
AcDbLine
 62
7
  6
CONTINUOUS
 10
101.5184764756
 20
216.7793282953
 11
98.8331939099
 21
218.5897300848
  0
LINE
  5
2A7
100
AcDbEntity
  8
BEZUGSACHSEN
100
AcDbLine
 62
7
  6
CONTINUOUS
 10
102.2708865998
 20
221.3713547054
 11
102.8079435142
 21
221.009274077
  0
LINE
  5
2A8
100
AcDbEntity
  8
BEZUGSACHSEN
100
AcDbLine
 62
7
  6
CONTINUOUS
 10
108.4312923546
 20
222.1767597301
 11
103.5708721802
 21
226.7781718402
  0
LINE
  5
2A9
100
AcDbEntity
  8
BEZUGSACHSEN
100
AcDbLine
 62
7
  6
CONTINUOUS
 10
106.3614059304
 20
229.7257814461
 11
111.2218261047
 21
225.124369336
  0
LINE
  5
2AA
100
AcDbEntity
  8
BEZUGSACHSEN
100
AcDbLine
 62
7
  6
CONTINUOUS
 10
107.0590393679
 20
230.4626838476
 11
111.9194595423
 21
225.8612717375
  0
LINE
  5
2AB
100
AcDbEntity
  8
BEZUGSACHSEN
100
AcDbLine
 62
7
  6
CONTINUOUS
 10
116.0064512307
 20
233.2224362491
 11
117.9515736202
 21
230.6330745464
  0
LINE
  5
2AC
100
AcDbEntity
  8
BEZUGSACHSEN
100
AcDbLine
 62
7
  6
CONTINUOUS
 10
116.8177845851
 20
233.8319079469
 11
118.7629069747
 21
231.2425462442
  0
LINE
  5
2AD
100
AcDbEntity
  8
BEZUGSACHSEN
100
AcDbLine
 62
7
  6
CONTINUOUS
 10
142.0833917193
 20
244.2995001101
 11
142.3867870992
 21
243.2497753079
  0
LINE
  5
2AE
100
AcDbEntity
  8
BEZUGSACHSEN
100
AcDbLine
 62
7
  6
CONTINUOUS
 10
167.5692176663
 20
239.6529125026
 11
167.6447549084
 21
238.9261108374
  0
LINE
  5
2AF
100
AcDbEntity
  8
BEZUGSACHSEN
100
AcDbLine
 62
7
  6
CONTINUOUS
 10
197.5851180789
 20
210.7122691015
 11
196.862467752
 21
209.2766744277
  0
LINE
  5
2B0
100
AcDbEntity
  8
BEZUGSACHSEN
100
AcDbLine
 62
7
  6
CONTINUOUS
 10
108.4312923546
 20
222.1767597301
 11
109.1747150558
 21
221.7058458141
  0
LINE
  5
2B1
100
AcDbEntity
  8
BEZUGSACHSEN
100
AcDbLine
 62
7
  6
CONTINUOUS
 10
102.8381457889
 20
222.2127431858
 11
103.5542215075
 21
221.7299691273
  0
LINE
  5
2B2
100
AcDbEntity
  8
BEZUGSACHSEN
100
AcDbLine
 62
7
  6
CONTINUOUS
 10
107.7336585844
 20
221.4398569772
 11
108.6338696773
 21
220.8205111354
  0
LINE
  5
2B3
100
AcDbEntity
  8
BEZUGSACHSEN
100
AcDbLine
 62
7
  6
CONTINUOUS
 10
116.0341884426
 20
234.5934506886
 11
116.8177845851
 21
233.8319079469
  0
LINE
  5
2B4
100
AcDbEntity
  8
BEZUGSACHSEN
100
AcDbLine
 62
7
  6
CONTINUOUS
 10
131.7070734034
 20
238.2266612868
 11
134.3248948778
 21
234.2852545802
  0
LINE
  5
2B5
100
AcDbEntity
  8
BEZUGSACHSEN
100
AcDbLine
 62
7
  6
CONTINUOUS
 10
131.7047057612
 20
242.2892595125
 11
132.0555731137
 21
241.7191476549
  0
LINE
  5
2B6
100
AcDbEntity
  8
BEZUGSACHSEN
100
AcDbLine
 62
7
  6
CONTINUOUS
 10
132.6752417662
 20
242.5855320654
 11
133.0261091187
 21
242.0154202078
  0
LINE
  5
2B7
100
AcDbEntity
  8
BEZUGSACHSEN
100
AcDbLine
 62
7
  6
CONTINUOUS
 10
136.6618659603
 20
237.3017957889
 11
137.105926093
 21
236.4875109188
  0
LINE
  5
2B8
100
AcDbEntity
  8
BEZUGSACHSEN
100
AcDbLine
 62
7
  6
CONTINUOUS
 10
141.1309235448
 20
243.7436399798
 11
141.3800754266
 21
243.1223030724
  0
LINE
  5
2B9
100
AcDbEntity
  8
0
100
AcDbLine
 62
7
  6
CONTINUOUS
 10
177.9070550022
 20
105.7793206837
 11
177.9070550022
 21
121.8538287593
  0
LINE
  5
2BA
100
AcDbEntity
  8
BEZUGSACHSEN
100
AcDbLine
 62
7
  6
CONTINUOUS
 10
196.288422527
 20
211.831228148
 11
195.9990482352
 21
210.9721432267
  0
LINE
  5
2BB
100
AcDbEntity
  8
BEZUGSACHSEN
100
AcDbLine
 62
7
  6
CONTINUOUS
 10
193.976565701
 20
207.8070253514
 11
194.9862386404
 21
207.965343165
  0
LINE
  5
2BC
100
AcDbEntity
  8
BEZUGSACHSEN
100
AcDbLine
 62
7
  6
CONTINUOUS
 10
193.4017363085
 20
209.6494590168
 11
194.4114100712
 21
209.8077752136
  0
LINE
  5
2BD
100
AcDbEntity
  8
BEZUGSACHSEN
100
AcDbLine
 62
7
  6
CONTINUOUS
 10
115.3525302653
 20
233.8113544098
 11
116.0064512307
 21
233.2224362491
  0
LINE
  5
2BE
100
AcDbEntity
  8
BEZUGSACHSEN
100
AcDbLine
 62
7
  6
CONTINUOUS
 10
137.6414558838
 20
237.6434619718
 11
138.0583942486
 21
237.0433711991
  0
LINE
  5
2BF
100
AcDbEntity
  8
BEZUGSACHSEN
100
AcDbLine
 62
7
  6
CONTINUOUS
 10
132.5515359966
 20
238.9359278351
 11
135.4571844154
 21
234.6309051384
  0
LINE
  5
2C0
100
AcDbEntity
  8
BEZUGSACHSEN
100
AcDbLine
 62
7
  6
CONTINUOUS
 10
159.244963155
 20
242.4864706448
 11
159.4361513584
 21
241.7812111269
  0
LINE
  5
2C1
100
AcDbEntity
  8
BEZUGSACHSEN
100
AcDbLine
 62
7
  6
CONTINUOUS
 10
197.8752765383
 20
212.2834740777
 11
197.5851180789
 21
210.7122691015
  0
LINE
  5
2C2
100
AcDbEntity
  8
BEZUGSACHSEN
100
AcDbLine
 62
7
  6
CONTINUOUS
 10
109.1747150558
 20
221.7058458141
 11
109.8776231575
 21
221.5061825307
  0
LINE
  5
2C3
100
AcDbEntity
  8
BEZUGSACHSEN
100
AcDbLine
 62
7
  6
CONTINUOUS
 10
104.4090453409
 20
219.5218772168
 11
109.3773671243
 21
218.0080107071
  0
LINE
  5
2C4
100
AcDbEntity
  8
BEZUGSACHSEN
100
AcDbLine
 62
7
  6
CONTINUOUS
 10
104.1998236251
 20
218.4391016756
 11
108.7155645567
 21
217.0263905459
  0
LINE
  5
2C5
100
AcDbEntity
  8
BEZUGSACHSEN
100
AcDbLine
 62
7
  6
CONTINUOUS
 10
101.639287079
 20
221.5932037161
 11
102.2708865998
 21
221.3713547054
  0
LINE
  5
2C6
100
AcDbEntity
  8
BEZUGSACHSEN
100
AcDbLine
 62
7
  6
CONTINUOUS
 10
102.2065462681
 20
222.4345921964
 11
102.8381457889
 21
222.2127431858
  0
LINE
  5
2C7
100
AcDbEntity
  8
BEZUGSACHSEN
100
AcDbLine
 62
7
  6
CONTINUOUS
 10
108.6338696773
 20
220.8205111354
 11
109.4935652824
 21
220.4724147681
  0
LINE
  5
2C8
100
AcDbEntity
  8
BEZUGSACHSEN
100
AcDbLine
 62
7
  6
CONTINUOUS
 10
115.2450442198
 20
235.0807894581
 11
116.0341884426
 21
234.5934506886
  0
LINE
  5
2C9
100
AcDbEntity
  8
BEZUGSACHSEN
100
AcDbLine
 62
7
  6
CONTINUOUS
 10
137.105926093
 20
236.4875109188
 11
137.8855516534
 21
235.7157162206
  0
LINE
  5
2CA
100
AcDbEntity
  8
BEZUGSACHSEN
100
AcDbLine
 62
7
  6
CONTINUOUS
 10
168.4389490309
 20
240.4692228927
 11
168.7492645503
 21
239.4169932512
  0
LINE
  5
2CB
100
AcDbEntity
  8
RUNDUNGEN
100
AcDbLine
 62
7
  6
CONTINUOUS
 10
196.8642221715
 20
151.1941378271
 11
196.8642221715
 21
91.353171855
  0
LINE
  5
2CC
100
AcDbEntity
  8
BEZUGSACHSEN
100
AcDbLine
 62
7
  6
CONTINUOUS
 10
109.4935652824
 20
220.4724147681
 11
110.5858047573
 21
220.3699520009
  0
LINE
  5
2CD
100
AcDbEntity
  8
BEZUGSACHSEN
100
AcDbLine
 62
7
  6
CONTINUOUS
 10
192.3904950339
 20
208.0669010935
 11
193.976565701
 21
207.8070253514
  0
LINE
  5
2CE
100
AcDbEntity
  8
BEZUGSACHSEN
100
AcDbLine
 62
7
  6
CONTINUOUS
 10
114.6930604931
 20
234.1260695655
 11
115.3525302653
 21
233.8113544098
  0
LINE
  5
2CF
100
AcDbEntity
  8
BEZUGSACHSEN
100
AcDbLine
 62
7
  6
CONTINUOUS
 10
131.9378269403
 20
243.2633837798
 11
132.6752417662
 21
242.5855320654
  0
LINE
  5
2D0
100
AcDbEntity
  8
BEZUGSACHSEN
100
AcDbLine
 62
7
  6
CONTINUOUS
 10
159.9724250213
 20
243.4317719368
 11
160.4475756746
 21
242.4429773187
  0
LINE
  5
2D1
100
AcDbEntity
  8
0
100
AcDbLine
 62
7
  6
CONTINUOUS
 10
201.994157092
 20
132.915556567
 11
202.3642221715
 21
143.5128339151
  0
LINE
  5
2D2
100
AcDbEntity
  8
BEZUGSACHSEN
100
AcDbLine
 62
7
  6
CONTINUOUS
 10
101.2068414564
 20
222.4966716766
 11
102.2065462681
 21
222.4345921964
  0
LINE
  5
2D3
100
AcDbEntity
  8
BEZUGSACHSEN
100
AcDbLine
 62
7
  6
CONTINUOUS
 10
192.5367501033
 20
209.9206844723
 11
193.4017363085
 21
209.6494590168
  0
LINE
  5
2D4
100
AcDbEntity
  8
BEZUGSACHSEN
100
AcDbLine
 62
7
  6
CONTINUOUS
 10
190.9491127478
 20
208.7563168709
 11
192.3904950339
 21
208.0669010935
  0
LINE
  5
2D5
100
AcDbEntity
  8
BEZUGSACHSEN
100
AcDbLine
 62
7
  6
CONTINUOUS
 10
138.0583942486
 20
237.0433711991
 11
138.6159936019
 21
236.6787192722
  0
LINE
  5
2D6
100
AcDbEntity
  8
BEZUGSACHSEN
100
AcDbLine
 62
7
  6
CONTINUOUS
 10
131.255121582
 20
242.6034963671
 11
131.7047057612
 21
242.2892595125
  0
LINE
  5
2D7
100
AcDbEntity
  8
BEZUGSACHSEN
100
AcDbLine
 62
7
  6
CONTINUOUS
 10
141.3037623281
 20
245.071294247
 11
142.0833917193
 21
244.2995001101
  0
LINE
  5
2D8
100
AcDbEntity
  8
BEZUGSACHSEN
100
AcDbLine
 62
7
  6
CONTINUOUS
 10
177.3407284006
 20
217.0140632742
 11
178.559100948
 21
215.5526703971
  0
LINE
  5
2D9
100
AcDbEntity
  8
BEZUGSACHSEN
100
AcDbLine
 62
7
  6
CONTINUOUS
 10
158.8422111515
 20
243.0172048153
 11
159.244963155
 21
242.4864706448
  0
LINE
  5
2DA
100
AcDbEntity
  8
BEZUGSACHSEN
100
AcDbLine
 62
7
  6
CONTINUOUS
 10
167.2568551119
 20
240.2414000307
 11
167.5692176663
 21
239.6529125026
  0
LINE
  5
2DB
100
AcDbEntity
  8
BEZUGSACHSEN
100
AcDbLine
 62
7
  6
CONTINUOUS
 10
180.4269383055
 20
213.7178485217
 11
181.2903569989
 21
212.0223813397
  0
LINE
  5
2DC
100
AcDbEntity
  8
BEZUGSACHSEN
100
AcDbLine
 62
7
  6
CONTINUOUS
 10
196.1453033046
 20
212.8259266055
 11
196.288422527
 21
211.831228148
  0
LINE
  5
2DD
100
AcDbEntity
  8
0
100
AcDbLine
 62
7
  6
CONTINUOUS
 10
207.8642221715
 20
169.3882995172
 11
207.8642221715
 21
209.6783418501
  0
LINE
  5
2DE
100
AcDbEntity
  8
RUNDUNGEN
100
AcDbLine
 62
7
  6
CONTINUOUS
 10
202.3642221715
 20
143.5128339151
 11
207.8642221715
 21
169.3882995172
  0
LINE
  5
2DF
100
AcDbEntity
  8
RUNDUNGEN
100
AcDbLine
 62
7
  6
CONTINUOUS
 10
201.994157092
 20
132.915556567
 11
197.5340951526
 21
125.190502683
  0
LINE
  5
2E0
100
AcDbEntity
  8
BEZUGSACHSEN
100
AcDbLine
 62
7
  6
CONTINUOUS
 10
110.5858047573
 20
220.3699520009
 11
111.3644694312
 21
220.5643552066
  0
LINE
  5
2E1
100
AcDbEntity
  8
BEZUGSACHSEN
100
AcDbLine
 62
7
  6
CONTINUOUS
 10
100.2916123411
 20
222.297826447
 11
101.2068414564
 21
222.4966716766
  0
LINE
  5
2E2
100
AcDbEntity
  8
BEZUGSACHSEN
100
AcDbLine
 62
7
  6
CONTINUOUS
 10
109.8776231575
 20
221.5061825307
 11
110.5400154387
 21
221.5777683703
  0
LINE
  5
2E3
100
AcDbEntity
  8
BEZUGSACHSEN
100
AcDbLine
 62
7
  6
CONTINUOUS
 10
101.0921629839
 20
221.5541276157
 11
101.639287079
 21
221.5932037161
  0
LINE
  5
2E4
100
AcDbEntity
  8
BEZUGSACHSEN
100
AcDbLine
 62
7
  6
CONTINUOUS
 10
114.1854565772
 20
235.36497177
 11
115.2450442198
 21
235.0807894581
  0
LINE
  5
2E5
100
AcDbEntity
  8
BEZUGSACHSEN
100
AcDbLine
 62
7
  6
CONTINUOUS
 10
137.8855516534
 20
235.7157162206
 11
138.6109375537
 21
235.3723099221
  0
LINE
  5
2E6
100
AcDbEntity
  8
BEZUGSACHSEN
100
AcDbLine
 62
7
  6
CONTINUOUS
 10
131.1016915853
 20
243.685359361
 11
131.9378269403
 21
243.2633837798
  0
LINE
  5
2E7
100
AcDbEntity
  8
BEZUGSACHSEN
100
AcDbLine
 62
7
  6
CONTINUOUS
 10
140.5733242105
 20
244.1082917568
 11
141.1309235448
 21
243.7436399798
  0
LINE
  5
2E8
100
AcDbEntity
  8
BEZUGSACHSEN
100
AcDbLine
 62
7
  6
CONTINUOUS
 10
169.8115920951
 20
223.7851679212
 11
171.845629591
 21
222.2691120304
  0
LINE
  5
2E9
100
AcDbEntity
  8
BEZUGSACHSEN
100
AcDbLine
 62
7
  6
CONTINUOUS
 10
191.8164506323
 20
210.6214531969
 11
192.5367501033
 21
209.9206844723
  0
LINE
  5
2EA
100
AcDbEntity
  8
BEZUGSACHSEN
100
AcDbLine
 62
7
  6
CONTINUOUS
 10
159.4044963409
 20
243.9988429687
 11
159.9724250213
 21
243.4317719368
  0
LINE
  5
2EB
100
AcDbEntity
  8
BEZUGSACHSEN
100
AcDbLine
 62
7
  6
CONTINUOUS
 10
189.9410064968
 20
210.0222424008
 11
190.9491127478
 21
208.7563168709
  0
LINE
  5
2EC
100
AcDbEntity
  8
BEZUGSACHSEN
100
AcDbLine
 62
7
  6
CONTINUOUS
 10
167.96938528
 20
241.1200817004
 11
168.4389490309
 21
240.4692228927
  0
LINE
  5
2ED
100
AcDbEntity
  8
BEZUGSACHSEN
100
AcDbLine
 62
7
  6
CONTINUOUS
 10
187.3507504166
 20
215.1086439471
 11
189.9410064968
 21
210.0222424008
  0
LINE
  5
2EE
100
AcDbEntity
  8
BEZUGSACHSEN
100
AcDbLine
 62
7
  6
CONTINUOUS
 10
189.0822911621
 20
215.9904331458
 11
191.8164506323
 21
210.6214531969
  0
LINE
  5
2EF
100
AcDbEntity
  8
BEZUGSACHSEN
100
AcDbLine
 62
7
  6
CONTINUOUS
 10
197.4443505358
 20
213.8433293405
 11
197.8752765383
 21
212.2834740777
  0
LINE
  5
2F0
100
AcDbEntity
  8
BEZUGSACHSEN
100
AcDbLine
 62
7
  6
CONTINUOUS
 10
164.5088579494
 20
242.0285291544
 11
165.2969217614
 21
242.1804105865
  0
LINE
  5
2F1
100
AcDbEntity
  8
BEZUGSACHSEN
100
AcDbLine
 62
7
  6
CONTINUOUS
 10
139.4769844188
 20
235.2643426569
 11
140.9870519276
 21
235.4555510102
  0
LINE
  5
2F2
100
AcDbEntity
  8
BEZUGSACHSEN
100
AcDbLine
 62
7
  6
CONTINUOUS
 10
139.3142539057
 20
236.549506491
 11
140.8243214146
 21
236.7407148443
  0
LINE
  5
2F3
100
AcDbEntity
  8
BEZUGSACHSEN
100
AcDbLine
 62
7
  6
CONTINUOUS
 10
113.3852185624
 20
235.3039058871
 11
114.1854565772
 21
235.36497177
  0
LINE
  5
2F4
100
AcDbEntity
  8
BEZUGSACHSEN
100
AcDbLine
 62
7
  6
CONTINUOUS
 10
114.0280441881
 20
234.1665819114
 11
114.6930604931
 21
234.1260695655
  0
LINE
  5
2F5
100
AcDbEntity
  8
BEZUGSACHSEN
100
AcDbLine
 62
7
  6
CONTINUOUS
 10
138.6109375537
 20
235.3723099221
 11
139.4769844188
 21
235.2643426569
  0
LINE
  5
2F6
100
AcDbEntity
  8
BEZUGSACHSEN
100
AcDbLine
 62
7
  6
CONTINUOUS
 10
138.6159936019
 20
236.6787192722
 11
139.3142539057
 21
236.549506491
  0
LINE
  5
2F7
100
AcDbEntity
  8
BEZUGSACHSEN
100
AcDbLine
 62
7
  6
CONTINUOUS
 10
152.8109521613
 20
235.280267951
 11
158.7572671615
 21
233.9721509193
  0
LINE
  5
2F8
100
AcDbEntity
  8
BEZUGSACHSEN
100
AcDbLine
 62
7
  6
CONTINUOUS
 10
154.3642898832
 20
236.0438867467
 11
158.9892028102
 21
235.0264621116
  0
LINE
  5
2F9
100
AcDbEntity
  8
BEZUGSACHSEN
100
AcDbLine
 62
7
  6
CONTINUOUS
 10
160.0621748388
 20
233.5726030764
 11
165.7215078672
 21
231.3272013172
  0
LINE
  5
2FA
100
AcDbEntity
  8
BEZUGSACHSEN
100
AcDbLine
 62
7
  6
CONTINUOUS
 10
161.7179266343
 20
234.0770514981
 11
166.1196285017
 21
232.3306285421
  0
LINE
  5
2FB
100
AcDbEntity
  8
BEZUGSACHSEN
100
AcDbLine
 62
7
  6
CONTINUOUS
 10
140.5783802753
 20
245.4147009755
 11
141.3037623281
 21
245.071294247
  0
LINE
  5
2FC
100
AcDbEntity
  8
BEZUGSACHSEN
100
AcDbLine
 62
7
  6
CONTINUOUS
 10
168.6658476568
 20
233.8717294639
 11
170.743027395
 21
232.7352539392
  0
LINE
  5
2FD
100
AcDbEntity
  8
BEZUGSACHSEN
100
AcDbLine
 62
7
  6
CONTINUOUS
 10
169.1839971107
 20
234.818771018
 11
171.2611768489
 21
233.6822954933
  0
LINE
  5
2FE
100
AcDbEntity
  8
BEZUGSACHSEN
100
AcDbLine
 62
7
  6
CONTINUOUS
 10
166.5504588525
 20
240.7539475564
 11
167.2568551119
 21
240.2414000307
  0
LINE
  5
2FF
100
AcDbEntity
  8
BEZUGSACHSEN
100
AcDbLine
 62
7
  6
CONTINUOUS
 10
189.0318714178
 20
226.7610436535
 11
190.2502439652
 21
225.2996507764
  0
LINE
  5
300
100
AcDbEntity
  8
BEZUGSACHSEN
100
AcDbLine
 62
7
  6
CONTINUOUS
 10
193.4111438344
 20
218.1949065545
 11
196.1453033046
 21
212.8259266055
  0
LINE
  5
301
100
AcDbEntity
  8
BEZUGSACHSEN
100
AcDbLine
 62
7
  6
CONTINUOUS
 10
193.9906757622
 20
220.6251980689
 11
197.4443505358
 21
213.8433293405
  0
LINE
  5
302
100
AcDbEntity
  8
BEZUGSACHSEN
100
AcDbLine
 62
7
  6
CONTINUOUS
 10
140.2768341529
 20
239.7181855088
 11
141.7869016617
 21
239.9093938621
  0
LINE
  5
303
100
AcDbEntity
  8
BEZUGSACHSEN
100
AcDbLine
 62
7
  6
CONTINUOUS
 10
140.1141036589
 20
241.0033491929
 11
142.6308828403
 21
241.3220297818
  0
LINE
  5
304
100
AcDbEntity
  8
BEZUGSACHSEN
100
AcDbLine
 62
7
  6
CONTINUOUS
 10
141.3800754266
 20
243.1223030724
 11
142.3867870992
 21
243.2497753079
  0
LINE
  5
305
100
AcDbEntity
  8
BEZUGSACHSEN
100
AcDbLine
 62
7
  6
CONTINUOUS
 10
138.3649925575
 20
244.0462956984
 11
139.8750600663
 21
244.2375040517
  0
LINE
  5
306
100
AcDbEntity
  8
BEZUGSACHSEN
100
AcDbLine
 62
7
  6
CONTINUOUS
 10
138.2022620634
 20
245.3314593825
 11
139.7123295723
 21
245.5226677358
  0
LINE
  5
307
100
AcDbEntity
  8
BEZUGSACHSEN
100
AcDbLine
 62
7
  6
CONTINUOUS
 10
130.2298761094
 20
243.6449629414
 11
131.1016915853
 21
243.685359361
  0
LINE
  5
308
100
AcDbEntity
  8
BEZUGSACHSEN
100
AcDbLine
 62
7
  6
CONTINUOUS
 10
156.5297527977
 20
243.5259175487
 11
157.4020195247
 21
243.5550962821
  0
LINE
  5
309
100
AcDbEntity
  8
BEZUGSACHSEN
100
AcDbLine
 62
7
  6
CONTINUOUS
 10
156.5965155176
 20
244.616564623
 11
157.7991280372
 21
244.5730712969
  0
LINE
  5
30A
100
AcDbEntity
  8
BEZUGSACHSEN
100
AcDbLine
 62
7
  6
CONTINUOUS
 10
130.7068168736
 20
242.6618570884
 11
131.255121582
 21
242.6034963671
  0
LINE
  5
30B
100
AcDbEntity
  8
BEZUGSACHSEN
100
AcDbLine
 62
7
  6
CONTINUOUS
 10
139.7123295723
 20
245.5226677358
 11
140.5783802753
 21
245.4147009755
  0
LINE
  5
30C
100
AcDbEntity
  8
BEZUGSACHSEN
100
AcDbLine
 62
7
  6
CONTINUOUS
 10
165.0560059773
 20
241.1146107949
 11
165.9216468701
 21
241.0034355304
  0
LINE
  5
30D
100
AcDbEntity
  8
BEZUGSACHSEN
100
AcDbLine
 62
7
  6
CONTINUOUS
 10
139.8750600663
 20
244.2375040517
 11
140.5733242105
 21
244.1082917568
  0
LINE
  5
30E
100
AcDbEntity
  8
BEZUGSACHSEN
100
AcDbLine
 62
7
  6
CONTINUOUS
 10
165.2969217614
 20
242.1804105865
 11
166.4769686454
 21
241.9444913351
  0
LINE
  5
30F
100
AcDbEntity
  8
BEZUGSACHSEN
100
AcDbLine
 62
7
  6
CONTINUOUS
 10
154.6460655351
 20
242.8349717918
 11
155.4719413583
 21
242.653289148
  0
LINE
  5
310
100
AcDbEntity
  8
BEZUGSACHSEN
100
AcDbLine
 62
7
  6
CONTINUOUS
 10
157.4020195247
 20
243.5550962821
 11
158.062718671
 21
243.4097504997
  0
LINE
  5
311
100
AcDbEntity
  8
BEZUGSACHSEN
100
AcDbLine
 62
7
  6
CONTINUOUS
 10
157.7991280372
 20
244.5730712969
 11
158.4598309641
 21
244.4277246828
  0
LINE
  5
312
100
AcDbEntity
  8
BEZUGSACHSEN
100
AcDbLine
 62
7
  6
CONTINUOUS
 10
163.0858482464
 20
240.7349065007
 11
163.8718650234
 21
240.4230458194
  0
LINE
  5
313
100
AcDbEntity
  8
BEZUGSACHSEN
100
AcDbLine
 62
7
  6
CONTINUOUS
 10
165.9216468701
 20
241.0034355304
 11
166.5504588525
 21
240.7539475564
  0
LINE
  5
314
100
AcDbEntity
  8
BEZUGSACHSEN
100
AcDbLine
 62
7
  6
CONTINUOUS
 10
166.4769686454
 20
241.9444913351
 11
167.105787824
 21
241.6950005059
  0
LINE
  5
315
100
AcDbEntity
  8
BEZUGSACHSEN
100
AcDbLine
 62
7
  6
CONTINUOUS
 10
158.4598309641
 20
244.4277246828
 11
159.4044963409
 21
243.9988429687
  0
LINE
  5
316
100
AcDbEntity
  8
BEZUGSACHSEN
100
AcDbLine
 62
7
  6
CONTINUOUS
 10
158.062718671
 20
243.4097504997
 11
158.8422111515
 21
243.0172048153
  0
LINE
  5
317
100
AcDbEntity
  8
BEZUGSACHSEN
100
AcDbLine
 62
7
  6
CONTINUOUS
 10
167.105787824
 20
241.6950005059
 11
167.96938528
 21
241.1200817004
  0
LINE
  5
318
100
AcDbEntity
  8
BEZUGSACHSEN
100
AcDbLine
 62
7
  6
CONTINUOUS
 10
174.8398526267
 20
239.0215056762
 11
176.3653808395
 21
237.8844636904
  0
LINE
  5
319
100
AcDbEntity
  8
BEZUGSACHSEN
100
AcDbLine
 62
7
  6
CONTINUOUS
 10
183.4845122567
 20
232.5782679371
 11
185.0100404695
 21
231.4412259512
  0
LINE
  5
31A
100
AcDbEntity
  8
0
100
AcDbLine
 62
7
  6
CONTINUOUS
 10
207.8642221715
 20
209.6783418501
 11
184.182329474
 21
242.2736708015
  0
LINE
  5
31B
100
AcDbEntity
  8
BEZUGSACHSEN
100
AcDbLine
 62
7
  6
CONTINUOUS
 10
186.6155112599
 20
77.3193826352
 11
195.6944443871
 21
88.1392338065
  0
LINE
  5
31C
100
AcDbEntity
  8
0
100
AcDbLine
 62
7
  6
CONTINUOUS
 10
184.182329474
 20
242.2736708015
 11
145.8642221715
 21
254.7239785864
  0
LINE
  5
31D
100
AcDbEntity
  8
BEZUGSACHSEN
100
AcDbLine
 62
7
  6
CONTINUOUS
 10
262.0897077534
 20
89.9325529293
 11
258.0474812658
 21
96.3073904007
  0
LINE
  5
31E
100
AcDbEntity
  8
BEZUGSACHSEN
100
AcDbLine
 62
7
  6
CONTINUOUS
 10
257.2701300182
 20
98.9849335869
 11
257.2701300182
 21
121.8538287593
  0
LINE
  5
31F
100
AcDbEntity
  8
BEZUGSACHSEN
100
AcDbLine
 62
7
  6
CONTINUOUS
 10
271.3100904015
 20
224.0531192479
 11
281.3504670723
 21
254.7239785864
  0
LINE
  5
320
100
AcDbEntity
  8
RUNDUNGEN
100
AcDbLine
 62
7
  6
CONTINUOUS
 10
303.2701300182
 20
215.5317890662
 11
303.7290075652
 21
215.8580952249
  0
LWPOLYLINE
  5
321
100
AcDbEntity
  8
RUNDUNGEN
100
AcDbPolyline
 62
7
  6
CONTINUOUS
 90
3
 70
0
 10
303.2701300182
 20
215.5332215509
 10
303.7124069312
 20
215.8447085795
 10
304.1820602326
 20
216.2747931021
  0
LINE
  5
322
100
AcDbEntity
  8
BEZUGSACHSEN
100
AcDbLine
 62
7
  6
CONTINUOUS
 10
294.2701300182
 20
132.915556567
 11
282.2701300182
 21
132.915556567
  0
LINE
  5
323
100
AcDbEntity
  8
BEZUGSACHSEN
100
AcDbLine
 62
7
  6
CONTINUOUS
 10
267.2701300182
 20
147.212812608
 11
267.2701300182
 21
155.9368440095
  0
LINE
  5
324
100
AcDbEntity
  8
RUNDUNGEN
100
AcDbLine
 62
7
  6
CONTINUOUS
 10
304.1690044379
 20
216.2612141247
 11
304.5740072169
 21
216.7400547762
  0
LINE
  5
325
100
AcDbEntity
  8
BEZUGSACHSEN
100
AcDbLine
 62
7
  6
CONTINUOUS
 10
280.6404876978
 20
143.5128339151
 11
295.8997723387
 21
143.5128339151
  0
LWPOLYLINE
  5
326
100
AcDbEntity
  8
BEZUGSACHSEN
100
AcDbPolyline
 62
7
  6
CONTINUOUS
 90
3
 70
0
 10
271.061969723
 20
219.4616571448
 10
271.0856287112
 20
219.0010065444
 10
271.1868591668
 20
218.4080342642
  0
LINE
  5
327
100
AcDbEntity
  8
BEZUGSACHSEN
100
AcDbLine
 62
7
  6
CONTINUOUS
 10
271.0619552235
 20
219.4616312258
 11
271.0619550818
 21
222.4975543792
  0
LINE
  5
328
100
AcDbEntity
  8
BEZUGSACHSEN
100
AcDbLine
 62
7
  6
CONTINUOUS
 10
273.2701305983
 20
223.3807041174
 11
273.2701300182
 21
165.1019953994
  0
LINE
  5
329
100
AcDbEntity
  8
RUNDUNGEN
100
AcDbLine
 62
7
  6
CONTINUOUS
 10
304.5642262016
 20
216.7268577681
 11
304.9006389612
 21
217.247364249
  0
LINE
  5
32A
100
AcDbEntity
  8
BEZUGSACHSEN
100
AcDbLine
 62
7
  6
CONTINUOUS
 10
280.2777317409
 20
147.0204537802
 11
280.6404876978
 21
143.5128339151
  0
LINE
  5
32B
100
AcDbEntity
  8
BEZUGSACHSEN
100
AcDbLine
 62
7
  6
CONTINUOUS
 10
280.4177744355
 20
183.0168580972
 11
280.8841207539
 21
169.3882995172
  0
LINE
  5
32C
100
AcDbEntity
  8
BEZUGSACHSEN
100
AcDbLine
 62
7
  6
CONTINUOUS
 10
282.2701300182
 20
132.915556567
 11
282.2701300182
 21
130.35715538
  0
LINE
  5
32D
100
AcDbEntity
  8
BEZUGSACHSEN
100
AcDbLine
 62
7
  6
CONTINUOUS
 10
280.1906542923
 20
149.5652151804
 11
280.8841207539
 21
169.3882995172
  0
LINE
  5
32E
100
AcDbEntity
  8
RUNDUNGEN
100
AcDbLine
 62
7
  6
CONTINUOUS
 10
304.8937868012
 20
217.2350888408
 11
305.1572077689
 21
217.7884682939
  0
LINE
  5
32F
100
AcDbEntity
  8
BEZUGSACHSEN
100
AcDbLine
 62
7
  6
CONTINUOUS
 10
258.6098759804
 20
126.8538287593
 11
264.5906380939
 21
137.212812608
  0
LINE
  5
330
100
AcDbEntity
  8
BEZUGSACHSEN
100
AcDbLine
 62
7
  6
CONTINUOUS
 10
282.2701300182
 20
132.915556567
 11
280.6404876978
 21
143.5128339151
  0
LINE
  5
331
100
AcDbEntity
  8
RUNDUNGEN
100
AcDbLine
 62
7
  6
CONTINUOUS
 10
305.1528641511
 20
217.7775588438
 11
305.3403537337
 21
218.3550611141
  0
LINE
  5
332
100
AcDbEntity
  8
BEZUGSACHSEN
100
AcDbLine
 62
7
  6
CONTINUOUS
 10
271.1846560741
 20
218.4172579215
 11
271.3664973786
 21
217.8308131456
  0
LINE
  5
333
100
AcDbEntity
  8
RUNDUNGEN
100
AcDbLine
 62
7
  6
CONTINUOUS
 10
294.2701300182
 20
132.915556567
 11
294.2701300182
 21
130.35715538
  0
LINE
  5
334
100
AcDbEntity
  8
RUNDUNGEN
100
AcDbLine
 62
7
  6
CONTINUOUS
 10
305.3380324553
 20
218.3459135418
 11
305.4468285564
 21
218.9305414647
  0
LINE
  5
335
100
AcDbEntity
  8
BEZUGSACHSEN
100
AcDbLine
 62
7
  6
CONTINUOUS
 10
280.8841207539
 20
169.3882995172
 11
295.6561392826
 21
169.3882995172
  0
LINE
  5
336
100
AcDbEntity
  8
RUNDUNGEN
100
AcDbLine
 62
7
  6
CONTINUOUS
 10
317.9303840561
 20
126.8538287593
 11
311.9496219426
 21
137.212812608
  0
LINE
  5
337
100
AcDbEntity
  8
BEZUGSACHSEN
100
AcDbLine
 62
7
  6
CONTINUOUS
 10
271.3622691465
 20
217.8418303995
 11
271.6220167148
 21
217.2793082711
  0
LINE
  5
338
100
AcDbEntity
  8
RUNDUNGEN
100
AcDbLine
 62
7
  6
CONTINUOUS
 10
296.3496057442
 20
149.5652151804
 11
295.6561392826
 21
169.3882995172
  0
LINE
  5
339
100
AcDbEntity
  8
0
100
AcDbLine
 62
7
  6
CONTINUOUS
 10
296.122485601
 20
183.0168580972
 11
295.6561392826
 21
169.3882995172
  0
LINE
  5
33A
100
AcDbEntity
  8
RUNDUNGEN
100
AcDbLine
 62
7
  6
CONTINUOUS
 10
296.2625282956
 20
147.0204537802
 11
295.8997723387
 21
143.5128339151
  0
LINE
  5
33B
100
AcDbEntity
  8
0
100
AcDbLine
 62
7
  6
CONTINUOUS
 10
294.2701300182
 20
132.915556567
 11
295.8997723387
 21
143.5128339151
  0
LINE
  5
33C
100
AcDbEntity
  8
BEZUGSACHSEN
100
AcDbLine
 62
7
  6
CONTINUOUS
 10
303.2701300182
 20
223.3850964069
 11
303.2701300182
 21
185.4992476441
  0
LINE
  5
33D
100
AcDbEntity
  8
RUNDUNGEN
100
AcDbLine
 62
7
  6
CONTINUOUS
 10
303.2701300182
 20
185.4992476027
 11
303.2701300182
 21
165.1019953994
  0
LINE
  5
33E
100
AcDbEntity
  8
0
100
AcDbLine
 62
7
  6
CONTINUOUS
 10
303.2701300182
 20
185.4992476441
 11
303.2701300182
 21
165.1019953994
  0
LINE
  5
33F
100
AcDbEntity
  8
0
100
AcDbLine
 62
7
  6
CONTINUOUS
 10
305.4783049547
 20
219.4627489685
 11
305.4783049547
 21
222.4975543792
  0
LINE
  5
340
100
AcDbEntity
  8
RUNDUNGEN
100
AcDbLine
 62
7
  6
CONTINUOUS
 10
305.4783049135
 20
219.4621206086
 11
305.4783049547
 21
219.4626895798
  0
LINE
  5
341
100
AcDbEntity
  8
RUNDUNGEN
100
AcDbLine
 62
7
  6
CONTINUOUS
 10
303.2700854299
 20
223.3482523238
 11
303.2701294382
 21
223.3807041174
  0
LINE
  5
342
100
AcDbEntity
  8
RUNDUNGEN
100
AcDbLine
 62
7
  6
CONTINUOUS
 10
305.4476620881
 20
218.9376115008
 11
305.4782904084
 21
219.4621177589
  0
LINE
  5
343
100
AcDbEntity
  8
BEZUGSACHSEN
100
AcDbLine
 62
7
  6
CONTINUOUS
 10
271.6152647767
 20
217.2917193502
 11
271.9499806428
 21
216.7622240374
  0
LINE
  5
344
100
AcDbEntity
  8
RUNDUNGEN
100
AcDbLine
 62
7
  6
CONTINUOUS
 10
309.2701300182
 20
147.212812608
 11
309.2701300182
 21
155.9368440095
  0
LINE
  5
345
100
AcDbEntity
  8
BEZUGSACHSEN
100
AcDbLine
 62
7
  6
CONTINUOUS
 10
271.94027418
 20
216.7755777755
 11
272.3453484677
 21
216.2882639465
  0
LINE
  5
346
100
AcDbEntity
  8
RUNDUNGEN
100
AcDbLine
 62
7
  6
CONTINUOUS
 10
319.2701300182
 20
98.9849335869
 11
319.2701300182
 21
121.8538287593
  0
LINE
  5
347
100
AcDbEntity
  8
BEZUGSACHSEN
100
AcDbLine
 62
7
  6
CONTINUOUS
 10
272.8036262191
 20
215.8642847886
 11
273.2701300182
 21
215.5317807099
  0
LINE
  5
348
100
AcDbEntity
  8
BEZUGSACHSEN
100
AcDbLine
 62
7
  6
CONTINUOUS
 10
272.7870310966
 20
215.8778409796
 11
273.2701300182
 21
215.5301717085
  0
LINE
  5
349
100
AcDbEntity
  8
BEZUGSACHSEN
100
AcDbLine
 62
7
  6
CONTINUOUS
 10
272.3323354555
 20
216.3020113307
 11
272.8036262191
 21
215.8642847886
  0
LINE
  5
34A
100
AcDbEntity
  8
0
100
AcDbLine
 62
7
  6
CONTINUOUS
 10
295.1897929642
 20
254.7239785864
 11
298.2019233315
 21
245.5226677358
  0
LINE
  5
34B
100
AcDbEntity
  8
0
100
AcDbLine
 62
7
  6
CONTINUOUS
 10
301.8856474336
 20
234.2698046728
 11
305.230169635
 21
224.0531192479
  0
LINE
  5
34C
100
AcDbEntity
  8
BEZUGSACHSEN
100
AcDbLine
 62
7
  6
CONTINUOUS
 10
281.3504670723
 20
209.6783418501
 11
295.1897929642
 21
209.6783418501
  0
LINE
  5
34D
100
AcDbEntity
  8
BEZUGSACHSEN
100
AcDbLine
 62
7
  6
CONTINUOUS
 10
303.2701300182
 20
212.0223813397
 11
303.4720372522
 21
212.0223813397
  0
LINE
  5
34E
100
AcDbEntity
  8
BEZUGSACHSEN
100
AcDbLine
 62
7
  6
CONTINUOUS
 10
301.3794437396
 20
212.6792168643
 11
302.1491979554
 21
212.6792168643
  0
LINE
  5
34F
100
AcDbEntity
  8
BEZUGSACHSEN
100
AcDbLine
 62
7
  6
CONTINUOUS
 10
303.2701300182
 20
213.7178485217
 11
303.3840459844
 21
213.7178485217
  0
LINE
  5
350
100
AcDbEntity
  8
BEZUGSACHSEN
100
AcDbLine
 62
7
  6
CONTINUOUS
 10
303.2994949985
 20
215.5526703971
 11
303.4828283487
 21
215.5526703971
  0
LINE
  5
351
100
AcDbEntity
  8
BEZUGSACHSEN
100
AcDbLine
 62
7
  6
CONTINUOUS
 10
301.4014104357
 20
217.0263905459
 11
302.1216993434
 21
217.0263905459
  0
LINE
  5
352
100
AcDbEntity
  8
BEZUGSACHSEN
100
AcDbLine
 62
7
  6
CONTINUOUS
 10
298.06414575
 20
218.3518087548
 11
299.0002577653
 21
218.3518087548
  0
LINE
  5
353
100
AcDbEntity
  8
BEZUGSACHSEN
100
AcDbLine
 62
7
  6
CONTINUOUS
 10
299.5044537322
 20
219.4437250161
 11
300.3331447022
 21
219.4437250161
  0
LINE
  5
354
100
AcDbEntity
  8
BEZUGSACHSEN
100
AcDbLine
 62
7
  6
CONTINUOUS
 10
299.429755478
 20
219.9851126864
 11
300.2583067094
 21
219.9851126864
  0
LINE
  5
355
100
AcDbEntity
  8
BEZUGSACHSEN
100
AcDbLine
 62
7
  6
CONTINUOUS
 10
301.1918756072
 20
220.3699520009
 11
301.8908715223
 21
220.3699520009
  0
LINE
  5
356
100
AcDbEntity
  8
BEZUGSACHSEN
100
AcDbLine
 62
7
  6
CONTINUOUS
 10
300.8991815739
 20
220.4724147681
 11
301.6185114565
 21
220.4724147681
  0
LINE
  5
357
100
AcDbEntity
  8
BEZUGSACHSEN
100
AcDbLine
 62
7
  6
CONTINUOUS
 10
299.3380526467
 20
220.5069625071
 11
300.1183981432
 21
220.5069625071
  0
LINE
  5
358
100
AcDbEntity
  8
BEZUGSACHSEN
100
AcDbLine
 62
7
  6
CONTINUOUS
 10
300.6106985526
 20
220.8205111354
 11
301.3473010867
 21
220.8205111354
  0
LINE
  5
359
100
AcDbEntity
  8
BEZUGSACHSEN
100
AcDbLine
 62
7
  6
CONTINUOUS
 10
299.3317858455
 20
221.009274077
 11
299.9144201277
 21
221.009274077
  0
LINE
  5
35A
100
AcDbEntity
  8
BEZUGSACHSEN
100
AcDbLine
 62
7
  6
CONTINUOUS
 10
299.3519362802
 20
221.3713547054
 11
299.7136934867
 21
221.3713547054
  0
LINE
  5
35B
100
AcDbEntity
  8
BEZUGSACHSEN
100
AcDbLine
 62
7
  6
CONTINUOUS
 10
300.2546163966
 20
221.4398569772
 11
301.0104816567
 21
221.4398569772
  0
LINE
  5
35C
100
AcDbEntity
  8
BEZUGSACHSEN
100
AcDbLine
 62
7
  6
CONTINUOUS
 10
301.4172877493
 20
221.5777683703
 11
301.6239235539
 21
221.5777683703
  0
LINE
  5
35D
100
AcDbEntity
  8
BEZUGSACHSEN
100
AcDbLine
 62
7
  6
CONTINUOUS
 10
298.0920531555
 20
221.7173626764
 11
298.9957452319
 21
221.7173626764
  0
LINE
  5
35E
100
AcDbEntity
  8
BEZUGSACHSEN
100
AcDbLine
 62
7
  6
CONTINUOUS
 10
301.1649548525
 20
221.9206035408
 11
301.688630074
 21
221.9206035408
  0
LINE
  5
35F
100
AcDbEntity
  8
BEZUGSACHSEN
100
AcDbLine
 62
7
  6
CONTINUOUS
 10
298.1564663489
 20
222.297826447
 11
299.0505144508
 21
222.297826447
  0
LINE
  5
360
100
AcDbEntity
  8
BEZUGSACHSEN
100
AcDbLine
 62
7
  6
CONTINUOUS
 10
300.991541515
 20
222.4118720428
 11
301.6833758203
 21
222.4118720428
  0
LINE
  5
361
100
AcDbEntity
  8
BEZUGSACHSEN
100
AcDbLine
 62
7
  6
CONTINUOUS
 10
298.3603042303
 20
222.4966716766
 11
299.2386282282
 21
222.4966716766
  0
LINE
  5
362
100
AcDbEntity
  8
RUNDUNGEN
100
AcDbLine
 62
7
  6
CONTINUOUS
 10
314.4505522831
 20
89.9325529293
 11
318.4927787706
 21
96.3073904007
  0
LINE
  5
363
100
AcDbEntity
  8
RUNDUNGEN
100
AcDbLine
 62
7
  6
CONTINUOUS
 10
313.4377962217
 20
88.4339124649
 11
314.4505522831
 21
89.9325529293
  0
LINE
  5
364
100
AcDbEntity
  8
BEZUGSACHSEN
100
AcDbLine
 62
7
  6
CONTINUOUS
 10
300.9177235754
 20
223.0515731733
 11
301.6082334441
 21
223.0515731733
  0
LINE
  5
365
100
AcDbEntity
  8
BEZUGSACHSEN
100
AcDbLine
 62
7
  6
CONTINUOUS
 10
300.7720217743
 20
223.7168897351
 11
301.4663555742
 21
223.7168897351
  0
LINE
  5
366
100
AcDbEntity
  8
BEZUGSACHSEN
100
AcDbLine
 62
7
  6
CONTINUOUS
 10
300.556253751
 20
224.4078215205
 11
301.2594332732
 21
224.4078215205
  0
LINE
  5
367
100
AcDbEntity
  8
BEZUGSACHSEN
100
AcDbLine
 62
7
  6
CONTINUOUS
 10
301.4938311762
 20
224.4174161795
 11
302.0166088309
 21
224.4174161795
  0
LINE
  5
368
100
AcDbEntity
  8
BEZUGSACHSEN
100
AcDbLine
 62
7
  6
CONTINUOUS
 10
300.271574888
 20
225.124369336
 11
300.9885092276
 21
225.124369336
  0
LINE
  5
369
100
AcDbEntity
  8
BEZUGSACHSEN
100
AcDbLine
 62
7
  6
CONTINUOUS
 10
298.0672168172
 20
226.0412690873
 11
298.9334284957
 21
226.0412690873
  0
LINE
  5
36A
100
AcDbEntity
  8
BEZUGSACHSEN
100
AcDbLine
 62
7
  6
CONTINUOUS
 10
298.0821644577
 20
226.7781718402
 11
298.9406653782
 21
226.7781718402
  0
LINE
  5
36B
100
AcDbEntity
  8
BEZUGSACHSEN
100
AcDbLine
 62
7
  6
CONTINUOUS
 10
300.990357993
 20
227.891047676
 11
301.6238066389
 21
227.891047676
  0
LINE
  5
36C
100
AcDbEntity
  8
BEZUGSACHSEN
100
AcDbLine
 62
7
  6
CONTINUOUS
 10
300.9149752268
 20
228.4699858512
 11
301.5481542562
 21
228.4699858512
  0
LINE
  5
36D
100
AcDbEntity
  8
BEZUGSACHSEN
100
AcDbLine
 62
7
  6
CONTINUOUS
 10
300.768132001
 20
229.1199700157
 11
301.4059157919
 21
229.1199700157
  0
LINE
  5
36E
100
AcDbEntity
  8
BEZUGSACHSEN
100
AcDbLine
 62
7
  6
CONTINUOUS
 10
298.082164452
 20
229.7257814461
 11
298.9140092756
 21
229.7257814461
  0
LINE
  5
36F
100
AcDbEntity
  8
BEZUGSACHSEN
100
AcDbLine
 62
7
  6
CONTINUOUS
 10
300.5516491529
 20
229.840999928
 11
301.1987762618
 21
229.840999928
  0
LINE
  5
370
100
AcDbEntity
  8
BEZUGSACHSEN
100
AcDbLine
 62
7
  6
CONTINUOUS
 10
298.0672168172
 20
230.4626838476
 11
298.8934754081
 21
230.4626838476
  0
LINE
  5
371
100
AcDbEntity
  8
BEZUGSACHSEN
100
AcDbLine
 62
7
  6
CONTINUOUS
 10
300.2666739607
 20
230.6330745464
 11
300.9277714703
 21
230.6330745464
  0
LINE
  5
372
100
AcDbEntity
  8
BEZUGSACHSEN
100
AcDbLine
 62
7
  6
CONTINUOUS
 10
298.060909237
 20
232.5307497242
 11
298.8689689592
 21
232.5307497242
  0
LINE
  5
373
100
AcDbEntity
  8
BEZUGSACHSEN
100
AcDbLine
 62
7
  6
CONTINUOUS
 10
301.3794437561
 20
232.7545126804
 11
301.9293439967
 21
232.7545126804
  0
LINE
  5
374
100
AcDbEntity
  8
BEZUGSACHSEN
100
AcDbLine
 62
7
  6
CONTINUOUS
 10
299.2853266503
 20
233.2224362491
 11
299.9242361586
 21
233.2224362491
  0
LINE
  5
375
100
AcDbEntity
  8
BEZUGSACHSEN
100
AcDbLine
 62
7
  6
CONTINUOUS
 10
299.2786113034
 20
233.8113544098
 11
299.6597171221
 21
233.8113544098
  0
LINE
  5
376
100
AcDbEntity
  8
BEZUGSACHSEN
100
AcDbLine
 62
7
  6
CONTINUOUS
 10
299.3380657522
 20
234.1260695655
 11
299.4646466566
 21
234.1260695655
  0
LINE
  5
377
100
AcDbEntity
  8
BEZUGSACHSEN
100
AcDbLine
 62
7
  6
CONTINUOUS
 10
301.5434225596
 20
234.2852545802
 11
301.9328430668
 21
234.2852545802
  0
LINE
  5
378
100
AcDbEntity
  8
BEZUGSACHSEN
100
AcDbLine
 62
7
  6
CONTINUOUS
 10
298.0928012544
 20
234.9686365154
 11
298.8765461394
 21
234.9686365154
  0
LINE
  5
379
100
AcDbEntity
  8
BEZUGSACHSEN
100
AcDbLine
 62
7
  6
CONTINUOUS
 10
301.687719376
 20
235.2643426569
 11
301.9344273893
 21
235.2643426569
  0
LINE
  5
37A
100
AcDbEntity
  8
BEZUGSACHSEN
100
AcDbLine
 62
7
  6
CONTINUOUS
 10
298.1580512374
 20
235.3039058871
 11
298.933940017
 21
235.3039058871
  0
LINE
  5
37B
100
AcDbEntity
  8
BEZUGSACHSEN
100
AcDbLine
 62
7
  6
CONTINUOUS
 10
298.2919588689
 20
235.36497177
 11
299.0573410583
 21
235.36497177
  0
LINE
  5
37C
100
AcDbEntity
  8
BEZUGSACHSEN
100
AcDbLine
 62
7
  6
CONTINUOUS
 10
301.6500095369
 20
235.3723099221
 11
301.8629949036
 21
235.3723099221
  0
LINE
  5
37D
100
AcDbEntity
  8
BEZUGSACHSEN
100
AcDbLine
 62
7
  6
CONTINUOUS
 10
301.5300216678
 20
235.7157162206
 11
301.7221792818
 21
235.7157162206
  0
LINE
  5
37E
100
AcDbEntity
  8
BEZUGSACHSEN
100
AcDbLine
 62
7
  6
CONTINUOUS
 10
301.2595144943
 20
236.4875109188
 11
301.4446883832
 21
236.4875109188
  0
LINE
  5
37F
100
AcDbEntity
  8
BEZUGSACHSEN
100
AcDbLine
 62
7
  6
CONTINUOUS
 10
301.4387006978
 20
236.7407148443
 11
301.5285485891
 21
236.7407148443
  0
LINE
  5
380
100
AcDbEntity
  8
BEZUGSACHSEN
100
AcDbLine
 62
7
  6
CONTINUOUS
 10
301.3238982601
 20
237.0398904441
 11
301.4552339338
 21
237.0398904441
  0
LINE
  5
381
100
AcDbEntity
  8
BEZUGSACHSEN
100
AcDbLine
 62
7
  6
CONTINUOUS
 10
300.9734593582
 20
237.3017957889
 11
301.1711451751
 21
237.3017957889
  0
LINE
  5
382
100
AcDbEntity
  8
BEZUGSACHSEN
100
AcDbLine
 62
7
  6
CONTINUOUS
 10
301.1573121905
 20
237.5320146066
 11
301.3146953612
 21
237.5320146066
  0
LINE
  5
383
100
AcDbEntity
  8
BEZUGSACHSEN
100
AcDbLine
 62
7
  6
CONTINUOUS
 10
300.9407723381
 20
238.1958419833
 11
301.1112852516
 21
238.1958419833
  0
LINE
  5
384
100
AcDbEntity
  8
BEZUGSACHSEN
100
AcDbLine
 62
7
  6
CONTINUOUS
 10
300.6037139425
 20
238.3515204773
 11
300.833428428
 21
238.3515204773
  0
LINE
  5
385
100
AcDbEntity
  8
BEZUGSACHSEN
100
AcDbLine
 62
7
  6
CONTINUOUS
 10
299.8304620161
 20
239.5644015441
 11
300.1368129453
 21
239.5644015441
  0
LINE
  5
386
100
AcDbEntity
  8
BEZUGSACHSEN
100
AcDbLine
 62
7
  6
CONTINUOUS
 10
300.4617149104
 20
239.7181855088
 11
300.591289208
 21
239.7181855088
  0
LINE
  5
387
100
AcDbEntity
  8
BEZUGSACHSEN
100
AcDbLine
 62
7
  6
CONTINUOUS
 10
299.7153849451
 20
239.9190348183
 11
300.0646570917
 21
239.9190348183
  0
LINE
  5
388
100
AcDbEntity
  8
BEZUGSACHSEN
100
AcDbLine
 62
7
  6
CONTINUOUS
 10
299.5493225707
 20
240.4307859546
 11
299.9264520457
 21
240.4307859546
  0
LINE
  5
389
100
AcDbEntity
  8
BEZUGSACHSEN
100
AcDbLine
 62
7
  6
CONTINUOUS
 10
300.0597803411
 20
241.0033491929
 11
300.1891170208
 21
241.0033491929
  0
LINE
  5
38A
100
AcDbEntity
  8
BEZUGSACHSEN
100
AcDbLine
 62
7
  6
CONTINUOUS
 10
299.3322731566
 20
241.0996560833
 11
299.7231919424
 21
241.0996560833
  0
LINE
  5
38B
100
AcDbEntity
  8
BEZUGSACHSEN
100
AcDbLine
 62
7
  6
CONTINUOUS
 10
299.960110314
 20
241.3220297818
 11
300.1561419847
 21
241.3220297818
  0
LINE
  5
38C
100
AcDbEntity
  8
BEZUGSACHSEN
100
AcDbLine
 62
7
  6
CONTINUOUS
 10
299.6512593006
 20
241.5644299875
 11
299.8295372138
 21
241.5644299875
  0
LINE
  5
38D
100
AcDbEntity
  8
BEZUGSACHSEN
100
AcDbLine
 62
7
  6
CONTINUOUS
 10
299.1297806281
 20
241.7191476549
 11
299.5222804803
 21
241.7191476549
  0
LINE
  5
38E
100
AcDbEntity
  8
BEZUGSACHSEN
100
AcDbLine
 62
7
  6
CONTINUOUS
 10
281.3504670723
 20
242.2736708015
 11
295.1897929642
 21
242.2736708015
  0
LINE
  5
38F
100
AcDbEntity
  8
BEZUGSACHSEN
100
AcDbLine
 62
7
  6
CONTINUOUS
 10
299.1371927615
 20
242.2892595125
 11
299.3236369684
 21
242.2892595125
  0
LINE
  5
390
100
AcDbEntity
  8
BEZUGSACHSEN
100
AcDbLine
 62
7
  6
CONTINUOUS
 10
298.0641457636
 20
242.45987273
 11
298.7826784651
 21
242.45987273
  0
LINE
  5
391
100
AcDbEntity
  8
BEZUGSACHSEN
100
AcDbLine
 62
7
  6
CONTINUOUS
 10
299.1315850819
 20
242.6034963671
 11
299.1937141364
 21
242.6034963671
  0
LINE
  5
392
100
AcDbEntity
  8
BEZUGSACHSEN
100
AcDbLine
 62
7
  6
CONTINUOUS
 10
299.2805224702
 20
242.6566453728
 11
299.4976943515
 21
242.6566453728
  0
LINE
  5
393
100
AcDbEntity
  8
BEZUGSACHSEN
100
AcDbLine
 62
7
  6
CONTINUOUS
 10
299.4189451391
 20
243.1223030724
 11
299.5710776884
 21
243.1223030724
  0
LINE
  5
394
100
AcDbEntity
  8
BEZUGSACHSEN
100
AcDbLine
 62
7
  6
CONTINUOUS
 10
298.9158956221
 20
243.5559122315
 11
299.2350045243
 21
243.5559122315
  0
LINE
  5
395
100
AcDbEntity
  8
BEZUGSACHSEN
100
AcDbLine
 62
7
  6
CONTINUOUS
 10
298.0920531519
 20
243.6449629414
 11
298.7977863647
 21
243.6449629414
  0
LINE
  5
396
100
AcDbEntity
  8
BEZUGSACHSEN
100
AcDbLine
 62
7
  6
CONTINUOUS
 10
298.1564663561
 20
243.685359361
 11
298.8568151997
 21
243.685359361
  0
LINE
  5
397
100
AcDbEntity
  8
BEZUGSACHSEN
100
AcDbLine
 62
7
  6
CONTINUOUS
 10
299.2502203305
 20
243.7436399798
 11
299.3724140695
 21
243.7436399798
  0
LINE
  5
398
100
AcDbEntity
  8
BEZUGSACHSEN
100
AcDbLine
 62
7
  6
CONTINUOUS
 10
299.1858589271
 20
244.1082917568
 11
299.2442217442
 21
244.1082917568
  0
LINE
  5
399
100
AcDbEntity
  8
BEZUGSACHSEN
100
AcDbLine
 62
7
  6
CONTINUOUS
 10
298.2930302761
 20
244.4976691871
 11
298.975327068
 21
244.4976691871
  0
LINE
  5
39A
100
AcDbEntity
  8
BEZUGSACHSEN
100
AcDbLine
 62
7
  6
CONTINUOUS
 10
298.1587811676
 20
245.0110387342
 11
298.847010532
 21
245.0110387342
  0
LINE
  5
39B
100
AcDbEntity
  8
BEZUGSACHSEN
100
AcDbLine
 62
7
  6
CONTINUOUS
 10
298.0931129643
 20
245.3314593825
 11
298.7836275618
 21
245.3314593825
  0
LINE
  5
39C
100
AcDbEntity
  8
BEZUGSACHSEN
100
AcDbLine
 62
7
  6
CONTINUOUS
 10
298.091616791
 20
245.5226677358
 11
298.7805338937
 21
245.5226677358
  0
LINE
  5
39D
100
AcDbEntity
  8
BEZUGSACHSEN
100
AcDbLine
 62
7
  6
CONTINUOUS
 10
295.1897929642
 20
254.7239785864
 11
281.3504670723
 21
254.7239785864
  0
ARC
  5
39E
100
AcDbEntity
  8
0
100
AcDbCircle
 62
7
  6
CONTINUOUS
 10
145.8642221715
 20
1.4768182421
 40
80.0
100
AcDbArc
 50
67.7750981556
 51
81.1194498884
  0
ARC
  5
39F
100
AcDbEntity
  8
0
100
AcDbCircle
 62
7
  6
CONTINUOUS
 10
145.8642221715
 20
1.4768182421
 40
80.0
100
AcDbArc
 50
98.8805501116
 51
112.2249018444
  0
CIRCLE
  5
3A0
100
AcDbEntity
  8
BEZUGSACHSEN
100
AcDbCircle
 62
7
  6
CONTINUOUS
 10
145.8642221715
 20
189.5333206837
 40
26.0
  0
ARC
  5
3A1
100
AcDbEntity
  8
0
100
AcDbCircle
 62
7
  6
CONTINUOUS
 10
145.8642221715
 20
134.1833206837
 40
12.35
100
AcDbArc
 50
178.6532229189
 51
180.0
  0
ARC
  5
3A2
100
AcDbEntity
  8
0
100
AcDbCircle
 62
7
  6
CONTINUOUS
 10
145.8642221715
 20
134.1833206837
 40
12.35
100
AcDbArc
 50
0.0
 51
1.3467770811
  0
ARC
  5
3A3
100
AcDbEntity
  8
RUNDUNGEN
100
AcDbCircle
 62
7
  6
CONTINUOUS
 10
145.8642221715
 20
134.1833206837
 40
12.35
100
AcDbArc
 50
1.3467770811
 51
178.6532229189
  0
ARC
  5
3A4
100
AcDbEntity
  8
RUNDUNGEN
100
AcDbCircle
 62
7
  6
CONTINUOUS
 10
201.8642221715
 20
122.690502683
 40
5.0
100
AcDbArc
 50
150.0
 51
180.0
  0
ARC
  5
3A5
100
AcDbEntity
  8
RUNDUNGEN
100
AcDbCircle
 62
7
  6
CONTINUOUS
 10
191.8642221715
 20
91.353171855
 40
5.0
100
AcDbArc
 50
320.0
 51
360.0
  0
ARC
  5
3A6
100
AcDbEntity
  8
BEZUGSACHSEN
100
AcDbCircle
 62
7
  6
CONTINUOUS
 10
182.7852929037
 20
80.5333252831
 40
5.0
100
AcDbArc
 50
269.9999557743
 51
319.9999311969
  0
ARC
  5
3A7
100
AcDbEntity
  8
BEZUGSACHSEN
100
AcDbCircle
 62
7
  6
CONTINUOUS
 10
108.9431465713
 20
80.5333310847
 40
5.0
100
AcDbArc
 50
220.0001555872
 51
270.0001000089
  0
ARC
  5
3A8
100
AcDbEntity
  8
RUNDUNGEN
100
AcDbCircle
 62
7
  6
CONTINUOUS
 10
99.8642221715
 20
91.353171855
 40
5.0
100
AcDbArc
 50
180.0
 51
220.0
  0
ARC
  5
3A9
100
AcDbEntity
  8
RUNDUNGEN
100
AcDbCircle
 62
7
  6
CONTINUOUS
 10
89.8642221715
 20
122.690502683
 40
5.0
100
AcDbArc
 50
0.0
 51
30.0
  0
ARC
  5
3AA
100
AcDbEntity
  8
BEZUGSACHSEN
100
AcDbCircle
 62
7
  6
CONTINUOUS
 10
99.8642221715
 20
91.353171855
 40
5.0
100
AcDbArc
 50
180.0
 51
220.0
  0
CIRCLE
  5
3AB
100
AcDbEntity
  8
BEZUGSACHSEN
100
AcDbCircle
 62
7
  6
CONTINUOUS
 10
185.0642221715
 20
106.5333206837
 40
4.0
  0
ARC
  5
3AC
100
AcDbEntity
  8
BEZUGSACHSEN
100
AcDbCircle
 62
7
  6
CONTINUOUS
 10
-888.7640130749
 20
-183.833342988
 40
1261.9755165683
100
AcDbArc
 50
19.3641196945
 51
19.490143244
  0
ARC
  5
3AD
100
AcDbEntity
  8
BEZUGSACHSEN
100
AcDbCircle
 62
7
  6
CONTINUOUS
 10
-678.2399011997
 20
-107.1167967066
 40
1038.0189224249
100
AcDbArc
 50
19.2220890897
 51
19.3907378297
  0
ARC
  5
3AE
100
AcDbEntity
  8
BEZUGSACHSEN
100
AcDbCircle
 62
7
  6
CONTINUOUS
 10
60.1420932014
 20
-18.3442148787
 40
337.5699211816
100
AcDbArc
 50
44.2067801668
 51
44.5422381428
  0
ARC
  5
3AF
100
AcDbEntity
  8
BEZUGSACHSEN
100
AcDbCircle
 62
7
  6
CONTINUOUS
 10
95.1993062924
 20
14.4386055993
 40
290.2489908251
100
AcDbArc
 50
44.5363223557
 51
44.9570916157
  0
ARC
  5
3B0
100
AcDbEntity
  8
BEZUGSACHSEN
100
AcDbCircle
 62
7
  6
CONTINUOUS
 10
-235.8575487687
 20
90.2820184779
 40
555.087417921
100
AcDbArc
 50
14.3958158904
 51
14.5127286338
  0
ARC
  5
3B1
100
AcDbEntity
  8
BEZUGSACHSEN
100
AcDbCircle
 62
7
  6
CONTINUOUS
 10
-219.1271491654
 20
88.1104199036
 40
538.1857393034
100
AcDbArc
 50
14.5231551649
 51
14.6425103139
  0
ARC
  5
3B2
100
AcDbEntity
  8
BEZUGSACHSEN
100
AcDbCircle
 62
7
  6
CONTINUOUS
 10
-50.0954438254
 20
147.737964161
 40
362.2331343332
100
AcDbArc
 50
15.3767838945
 51
15.4929600742
  0
ARC
  5
3B3
100
AcDbEntity
  8
0
100
AcDbCircle
 62
7
  6
CONTINUOUS
 10
-21.7575644001
 20
151.3422332571
 40
333.3321442584
100
AcDbArc
 50
16.1007522845
 51
16.2284143709
  0
ARC
  5
3B4
100
AcDbEntity
  8
BEZUGSACHSEN
100
AcDbCircle
 62
7
  6
CONTINUOUS
 10
-9.7887804712
 20
156.9943609829
 40
318.326335005
100
AcDbArc
 50
11.9767135113
 51
12.0991568901
  0
ARC
  5
3B5
100
AcDbEntity
  8
BEZUGSACHSEN
100
AcDbCircle
 62
7
  6
CONTINUOUS
 10
1.1145885473
 20
163.0655410641
 40
307.4704356559
100
AcDbArc
 50
12.2816719309
 51
12.405659917
  0
ARC
  5
3B6
100
AcDbEntity
  8
0
100
AcDbCircle
 62
7
  6
CONTINUOUS
 10
24.6075255332
 20
162.8893011821
 40
282.7840598642
100
AcDbArc
 50
12.2835505192
 51
12.4215471117
  0
ARC
  5
3B7
100
AcDbEntity
  8
BEZUGSACHSEN
100
AcDbCircle
 62
7
  6
CONTINUOUS
 10
39.5924054323
 20
141.9054159921
 40
278.4104717271
100
AcDbArc
 50
19.6911364888
 51
19.8599229818
  0
ARC
  5
3B8
100
AcDbEntity
  8
0
100
AcDbCircle
 62
7
  6
CONTINUOUS
 10
32.9627932603
 20
168.2763015893
 40
274.6300264822
100
AcDbArc
 50
12.6609338409
 51
12.7999569238
  0
ARC
  5
3B9
100
AcDbEntity
  8
BEZUGSACHSEN
100
AcDbCircle
 62
7
  6
CONTINUOUS
 10
32.1560291103
 20
170.5882815833
 40
272.8576225062
100
AcDbArc
 50
10.331171682
 51
10.5024678676
  0
ARC
  5
3BA
100
AcDbEntity
  8
BEZUGSACHSEN
100
AcDbCircle
 62
7
  6
CONTINUOUS
 10
65.6091164669
 20
167.0219150649
 40
246.0632364664
100
AcDbArc
 50
18.3038223417
 51
18.4932155371
  0
ARC
  5
3BB
100
AcDbEntity
  8
BEZUGSACHSEN
100
AcDbCircle
 62
7
  6
CONTINUOUS
 10
262.2701300182
 20
98.9849335869
 40
5.0
100
AcDbArc
 50
180.0
 51
212.3784125141
  0
ARC
  5
3BC
100
AcDbEntity
  8
0
100
AcDbCircle
 62
7
  6
CONTINUOUS
 10
266.6603417936
 20
122.1968304495
 40
104.0691530793
100
AcDbArc
 50
70.6211248287
 51
70.7918576448
  0
ARC
  5
3BD
100
AcDbEntity
  8
BEZUGSACHSEN
100
AcDbCircle
 62
7
  6
CONTINUOUS
 10
267.2701300182
 20
121.8538287593
 40
10.0
100
AcDbArc
 50
150.0
 51
180.0
  0
ARC
  5
3BE
100
AcDbEntity
  8
RUNDUNGEN
100
AcDbCircle
 62
7
  6
CONTINUOUS
 10
288.2701300182
 20
106.5333206837
 40
31.0
100
AcDbArc
 50
324.2780864737
 51
327.6215874859
  0
ARC
  5
3BF
100
AcDbEntity
  8
BEZUGSACHSEN
100
AcDbCircle
 62
7
  6
CONTINUOUS
 10
288.2701300182
 20
106.5333206837
 40
31.0
100
AcDbArc
 50
212.3784125141
 51
327.6215874859
  0
CIRCLE
  5
3C0
100
AcDbEntity
  8
0
100
AcDbCircle
 62
7
  6
CONTINUOUS
 10
288.2701300182
 20
106.5333206837
 40
13.25
  0
ARC
  5
3C1
100
AcDbEntity
  8
0
100
AcDbCircle
 62
7
  6
CONTINUOUS
 10
314.2701300182
 20
98.9849335869
 40
5.0
100
AcDbArc
 50
343.722968385
 51
355.1789521031
  0
ARC
  5
3C2
100
AcDbEntity
  8
0
100
AcDbCircle
 62
7
  6
CONTINUOUS
 10
314.2701300182
 20
98.9849335869
 40
5.0
100
AcDbArc
 50
327.6215874859
 51
333.8050739216
  0
ARC
  5
3C3
100
AcDbEntity
  8
RUNDUNGEN
100
AcDbCircle
 62
7
  6
CONTINUOUS
 10
314.2701300182
 20
98.9849335869
 40
5.0
100
AcDbArc
 50
327.6215874859
 51
360.0
  0
ARC
  5
3C4
100
AcDbEntity
  8
RUNDUNGEN
100
AcDbCircle
 62
7
  6
CONTINUOUS
 10
309.2701300182
 20
121.8538287593
 40
10.0
100
AcDbArc
 50
0.0
 51
30.0
  0
ARC
  5
3C5
100
AcDbEntity
  8
0
100
AcDbCircle
 62
7
  6
CONTINUOUS
 10
309.2701300182
 20
121.8538287593
 40
10.0
100
AcDbArc
 50
15.2481577479
 51
19.4603255754
  0
ARC
  5
3C6
100
AcDbEntity
  8
0
100
AcDbCircle
 62
7
  6
CONTINUOUS
 10
309.2701300182
 20
121.8538287593
 40
10.0
100
AcDbArc
 50
9.5952458584
 51
10.5025315061
  0
ARC
  5
3C7
100
AcDbEntity
  8
0
100
AcDbCircle
 62
7
  6
CONTINUOUS
 10
309.2701300182
 20
121.8538287593
 40
10.0
100
AcDbArc
 50
0.0
 51
5.2454243806
  0
ARC
  5
3C8
100
AcDbEntity
  8
BEZUGSACHSEN
100
AcDbCircle
 62
7
  6
CONTINUOUS
 10
271.346471062
 20
139.5919695884
 40
86.3599608736
100
AcDbArc
 50
69.2870013811
 51
69.4800636018
  0
ARC
  5
3C9
100
AcDbEntity
  8
BEZUGSACHSEN
100
AcDbCircle
 62
7
  6
CONTINUOUS
 10
247.2701300182
 20
147.212812608
 40
20.0
100
AcDbArc
 50
330.0
 51
360.0
  0
ARC
  5
3CA
100
AcDbEntity
  8
BEZUGSACHSEN
100
AcDbCircle
 62
7
  6
CONTINUOUS
 10
272.2701300182
 20
155.9368440095
 40
5.0
100
AcDbArc
 50
109.4804088396
 51
180.0
  0
ARC
  5
3CB
100
AcDbEntity
  8
BEZUGSACHSEN
100
AcDbCircle
 62
7
  6
CONTINUOUS
 10
268.2701300182
 20
165.1019953994
 40
5.0
100
AcDbArc
 50
293.5781784782
 51
360.0
  0
ARC
  5
3CC
100
AcDbEntity
  8
RUNDUNGEN
100
AcDbCircle
 62
7
  6
CONTINUOUS
 10
329.2701300182
 20
147.212812608
 40
20.0
100
AcDbArc
 50
180.0
 51
210.0
  0
ARC
  5
3CD
100
AcDbEntity
  8
RUNDUNGEN
100
AcDbCircle
 62
7
  6
CONTINUOUS
 10
304.2701300182
 20
155.9368440095
 40
5.0
100
AcDbArc
 50
0.0
 51
70.5121248894
  0
ARC
  5
3CE
100
AcDbEntity
  8
RUNDUNGEN
100
AcDbCircle
 62
7
  6
CONTINUOUS
 10
308.2701300182
 20
165.1019953994
 40
5.0
100
AcDbArc
 50
180.0
 51
246.4218215218
  0
ARC
  5
3CF
100
AcDbEntity
  8
BEZUGSACHSEN
100
AcDbCircle
 62
7
  6
CONTINUOUS
 10
68.1827406782
 20
179.4104194782
 40
237.7228190093
100
AcDbArc
 50
10.3901626611
 51
10.5833449017
  0
ARC
  5
3D0
100
AcDbEntity
  8
BEZUGSACHSEN
100
AcDbCircle
 62
7
  6
CONTINUOUS
 10
86.9322572567
 20
186.0493454656
 40
218.9807453073
100
AcDbArc
 50
10.920841235
 51
11.1211806181
  0
ARC
  5
3D1
100
AcDbEntity
  8
BEZUGSACHSEN
100
AcDbCircle
 62
7
  6
CONTINUOUS
 10
92.5653919626
 20
190.999096968
 40
209.7058319248
100
AcDbArc
 50
7.7956651812
 51
7.9449895985
  0
ARC
  5
3D2
100
AcDbEntity
  8
0
100
AcDbCircle
 62
7
  6
CONTINUOUS
 10
110.7271682954
 20
193.6729248987
 40
190.528206929
100
AcDbArc
 50
7.7736409883
 51
7.9379899223
  0
ARC
  5
3D3
100
AcDbEntity
  8
BEZUGSACHSEN
100
AcDbCircle
 62
7
  6
CONTINUOUS
 10
143.8652480369
 20
202.3613676078
 40
160.748421012
100
AcDbArc
 50
13.1515027398
 51
13.3750710231
  0
ARC
  5
3D4
100
AcDbEntity
  8
BEZUGSACHSEN
100
AcDbCircle
 62
7
  6
CONTINUOUS
 10
155.4674581513
 20
205.5609098919
 40
147.1837270394
100
AcDbArc
 50
6.5741696468
 51
6.8249052538
  0
ARC
  5
3D5
100
AcDbEntity
  8
0
100
AcDbCircle
 62
7
  6
CONTINUOUS
 10
168.0311166111
 20
207.3930908666
 40
133.805972881
100
AcDbArc
 50
6.4446297664
 51
6.7203680654
  0
ARC
  5
3D6
100
AcDbEntity
  8
BEZUGSACHSEN
100
AcDbCircle
 62
7
  6
CONTINUOUS
 10
173.4937758763
 20
208.7665218864
 40
129.2226405749
100
AcDbArc
 50
5.6645293351
 51
6.0043816316
  0
ARC
  5
3D7
100
AcDbEntity
  8
BEZUGSACHSEN
100
AcDbCircle
 62
7
  6
CONTINUOUS
 10
180.7804701187
 20
212.3943325197
 40
121.8329190406
100
AcDbArc
 50
7.3076159212
 51
7.5821948743
  0
ARC
  5
3D8
100
AcDbEntity
  8
BEZUGSACHSEN
100
AcDbCircle
 62
7
  6
CONTINUOUS
 10
172.140318225
 20
219.8644949803
 40
126.8689579046
100
AcDbArc
 50
359.3168337506
 51
0.8368104777
  0
ARC
  5
3D9
100
AcDbEntity
  8
BEZUGSACHSEN
100
AcDbCircle
 62
7
  6
CONTINUOUS
 10
174.8605167032
 20
219.2608674192
 40
124.4839618837
100
AcDbArc
 50
359.6910965682
 51
0.9174694421
  0
ARC
  5
3DA
100
AcDbEntity
  8
0
100
AcDbCircle
 62
7
  6
CONTINUOUS
 10
179.6312444789
 20
221.0167552126
 40
118.4628804442
100
AcDbArc
 50
358.7109627444
 51
0.338857916
  0
ARC
  5
3DB
100
AcDbEntity
  8
BEZUGSACHSEN
100
AcDbCircle
 62
7
  6
CONTINUOUS
 10
183.0303247245
 20
217.4504441866
 40
117.3197542752
100
AcDbArc
 50
359.6722434505
 51
0.9735110248
  0
ARC
  5
3DC
100
AcDbEntity
  8
BEZUGSACHSEN
100
AcDbCircle
 62
7
  6
CONTINUOUS
 10
190.601869692
 20
207.0146681175
 40
112.9812016079
100
AcDbArc
 50
2.540377138
 51
3.4013589845
  0
ARC
  5
3DD
100
AcDbEntity
  8
0
100
AcDbCircle
 62
7
  6
CONTINUOUS
 10
191.1491446702
 20
213.8831468804
 40
110.7308151732
100
AcDbArc
 50
7.2676232689
 51
7.5697140999
  0
ARC
  5
3DE
100
AcDbEntity
  8
BEZUGSACHSEN
100
AcDbCircle
 62
7
  6
CONTINUOUS
 10
198.6479151429
 20
207.0979149934
 40
107.1174944049
100
AcDbArc
 50
15.528950257
 51
15.8141470287
  0
ARC
  5
3DF
100
AcDbEntity
  8
BEZUGSACHSEN
100
AcDbCircle
 62
7
  6
CONTINUOUS
 10
202.6113040835
 20
199.4237095916
 40
105.6381332121
100
AcDbArc
 50
20.6504849757
 51
20.8619917016
  0
ARC
  5
3E0
100
AcDbEntity
  8
BEZUGSACHSEN
100
AcDbCircle
 62
7
  6
CONTINUOUS
 10
196.5532329871
 20
214.1644234801
 40
105.6072532751
100
AcDbArc
 50
1.5529114424
 51
2.0857466333
  0
ARC
  5
3E1
100
AcDbEntity
  8
BEZUGSACHSEN
100
AcDbCircle
 62
7
  6
CONTINUOUS
 10
199.936423503
 20
208.991774839
 40
105.3337958679
100
AcDbArc
 50
19.3164008336
 51
19.4742505409
  0
ARC
  5
3E2
100
AcDbEntity
  8
BEZUGSACHSEN
100
AcDbCircle
 62
7
  6
CONTINUOUS
 10
197.7114013851
 20
214.1928904643
 40
104.4487652403
100
AcDbArc
 50
359.1696393476
 51
359.6312128165
  0
ARC
  5
3E3
100
AcDbEntity
  8
BEZUGSACHSEN
100
AcDbCircle
 62
7
  6
CONTINUOUS
 10
198.7294232637
 20
215.2738874461
 40
103.9435951142
100
AcDbArc
 50
6.3971899976
 51
6.7747974133
  0
ARC
  5
3E4
100
AcDbEntity
  8
BEZUGSACHSEN
100
AcDbCircle
 62
7
  6
CONTINUOUS
 10
218.8398542245
 20
207.0775217541
 40
87.9934532676
100
AcDbArc
 50
24.2823493973
 51
24.584140857
  0
ARC
  5
3E5
100
AcDbEntity
  8
BEZUGSACHSEN
100
AcDbCircle
 62
7
  6
CONTINUOUS
 10
249.2164547348
 20
190.4734258354
 40
67.0773049988
100
AcDbArc
 50
41.6834185629
 51
42.0092742787
  0
ARC
  5
3E6
100
AcDbEntity
  8
BEZUGSACHSEN
100
AcDbCircle
 62
7
  6
CONTINUOUS
 10
252.9301912398
 20
215.5077217016
 40
52.8111838493
100
AcDbArc
 50
22.0950112508
 51
22.4976859505
  0
ARC
  5
3E7
100
AcDbEntity
  8
BEZUGSACHSEN
100
AcDbCircle
 62
7
  6
CONTINUOUS
 10
287.8531645767
 20
198.0633562808
 40
37.8859585592
100
AcDbArc
 50
72.2023810609
 51
72.3534624635
  0
ARC
  5
3E8
100
AcDbEntity
  8
BEZUGSACHSEN
100
AcDbCircle
 62
7
  6
CONTINUOUS
 10
186.3290147852
 20
216.7263736628
 40
114.4233053897
100
AcDbArc
 50
359.6639016114
 51
0.8576552745
  0
ARC
  5
3E9
100
AcDbEntity
  8
BEZUGSACHSEN
100
AcDbCircle
 62
7
  6
CONTINUOUS
 10
189.2305160327
 20
217.3397137449
 40
113.0551993186
100
AcDbArc
 50
13.8994393972
 51
14.1676166367
  0
ARC
  5
3EA
100
AcDbEntity
  8
0
100
AcDbCircle
 62
7
  6
CONTINUOUS
 10
190.2682778595
 20
218.60227708
 40
109.2394166679
100
AcDbArc
 50
0.091938979
 51
0.4413415382
  0
ARC
  5
3EB
100
AcDbEntity
  8
0
100
AcDbCircle
 62
7
  6
CONTINUOUS
 10
197.1731675944
 20
218.3284779493
 40
104.4512000831
100
AcDbArc
 50
14.5094618515
 51
14.8005360536
  0
ARC
  5
3EC
100
AcDbEntity
  8
BEZUGSACHSEN
100
AcDbCircle
 62
7
  6
CONTINUOUS
 10
200.5932229299
 20
227.354799074
 40
98.3493700287
100
AcDbArc
 50
1.3814063611
 51
1.8108741342
  0
ARC
  5
3ED
100
AcDbEntity
  8
BEZUGSACHSEN
100
AcDbCircle
 62
7
  6
CONTINUOUS
 10
201.241165572
 20
227.3691599757
 40
97.7012872451
100
AcDbArc
 50
359.221249911
 51
359.6534197925
  0
ARC
  5
3EE
100
AcDbEntity
  8
BEZUGSACHSEN
100
AcDbCircle
 62
7
  6
CONTINUOUS
 10
209.4477010134
 20
221.2968977849
 40
92.5106302897
100
AcDbArc
 50
11.3886899989
 51
11.6128299209
  0
ARC
  5
3EF
100
AcDbEntity
  8
0
100
AcDbCircle
 62
7
  6
CONTINUOUS
 10
207.0313696453
 20
228.2474720567
 40
91.0627950021
100
AcDbArc
 50
0.9301780121
 51
1.3939261109
  0
ARC
  5
3F0
100
AcDbEntity
  8
0
100
AcDbCircle
 62
7
  6
CONTINUOUS
 10
207.0313697016
 20
228.256480877
 40
91.0627949457
100
AcDbArc
 50
358.606073889
 51
359.0698222092
  0
ARC
  5
3F1
100
AcDbEntity
  8
BEZUGSACHSEN
100
AcDbCircle
 62
7
  6
CONTINUOUS
 10
213.2934553634
 20
230.0965530009
 40
86.1109361184
100
AcDbArc
 50
354.4158878525
 51
354.8038281703
  0
ARC
  5
3F2
100
AcDbEntity
  8
BEZUGSACHSEN
100
AcDbCircle
 62
7
  6
CONTINUOUS
 10
219.0257598116
 20
221.2821634243
 40
82.6653356964
100
AcDbArc
 50
0.4425106062
 51
0.7830313674
  0
ARC
  5
3F3
100
AcDbEntity
  8
0
100
AcDbCircle
 62
7
  6
CONTINUOUS
 10
217.0922637719
 20
230.9995935434
 40
81.5299067217
100
AcDbArc
 50
353.4626646708
 51
353.8730949162
  0
ARC
  5
3F4
100
AcDbEntity
  8
BEZUGSACHSEN
100
AcDbCircle
 62
7
  6
CONTINUOUS
 10
221.6255124651
 20
220.3915311411
 40
80.4678235717
100
AcDbArc
 50
0.4546213927
 51
0.8044426425
  0
ARC
  5
3F5
100
AcDbEntity
  8
BEZUGSACHSEN
100
AcDbCircle
 62
7
  6
CONTINUOUS
 10
231.8367827585
 20
233.9580472016
 40
67.0473800005
100
AcDbArc
 50
358.7802014121
 51
0.8636384478
  0
ARC
  5
3F6
100
AcDbEntity
  8
BEZUGSACHSEN
100
AcDbCircle
 62
7
  6
CONTINUOUS
 10
233.7722524303
 20
232.9222701818
 40
65.5141542655
100
AcDbArc
 50
359.2847755637
 51
0.8838801067
  0
ARC
  5
3F7
100
AcDbEntity
  8
BEZUGSACHSEN
100
AcDbCircle
 62
7
  6
CONTINUOUS
 10
236.101930776
 20
233.9510922998
 40
64.4888706341
100
AcDbArc
 50
348.6450716318
 51
348.916803251
  0
ARC
  5
3F8
100
AcDbEntity
  8
0
100
AcDbCircle
 62
7
  6
CONTINUOUS
 10
235.9056211052
 20
234.5630065559
 40
62.1885030417
100
AcDbArc
 50
358.127298966
 51
0.3737193916
  0
ARC
  5
3F9
100
AcDbEntity
  8
BEZUGSACHSEN
100
AcDbCircle
 62
7
  6
CONTINUOUS
 10
244.8923236102
 20
226.8804240327
 40
56.7404840196
100
AcDbArc
 50
359.1741765724
 51
1.0205681625
  0
ARC
  5
3FA
100
AcDbEntity
  8
BEZUGSACHSEN
100
AcDbCircle
 62
7
  6
CONTINUOUS
 10
246.7632314959
 20
225.8447262702
 40
55.2718094603
100
AcDbArc
 50
358.5202594806
 51
1.0476408665
  0
ARC
  5
3FB
100
AcDbEntity
  8
BEZUGSACHSEN
100
AcDbCircle
 62
7
  6
CONTINUOUS
 10
247.5116729574
 20
226.4627422391
 40
54.7158168336
100
AcDbArc
 50
19.8826356763
 51
20.1695498331
  0
ARC
  5
3FC
100
AcDbEntity
  8
BEZUGSACHSEN
100
AcDbCircle
 62
7
  6
CONTINUOUS
 10
255.0734690733
 20
227.3066642752
 40
47.4344400848
100
AcDbArc
 50
351.8283293423
 51
352.3961628706
  0
ARC
  5
3FD
100
AcDbEntity
  8
BEZUGSACHSEN
100
AcDbCircle
 62
7
  6
CONTINUOUS
 10
260.1135274903
 20
229.5901037591
 40
42.2765951767
100
AcDbArc
 50
349.0751231013
 51
349.4298168248
  0
ARC
  5
3FE
100
AcDbEntity
  8
BEZUGSACHSEN
100
AcDbCircle
 62
7
  6
CONTINUOUS
 10
278.0594364001
 20
229.9954838947
 40
24.4877212019
100
AcDbArc
 50
12.8836313327
 51
13.6539140484
  0
ARC
  5
3FF
100
AcDbEntity
  8
BEZUGSACHSEN
100
AcDbCircle
 62
7
  6
CONTINUOUS
 10
282.9405843774
 20
233.7147971825
 40
23.1775381737
100
AcDbArc
 50
324.8466863209
 51
325.4323624383
  0
ARC
  5
400
100
AcDbEntity
  8
RUNDUNGEN
100
AcDbCircle
 62
7
  6
CONTINUOUS
 10
287.8027205612
 20
223.3758688242
 40
15.4674098141
100
AcDbArc
 50
0.0179141477
 51
15.9507919723
  0
ARC
  5
401
100
AcDbEntity
  8
RUNDUNGEN
100
AcDbCircle
 62
7
  6
CONTINUOUS
 10
288.2530538483
 20
223.3848419404
 40
15.0170762402
100
AcDbArc
 50
359.5355034404
 51
359.8603995368
  0
ARC
  5
402
100
AcDbEntity
  8
BEZUGSACHSEN
100
AcDbCircle
 62
7
  6
CONTINUOUS
 10
288.6576129817
 20
233.5416688716
 40
13.2960390161
100
AcDbArc
 50
3.2059595049
 51
4.6990429724
  0
ARC
  5
403
100
AcDbEntity
  8
BEZUGSACHSEN
100
AcDbCircle
 62
7
  6
CONTINUOUS
 10
288.7458827663
 20
233.5528982411
 40
13.2076140736
100
AcDbArc
 50
356.5344211758
 51
357.8212650337
  0
ARC
  5
404
100
AcDbEntity
  8
BEZUGSACHSEN
100
AcDbCircle
 62
7
  6
CONTINUOUS
 10
293.9369121949
 20
232.5124697043
 40
8.6015147311
100
AcDbArc
 50
27.991477086
 51
28.9707013189
  0
ARC
  5
405
100
AcDbEntity
  8
BEZUGSACHSEN
100
AcDbCircle
 62
7
  6
CONTINUOUS
 10
276.0619550818
 20
222.4975543792
 40
5.0
100
AcDbArc
 50
161.8736837465
 51
180.0
  0
ARC
  5
406
100
AcDbEntity
  8
0
100
AcDbCircle
 62
7
  6
CONTINUOUS
 10
300.4783049547
 20
222.4975543792
 40
5.0
100
AcDbArc
 50
0.0
 51
18.1263162535
  0
ARC
  5
407
100
AcDbEntity
  8
BEZUGSACHSEN
100
AcDbCircle
 62
7
  6
CONTINUOUS
 10
298.2475835953
 20
232.9026948864
 40
4.3783783931
100
AcDbArc
 50
32.642033779
 51
34.3362002571
  0
ARC
  5
408
100
AcDbEntity
  8
0
100
AcDbCircle
 62
7
  6
CONTINUOUS
 10
270.0127134456
 20
251.3521197394
 40
40.4502507558
100
AcDbArc
 50
314.0879808215
 51
314.4913327206
  0
ARC
  5
409
100
AcDbEntity
  8
BEZUGSACHSEN
100
AcDbCircle
 62
7
  6
CONTINUOUS
 10
262.2244986672
 20
235.9383048384
 40
37.8402123151
100
AcDbArc
 50
11.9092932455
 51
12.372654618
  0
ARC
  5
40A
100
AcDbEntity
  8
BEZUGSACHSEN
100
AcDbCircle
 62
7
  6
CONTINUOUS
 10
272.2714046263
 20
247.8201013553
 40
36.9933404748
100
AcDbArc
 50
316.3765884006
 51
316.8005406863
  0
ARC
  5
40B
100
AcDbEntity
  8
BEZUGSACHSEN
100
AcDbCircle
 62
7
  6
CONTINUOUS
 10
287.3291028736
 20
248.2232039438
 40
30.2377435531
100
AcDbArc
 50
297.9245176996
 51
298.2127974892
  0
ARC
  5
40C
100
AcDbEntity
  8
BEZUGSACHSEN
100
AcDbCircle
 62
7
  6
CONTINUOUS
 10
269.4097738102
 20
240.1855226293
 40
29.9250158267
100
AcDbArc
 50
349.9602164041
 51
350.6114795861
  0
ARC
  5
40D
100
AcDbEntity
  8
0
100
AcDbCircle
 62
7
  6
CONTINUOUS
 10
270.3726770664
 20
240.5374994851
 40
28.2739724795
100
AcDbArc
 50
348.6407117349
 51
349.3328696993
  0
ARC
  5
40E
100
AcDbEntity
  8
BEZUGSACHSEN
100
AcDbCircle
 62
7
  6
CONTINUOUS
 10
271.1958329208
 20
239.7077900816
 40
28.1551428616
100
AcDbArc
 50
10.8569791129
 51
11.5216744959
  0
ARC
  5
40F
100
AcDbEntity
  8
0
100
AcDbCircle
 62
7
  6
CONTINUOUS
 10
272.6588696079
 20
239.9519311745
 40
25.9969240268
100
AcDbArc
 50
11.2215961541
 51
11.9424683729
  0
ARC
  5
410
100
AcDbEntity
  8
BEZUGSACHSEN
100
AcDbCircle
 62
7
  6
CONTINUOUS
 10
276.7652688709
 20
239.7850524853
 40
23.2615212451
100
AcDbArc
 50
345.4289030272
 51
346.022847414
  0
ARC
  5
411
100
AcDbEntity
  8
0
100
AcDbCircle
 62
7
  6
CONTINUOUS
 10
290.465881379
 20
252.3489455158
 40
18.700343662
100
AcDbArc
 50
294.2889401664
 51
294.739867288
  0
ARC
  5
412
100
AcDbEntity
  8
BEZUGSACHSEN
100
AcDbCircle
 62
7
  6
CONTINUOUS
 10
291.8013003981
 20
249.8726559437
 40
16.2210673554
100
AcDbArc
 50
296.0856708517
 51
296.5719970873
  0
ARC
  5
413
100
AcDbEntity
  8
BEZUGSACHSEN
100
AcDbCircle
 62
7
  6
CONTINUOUS
 10
282.8678881463
 20
243.255400846
 40
15.9346608334
100
AcDbArc
 50
357.1383539498
 51
1.40087625
  0
ARC
  5
414
100
AcDbEntity
  8
BEZUGSACHSEN
100
AcDbCircle
 62
7
  6
CONTINUOUS
 10
283.5160851431
 20
242.2227905787
 40
15.6216714131
100
AcDbArc
 50
358.1690226321
 51
1.6105812605
  0
ARC
  5
415
100
AcDbEntity
  8
BEZUGSACHSEN
100
AcDbCircle
 62
7
  6
CONTINUOUS
 10
285.4097479442
 20
239.1253359034
 40
14.7336085934
100
AcDbArc
 50
358.0586167143
 51
1.7076830085
  0
ARC
  5
416
100
AcDbEntity
  8
0
100
AcDbCircle
 62
7
  6
CONTINUOUS
 10
283.3794353537
 20
243.3985529425
 40
14.7146811165
100
AcDbArc
 50
356.3424991463
 51
0.959511986
  0
ARC
  5
417
100
AcDbEntity
  8
BEZUGSACHSEN
100
AcDbCircle
 62
7
  6
CONTINUOUS
 10
286.1697573577
 20
237.8863675696
 40
14.3758410494
100
AcDbArc
 50
358.0102284096
 51
1.356387776
  0
ARC
  5
418
100
AcDbEntity
  8
BEZUGSACHSEN
100
AcDbCircle
 62
7
  6
CONTINUOUS
 10
291.1852293767
 20
240.3500868532
 40
8.8922135645
100
AcDbArc
 50
25.0013725892
 51
25.9235136433
  0
ARC
  5
419
100
AcDbEntity
  8
BEZUGSACHSEN
100
AcDbCircle
 62
7
  6
CONTINUOUS
 10
294.1319189584
 20
237.2771133948
 40
7.3479334504
100
AcDbArc
 50
46.4590130053
 51
47.1236849488
  0
ARC
  5
41A
100
AcDbEntity
  8
BEZUGSACHSEN
100
AcDbCircle
 62
7
  6
CONTINUOUS
 10
294.734594348
 20
234.543726475
 40
7.2084732864
100
AcDbArc
 50
3.2570144585
 51
5.7197167147
  0
ARC
  5
41B
100
AcDbEntity
  8
BEZUGSACHSEN
100
AcDbCircle
 62
7
  6
CONTINUOUS
 10
294.7964152142
 20
234.5501174307
 40
7.1465305179
100
AcDbArc
 50
356.6860958398
 51
357.8737586728
  0
ARC
  5
41C
100
AcDbEntity
  8
BEZUGSACHSEN
100
AcDbCircle
 62
7
  6
CONTINUOUS
 10
294.8140157688
 20
234.5483945071
 40
7.1289149405
100
AcDbArc
 50
0.6258187331
 51
3.255823661
  0
ARC
  5
41D
100
AcDbEntity
  8
BEZUGSACHSEN
100
AcDbCircle
 62
7
  6
CONTINUOUS
 10
294.829765263
 20
234.5489590518
 40
7.1131602305
100
AcDbArc
 50
357.9879439527
 51
0.6226572733
  0
ARC
  5
41E
100
AcDbEntity
  8
BEZUGSACHSEN
100
AcDbCircle
 62
7
  6
CONTINUOUS
 10
294.8863849225
 20
243.2907472977
 40
4.4884145365
100
AcDbArc
 50
28.2427372491
 51
29.8190561305
  0
ARC
  5
41F
100
AcDbEntity
  8
BEZUGSACHSEN
100
AcDbCircle
 62
7
  6
CONTINUOUS
 10
295.8334847681
 20
245.3793565585
 40
2.9505315864
100
AcDbArc
 50
359.0698535157
 51
2.7840263301
  0
ARC
  5
420
100
AcDbEntity
  8
BEZUGSACHSEN
100
AcDbCircle
 62
7
  6
CONTINUOUS
 10
296.3014697307
 20
244.0941916252
 40
2.8847868303
100
AcDbArc
 50
359.048678214
 51
2.8475512843
  0
ARC
  5
421
100
AcDbEntity
  8
BEZUGSACHSEN
100
AcDbCircle
 62
7
  6
CONTINUOUS
 10
297.4171831711
 20
240.877573464
 40
2.7747859018
100
AcDbArc
 50
2.5979980923
 51
9.2171582901
  0
ARC
  5
422
100
AcDbEntity
  8
0
100
AcDbCircle
 62
7
  6
CONTINUOUS
 10
295.3762526049
 20
245.4058104355
 40
2.7178775344
100
AcDbArc
 50
358.4324043281
 51
2.4642371299
  0
ARC
  5
423
100
AcDbEntity
  8
BEZUGSACHSEN
100
AcDbCircle
 62
7
  6
CONTINUOUS
 10
297.9097161093
 20
239.5943713134
 40
2.6844299653
100
AcDbArc
 50
2.6435960639
 51
6.7392889423
  0
ARC
  5
424
100
AcDbEntity
  8
0
100
AcDbCircle
 62
7
  6
CONTINUOUS
 10
296.7516765264
 20
245.85378293
 40
2.5836979777
100
AcDbArc
 50
301.2506019894
 51
302.9367491445
  0
ARC
  5
425
100
AcDbEntity
  8
BEZUGSACHSEN
100
AcDbCircle
 62
7
  6
CONTINUOUS
 10
299.0338122852
 20
236.5974231703
 40
2.4988466972
100
AcDbArc
 50
358.9012564193
 51
2.1900385782
  0
ARC
  5
426
100
AcDbEntity
  8
BEZUGSACHSEN
100
AcDbCircle
 62
7
  6
CONTINUOUS
 10
299.4992377018
 20
235.3122271573
 40
2.4356604318
100
AcDbArc
 50
358.8735061294
 51
3.3734580712
  0
ARC
  5
427
100
AcDbEntity
  8
BEZUGSACHSEN
100
AcDbCircle
 62
7
  6
CONTINUOUS
 10
297.5144338796
 20
245.5835738374
 40
2.3249098492
100
AcDbArc
 50
303.5043962564
 51
305.2672267156
  0
SPLINE
  5
428
100
AcDbEntity
  8
0
100
AcDbSpline
 62
7
  6
CONTINUOUS
 70
0
 71
3
 72
11
 73
7
 74
0
 42
0.0000001
 43
0.0000001
 44
0.0000000001
 40
0.0
 40
0.0
 40
0.0
 40
0.0
 40
0.2616709847
 40
0.518030291
 40
0.7641847466
 40
1.0
 40
1.0
 40
1.0
 40
1.0
 10
179.5403243465
 20
98.9849335869
 30
0.0
 10
179.6426386699
 20
98.7631543597
 30
0.0
 10
179.8021484949
 20
98.3017856888
 30
0.0
 10
179.8639812546
 20
97.5826690324
 30
0.0
 10
179.7295237506
 20
96.8975424775
 30
0.0
 10
179.5243541548
 20
96.4908681279
 30
0.0
 10
179.4027658399
 20
96.3073904007
 30
0.0
  0
SPLINE
  5
429
100
AcDbEntity
  8
0
100
AcDbSpline
 62
7
  6
CONTINUOUS
 70
0
 71
3
 72
11
 73
7
 74
0
 42
0.0000001
 43
0.0000001
 44
0.0000000001
 40
0.0
 40
0.0
 40
0.0
 40
0.0
 40
0.2358152534
 40
0.481969709
 40
0.7383290153
 40
1.0
 40
1.0
 40
1.0
 40
1.0
 10
112.3256785032
 20
96.3073904007
 30
0.0
 10
112.2040901883
 20
96.4908681279
 30
0.0
 10
111.9989205925
 20
96.8975424775
 30
0.0
 10
111.8644630884
 20
97.5826690324
 30
0.0
 10
111.9262958481
 20
98.3017856888
 30
0.0
 10
112.0858056732
 20
98.7631543597
 30
0.0
 10
112.1881199966
 20
98.9849335869
 30
0.0
  0
LINE
  5
42A
100
AcDbEntity
  8
BEZUGSACHSEN
100
AcDbLine
 62
7
  6
CONTINUOUS
 10
115.6047699932
 20
75.5333206837
 11
114.7457141089
 21
89.932553118
  0
LINE
  5
42B
100
AcDbEntity
  8
BEZUGSACHSEN
100
AcDbLine
 62
7
  6
CONTINUOUS
 10
176.9827302226
 20
89.9325529293
 11
176.1236743499
 21
75.5333206837
  0
SPLINE
  5
42C
100
AcDbEntity
  8
0
100
AcDbSpline
 62
7
  6
CONTINUOUS
 70
0
 71
3
 72
11
 73
7
 74
0
 42
0.0000001
 43
0.0000001
 44
0.0000000001
 40
0.0
 40
0.0
 40
0.0
 40
0.0
 40
0.2554166893
 40
0.5069641095
 40
0.7546082035
 40
1.0
 40
1.0
 40
1.0
 40
1.0
 10
113.8213893409
 20
121.8538287593
 30
0.0
 10
113.8213893409
 20
122.3817959419
 30
0.0
 10
114.0197664712
 20
123.4375735319
 30
0.0
 10
114.7914768446
 20
124.8152672816
 30
0.0
 10
115.8447453018
 20
125.9513444802
 30
0.0
 10
116.6581354812
 20
126.5720909494
 30
0.0
 10
117.0799425515
 20
126.8538287593
 30
0.0
  0
SPLINE
  5
42D
100
AcDbEntity
  8
0
100
AcDbSpline
 62
7
  6
CONTINUOUS
 70
0
 71
3
 72
11
 73
7
 74
0
 42
0.0000001
 43
0.0000001
 44
0.0000000001
 40
0.0
 40
0.0
 40
0.0
 40
0.0
 40
0.245391792
 40
0.4930358813
 40
0.7445833006
 40
1.0
 40
1.0
 40
1.0
 40
1.0
 10
174.6485017916
 20
126.8538287593
 30
0.0
 10
175.0703088544
 20
126.5720909544
 30
0.0
 10
175.8836990221
 20
125.9513444995
 30
0.0
 10
176.9369674616
 20
124.8152673158
 30
0.0
 10
177.7086778778
 20
123.4375735777
 30
0.0
 10
177.9070550022
 20
122.3817959629
 30
0.0
 10
177.9070550022
 20
121.8538287593
 30
0.0
  0
SPLINE
  5
42E
100
AcDbEntity
  8
0
100
AcDbSpline
 62
7
  6
CONTINUOUS
 70
0
 71
3
 72
11
 73
7
 74
0
 42
0.0000001
 43
0.0000001
 44
0.0000000001
 40
0.0
 40
0.0
 40
0.0
 40
0.0
 40
0.2548151796
 40
0.5063353811
 40
0.7544638456
 40
1.0
 40
1.0
 40
1.0
 40
1.0
 10
179.4027658399
 20
96.3073904007
 30
0.0
 10
179.0792783605
 20
95.81924524
 30
0.0
 10
178.4720541585
 20
94.8247075915
 30
0.0
 10
177.7200292185
 20
93.2581543871
 30
0.0
 10
177.1868775039
 20
91.6244709013
 30
0.0
 10
177.0156010607
 20
90.4958722861
 30
0.0
 10
176.9827302226
 20
89.9325529293
 30
0.0
  0
SPLINE
  5
42F
100
AcDbEntity
  8
0
100
AcDbSpline
 62
7
  6
CONTINUOUS
 70
0
 71
3
 72
11
 73
7
 74
0
 42
0.0000001
 43
0.0000001
 44
0.0000000001
 40
0.0
 40
0.0
 40
0.0
 40
0.0
 40
0.2455362447
 40
0.4936646691
 40
0.7451848291
 40
1.0
 40
1.0
 40
1.0
 40
1.0
 10
114.7457140963
 20
89.932553118
 30
0.0
 10
114.712843246
 20
90.4958726671
 30
0.0
 10
114.5415668578
 20
91.6244713873
 30
0.0
 10
114.008414927
 20
93.2581547806
 30
0.0
 10
113.2563900893
 20
94.8247077431
 30
0.0
 10
112.6491659631
 20
95.8192452694
 30
0.0
 10
112.3256785032
 20
96.3073904007
 30
0.0
  0
SPLINE
  5
430
100
AcDbEntity
  8
0
100
AcDbSpline
 62
7
  6
CONTINUOUS
 70
0
 71
3
 72
10
 73
6
 74
0
 42
0.0000001
 43
0.0000001
 44
0.0000000001
 40
0.0
 40
0.0
 40
0.0
 40
0.0
 40
0.2501137011
 40
0.500264482
 40
1.0
 40
1.0
 40
1.0
 40
1.0
 10
177.9070550022
 20
105.7793206837
 30
0.0
 10
177.9070550022
 20
105.1926635303
 30
0.0
 10
177.9842074228
 20
104.0178107274
 30
0.0
 10
178.4297124247
 20
101.710288539
 30
0.0
 10
179.0493001882
 20
100.0492905096
 30
0.0
 10
179.5403243465
 20
98.9849335869
 30
0.0
  0
SPLINE
  5
431
100
AcDbEntity
  8
0
100
AcDbSpline
 62
7
  6
CONTINUOUS
 70
0
 71
3
 72
10
 73
6
 74
0
 42
0.0000001
 43
0.0000001
 44
0.0000000001
 40
0.0
 40
0.0
 40
0.0
 40
0.0
 40
0.499735518
 40
0.7498862989
 40
1.0
 40
1.0
 40
1.0
 40
1.0
 10
112.1881199966
 20
98.9849335869
 30
0.0
 10
112.6791441549
 20
100.0492905096
 30
0.0
 10
113.2987319183
 20
101.710288539
 30
0.0
 10
113.7442369203
 20
104.0178107274
 30
0.0
 10
113.8213893409
 20
105.1926635303
 30
0.0
 10
113.8213893409
 20
105.7793206837
 30
0.0
  0
LINE
  5
432
100
AcDbEntity
  8
BEZUGSACHSEN
100
AcDbLine
 62
7
  6
CONTINUOUS
 10
303.3840459844
 20
213.7178485217
 11
303.2702028226
 21
213.886677058
  0
LINE
  5
433
100
AcDbEntity
  8
BEZUGSACHSEN
100
AcDbLine
 62
7
  6
CONTINUOUS
 10
303.4823138532
 20
215.6825389321
 11
303.4828283487
 21
215.5526703971
  0
LINE
  5
434
100
AcDbEntity
  8
BEZUGSACHSEN
100
AcDbLine
 62
7
  6
CONTINUOUS
 10
301.430576007
 20
237.2310987974
 11
301.3629821202
 21
237.4500147495
  0
LINE
  5
435
100
AcDbEntity
  8
BEZUGSACHSEN
100
AcDbLine
 62
7
  6
CONTINUOUS
 10
301.7110911026
 20
236.2893412805
 11
301.5718574155
 21
236.7578126788
  0
LINE
  5
436
100
AcDbEntity
  8
BEZUGSACHSEN
100
AcDbLine
 62
7
  6
CONTINUOUS
 10
301.5718574155
 20
236.7578126788
 11
301.5014727844
 21
236.9938539219
  0
LINE
  5
437
100
AcDbEntity
  8
BEZUGSACHSEN
100
AcDbLine
 62
7
  6
CONTINUOUS
 10
301.5014727844
 20
236.9938539219
 11
301.4733479475
 21
237.0880303847
  0
LINE
  5
438
100
AcDbEntity
  8
BEZUGSACHSEN
100
AcDbLine
 62
7
  6
CONTINUOUS
 10
301.4733479475
 20
237.0880303847
 11
301.430576007
 21
237.2310987974
  0
LINE
  5
439
100
AcDbEntity
  8
BEZUGSACHSEN
100
AcDbLine
 62
7
  6
CONTINUOUS
 10
298.8404569788
 20
245.4147009755
 11
298.8721189751
 21
245.3287221138
  0
LINE
  5
43A
100
AcDbEntity
  8
BEZUGSACHSEN
100
AcDbLine
 62
7
  6
CONTINUOUS
 10
299.2226674221
 20
244.2995001101
 11
299.3058669641
 21
244.0360240783
  0
LINE
  5
43B
100
AcDbEntity
  8
BEZUGSACHSEN
100
AcDbLine
 62
7
  6
CONTINUOUS
 10
299.3058669641
 20
244.0360240783
 11
299.3888276481
 21
243.7732446221
  0
LINE
  5
43C
100
AcDbEntity
  8
BEZUGSACHSEN
100
AcDbLine
 62
7
  6
CONTINUOUS
 10
299.3888276481
 20
243.7732446221
 11
299.4715493648
 21
243.5111617095
  0
LINE
  5
43D
100
AcDbEntity
  8
BEZUGSACHSEN
100
AcDbLine
 62
7
  6
CONTINUOUS
 10
299.4715493648
 20
243.5111617095
 11
299.5043505043
 21
243.407222667
  0
LINE
  5
43E
100
AcDbEntity
  8
BEZUGSACHSEN
100
AcDbLine
 62
7
  6
CONTINUOUS
 10
299.5043505043
 20
243.407222667
 11
299.5368282561
 21
243.3042988237
  0
LINE
  5
43F
100
AcDbEntity
  8
BEZUGSACHSEN
100
AcDbLine
 62
7
  6
CONTINUOUS
 10
299.5368282561
 20
243.3042988237
 11
299.5540320024
 21
243.2497753079
  0
LINE
  5
440
100
AcDbEntity
  8
BEZUGSACHSEN
100
AcDbLine
 62
7
  6
CONTINUOUS
 10
299.3805900664
 20
243.2549965724
 11
299.3482211296
 21
243.3777065785
  0
LINE
  5
441
100
AcDbEntity
  8
BEZUGSACHSEN
100
AcDbLine
 62
7
  6
CONTINUOUS
 10
299.3482211296
 20
243.3777065785
 11
299.2830362281
 21
243.6237685798
  0
LINE
  5
442
100
AcDbEntity
  8
BEZUGSACHSEN
100
AcDbLine
 62
7
  6
CONTINUOUS
 10
299.2830362281
 20
243.6237685798
 11
299.2502203305
 21
243.7471205848
  0
LINE
  5
443
100
AcDbEntity
  8
BEZUGSACHSEN
100
AcDbLine
 62
7
  6
CONTINUOUS
 10
299.5783437035
 20
242.5699230609
 11
299.5291870424
 21
242.7404475745
  0
LINE
  5
444
100
AcDbEntity
  8
BEZUGSACHSEN
100
AcDbLine
 62
7
  6
CONTINUOUS
 10
299.5291870424
 20
242.7404475745
 11
299.4798425525
 21
242.9114679984
  0
LINE
  5
445
100
AcDbEntity
  8
BEZUGSACHSEN
100
AcDbLine
 62
7
  6
CONTINUOUS
 10
299.4798425525
 20
242.9114679984
 11
299.3805900664
 21
243.2549965724
  0
LINE
  5
446
100
AcDbEntity
  8
BEZUGSACHSEN
100
AcDbLine
 62
7
  6
CONTINUOUS
 10
299.8444296058
 20
241.6919022231
 11
299.7117153789
 21
242.1299213106
  0
LINE
  5
447
100
AcDbEntity
  8
BEZUGSACHSEN
100
AcDbLine
 62
7
  6
CONTINUOUS
 10
299.7117153789
 20
242.1299213106
 11
299.6451116906
 21
242.3496743434
  0
LINE
  5
448
100
AcDbEntity
  8
BEZUGSACHSEN
100
AcDbLine
 62
7
  6
CONTINUOUS
 10
299.6451116906
 20
242.3496743434
 11
299.5783437035
 21
242.5699230609
  0
LINE
  5
449
100
AcDbEntity
  8
BEZUGSACHSEN
100
AcDbLine
 62
7
  6
CONTINUOUS
 10
300.849258812
 20
238.4789927128
 11
300.6788458541
 21
239.0239044236
  0
LINE
  5
44A
100
AcDbEntity
  8
BEZUGSACHSEN
100
AcDbLine
 62
7
  6
CONTINUOUS
 10
300.6788458541
 20
239.0239044236
 11
300.599447409
 21
239.2777853695
  0
LINE
  5
44B
100
AcDbEntity
  8
BEZUGSACHSEN
100
AcDbLine
 62
7
  6
CONTINUOUS
 10
300.599447409
 20
239.2777853695
 11
300.4921039174
 21
239.6210190265
  0
LINE
  5
44C
100
AcDbEntity
  8
BEZUGSACHSEN
100
AcDbLine
 62
7
  6
CONTINUOUS
 10
300.4921039174
 20
239.6210190265
 11
300.1899269735
 21
240.5872190613
  0
LINE
  5
44D
100
AcDbEntity
  8
BEZUGSACHSEN
100
AcDbLine
 62
7
  6
CONTINUOUS
 10
300.1899269735
 20
240.5872190613
 11
300.0970326185
 21
240.884240067
  0
LINE
  5
44E
100
AcDbEntity
  8
BEZUGSACHSEN
100
AcDbLine
 62
7
  6
CONTINUOUS
 10
300.0970326185
 20
240.884240067
 11
299.9811929434
 21
241.2546231405
  0
LINE
  5
44F
100
AcDbEntity
  8
BEZUGSACHSEN
100
AcDbLine
 62
7
  6
CONTINUOUS
 10
299.9811929434
 20
241.2546231405
 11
299.8444296058
 21
241.6919022231
  0
LINE
  5
450
100
AcDbEntity
  8
BEZUGSACHSEN
100
AcDbLine
 62
7
  6
CONTINUOUS
 10
300.849258812
 20
238.4789927128
 11
301.1192655111
 21
237.6434619718
  0
LINE
  5
451
100
AcDbEntity
  8
BEZUGSACHSEN
100
AcDbLine
 62
7
  6
CONTINUOUS
 10
301.1192655111
 20
237.6434619718
 11
301.3238982601
 21
237.0433711991
  0
SPLINE
  5
452
100
AcDbEntity
  8
BEZUGSACHSEN
100
AcDbSpline
 62
7
  6
CONTINUOUS
 70
0
 71
3
 72
8
 73
4
 74
0
 42
0.0000001
 43
0.0000001
 44
0.0000000001
 40
0.0
 40
0.0
 40
0.0
 40
0.0
 40
1.0
 40
1.0
 40
1.0
 40
1.0
 10
300.4424835089
 20
220.3241895968
 30
0.0
 10
300.3495602525
 20
220.6253994206
 30
0.0
 10
300.2564596434
 20
220.9265545825
 30
0.0
 10
300.1631907418
 20
221.2276575574
 30
0.0
  0
LINE
  5
453
100
AcDbEntity
  8
BEZUGSACHSEN
100
AcDbLine
 62
7
  6
CONTINUOUS
 10
300.1631907418
 20
221.2276575574
 11
300.0097882283
 21
221.6041030673
  0
LINE
  5
454
100
AcDbEntity
  8
BEZUGSACHSEN
100
AcDbLine
 62
7
  6
CONTINUOUS
 10
300.0097882283
 20
221.6041030673
 11
299.9584877491
 21
221.7299691273
  0
LINE
  5
455
100
AcDbEntity
  8
BEZUGSACHSEN
100
AcDbLine
 62
7
  6
CONTINUOUS
 10
299.6912119134
 20
222.2127431858
 11
299.9584877491
 21
221.7299691273
  0
LINE
  5
456
100
AcDbEntity
  8
BEZUGSACHSEN
100
AcDbLine
 62
7
  6
CONTINUOUS
 10
299.4948373565
 20
222.4345921964
 11
299.6912119134
 21
222.2127431858
  0
LINE
  5
457
100
AcDbEntity
  8
BEZUGSACHSEN
100
AcDbLine
 62
7
  6
CONTINUOUS
 10
299.2386282282
 20
222.4966716766
 11
299.4948373565
 21
222.4345921964
  0
LINE
  5
458
100
AcDbEntity
  8
BEZUGSACHSEN
100
AcDbLine
 62
7
  6
CONTINUOUS
 10
302.1580030193
 20
213.5206053447
 11
300.7503515143
 21
216.0551677147
  0
LINE
  5
459
100
AcDbEntity
  8
BEZUGSACHSEN
100
AcDbLine
 62
7
  6
CONTINUOUS
 10
300.1561419847
 20
241.3220297818
 11
300.3682638845
 21
240.6428196479
  0
LINE
  5
45A
100
AcDbEntity
  8
BEZUGSACHSEN
100
AcDbLine
 62
7
  6
CONTINUOUS
 10
300.3682638845
 20
240.6428196479
 11
300.4087732845
 21
240.5131049815
  0
LINE
  5
45B
100
AcDbEntity
  8
BEZUGSACHSEN
100
AcDbLine
 62
7
  6
CONTINUOUS
 10
300.4087732845
 20
240.5131049815
 11
300.5953753757
 21
239.9155700713
  0
LINE
  5
45C
100
AcDbEntity
  8
BEZUGSACHSEN
100
AcDbLine
 62
7
  6
CONTINUOUS
 10
300.3481594584
 20
216.7793282953
 11
299.3426694036
 21
218.5897300848
  0
LINE
  5
45D
100
AcDbEntity
  8
BEZUGSACHSEN
100
AcDbLine
 62
7
  6
CONTINUOUS
 10
299.3880248432
 20
221.5541276157
 11
299.5161052264
 21
221.5932037161
  0
LINE
  5
45E
100
AcDbEntity
  8
BEZUGSACHSEN
100
AcDbLine
 62
7
  6
CONTINUOUS
 10
298.8934754081
 20
230.4626838476
 11
299.1728658972
 21
229.8423637128
  0
SPLINE
  5
45F
100
AcDbEntity
  8
BEZUGSACHSEN
100
AcDbSpline
 62
7
  6
CONTINUOUS
 70
0
 71
3
 72
8
 73
4
 74
0
 42
0.0000001
 43
0.0000001
 44
0.0000000001
 40
0.0
 40
0.0
 40
0.0
 40
0.0
 40
1.0
 40
1.0
 40
1.0
 40
1.0
 10
299.1728658972
 20
229.8423637128
 30
0.0
 10
299.7704980072
 20
228.5154050075
 30
0.0
 10
300.3679883902
 20
227.1883824546
 30
0.0
 10
300.9652828644
 20
225.8612717375
 30
0.0
  0
LINE
  5
460
100
AcDbEntity
  8
BEZUGSACHSEN
100
AcDbLine
 62
7
  6
CONTINUOUS
 10
301.2875632707
 20
221.7058458141
 11
301.4896784973
 21
221.5061825307
  0
LINE
  5
461
100
AcDbEntity
  8
BEZUGSACHSEN
100
AcDbLine
 62
7
  6
CONTINUOUS
 10
301.0186717475
 20
222.1767597301
 11
301.2875632707
 21
221.7058458141
  0
LINE
  5
462
100
AcDbEntity
  8
BEZUGSACHSEN
100
AcDbLine
 62
7
  6
CONTINUOUS
 10
301.0186717475
 20
222.1767597301
 11
299.786467826
 21
224.9052932305
  0
LINE
  5
463
100
AcDbEntity
  8
BEZUGSACHSEN
100
AcDbLine
 62
7
  6
CONTINUOUS
 10
299.786467826
 20
224.9052932305
 11
299.2158553436
 21
226.1688148422
  0
LINE
  5
464
100
AcDbEntity
  8
BEZUGSACHSEN
100
AcDbLine
 62
7
  6
CONTINUOUS
 10
299.2158553436
 20
226.1688148422
 11
298.9406653782
 21
226.7781718402
  0
LINE
  5
465
100
AcDbEntity
  8
BEZUGSACHSEN
100
AcDbLine
 62
7
  6
CONTINUOUS
 10
300.1348995657
 20
238.6262047501
 11
299.1297806281
 21
241.7236602943
  0
LINE
  5
466
100
AcDbEntity
  8
BEZUGSACHSEN
100
AcDbLine
 62
7
  6
CONTINUOUS
 10
301.9439489899
 20
233.0507852332
 11
300.5369303691
 21
237.3872227638
  0
LINE
  5
467
100
AcDbEntity
  8
BEZUGSACHSEN
100
AcDbLine
 62
7
  6
CONTINUOUS
 10
301.5793304923
 20
224.1569267755
 11
301.3729432007
 21
224.7855147811
  0
LINE
  5
468
100
AcDbEntity
  8
BEZUGSACHSEN
100
AcDbLine
 62
7
  6
CONTINUOUS
 10
301.3729432007
 20
224.7855147811
 11
301.3036812647
 21
224.9962912934
  0
LINE
  5
469
100
AcDbEntity
  8
BEZUGSACHSEN
100
AcDbLine
 62
7
  6
CONTINUOUS
 10
301.3036812647
 20
224.9962912934
 11
301.2183939028
 21
225.2143037327
  0
LINE
  5
46A
100
AcDbEntity
  8
BEZUGSACHSEN
100
AcDbLine
 62
7
  6
CONTINUOUS
 10
301.2183939028
 20
225.2143037327
 11
300.9652828644
 21
225.8612717375
  0
SPLINE
  5
46B
100
AcDbEntity
  8
BEZUGSACHSEN
100
AcDbSpline
 62
7
  6
CONTINUOUS
 70
0
 71
3
 72
8
 73
4
 74
0
 42
0.0000001
 43
0.0000001
 44
0.0000000001
 40
0.0
 40
0.0
 40
0.0
 40
0.0
 40
1.0
 40
1.0
 40
1.0
 40
1.0
 10
299.0485271185
 20
243.2633837798
 30
0.0
 10
299.1191420055
 20
243.0792441389
 30
0.0
 10
299.189598325
 20
242.8950436051
 30
0.0
 10
299.25988977
 20
242.7107802544
 30
0.0
  0
LINE
  5
46C
100
AcDbEntity
  8
BEZUGSACHSEN
100
AcDbLine
 62
7
  6
CONTINUOUS
 10
299.25988977
 20
242.7107802544
 11
299.2872071793
 21
242.6391448885
  0
LINE
  5
46D
100
AcDbEntity
  8
BEZUGSACHSEN
100
AcDbLine
 62
7
  6
CONTINUOUS
 10
299.2872071793
 20
242.6391448885
 11
299.3076393736
 21
242.5855320654
  0
LINE
  5
46E
100
AcDbEntity
  8
BEZUGSACHSEN
100
AcDbLine
 62
7
  6
CONTINUOUS
 10
301.518135894
 20
229.3841933979
 11
301.2422980694
 21
230.2778475284
  0
LINE
  5
46F
100
AcDbEntity
  8
BEZUGSACHSEN
100
AcDbLine
 62
7
  6
CONTINUOUS
 10
299.3076393736
 20
242.5855320654
 11
299.3571854032
 21
242.4425772963
  0
LINE
  5
470
100
AcDbEntity
  8
BEZUGSACHSEN
100
AcDbLine
 62
7
  6
CONTINUOUS
 10
299.3571854032
 20
242.4425772963
 11
299.5051415242
 21
242.0154202078
  0
LINE
  5
471
100
AcDbEntity
  8
BEZUGSACHSEN
100
AcDbLine
 62
7
  6
CONTINUOUS
 10
299.5051415242
 20
242.0154202078
 11
299.7727524742
 21
241.1894316384
  0
LINE
  5
472
100
AcDbEntity
  8
BEZUGSACHSEN
100
AcDbLine
 62
7
  6
CONTINUOUS
 10
301.2422980694
 20
230.2778475284
 11
301.0733599635
 21
230.7593893459
  0
LINE
  5
473
100
AcDbEntity
  8
BEZUGSACHSEN
100
AcDbLine
 62
7
  6
CONTINUOUS
 10
301.0733599635
 20
230.7593893459
 11
300.9038462025
 21
231.2425462442
  0
LINE
  5
474
100
AcDbEntity
  8
BEZUGSACHSEN
100
AcDbLine
 62
7
  6
CONTINUOUS
 10
299.9767940556
 20
240.5205615097
 11
299.7727524742
 21
241.1894316384
  0
SPLINE
  5
475
100
AcDbEntity
  8
BEZUGSACHSEN
100
AcDbSpline
 62
7
  6
CONTINUOUS
 70
0
 71
3
 72
8
 73
4
 74
0
 42
0.0000001
 43
0.0000001
 44
0.0000000001
 40
0.0
 40
0.0
 40
0.0
 40
0.0
 40
1.0
 40
1.0
 40
1.0
 40
1.0
 10
300.253628213
 20
239.5464372425
 30
0.0
 10
300.1615376142
 20
239.8711985451
 30
0.0
 10
300.0692563849
 20
240.1959058464
 30
0.0
 10
299.9767940556
 20
240.5205615097
 30
0.0
  0
LINE
  5
476
100
AcDbEntity
  8
BEZUGSACHSEN
100
AcDbLine
 62
7
  6
CONTINUOUS
 10
299.9017327335
 20
233.8319079469
 11
300.1098367504
 21
233.2942770691
  0
LINE
  5
477
100
AcDbEntity
  8
BEZUGSACHSEN
100
AcDbLine
 62
7
  6
CONTINUOUS
 10
300.1098367504
 20
233.2942770691
 11
300.154250664
 21
233.1795291892
  0
LINE
  5
478
100
AcDbEntity
  8
BEZUGSACHSEN
100
AcDbLine
 62
7
  6
CONTINUOUS
 10
300.154250664
 20
233.1795291892
 11
300.9038462025
 21
231.2425462442
  0
LINE
  5
479
100
AcDbEntity
  8
BEZUGSACHSEN
100
AcDbLine
 62
7
  6
CONTINUOUS
 10
300.397533531
 20
238.9359278351
 11
300.6361348197
 21
238.2600100834
  0
LINE
  5
47A
100
AcDbEntity
  8
BEZUGSACHSEN
100
AcDbLine
 62
7
  6
CONTINUOUS
 10
300.6361348197
 20
238.2600100834
 11
300.7875104008
 21
237.8305271169
  0
LINE
  5
47B
100
AcDbEntity
  8
BEZUGSACHSEN
100
AcDbLine
 62
7
  6
CONTINUOUS
 10
300.7875104008
 20
237.8305271169
 11
300.8987900966
 21
237.5144649613
  0
LINE
  5
47C
100
AcDbEntity
  8
BEZUGSACHSEN
100
AcDbLine
 62
7
  6
CONTINUOUS
 10
299.5716805924
 20
234.5934506886
 11
299.8709885541
 21
233.9028808774
  0
LINE
  5
47D
100
AcDbEntity
  8
BEZUGSACHSEN
100
AcDbLine
 62
7
  6
CONTINUOUS
 10
299.8709885541
 20
233.9028808774
 11
299.9017327335
 21
233.8319079469
  0
LINE
  5
47E
100
AcDbEntity
  8
BEZUGSACHSEN
100
AcDbLine
 62
7
  6
CONTINUOUS
 10
299.3118433104
 20
235.0807894581
 11
299.5716805924
 21
234.5934506886
  0
LINE
  5
47F
100
AcDbEntity
  8
BEZUGSACHSEN
100
AcDbLine
 62
7
  6
CONTINUOUS
 10
301.6269139756
 20
226.0626325826
 11
301.0469018496
 21
227.5566887379
  0
LINE
  5
480
100
AcDbEntity
  8
BEZUGSACHSEN
100
AcDbLine
 62
7
  6
CONTINUOUS
 10
301.0469018496
 20
227.5566887379
 11
300.9266926456
 21
227.8663310998
  0
LINE
  5
481
100
AcDbEntity
  8
BEZUGSACHSEN
100
AcDbLine
 62
7
  6
CONTINUOUS
 10
300.9266926456
 20
227.8663310998
 11
299.2813023637
 21
232.1044768377
  0
LINE
  5
482
100
AcDbEntity
  8
BEZUGSACHSEN
100
AcDbLine
 62
7
  6
CONTINUOUS
 10
280.7699004038
 20
125.190502683
 11
278.6458315974
 21
122.690502683
  0
LINE
  5
483
100
AcDbEntity
  8
RUNDUNGEN
100
AcDbLine
 62
7
  6
CONTINUOUS
 10
295.7703596327
 20
125.190502683
 11
297.8944284391
 21
122.690502683
  0
SPLINE
  5
484
100
AcDbEntity
  8
BEZUGSACHSEN
100
AcDbSpline
 62
7
  6
CONTINUOUS
 70
0
 71
3
 72
11
 73
7
 74
0
 42
0.0000001
 43
0.0000001
 44
0.0000000001
 40
0.0
 40
0.0
 40
0.0
 40
0.0
 40
0.2530106614
 40
0.5000000005
 40
0.7469893397
 40
1.0
 40
1.0
 40
1.0
 40
1.0
 10
281.3504670723
 20
254.7239785864
 30
0.0
 10
281.0181665342
 20
253.7088828987
 30
0.0
 10
280.4920545626
 20
251.6554149108
 30
0.0
 10
280.2140586986
 20
248.498824687
 30
0.0
 10
280.4920545532
 20
245.3422344656
 30
0.0
 10
281.0181665357
 20
243.2887664848
 30
0.0
 10
281.3504670723
 20
242.2736708015
 30
0.0
  0
SPLINE
  5
485
100
AcDbEntity
  8
BEZUGSACHSEN
100
AcDbSpline
 62
7
  6
CONTINUOUS
 70
0
 71
3
 72
11
 73
7
 74
0
 42
0.0000001
 43
0.0000001
 44
0.0000000001
 40
0.0
 40
0.0
 40
0.0
 40
0.0
 40
0.2501742466
 40
0.5000000005
 40
0.7498257546
 40
1.0
 40
1.0
 40
1.0
 40
1.0
 10
281.3504670723
 20
242.2736708015
 30
0.0
 10
281.012356005
 20
239.5696464057
 30
0.0
 10
280.4869000909
 20
234.1449021865
 30
0.0
 10
280.2155785521
 20
225.9760063065
 30
0.0
 10
280.4869000812
 20
217.807110439
 30
0.0
 10
281.0123560066
 20
212.3823662326
 30
0.0
 10
281.3504670723
 20
209.6783418501
 30
0.0
  0
SPLINE
  5
486
100
AcDbEntity
  8
BEZUGSACHSEN
100
AcDbSpline
 62
7
  6
CONTINUOUS
 70
0
 71
3
 72
9
 73
5
 74
0
 42
0.0000001
 43
0.0000001
 44
0.0000000001
 40
0.0
 40
0.0
 40
0.0
 40
0.0
 40
0.5000053871
 40
1.0
 40
1.0
 40
1.0
 40
1.0
 10
281.3504670723
 20
209.6783418501
 30
0.0
 10
280.9027000118
 20
205.2519922088
 30
0.0
 10
280.2733623976
 20
196.3694171369
 30
0.0
 10
280.2656315309
 20
187.4630998834
 30
0.0
 10
280.4177744355
 20
183.0168580972
 30
0.0
  0
LINE
  5
487
100
AcDbEntity
  8
BEZUGSACHSEN
100
AcDbLine
 62
7
  6
CONTINUOUS
 10
301.1711451751
 20
237.3017957889
 11
301.4446883832
 21
236.4875109188
  0
LINE
  5
488
100
AcDbEntity
  8
BEZUGSACHSEN
100
AcDbLine
 62
7
  6
CONTINUOUS
 10
300.833428428
 20
238.3515204773
 11
301.1711451751
 21
237.3017957889
  0
LINE
  5
489
100
AcDbEntity
  8
BEZUGSACHSEN
100
AcDbLine
 62
7
  6
CONTINUOUS
 10
300.833428428
 20
238.3515204773
 11
300.6283153298
 21
239.0080312079
  0
LINE
  5
48A
100
AcDbEntity
  8
BEZUGSACHSEN
100
AcDbLine
 62
7
  6
CONTINUOUS
 10
300.6283153298
 20
239.0080312079
 11
300.5841580779
 21
239.1493625616
  0
LINE
  5
48B
100
AcDbEntity
  8
BEZUGSACHSEN
100
AcDbLine
 62
7
  6
CONTINUOUS
 10
300.5841580779
 20
239.1493625616
 11
300.3337524967
 21
239.9507947608
  0
LINE
  5
48C
100
AcDbEntity
  8
BEZUGSACHSEN
100
AcDbLine
 62
7
  6
CONTINUOUS
 10
300.3337524967
 20
239.9507947608
 11
300.1398066117
 21
240.5714969946
  0
LINE
  5
48D
100
AcDbEntity
  8
BEZUGSACHSEN
100
AcDbLine
 62
7
  6
CONTINUOUS
 10
300.1398066117
 20
240.5714969946
 11
300.0822120853
 21
240.7558171982
  0
LINE
  5
48E
100
AcDbEntity
  8
BEZUGSACHSEN
100
AcDbLine
 62
7
  6
CONTINUOUS
 10
300.0822120853
 20
240.7558171982
 11
299.9312424586
 21
241.2389565343
  0
LINE
  5
48F
100
AcDbEntity
  8
BEZUGSACHSEN
100
AcDbLine
 62
7
  6
CONTINUOUS
 10
299.9312424586
 20
241.2389565343
 11
299.8295372138
 21
241.5644299875
  0
LINE
  5
490
100
AcDbEntity
  8
BEZUGSACHSEN
100
AcDbLine
 62
7
  6
CONTINUOUS
 10
299.8295372138
 20
241.5644299875
 11
299.7469381402
 21
241.8363837864
  0
LINE
  5
491
100
AcDbEntity
  8
BEZUGSACHSEN
100
AcDbLine
 62
7
  6
CONTINUOUS
 10
299.7469381402
 20
241.8363837864
 11
299.5810166009
 21
242.3824914461
  0
LINE
  5
492
100
AcDbEntity
  8
BEZUGSACHSEN
100
AcDbLine
 62
7
  6
CONTINUOUS
 10
299.5810166009
 20
242.3824914461
 11
299.4976943515
 21
242.6566453728
  0
LINE
  5
493
100
AcDbEntity
  8
BEZUGSACHSEN
100
AcDbLine
 62
7
  6
CONTINUOUS
 10
299.4976943515
 20
242.6566453728
 11
299.4324245875
 21
242.8803403849
  0
LINE
  5
494
100
AcDbEntity
  8
BEZUGSACHSEN
100
AcDbLine
 62
7
  6
CONTINUOUS
 10
299.4324245875
 20
242.8803403849
 11
299.2991221441
 21
243.3366696474
  0
LINE
  5
495
100
AcDbEntity
  8
BEZUGSACHSEN
100
AcDbLine
 62
7
  6
CONTINUOUS
 10
299.2991221441
 20
243.3366696474
 11
299.2350045243
 21
243.5559122315
  0
LINE
  5
496
100
AcDbEntity
  8
0
100
AcDbLine
 62
7
  6
CONTINUOUS
 10
298.4997974916
 20
243.7843262129
 11
298.5283452607
 21
243.6853640047
  0
LINE
  5
497
100
AcDbEntity
  8
BEZUGSACHSEN
100
AcDbLine
 62
7
  6
CONTINUOUS
 10
299.2350045243
 20
243.5559122315
 11
299.1708048289
 21
243.7896750246
  0
LINE
  5
498
100
AcDbEntity
  8
BEZUGSACHSEN
100
AcDbLine
 62
7
  6
CONTINUOUS
 10
299.3724140695
 20
243.7436399798
 11
299.4222440801
 21
243.5878557696
  0
LINE
  5
499
100
AcDbEntity
  8
BEZUGSACHSEN
100
AcDbLine
 62
7
  6
CONTINUOUS
 10
299.4222440801
 20
243.5878557696
 11
299.47196471
 21
243.4323715547
  0
LINE
  5
49A
100
AcDbEntity
  8
BEZUGSACHSEN
100
AcDbLine
 62
7
  6
CONTINUOUS
 10
299.47196471
 20
243.4323715547
 11
299.5215759244
 21
243.2771873255
  0
LINE
  5
49B
100
AcDbEntity
  8
BEZUGSACHSEN
100
AcDbLine
 62
7
  6
CONTINUOUS
 10
299.5215759244
 20
243.2771873255
 11
299.5710776884
 21
243.1223030724
  0
LINE
  5
49C
100
AcDbEntity
  8
BEZUGSACHSEN
100
AcDbLine
 62
7
  6
CONTINUOUS
 10
299.3405906513
 20
243.8345661379
 11
299.3580054962
 21
243.7848417634
  0
LINE
  5
49D
100
AcDbEntity
  8
BEZUGSACHSEN
100
AcDbLine
 62
7
  6
CONTINUOUS
 10
299.3580054962
 20
243.7848417634
 11
299.3724140695
 21
243.7436399798
  0
LINE
  5
49E
100
AcDbEntity
  8
BEZUGSACHSEN
100
AcDbLine
 62
7
  6
CONTINUOUS
 10
301.5308337633
 20
236.6929142905
 11
301.5285485891
 21
236.7407148443
  0
LINE
  5
49F
100
AcDbEntity
  8
0
100
AcDbLine
 62
7
  6
CONTINUOUS
 10
301.4014104357
 20
217.0263905459
 11
300.7482822062
 21
217.6553508149
  0
LINE
  5
4A0
100
AcDbEntity
  8
BEZUGSACHSEN
100
AcDbLine
 62
7
  6
CONTINUOUS
 10
301.5285485891
 20
236.7407148443
 11
301.4922466755
 21
236.8902944621
  0
LINE
  5
4A1
100
AcDbEntity
  8
BEZUGSACHSEN
100
AcDbLine
 62
7
  6
CONTINUOUS
 10
301.4922466755
 20
236.8902944621
 11
301.4738288577
 21
236.9650903943
  0
LINE
  5
4A2
100
AcDbEntity
  8
BEZUGSACHSEN
100
AcDbLine
 62
7
  6
CONTINUOUS
 10
301.4738288577
 20
236.9650903943
 11
301.4552339338
 21
237.0398904441
  0
SPLINE
  5
4A3
100
AcDbEntity
  8
0
100
AcDbSpline
 62
7
  6
CONTINUOUS
 70
0
 71
3
 72
9
 73
5
 74
0
 42
0.0000001
 43
0.0000001
 44
0.0000000001
 40
0.0
 40
0.0
 40
0.0
 40
0.0
 40
0.5000053871
 40
1.0
 40
1.0
 40
1.0
 40
1.0
 10
295.1897929642
 20
209.6783418501
 30
0.0
 10
295.6375600247
 20
205.2519922088
 30
0.0
 10
296.2668976389
 20
196.3694171369
 30
0.0
 10
296.2746285056
 20
187.4630998834
 30
0.0
 10
296.122485601
 20
183.0168580972
 30
0.0
  0
SPLINE
  5
4A4
100
AcDbEntity
  8
0
100
AcDbSpline
 62
7
  6
CONTINUOUS
 70
0
 71
3
 72
11
 73
7
 74
0
 42
0.0000001
 43
0.0000001
 44
0.0000000001
 40
0.0
 40
0.0
 40
0.0
 40
0.0
 40
0.2501742466
 40
0.5000000005
 40
0.7498257546
 40
1.0
 40
1.0
 40
1.0
 40
1.0
 10
295.1897929642
 20
242.2736708015
 30
0.0
 10
295.5279040315
 20
239.5696464057
 30
0.0
 10
296.0533599456
 20
234.1449021865
 30
0.0
 10
296.3246814844
 20
225.9760063065
 30
0.0
 10
296.0533599553
 20
217.807110439
 30
0.0
 10
295.5279040298
 20
212.3823662326
 30
0.0
 10
295.1897929642
 20
209.6783418501
 30
0.0
  0
SPLINE
  5
4A5
100
AcDbEntity
  8
0
100
AcDbSpline
 62
7
  6
CONTINUOUS
 70
0
 71
3
 72
11
 73
7
 74
0
 42
0.0000001
 43
0.0000001
 44
0.0000000001
 40
0.0
 40
0.0
 40
0.0
 40
0.0
 40
0.2530106614
 40
0.5000000005
 40
0.7469893397
 40
1.0
 40
1.0
 40
1.0
 40
1.0
 10
295.1897929642
 20
254.7239785864
 30
0.0
 10
295.5220935023
 20
253.7088828987
 30
0.0
 10
296.0482054739
 20
251.6554149108
 30
0.0
 10
296.3262013379
 20
248.498824687
 30
0.0
 10
296.0482054833
 20
245.3422344656
 30
0.0
 10
295.5220935008
 20
243.2887664848
 30
0.0
 10
295.1897929642
 20
242.2736708015
 30
0.0
  0
LINE
  5
4A6
100
AcDbEntity
  8
BEZUGSACHSEN
100
AcDbLine
 62
7
  6
CONTINUOUS
 10
301.4552339338
 20
237.0398904441
 11
301.4203722589
 21
237.1624567272
  0
LINE
  5
4A7
100
AcDbEntity
  8
BEZUGSACHSEN
100
AcDbLine
 62
7
  6
CONTINUOUS
 10
301.4203722589
 20
237.1624567272
 11
301.385328648
 21
237.2853328553
  0
LINE
  5
4A8
100
AcDbEntity
  8
BEZUGSACHSEN
100
AcDbLine
 62
7
  6
CONTINUOUS
 10
301.385328648
 20
237.2853328553
 11
301.3501030363
 21
237.4085188183
  0
LINE
  5
4A9
100
AcDbEntity
  8
BEZUGSACHSEN
100
AcDbLine
 62
7
  6
CONTINUOUS
 10
301.3501030363
 20
237.4085188183
 11
301.3146953612
 21
237.5320146066
  0
LINE
  5
4AA
100
AcDbEntity
  8
BEZUGSACHSEN
100
AcDbLine
 62
7
  6
CONTINUOUS
 10
301.3146953612
 20
237.5320146066
 11
301.2131803464
 21
237.8633560724
  0
LINE
  5
4AB
100
AcDbEntity
  8
BEZUGSACHSEN
100
AcDbLine
 62
7
  6
CONTINUOUS
 10
301.2131803464
 20
237.8633560724
 11
301.1622802935
 21
238.0294559675
  0
LINE
  5
4AC
100
AcDbEntity
  8
BEZUGSACHSEN
100
AcDbLine
 62
7
  6
CONTINUOUS
 10
301.1622802935
 20
238.0294559675
 11
301.1112852516
 21
238.1958419833
  0
LINE
  5
4AD
100
AcDbEntity
  8
BEZUGSACHSEN
100
AcDbLine
 62
7
  6
CONTINUOUS
 10
300.5755977707
 20
239.9093938621
 11
300.6314499134
 21
239.7307408472
  0
LINE
  5
4AE
100
AcDbEntity
  8
BEZUGSACHSEN
100
AcDbLine
 62
7
  6
CONTINUOUS
 10
300.6314499134
 20
239.7307408472
 11
300.8369787998
 21
239.0733077807
  0
LINE
  5
4AF
100
AcDbEntity
  8
BEZUGSACHSEN
100
AcDbLine
 62
7
  6
CONTINUOUS
 10
300.8369787998
 20
239.0733077807
 11
300.9777994762
 21
238.6228478209
  0
LINE
  5
4B0
100
AcDbEntity
  8
BEZUGSACHSEN
100
AcDbLine
 62
7
  6
CONTINUOUS
 10
300.9777994762
 20
238.6228478209
 11
301.1112852516
 21
238.1958419833
  0
LINE
  5
4B1
100
AcDbEntity
  8
BEZUGSACHSEN
100
AcDbLine
 62
7
  6
CONTINUOUS
 10
300.1891170208
 20
241.0033491929
 11
300.289808617
 21
240.6815845694
  0
LINE
  5
4B2
100
AcDbEntity
  8
BEZUGSACHSEN
100
AcDbLine
 62
7
  6
CONTINUOUS
 10
300.289808617
 20
240.6815845694
 11
300.3904011823
 21
240.3601357481
  0
LINE
  5
4B3
100
AcDbEntity
  8
BEZUGSACHSEN
100
AcDbLine
 62
7
  6
CONTINUOUS
 10
300.3904011823
 20
240.3601357481
 11
300.591289208
 21
239.7181855088
  0
LINE
  5
4B4
100
AcDbEntity
  8
BEZUGSACHSEN
100
AcDbLine
 62
7
  6
CONTINUOUS
 10
302.1491979554
 20
212.6792168643
 11
301.7942532959
 21
213.3186980288
  0
LINE
  5
4B5
100
AcDbEntity
  8
BEZUGSACHSEN
100
AcDbLine
 62
7
  6
CONTINUOUS
 10
301.7942532959
 20
213.3186980288
 11
300.3871689857
 21
215.8535524103
  0
LINE
  5
4B6
100
AcDbEntity
  8
BEZUGSACHSEN
100
AcDbLine
 62
7
  6
CONTINUOUS
 10
300.3871689857
 20
215.8535524103
 11
299.9851189386
 21
216.5777924021
  0
LINE
  5
4B7
100
AcDbEntity
  8
BEZUGSACHSEN
100
AcDbLine
 62
7
  6
CONTINUOUS
 10
299.9851189386
 20
216.5777924021
 11
299.0002577653
 21
218.3518087548
  0
SPLINE
  5
4B8
100
AcDbEntity
  8
0
100
AcDbSpline
 62
7
  6
CONTINUOUS
 70
0
 71
3
 72
8
 73
4
 74
0
 42
0.0000001
 43
0.0000001
 44
0.0000000001
 40
0.0
 40
0.0
 40
0.0
 40
0.0
 40
1.0
 40
1.0
 40
1.0
 40
1.0
 10
298.06414575
 20
218.3518087548
 30
0.0
 10
299.1695386571
 20
216.4611164006
 30
0.0
 10
300.2747023343
 20
214.5702899683
 30
0.0
 10
301.3794437396
 20
212.6792168643
 30
0.0
  0
LINE
  5
4B9
100
AcDbEntity
  8
0
100
AcDbLine
 62
7
  6
CONTINUOUS
 10
299.5075538891
 20
218.7775667123
 11
299.5076937361
 21
218.589492426
  0
LINE
  5
4BA
100
AcDbEntity
  8
0
100
AcDbLine
 62
7
  6
CONTINUOUS
 10
299.5076937361
 20
218.589492426
 11
299.507259627
 21
218.2941116813
  0
LINE
  5
4BB
100
AcDbEntity
  8
BEZUGSACHSEN
100
AcDbLine
 62
7
  6
CONTINUOUS
 10
300.0646570917
 20
239.9190348183
 11
299.9264520457
 21
240.4307859546
  0
LINE
  5
4BC
100
AcDbEntity
  8
BEZUGSACHSEN
100
AcDbLine
 62
7
  6
CONTINUOUS
 10
299.5161052264
 20
221.5932037161
 11
299.5656738703
 21
221.5375743313
  0
LINE
  5
4BD
100
AcDbEntity
  8
BEZUGSACHSEN
100
AcDbLine
 62
7
  6
CONTINUOUS
 10
299.5656738703
 20
221.5375743313
 11
299.6015327357
 21
221.4973204395
  0
LINE
  5
4BE
100
AcDbEntity
  8
BEZUGSACHSEN
100
AcDbLine
 62
7
  6
CONTINUOUS
 10
299.6015327357
 20
221.4973204395
 11
299.7136934867
 21
221.3713547054
  0
LINE
  5
4BF
100
AcDbEntity
  8
BEZUGSACHSEN
100
AcDbLine
 62
7
  6
CONTINUOUS
 10
299.9264520457
 20
240.4307859546
 11
299.7231919424
 21
241.0996560833
  0
LINE
  5
4C0
100
AcDbEntity
  8
BEZUGSACHSEN
100
AcDbLine
 62
7
  6
CONTINUOUS
 10
299.7136934867
 20
221.3713547054
 11
299.9144201277
 21
221.009274077
  0
LINE
  5
4C1
100
AcDbEntity
  8
BEZUGSACHSEN
100
AcDbLine
 62
7
  6
CONTINUOUS
 10
300.1183981432
 20
220.5069625071
 11
299.9144201277
 21
221.009274077
  0
LINE
  5
4C2
100
AcDbEntity
  8
BEZUGSACHSEN
100
AcDbLine
 62
7
  6
CONTINUOUS
 10
300.2583067094
 20
219.9851126864
 11
300.1183981432
 21
220.5069625071
  0
LINE
  5
4C3
100
AcDbEntity
  8
0
100
AcDbLine
 62
7
  6
CONTINUOUS
 10
299.3396299951
 20
220.3100798089
 11
299.429755478
 21
219.9851126864
  0
LINE
  5
4C4
100
AcDbEntity
  8
BEZUGSACHSEN
100
AcDbLine
 62
7
  6
CONTINUOUS
 10
298.9140092756
 20
229.7257814461
 11
300.7085212427
 21
225.7455309912
  0
LINE
  5
4C5
100
AcDbEntity
  8
BEZUGSACHSEN
100
AcDbLine
 62
7
  6
CONTINUOUS
 10
300.7085212427
 20
225.7455309912
 11
300.9885092276
 21
225.124369336
  0
LINE
  5
4C6
100
AcDbEntity
  8
0
100
AcDbLine
 62
7
  6
CONTINUOUS
 10
300.271574888
 20
225.124369336
 11
299.3842911131
 21
226.9892489134
  0
LINE
  5
4C7
100
AcDbEntity
  8
0
100
AcDbLine
 62
7
  6
CONTINUOUS
 10
299.3842911131
 20
226.9892489134
 11
298.082164452
 21
229.7257814461
  0
LINE
  5
4C8
100
AcDbEntity
  8
BEZUGSACHSEN
100
AcDbLine
 62
7
  6
CONTINUOUS
 10
301.2594332732
 20
224.4078215205
 11
301.0564326725
 21
224.9447434488
  0
LINE
  5
4C9
100
AcDbEntity
  8
BEZUGSACHSEN
100
AcDbLine
 62
7
  6
CONTINUOUS
 10
301.0564326725
 20
224.9447434488
 11
300.9885092276
 21
225.124369336
  0
LINE
  5
4CA
100
AcDbEntity
  8
0
100
AcDbLine
 62
7
  6
CONTINUOUS
 10
300.271574888
 20
225.124369336
 11
300.556253751
 21
224.4078215205
  0
LINE
  5
4CB
100
AcDbEntity
  8
BEZUGSACHSEN
100
AcDbLine
 62
7
  6
CONTINUOUS
 10
301.4663555742
 20
223.7168897351
 11
301.2594332732
 21
224.4078215205
  0
LINE
  5
4CC
100
AcDbEntity
  8
0
100
AcDbLine
 62
7
  6
CONTINUOUS
 10
300.556253751
 20
224.4078215205
 11
300.7720217743
 21
223.7168897351
  0
LINE
  5
4CD
100
AcDbEntity
  8
0
100
AcDbLine
 62
7
  6
CONTINUOUS
 10
300.991541515
 20
222.4118720428
 11
300.9919041393
 21
222.2360865166
  0
LINE
  5
4CE
100
AcDbEntity
  8
BEZUGSACHSEN
100
AcDbLine
 62
7
  6
CONTINUOUS
 10
301.6727287836
 20
221.8348934076
 11
301.688630074
 21
221.9206035408
  0
LINE
  5
4CF
100
AcDbEntity
  8
BEZUGSACHSEN
100
AcDbLine
 62
7
  6
CONTINUOUS
 10
299.5222804803
 20
241.7191476549
 11
299.7231919424
 21
241.0996560833
  0
LINE
  5
4D0
100
AcDbEntity
  8
BEZUGSACHSEN
100
AcDbLine
 62
7
  6
CONTINUOUS
 10
299.3236369684
 20
242.2892595125
 11
299.3734617231
 21
242.1463192385
  0
LINE
  5
4D1
100
AcDbEntity
  8
BEZUGSACHSEN
100
AcDbLine
 62
7
  6
CONTINUOUS
 10
299.3734617231
 20
242.1463192385
 11
299.4784184913
 21
241.8450861391
  0
LINE
  5
4D2
100
AcDbEntity
  8
BEZUGSACHSEN
100
AcDbLine
 62
7
  6
CONTINUOUS
 10
299.4784184913
 20
241.8450861391
 11
299.5222804803
 21
241.7191476549
  0
LINE
  5
4D3
100
AcDbEntity
  8
BEZUGSACHSEN
100
AcDbLine
 62
7
  6
CONTINUOUS
 10
301.0104816567
 20
221.4398569772
 11
300.735550501
 21
222.0489665085
  0
LINE
  5
4D4
100
AcDbEntity
  8
BEZUGSACHSEN
100
AcDbLine
 62
7
  6
CONTINUOUS
 10
300.735550501
 20
222.0489665085
 11
298.9334284957
 21
226.0412690873
  0
LINE
  5
4D5
100
AcDbEntity
  8
0
100
AcDbLine
 62
7
  6
CONTINUOUS
 10
298.0672168172
 20
226.0412690873
 11
299.6576416362
 21
222.6958489755
  0
LINE
  5
4D6
100
AcDbEntity
  8
0
100
AcDbLine
 62
7
  6
CONTINUOUS
 10
299.6576416362
 20
222.6958489755
 11
299.7152463646
 21
222.574659829
  0
LINE
  5
4D7
100
AcDbEntity
  8
0
100
AcDbLine
 62
7
  6
CONTINUOUS
 10
299.7152463646
 20
222.574659829
 11
299.7289362214
 21
222.5458588173
  0
LINE
  5
4D8
100
AcDbEntity
  8
0
100
AcDbLine
 62
7
  6
CONTINUOUS
 10
299.7289362214
 20
222.5458588173
 11
299.8511418864
 21
222.2887562396
  0
LINE
  5
4D9
100
AcDbEntity
  8
0
100
AcDbLine
 62
7
  6
CONTINUOUS
 10
299.8511418864
 20
222.2887562396
 11
300.0875727215
 21
221.7913215423
  0
LINE
  5
4DA
100
AcDbEntity
  8
0
100
AcDbLine
 62
7
  6
CONTINUOUS
 10
300.0875727215
 20
221.7913215423
 11
300.2546163966
 21
221.4398569772
  0
LINE
  5
4DB
100
AcDbEntity
  8
BEZUGSACHSEN
100
AcDbLine
 62
7
  6
CONTINUOUS
 10
301.0104816567
 20
221.4398569772
 11
301.3473010867
 21
220.8205111354
  0
LINE
  5
4DC
100
AcDbEntity
  8
0
100
AcDbLine
 62
7
  6
CONTINUOUS
 10
300.6106985526
 20
220.8205111354
 11
300.5219477937
 21
220.9748901079
  0
LINE
  5
4DD
100
AcDbEntity
  8
0
100
AcDbLine
 62
7
  6
CONTINUOUS
 10
300.5219477937
 20
220.9748901079
 11
300.3235966411
 21
221.3198869713
  0
LINE
  5
4DE
100
AcDbEntity
  8
0
100
AcDbLine
 62
7
  6
CONTINUOUS
 10
300.3235966411
 20
221.3198869713
 11
300.2546163966
 21
221.4398569772
  0
LINE
  5
4DF
100
AcDbEntity
  8
BEZUGSACHSEN
100
AcDbLine
 62
7
  6
CONTINUOUS
 10
301.3473010867
 20
220.8205111354
 11
301.6185114565
 21
220.4724147681
  0
LINE
  5
4E0
100
AcDbEntity
  8
0
100
AcDbLine
 62
7
  6
CONTINUOUS
 10
300.8991815739
 20
220.4724147681
 11
300.6832151631
 21
220.7330735844
  0
LINE
  5
4E1
100
AcDbEntity
  8
0
100
AcDbLine
 62
7
  6
CONTINUOUS
 10
300.6832151631
 20
220.7330735844
 11
300.6106985526
 21
220.8205111354
  0
LINE
  5
4E2
100
AcDbEntity
  8
BEZUGSACHSEN
100
AcDbLine
 62
7
  6
CONTINUOUS
 10
299.1937141364
 20
242.6034963671
 11
299.2913379166
 21
242.3675361727
  0
LINE
  5
4E3
100
AcDbEntity
  8
BEZUGSACHSEN
100
AcDbLine
 62
7
  6
CONTINUOUS
 10
299.2913379166
 20
242.3675361727
 11
299.3236369684
 21
242.2892595125
  0
SPLINE
  5
4E4
100
AcDbEntity
  8
0
100
AcDbSpline
 62
7
  6
CONTINUOUS
 70
0
 71
3
 72
8
 73
4
 74
0
 42
0.0000001
 43
0.0000001
 44
0.0000000001
 40
0.0
 40
0.0
 40
0.0
 40
0.0
 40
1.0
 40
1.0
 40
1.0
 40
1.0
 10
298.0641457636
 20
242.45987273
 30
0.0
 10
299.169597822
 20
239.2248732248
 30
0.0
 10
300.2747743886
 20
235.9897795381
 30
0.0
 10
301.3794437561
 20
232.7545126804
 30
0.0
  0
LINE
  5
4E5
100
AcDbEntity
  8
BEZUGSACHSEN
100
AcDbLine
 62
7
  6
CONTINUOUS
 10
301.9293439967
 20
232.7545126804
 11
301.8438322762
 21
233.0183316784
  0
LINE
  5
4E6
100
AcDbEntity
  8
BEZUGSACHSEN
100
AcDbLine
 62
7
  6
CONTINUOUS
 10
301.8438322762
 20
233.0183316784
 11
300.4379375463
 21
237.3551293475
  0
LINE
  5
4E7
100
AcDbEntity
  8
BEZUGSACHSEN
100
AcDbLine
 62
7
  6
CONTINUOUS
 10
300.4379375463
 20
237.3551293475
 11
300.3775800402
 21
237.5412911582
  0
LINE
  5
4E8
100
AcDbEntity
  8
BEZUGSACHSEN
100
AcDbLine
 62
7
  6
CONTINUOUS
 10
300.3775800402
 20
237.5412911582
 11
300.1921031413
 21
238.1133498637
  0
LINE
  5
4E9
100
AcDbEntity
  8
BEZUGSACHSEN
100
AcDbLine
 62
7
  6
CONTINUOUS
 10
300.1921031413
 20
238.1133498637
 11
300.0361942639
 21
238.5942002977
  0
LINE
  5
4EA
100
AcDbEntity
  8
BEZUGSACHSEN
100
AcDbLine
 62
7
  6
CONTINUOUS
 10
300.0361942639
 20
238.5942002977
 11
299.0317356222
 21
241.6918660108
  0
LINE
  5
4EB
100
AcDbEntity
  8
BEZUGSACHSEN
100
AcDbLine
 62
7
  6
CONTINUOUS
 10
299.0317356222
 20
241.6918660108
 11
298.7826784651
 21
242.45987273
  0
LINE
  5
4EC
100
AcDbEntity
  8
BEZUGSACHSEN
100
AcDbLine
 62
7
  6
CONTINUOUS
 10
302.0166088309
 20
224.4174161795
 11
301.7282006163
 21
225.1609607083
  0
LINE
  5
4ED
100
AcDbEntity
  8
BEZUGSACHSEN
100
AcDbLine
 62
7
  6
CONTINUOUS
 10
301.7282006163
 20
225.1609607083
 11
301.4109383871
 21
225.9788542243
  0
LINE
  5
4EE
100
AcDbEntity
  8
BEZUGSACHSEN
100
AcDbLine
 62
7
  6
CONTINUOUS
 10
301.4109383871
 20
225.9788542243
 11
301.3922972878
 21
226.026909239
  0
LINE
  5
4EF
100
AcDbEntity
  8
BEZUGSACHSEN
100
AcDbLine
 62
7
  6
CONTINUOUS
 10
301.3922972878
 20
226.026909239
 11
301.2449126072
 21
226.4068484923
  0
LINE
  5
4F0
100
AcDbEntity
  8
BEZUGSACHSEN
100
AcDbLine
 62
7
  6
CONTINUOUS
 10
301.2449126072
 20
226.4068484923
 11
299.0666865019
 21
232.0212018897
  0
LINE
  5
4F1
100
AcDbEntity
  8
BEZUGSACHSEN
100
AcDbLine
 62
7
  6
CONTINUOUS
 10
299.0666865019
 20
232.0212018897
 11
298.8689689592
 21
232.5307497242
  0
LINE
  5
4F2
100
AcDbEntity
  8
0
100
AcDbLine
 62
7
  6
CONTINUOUS
 10
298.060909237
 20
232.5307497242
 11
298.904249807
 21
230.4670880635
  0
LINE
  5
4F3
100
AcDbEntity
  8
0
100
AcDbLine
 62
7
  6
CONTINUOUS
 10
298.904249807
 20
230.4670880635
 11
299.0290506505
 21
230.1616673045
  0
LINE
  5
4F4
100
AcDbEntity
  8
BEZUGSACHSEN
100
AcDbLine
 62
7
  6
CONTINUOUS
 10
300.5415702588
 20
238.2266612868
 11
300.8053784242
 21
237.4823321712
  0
LINE
  5
4F5
100
AcDbEntity
  8
BEZUGSACHSEN
100
AcDbLine
 62
7
  6
CONTINUOUS
 10
300.8053784242
 20
237.4823321712
 11
300.898921864
 21
237.2180857594
  0
LINE
  5
4F6
100
AcDbEntity
  8
BEZUGSACHSEN
100
AcDbLine
 62
7
  6
CONTINUOUS
 10
301.8221568866
 20
234.6003749579
 11
301.9328430668
 21
234.2852545802
  0
LINE
  5
4F7
100
AcDbEntity
  8
0
100
AcDbLine
 62
7
  6
CONTINUOUS
 10
300.990357993
 20
227.891047676
 11
300.991490247
 21
227.7006715322
  0
LINE
  5
4F8
100
AcDbEntity
  8
BEZUGSACHSEN
100
AcDbLine
 62
7
  6
CONTINUOUS
 10
299.4332251515
 20
234.136172265
 11
299.4646466566
 21
234.1260695655
  0
LINE
  5
4F9
100
AcDbEntity
  8
BEZUGSACHSEN
100
AcDbLine
 62
7
  6
CONTINUOUS
 10
299.4646466566
 20
234.1260695655
 11
299.4994656705
 21
234.0699863857
  0
LINE
  5
4FA
100
AcDbEntity
  8
BEZUGSACHSEN
100
AcDbLine
 62
7
  6
CONTINUOUS
 10
299.4994656705
 20
234.0699863857
 11
299.5137013392
 21
234.0470455621
  0
LINE
  5
4FB
100
AcDbEntity
  8
BEZUGSACHSEN
100
AcDbLine
 62
7
  6
CONTINUOUS
 10
299.5137013392
 20
234.0470455621
 11
299.6597171221
 21
233.8113544098
  0
LINE
  5
4FC
100
AcDbEntity
  8
BEZUGSACHSEN
100
AcDbLine
 62
7
  6
CONTINUOUS
 10
299.6597171221
 20
233.8113544098
 11
299.7261053114
 21
233.6636071078
  0
LINE
  5
4FD
100
AcDbEntity
  8
BEZUGSACHSEN
100
AcDbLine
 62
7
  6
CONTINUOUS
 10
299.7261053114
 20
233.6636071078
 11
299.9242361586
 21
233.2224362491
  0
LINE
  5
4FE
100
AcDbEntity
  8
BEZUGSACHSEN
100
AcDbLine
 62
7
  6
CONTINUOUS
 10
299.9242361586
 20
233.2224362491
 11
300.6786325273
 21
231.2759747853
  0
LINE
  5
4FF
100
AcDbEntity
  8
BEZUGSACHSEN
100
AcDbLine
 62
7
  6
CONTINUOUS
 10
300.6786325273
 20
231.2759747853
 11
300.7193019405
 21
231.17103076
  0
LINE
  5
500
100
AcDbEntity
  8
BEZUGSACHSEN
100
AcDbLine
 62
7
  6
CONTINUOUS
 10
300.7193019405
 20
231.17103076
 11
300.9277714703
 21
230.6330745464
  0
LINE
  5
501
100
AcDbEntity
  8
0
100
AcDbLine
 62
7
  6
CONTINUOUS
 10
300.2666739607
 20
230.6330745464
 11
299.6099198065
 21
232.2388825476
  0
LINE
  5
502
100
AcDbEntity
  8
0
100
AcDbLine
 62
7
  6
CONTINUOUS
 10
299.6099198065
 20
232.2388825476
 11
299.2862814352
 21
233.0301508813
  0
LINE
  5
503
100
AcDbEntity
  8
BEZUGSACHSEN
100
AcDbLine
 62
7
  6
CONTINUOUS
 10
301.1987762618
 20
229.840999928
 11
300.9957129456
 21
230.4345210389
  0
LINE
  5
504
100
AcDbEntity
  8
BEZUGSACHSEN
100
AcDbLine
 62
7
  6
CONTINUOUS
 10
300.9957129456
 20
230.4345210389
 11
300.9277714703
 21
230.6330745464
  0
LINE
  5
505
100
AcDbEntity
  8
0
100
AcDbLine
 62
7
  6
CONTINUOUS
 10
300.2666739607
 20
230.6330745464
 11
300.5516491529
 21
229.840999928
  0
LINE
  5
506
100
AcDbEntity
  8
BEZUGSACHSEN
100
AcDbLine
 62
7
  6
CONTINUOUS
 10
301.4059157919
 20
229.1199700157
 11
301.1987762618
 21
229.840999928
  0
LINE
  5
507
100
AcDbEntity
  8
0
100
AcDbLine
 62
7
  6
CONTINUOUS
 10
300.5516491529
 20
229.840999928
 11
300.768132001
 21
229.1199700157
  0
ELLIPSE
  5
508
100
AcDbEntity
  8
0
100
AcDbEllipse
 62
7
  6
CONTINUOUS
 10
145.8642221715
 20
-2.430337867
 30
0.0
 11
0.0
 21
138.5640646055
 31
0.0
 40
0.5773502692
 41
0.1549516761
 42
0.3680572752
  0
ELLIPSE
  5
509
100
AcDbEntity
  8
0
100
AcDbEllipse
 62
7
  6
CONTINUOUS
 10
145.8642221715
 20
-2.430337867
 30
0.0
 11
0.0
 21
138.5640646055
 31
0.0
 40
0.5773502692
 41
-0.3680572752
 42
-0.1549516761
  0
ELLIPSE
  5
50A
100
AcDbEntity
  8
BEZUGSACHSEN
100
AcDbEllipse
 62
7
  6
CONTINUOUS
 10
301.1905131981
 20
148.2928344803
 30
0.0
 11
20.5470809849
 21
-4.7252501947
 31
0.0
 40
0.9293161211
 41
-2.9637318929
 42
-2.8342734606
  0
ELLIPSE
  5
50B
100
AcDbEntity
  8
RUNDUNGEN
100
AcDbEllipse
 62
7
  6
CONTINUOUS
 10
275.3497468384
 20
148.2928344803
 30
0.0
 11
20.5470809849
 21
4.7252501947
 31
0.0
 40
0.9293161211
 41
-0.307319193
 42
-0.1778607607
  0
ELLIPSE
  5
50C
100
AcDbEntity
  8
BEZUGSACHSEN
100
AcDbEllipse
 62
7
  6
CONTINUOUS
 10
277.0090374404
 20
132.690502683
 30
0.0
 11
-2.0932808554
 21
8.5798153171
 31
0.0
 40
0.5625674239
 41
-2.7543953279
 42
-1.9800006766
  0
ELLIPSE
  5
50D
100
AcDbEntity
  8
RUNDUNGEN
100
AcDbEllipse
 62
7
  6
CONTINUOUS
 10
299.5312225961
 20
132.690502683
 30
0.0
 11
2.0932808554
 21
8.5798153171
 31
0.0
 40
0.5625674239
 41
-4.3031846306
 42
-3.5287899793
  0
ENDSEC
  0
SECTION
  2
OBJECTS
  0
DICTIONARY
  5
C
100
AcDbDictionary
280
0
281
1
  3
ACAD_GROUP
350
D
  3
ACAD_MLINESTYLE
350
17
  3
ACAD_LAYOUT
350
1A
  3
ACAD_PLOTSETTINGS
350
19
  3
ACAD_PLOTSTYLENAME
350
E
  0
DICTIONARY
  5
D
102
{ACAD_REACTORS
330
C
102
}
100
AcDbDictionary
280
0
281
1
  0
ACDBDICTIONARYWDFLT
  5
E
102
{ACAD_REACTORS
330
C
102
}
100
AcDbDictionary
281
1
  3
Normal
350
F
100
AcDbDictionaryWithDefault
340
F
  0
DICTIONARY
  5
17
102
{ACAD_REACTORS
330
C
102
}
100
AcDbDictionary
280
0
281
1
  3
Standard
350
18
  0
DICTIONARY
  5
19
102
{ACAD_REACTORS
330
C
102
}
100
AcDbDictionary
281
1
  0
DICTIONARY
  5
1A
102
{ACAD_REACTORS
330
C
102
}
100
AcDbDictionary
281
1
  3
Model
350
50E
  3
Layout1
350
50F
  0
ACDBPLACEHOLDER
  5
F
102
{ACAD_REACTORS
330
E
102
}
  0
MLINESTYLE
  5
18
102
{ACAD_REACTORS
330
17
102
}
100
AcDbMlineStyle
  2
STANDARD
 70
0
  3

 62
256
 51
90.0
 52
90.0
 71
2
 49
0.5
 62
256
  6
BYLAYER
 49
-0.5
 62
256
  6
BYLAYER
  0
LAYOUT
  5
50E
102
{ACAD_REACTORS
330
1A
102
}
100
AcDbPlotSettings
  1

  2
none_device
  4
ISO_A3_(420.00_x_297.00_MM)
  6

 40
0.0
 41
0.0
 42
0.0
 43
0.0
 44
420.0
 45
297.0
 46
0.0
 47
0.0
 48
0.0
 49
0.0
140
0.0
141
0.0
142
1.0
143
1.0
 70
1024
 72
1
 73
0
 74
0
  7

 75
0
147
1.0
148
0.0
149
0.0
100
AcDbLayout
  1
Model
 70
0
 71
0
 10
0.0
 20
0.0
 11
420.0
 21
297.0
 12
0.0
 22
0.0
 32
0.0
 14
0.0
 24
0.0
 34
0.0
 15
0.0
 25
0.0
 35
0.0
146
0.0
 13
0.0
 23
0.0
 33
0.0
 16
1.0
 26
0.0
 36
0.0
 17
0.0
 27
1.0
 37
0.0
 76
0
330
207
345
0
346
0
  0
LAYOUT
  5
50F
102
{ACAD_REACTORS
330
1A
102
}
100
AcDbPlotSettings
  1

  2
none_device
  4
ISO_A3_(420.00_x_297.00_MM)
  6

 40
0.0
 41
0.0
 42
0.0
 43
0.0
 44
420.0
 45
297.0
 46
0.0
 47
0.0
 48
0.0
 49
0.0
140
0.0
141
0.0
142
1.0
143
1.0
 70
0
 72
1
 73
0
 74
0
  7

 75
0
147
1.0
148
0.0
149
0.0
100
AcDbLayout
  1
Layout1
 70
0
 71
1
 10
0.0
 20
0.0
 11
420.0
 21
297.0
 12
0.0
 22
0.0
 32
0.0
 14
0.0
 24
0.0
 34
0.0
 15
0.0
 25
0.0
 35
0.0
146
0.0
 13
0.0
 23
0.0
 33
0.0
 16
1.0
 26
0.0
 36
0.0
 17
0.0
 27
1.0
 37
0.0
 76
0
330
208
345
0
346
0
  0
ENDSEC
  0
EOF
