999
DXF file: VRG-20_7103384_M31104-P-1.dxf
999
Pro/ENGINEER 2010140 by Parametric Technology Corporation
  0
SECTION
  2
HEADER
  9
$ACADVER
  1
AC1015
  9
$DWGCODEPAGE
  3
ANSI_1252
  9
$EXTMAX
 10
420.0
 20
297.0
 30
0.0
  9
$EXTMIN
 10
0.0
 20
0.0
 30
0.0
  9
$LIMMIN
 10
0.0
 20
0.0
  9
$LIMMAX
 10
420.0
 20
297.0
  9
$VIEWCTR
 10
210.0
 20
148.5
  9
$VIEWSIZE
 40
297.0
  9
$CLAYER
  8
0
  9
$LTSCALE
 40
23.1
  9
$CELTYPE
  6
BYLAYER
  9
$DIMSCALE
 40
1.0
  9
$DIMASZ
 40
3.5
  9
$DIMEXO
 40
2.625
  9
$DIMDLI
 40
15.96
  9
$DIMEXE
 40
7.56
  9
$DIMCEN
 40
3.78
  9
$DIMLFAC
 40
1.0
  9
$DIMBLK
  1
_FILLED
  9
$DIMTXT
 40
3.5
  9
$DIMTOL
 70
1
  9
$DIMLIM
 70
0
  9
$DIMTFAC
 40
1.0
  9
$DIMTP
 40
0.005
  9
$DIMTM
 40
0.005
  9
$PDMODE
 70
3
  9
$PDSIZE
 40
0.3125
  9
$HANDSEED
  5
556
  9
$TILEMODE
 70
1
  9
$MEASUREMENT
 70
1
  9
$INSUNITS
 70
4
  0
ENDSEC
  0
SECTION
  2
CLASSES
  0
CLASS
  1
ACDBDICTIONARYWDFLT
  2
AcDbDictionaryWithDefault
  3
AutoCAD 2000
 90
0
280
0
281
0
  0
CLASS
  1
ACDBPLACEHOLDER
  2
AcDbPlaceHolder
  3
AutoCAD 2000
 90
0
280
0
281
0
  0
CLASS
  1
LAYOUT
  2
AcDbLayout
  3
AutoCAD 2000
 90
0
280
0
281
0
  0
ENDSEC
  0
SECTION
  2
TABLES
  0
TABLE
  2
VPORT
  5
8
100
AcDbSymbolTable
 70
2
  0
VPORT
  5
1F4
100
AcDbSymbolTableRecord
100
AcDbViewportTableRecord
  2
*ACTIVE
 70
0
 10
0.0
 20
0.0
 11
1.0
 21
1.0
 12
210.0
 22
148.5
 13
0.0
 23
0.0
 14
1.0
 24
1.0
 15
0.0
 25
0.0
 16
0.0
 26
0.0
 36
1.0
 17
0.0
 27
0.0
 37
0.0
 40
297.0
 41
1.4141414141
 42
50.0
 43
0.0
 44
0.0
 50
0.0
 51
0.0
 71
0
 72
100
 73
1
 74
1
 75
0
 76
0
 77
0
 78
0
  0
ENDTAB
  0
TABLE
  2
LTYPE
  5
5
100
AcDbSymbolTable
 70
6
  0
LTYPE
  5
14
100
AcDbSymbolTableRecord
100
AcDbLinetypeTableRecord
  2
BYBLOCK
 70
0
  3

 72
65
 73
0
 40
0.0
  0
LTYPE
  5
15
100
AcDbSymbolTableRecord
100
AcDbLinetypeTableRecord
  2
BYLAYER
 70
0
  3

 72
65
 73
0
 40
0.0
  0
LTYPE
  5
16
100
AcDbSymbolTableRecord
100
AcDbLinetypeTableRecord
  2
CONTINUOUS
 70
64
  3
Solid line
 72
65
 73
0
 40
0.0
  0
LTYPE
  5
1F5
100
AcDbSymbolTableRecord
100
AcDbLinetypeTableRecord
  2
CENTER
 70
64
  3
____ _ ____ _ ____ _ ____ _ ____ _ ____ _ ____
 72
65
 73
4
 40
0.6
 49
0.375
 74
0
 49
-0.075
 74
0
 49
0.075
 74
0
 49
-0.075
 74
0
  0
LTYPE
  5
1F6
100
AcDbSymbolTableRecord
100
AcDbLinetypeTableRecord
  2
HIDDEN
 70
64
  3
- - - - - - - - - - - - - - - - - - - -
 72
65
 73
2
 40
0.2
 49
0.1
 74
0
 49
-0.1
 74
0
  0
LTYPE
  5
1F7
100
AcDbSymbolTableRecord
100
AcDbLinetypeTableRecord
  2
PHANTOM
 70
64
  3
_____ _ _ _____ _ _ _____ _ _ _____
 72
65
 73
6
 40
0.8
 49
0.45
 74
0
 49
-0.05
 74
0
 49
0.1
 74
0
 49
-0.05
 74
0
 49
0.1
 74
0
 49
-0.05
 74
0
  0
LTYPE
  5
1F8
100
AcDbSymbolTableRecord
100
AcDbLinetypeTableRecord
  2
DOT
 70
64
  3
. . . . . . . . . . . . . . . . . . . .
 72
65
 73
2
 40
0.2
 49
0.1
 74
0
 49
-0.1
 74
0
  0
LTYPE
  5
1F9
100
AcDbSymbolTableRecord
100
AcDbLinetypeTableRecord
  2
DASHED
 70
64
  3
- - - - - - - - - - - - - - - - - - - -
 72
65
 73
2
 40
0.2
 49
0.1
 74
0
 49
-0.1
 74
0
  0
ENDTAB
  0
TABLE
  2
LAYER
  5
2
100
AcDbSymbolTable
 70
36
  0
LAYER
  5
10
100
AcDbSymbolTableRecord
100
AcDbLayerTableRecord
  2
0
 70
0
 62
7
  6
CONTINUOUS
370
-3
390
F
  0
LAYER
  5
1FA
100
AcDbSymbolTableRecord
100
AcDbLayerTableRecord
  2
DEFAULT_1
 70
0
 62
7
  6
CENTER
370
-3
390
F
  0
LAYER
  5
1FB
100
AcDbSymbolTableRecord
100
AcDbLayerTableRecord
  2
DEFAULT_2
 70
0
 62
8
  6
HIDDEN
370
-3
390
F
  0
LAYER
  5
1FC
100
AcDbSymbolTableRecord
100
AcDbLayerTableRecord
  2
DEFAULT_3
 70
0
 62
7
  6
PHANTOM
370
-3
390
F
  0
LAYER
  5
1FD
100
AcDbSymbolTableRecord
100
AcDbLayerTableRecord
  2
BEZUGSACHSEN
 70
0
 62
7
  6
CONTINUOUS
370
-3
390
F
  0
LAYER
  5
1FE
100
AcDbSymbolTableRecord
100
AcDbLayerTableRecord
  2
BEZUGSEBENEN
 70
0
 62
7
  6
CONTINUOUS
370
-3
390
F
  0
LAYER
  5
1FF
100
AcDbSymbolTableRecord
100
AcDbLayerTableRecord
  2
FASEN
 70
0
 62
7
  6
CONTINUOUS
370
-3
390
F
  0
LAYER
  5
200
100
AcDbSymbolTableRecord
100
AcDbLayerTableRecord
  2
HILFEN
 70
0
 62
7
  6
CONTINUOUS
370
-3
390
F
  0
LAYER
  5
201
100
AcDbSymbolTableRecord
100
AcDbLayerTableRecord
  2
KONSTRUKTIONSELEMENTE
 70
0
 62
7
  6
CONTINUOUS
370
-3
390
F
  0
LAYER
  5
202
100
AcDbSymbolTableRecord
100
AcDbLayerTableRecord
  2
PLATZIERUNG
 70
0
 62
7
  6
CONTINUOUS
370
-3
390
F
  0
LAYER
  5
203
100
AcDbSymbolTableRecord
100
AcDbLayerTableRecord
  2
RUNDUNGEN
 70
0
 62
7
  6
CONTINUOUS
370
-3
390
F
  0
LAYER
  5
204
100
AcDbSymbolTableRecord
100
AcDbLayerTableRecord
  2
TEIL_STARTBEZUEGE
 70
0
 62
7
  6
CONTINUOUS
370
-3
390
F
  0
ENDTAB
  0
TABLE
  2
STYLE
  5
3
100
AcDbSymbolTable
 70
1
  0
STYLE
  5
11
100
AcDbSymbolTableRecord
100
AcDbTextStyleTableRecord
  2
STANDARD
 70
0
 40
0.0
 41
0.7
 50
0.0
 71
0
 42
0.2
  3
txt
  4

  0
STYLE
  5
205
100
AcDbSymbolTableRecord
100
AcDbTextStyleTableRecord
  2
TEXTSTYLE_1
 70
0
 40
0.0
 41
0.8
 50
0.0
 71
0
 42
0.2
  3
gdt
  4

  0
ENDTAB
  0
TABLE
  2
VIEW
  5
6
100
AcDbSymbolTable
 70
0
  0
ENDTAB
  0
TABLE
  2
UCS
  5
7
100
AcDbSymbolTable
 70
0
  0
ENDTAB
  0
TABLE
  2
APPID
  5
9
100
AcDbSymbolTable
 70
1
  0
APPID
  5
206
100
AcDbSymbolTableRecord
100
AcDbRegAppTableRecord
  2
ACAD
 70
0
  0
ENDTAB
  0
TABLE
  2
BLOCK_RECORD
  5
1
100
AcDbSymbolTable
 70
0
  0
BLOCK_RECORD
  5
207
100
AcDbSymbolTableRecord
100
AcDbBlockTableRecord
  2
*Model_Space
  0
BLOCK_RECORD
  5
208
100
AcDbSymbolTableRecord
100
AcDbBlockTableRecord
  2
*Paper_Space
  0
ENDTAB
  0
TABLE
  2
DIMSTYLE
  5
A
100
AcDbSymbolTable
 70
1
100
AcDbDimStyleTable
 71
0
  0
DIMSTYLE
105
209
100
AcDbSymbolTableRecord
100
AcDbDimStyleTableRecord
  2
STANDARD
 70
0
  3

  4

 40
1.0
 41
3.5
 42
0.0625
 43
0.38
 44
0.18
 45
0.0
 46
0.0
 47
0.005
 48
0.005
140
3.5
141
0.09
142
0.0
143
25.4
144
1.0
145
0.0
146
1.0
147
0.09
 71
1.0
 72
0.0
 73
0
 74
0
 75
0
 76
0
 77
1
 78
8
170
0
171
2
172
0
173
0
174
0
175
0
176
0
177
0
178
5
270
2
271
3
272
3
273
2
274
2
275
0
280
0
281
0
282
0
283
1
284
8
285
0
286
0
287
3
288
0
340
11
  0
ENDTAB
  0
ENDSEC
  0
SECTION
  2
BLOCKS
  0
BLOCK
  5
20
100
AcDbEntity
  8
0
100
AcDbBlockBegin
  2
*Model_Space
 70
0
 10
0.0
 20
0.0
 30
0.0
  3
*Model_Space
  1

  0
ENDBLK
  5
21
100
AcDbEntity
  8
0
100
AcDbBlockEnd
  0
BLOCK
  5
1C
100
AcDbEntity
  8
0
100
AcDbBlockBegin
  2
*Paper_Space
 70
0
 10
0.0
 20
0.0
 30
0.0
  3
*Paper_Space
  1

  0
ENDBLK
  5
1D
100
AcDbEntity
  8
0
100
AcDbBlockEnd
  0
ENDSEC
  0
SECTION
  2
ENTITIES
  0
MTEXT
  5
20A
100
AcDbEntity
  8
0
100
AcDbMText
 62
5
  6
CONTINUOUS
  7
STANDARD
 71
1
 72
1
 10
249.0596791971
 20
104.9630474453
 30
0.0
 11
0.0
 21
1.0
 31
0.0
 44
0.9
  1
RUD
 40
6.0
 41
16.0
  0
MTEXT
  5
20B
100
AcDbEntity
  8
0
100
AcDbMText
 62
5
  6
CONTINUOUS
  7
STANDARD
 71
1
 72
1
 10
289.4503317985
 20
98.4261218277
 30
0.0
 11
0.0
 21
1.0
 31
0.0
 44
0.9
  1
VRG 20
 40
6.0
 41
29.7142857143
  0
LINE
  5
20C
100
AcDbEntity
  8
0
100
AcDbLine
 62
7
  6
CONTINUOUS
 10
0.0
 20
0.0
 11
0.0
 21
297.0
  0
LINE
  5
20D
100
AcDbEntity
  8
0
100
AcDbLine
 62
7
  6
CONTINUOUS
 10
0.0
 20
0.0
 11
420.0
 21
0.0
  0
LINE
  5
20E
100
AcDbEntity
  8
0
100
AcDbLine
 62
7
  6
CONTINUOUS
 10
0.0
 20
297.0
 11
420.0
 21
297.0
  0
LINE
  5
20F
100
AcDbEntity
  8
0
100
AcDbLine
 62
7
  6
CONTINUOUS
 10
420.0
 20
0.0
 11
420.0
 21
297.0
  0
LINE
  5
210
100
AcDbEntity
  8
0
100
AcDbLine
 62
7
  6
CONTINUOUS
 10
173.6676905794
 20
80.7476479058
 11
164.9456711675
 21
80.7476479058
  0
LINE
  5
211
100
AcDbEntity
  8
0
100
AcDbLine
 62
7
  6
CONTINUOUS
 10
115.0041463507
 20
80.7476479058
 11
106.2821269389
 21
80.7476479058
  0
LINE
  5
212
100
AcDbEntity
  8
0
100
AcDbLine
 62
7
  6
CONTINUOUS
 10
139.9749087591
 20
252.8353813601
 11
102.8928694341
 21
240.7866964069
  0
LINE
  5
213
100
AcDbEntity
  8
BEZUGSACHSEN
100
AcDbLine
 62
7
  6
CONTINUOUS
 10
94.6767754298
 20
92.9111957795
 11
103.9839936095
 21
81.8192850767
  0
LINE
  5
214
100
AcDbEntity
  8
0
100
AcDbLine
 62
7
  6
CONTINUOUS
 10
102.8928694341
 20
240.7866964069
 11
79.9749087591
 21
209.2428296798
  0
LINE
  5
215
100
AcDbEntity
  8
BEZUGSACHSEN
100
AcDbLine
 62
7
  6
CONTINUOUS
 10
108.4730567982
 20
228.5796831968
 11
109.1030954745
 21
228.8810786841
  0
LINE
  5
216
100
AcDbEntity
  8
BEZUGSACHSEN
100
AcDbLine
 62
7
  6
CONTINUOUS
 10
118.7675689015
 20
235.1004209255
 11
121.7797076649
 21
236.3243961042
  0
LINE
  5
217
100
AcDbEntity
  8
BEZUGSACHSEN
100
AcDbLine
 62
7
  6
CONTINUOUS
 10
119.840990456
 20
234.617959441
 11
122.2256012679
 21
235.5869401798
  0
LINE
  5
218
100
AcDbEntity
  8
0
100
AcDbLine
 62
7
  6
CONTINUOUS
 10
151.2249087591
 20
97.7476479058
 11
128.7249087591
 21
97.7476479058
  0
LINE
  5
219
100
AcDbEntity
  8
BEZUGSACHSEN
100
AcDbLine
 62
7
  6
CONTINUOUS
 10
96.8650002127
 20
215.2066555952
 11
98.6600627627
 21
217.9175310276
  0
LINE
  5
21A
100
AcDbEntity
  8
BEZUGSACHSEN
100
AcDbLine
 62
7
  6
CONTINUOUS
 10
101.0910390148
 20
221.2752693778
 11
101.6331105991
 21
221.8809528559
  0
LINE
  5
21B
100
AcDbEntity
  8
BEZUGSACHSEN
100
AcDbLine
 62
7
  6
CONTINUOUS
 10
103.8013959023
 20
224.303685613
 11
104.3434672281
 21
224.9093688022
  0
LINE
  5
21C
100
AcDbEntity
  8
BEZUGSACHSEN
100
AcDbLine
 62
7
  6
CONTINUOUS
 10
98.6600627627
 20
217.9175310276
 11
99.1759535598
 21
218.3883219936
  0
LINE
  5
21D
100
AcDbEntity
  8
BEZUGSACHSEN
100
AcDbLine
 62
7
  6
CONTINUOUS
 10
105.9704422996
 20
226.5041071709
 11
108.4730567982
 21
228.5796831968
  0
LINE
  5
21E
100
AcDbEntity
  8
BEZUGSACHSEN
100
AcDbLine
 62
7
  6
CONTINUOUS
 10
107.2480574719
 20
226.2369020891
 11
109.1250183459
 21
227.7935841085
  0
LINE
  5
21F
100
AcDbEntity
  8
BEZUGSACHSEN
100
AcDbLine
 62
7
  6
CONTINUOUS
 10
99.4444537703
 20
217.5606097791
 11
99.8107559502
 21
217.8054943514
  0
LINE
  5
220
100
AcDbEntity
  8
BEZUGSACHSEN
100
AcDbLine
 62
7
  6
CONTINUOUS
 10
127.5758087602
 20
236.9659216705
 11
128.0628807545
 21
237.2581074732
  0
LINE
  5
221
100
AcDbEntity
  8
BEZUGSACHSEN
100
AcDbLine
 62
7
  6
CONTINUOUS
 10
141.5972219816
 20
239.2371195266
 11
142.1602622381
 21
239.5412869762
  0
LINE
  5
222
100
AcDbEntity
  8
BEZUGSACHSEN
100
AcDbLine
 62
7
  6
CONTINUOUS
 10
127.2053204399
 20
237.9272212683
 11
127.8241106927
 21
238.2510800277
  0
LINE
  5
223
100
AcDbEntity
  8
BEZUGSACHSEN
100
AcDbLine
 62
7
  6
CONTINUOUS
 10
109.1250183459
 20
227.7935841085
 11
109.6507806225
 21
228.0084966015
  0
LINE
  5
224
100
AcDbEntity
  8
BEZUGSACHSEN
100
AcDbLine
 62
7
  6
CONTINUOUS
 10
120.8021512264
 20
232.2525931616
 11
123.1867620383
 21
233.2215739005
  0
LINE
  5
225
100
AcDbEntity
  8
BEZUGSACHSEN
100
AcDbLine
 62
7
  6
CONTINUOUS
 10
121.1866154627
 20
231.3064468266
 11
123.320212796
 21
232.1734288557
  0
LINE
  5
226
100
AcDbEntity
  8
BEZUGSACHSEN
100
AcDbLine
 62
7
  6
CONTINUOUS
 10
126.5484245298
 20
229.626900728
 11
125.6698859722
 21
229.2699087457
  0
LINE
  5
227
100
AcDbEntity
  8
BEZUGSACHSEN
100
AcDbLine
 62
7
  6
CONTINUOUS
 10
122.5322404695
 20
227.9949342122
 11
121.7792057786
 21
227.6889404175
  0
LINE
  5
228
100
AcDbEntity
  8
0
100
AcDbLine
 62
7
  6
CONTINUOUS
 10
79.9749087591
 20
209.2428296798
 11
79.9749087591
 21
174.1134432627
  0
LINE
  5
229
100
AcDbEntity
  8
BEZUGSACHSEN
100
AcDbLine
 62
7
  6
CONTINUOUS
 10
98.0233626563
 20
215.4145001695
 11
99.4444537703
 21
217.5606097791
  0
LINE
  5
22A
100
AcDbEntity
  8
BEZUGSACHSEN
100
AcDbLine
 62
7
  6
CONTINUOUS
 10
100.152153472
 20
214.004877055
 11
101.573244586
 21
216.1509866646
  0
LINE
  5
22B
100
AcDbEntity
  8
BEZUGSACHSEN
100
AcDbLine
 62
7
  6
CONTINUOUS
 10
101.0036696393
 20
213.4410279146
 11
102.2751722431
 21
215.361231292
  0
LINE
  5
22C
100
AcDbEntity
  8
BEZUGSACHSEN
100
AcDbLine
 62
7
  6
CONTINUOUS
 10
107.7367799337
 20
218.2363597072
 11
108.0981609899
 21
218.6401486926
  0
LINE
  5
22D
100
AcDbEntity
  8
BEZUGSACHSEN
100
AcDbLine
 62
7
  6
CONTINUOUS
 10
108.8591684223
 20
217.9590660488
 11
108.4977873662
 21
217.5552770634
  0
LINE
  5
22E
100
AcDbEntity
  8
BEZUGSACHSEN
100
AcDbLine
 62
7
  6
CONTINUOUS
 10
126.7580404411
 20
237.4695393149
 11
127.2053204399
 21
237.9272212683
  0
LINE
  5
22F
100
AcDbEntity
  8
BEZUGSACHSEN
100
AcDbLine
 62
7
  6
CONTINUOUS
 10
123.1867620383
 20
233.2215739005
 11
123.499202011
 21
233.5322618537
  0
LINE
  5
230
100
AcDbEntity
  8
BEZUGSACHSEN
100
AcDbLine
 62
7
  6
CONTINUOUS
 10
111.0511670327
 20
221.6513234314
 11
112.9281279067
 21
223.2080054508
  0
LINE
  5
231
100
AcDbEntity
  8
BEZUGSACHSEN
100
AcDbLine
 62
7
  6
CONTINUOUS
 10
113.5800895304
 20
222.4219062707
 11
111.0774750318
 21
220.3463302448
  0
LINE
  5
232
100
AcDbEntity
  8
BEZUGSACHSEN
100
AcDbLine
 62
7
  6
CONTINUOUS
 10
141.8117866183
 20
238.3701239618
 11
142.2396455325
 21
238.6831728824
  0
LINE
  5
233
100
AcDbEntity
  8
BEZUGSACHSEN
100
AcDbLine
 62
7
  6
CONTINUOUS
 10
107.9192268653
 20
217.1640550356
 11
108.4977873662
 21
217.5552770634
  0
LINE
  5
234
100
AcDbEntity
  8
BEZUGSACHSEN
100
AcDbLine
 62
7
  6
CONTINUOUS
 10
130.6411615926
 20
231.7508211964
 11
131.1282366016
 21
232.043007724
  0
LINE
  5
235
100
AcDbEntity
  8
BEZUGSACHSEN
100
AcDbLine
 62
7
  6
CONTINUOUS
 10
107.2485648373
 20
217.9460850602
 11
107.7367799337
 21
218.2363597072
  0
LINE
  5
236
100
AcDbEntity
  8
BEZUGSACHSEN
100
AcDbLine
 62
7
  6
CONTINUOUS
 10
148.9359445351
 20
237.5656198492
 11
149.4037814743
 21
237.8150020367
  0
LINE
  5
237
100
AcDbEntity
  8
BEZUGSACHSEN
100
AcDbLine
 62
7
  6
CONTINUOUS
 10
131.4987249463
 20
231.0817080249
 11
130.8799316822
 21
230.757848526
  0
LINE
  5
238
100
AcDbEntity
  8
BEZUGSACHSEN
100
AcDbLine
 62
7
  6
CONTINUOUS
 10
148.678533939
 20
238.315600654
 11
149.4465708072
 21
238.67571768
  0
LINE
  5
239
100
AcDbEntity
  8
BEZUGSACHSEN
100
AcDbLine
 62
7
  6
CONTINUOUS
 10
107.3041766613
 20
216.9872936014
 11
107.9192268653
 21
217.1640550356
  0
LINE
  5
23A
100
AcDbEntity
  8
RUNDUNGEN
100
AcDbLine
 62
7
  6
CONTINUOUS
 10
93.305035778
 20
125.7346919613
 11
89.0223212271
 21
133.1525711578
  0
LINE
  5
23B
100
AcDbEntity
  8
0
100
AcDbLine
 62
7
  6
CONTINUOUS
 10
79.9749087591
 20
174.1134432627
 11
87.9749087591
 21
142.0271957944
  0
LINE
  5
23C
100
AcDbEntity
  8
BEZUGSACHSEN
100
AcDbLine
 62
7
  6
CONTINUOUS
 10
108.0981609899
 20
218.6401486926
 11
108.3327074889
 21
219.1574514387
  0
LINE
  5
23D
100
AcDbEntity
  8
BEZUGSACHSEN
100
AcDbLine
 62
7
  6
CONTINUOUS
 10
108.8591684223
 20
217.9590660488
 11
109.1840597865
 21
218.577315618
  0
LINE
  5
23E
100
AcDbEntity
  8
BEZUGSACHSEN
100
AcDbLine
 62
7
  6
CONTINUOUS
 10
112.9281279067
 20
223.2080054508
 11
113.2365696674
 21
223.6849509733
  0
LINE
  5
23F
100
AcDbEntity
  8
BEZUGSACHSEN
100
AcDbLine
 62
7
  6
CONTINUOUS
 10
103.5352109848
 20
210.7898368015
 11
103.9839766223
 21
211.4675556596
  0
LINE
  5
240
100
AcDbEntity
  8
BEZUGSACHSEN
100
AcDbLine
 62
7
  6
CONTINUOUS
 10
105.8538333738
 20
214.2913841273
 11
106.3773934268
 21
215.0820563438
  0
LINE
  5
241
100
AcDbEntity
  8
BEZUGSACHSEN
100
AcDbLine
 62
7
  6
CONTINUOUS
 10
123.9450927414
 20
232.794804762
 11
124.3189620807
 21
233.3141831259
  0
LINE
  5
242
100
AcDbEntity
  8
BEZUGSACHSEN
100
AcDbLine
 62
7
  6
CONTINUOUS
 10
113.9928076813
 20
222.9853347988
 11
113.5800895304
 21
222.4219062707
  0
LINE
  5
243
100
AcDbEntity
  8
BEZUGSACHSEN
100
AcDbLine
 62
7
  6
CONTINUOUS
 10
127.26024702
 20
236.5399126738
 11
127.5758087602
 21
236.9659216705
  0
LINE
  5
244
100
AcDbEntity
  8
BEZUGSACHSEN
100
AcDbLine
 62
7
  6
CONTINUOUS
 10
131.4987249463
 20
231.0817080249
 11
131.9460019199
 21
231.5393892968
  0
LINE
  5
245
100
AcDbEntity
  8
BEZUGSACHSEN
100
AcDbLine
 62
7
  6
CONTINUOUS
 10
148.1756259426
 20
237.8996579677
 11
148.678533939
 21
238.315600654
  0
LINE
  5
246
100
AcDbEntity
  8
BEZUGSACHSEN
100
AcDbLine
 62
7
  6
CONTINUOUS
 10
149.5019416948
 20
231.7062548243
 11
149.969778634
 21
231.9556370119
  0
LINE
  5
247
100
AcDbEntity
  8
BEZUGSACHSEN
100
AcDbLine
 62
7
  6
CONTINUOUS
 10
149.4591553747
 20
230.8455384401
 11
150.2271892179
 21
231.2056561488
  0
LINE
  5
248
100
AcDbEntity
  8
RUNDUNGEN
100
AcDbLine
 62
7
  6
CONTINUOUS
 10
89.0223212271
 20
133.1525711578
 11
87.9749087591
 21
142.0271957944
  0
LINE
  5
249
100
AcDbEntity
  8
RUNDUNGEN
100
AcDbLine
 62
7
  6
CONTINUOUS
 10
93.9749087591
 20
94.8395586086
 11
93.9749087591
 21
150.3153818886
  0
LINE
  5
24A
100
AcDbEntity
  8
BEZUGSACHSEN
100
AcDbLine
 62
7
  6
CONTINUOUS
 10
101.573244586
 20
216.1509866646
 11
101.6557080436
 21
216.5838209504
  0
LINE
  5
24B
100
AcDbEntity
  8
BEZUGSACHSEN
100
AcDbLine
 62
7
  6
CONTINUOUS
 10
113.9928076813
 20
222.9853347988
 11
114.1925891555
 21
223.5932968704
  0
LINE
  5
24C
100
AcDbEntity
  8
BEZUGSACHSEN
100
AcDbLine
 62
7
  6
CONTINUOUS
 10
126.3903534777
 20
236.680867235
 11
126.7580404411
 21
237.4695393149
  0
LINE
  5
24D
100
AcDbEntity
  8
BEZUGSACHSEN
100
AcDbLine
 62
7
  6
CONTINUOUS
 10
131.1282366016
 20
232.043007724
 11
131.443798314
 21
232.4690168366
  0
LINE
  5
24E
100
AcDbEntity
  8
BEZUGSACHSEN
100
AcDbLine
 62
7
  6
CONTINUOUS
 10
141.0118637437
 20
238.5932589466
 11
141.5972219816
 21
239.2371195266
  0
LINE
  5
24F
100
AcDbEntity
  8
BEZUGSACHSEN
100
AcDbLine
 62
7
  6
CONTINUOUS
 10
140.350939422
 20
232.6663910705
 11
144.4149639508
 21
236.6638761982
  0
LINE
  5
250
100
AcDbEntity
  8
BEZUGSACHSEN
100
AcDbLine
 62
7
  6
CONTINUOUS
 10
141.4323808779
 20
232.5953399121
 11
145.0573875017
 21
236.109929554
  0
LINE
  5
251
100
AcDbEntity
  8
BEZUGSACHSEN
100
AcDbLine
 62
7
  6
CONTINUOUS
 10
150.2271892179
 20
231.2056561488
 11
150.7300972266
 21
231.6215988934
  0
LINE
  5
252
100
AcDbEntity
  8
0
100
AcDbLine
 62
7
  6
CONTINUOUS
 10
151.2249087591
 20
122.2476479058
 11
128.7249087591
 21
122.2476479058
  0
LINE
  5
253
100
AcDbEntity
  8
BEZUGSACHSEN
100
AcDbLine
 62
7
  6
CONTINUOUS
 10
102.4400992652
 20
216.2269000251
 11
102.4554375631
 21
216.866662203
  0
LINE
  5
254
100
AcDbEntity
  8
BEZUGSACHSEN
100
AcDbLine
 62
7
  6
CONTINUOUS
 10
109.1840597865
 20
218.577315618
 11
109.2917716948
 21
219.2081321546
  0
LINE
  5
255
100
AcDbEntity
  8
BEZUGSACHSEN
100
AcDbLine
 62
7
  6
CONTINUOUS
 10
113.2365696674
 20
223.6849509733
 11
113.3320758877
 21
224.2064310977
  0
LINE
  5
256
100
AcDbEntity
  8
BEZUGSACHSEN
100
AcDbLine
 62
7
  6
CONTINUOUS
 10
123.499202011
 20
233.5322618537
 11
123.6220578716
 21
233.9496415078
  0
LINE
  5
257
100
AcDbEntity
  8
BEZUGSACHSEN
100
AcDbLine
 62
7
  6
CONTINUOUS
 10
131.9460019199
 20
231.5393892968
 11
132.3136918841
 21
232.3280621596
  0
LINE
  5
258
100
AcDbEntity
  8
BEZUGSACHSEN
100
AcDbLine
 62
7
  6
CONTINUOUS
 10
141.5079500556
 20
237.878347005
 11
141.8117866183
 21
238.3701239618
  0
LINE
  5
259
100
AcDbEntity
  8
BEZUGSACHSEN
100
AcDbLine
 62
7
  6
CONTINUOUS
 10
148.195257316
 20
236.6779083497
 11
148.9359445351
 21
237.5656198492
  0
LINE
  5
25A
100
AcDbEntity
  8
BEZUGSACHSEN
100
AcDbLine
 62
7
  6
CONTINUOUS
 10
149.969778634
 20
231.9556370119
 11
150.7104688137
 21
232.8433475225
  0
LINE
  5
25B
100
AcDbEntity
  8
0
100
AcDbLine
 62
7
  6
CONTINUOUS
 10
111.072664277
 20
122.7284100193
 11
111.072664277
 21
107.9496479058
  0
LINE
  5
25C
100
AcDbEntity
  8
BEZUGSACHSEN
100
AcDbLine
 62
7
  6
CONTINUOUS
 10
108.3327074889
 20
219.1574514387
 11
108.3500739484
 21
219.6873206343
  0
LINE
  5
25D
100
AcDbEntity
  8
BEZUGSACHSEN
100
AcDbLine
 62
7
  6
CONTINUOUS
 10
127.1161956453
 20
235.9800800196
 11
127.26024702
 21
236.5399126738
  0
LINE
  5
25E
100
AcDbEntity
  8
BEZUGSACHSEN
100
AcDbLine
 62
7
  6
CONTINUOUS
 10
145.0573875017
 20
236.109929554
 11
145.3612240644
 21
236.6017065108
  0
LINE
  5
25F
100
AcDbEntity
  8
BEZUGSACHSEN
100
AcDbLine
 62
7
  6
CONTINUOUS
 10
147.7702128421
 20
237.2892416331
 11
148.1756259426
 21
237.8996579677
  0
LINE
  5
260
100
AcDbEntity
  8
BEZUGSACHSEN
100
AcDbLine
 62
7
  6
CONTINUOUS
 10
162.8763505218
 20
220.0877857668
 11
173.1063035987
 21
227.5274133205
  0
LINE
  5
261
100
AcDbEntity
  8
BEZUGSACHSEN
100
AcDbLine
 62
7
  6
CONTINUOUS
 10
162.9530639669
 20
221.9155927904
 11
171.8857222669
 21
228.3992970354
  0
LINE
  5
262
100
AcDbEntity
  8
BEZUGSACHSEN
100
AcDbLine
 62
7
  6
CONTINUOUS
 10
114.1925891555
 20
223.5932968704
 11
114.1750501044
 21
224.463291983
  0
LINE
  5
263
100
AcDbEntity
  8
BEZUGSACHSEN
100
AcDbLine
 62
7
  6
CONTINUOUS
 10
126.2860970018
 20
235.9555396186
 11
126.3903534777
 21
236.680867235
  0
LINE
  5
264
100
AcDbEntity
  8
BEZUGSACHSEN
100
AcDbLine
 62
7
  6
CONTINUOUS
 10
124.3189620807
 20
233.3141831259
 11
124.4391699352
 21
234.0979442466
  0
LINE
  5
265
100
AcDbEntity
  8
BEZUGSACHSEN
100
AcDbLine
 62
7
  6
CONTINUOUS
 10
144.4149639508
 20
236.6638761982
 11
144.7299595043
 21
237.3254997202
  0
LINE
  5
266
100
AcDbEntity
  8
BEZUGSACHSEN
100
AcDbLine
 62
7
  6
CONTINUOUS
 10
147.5324336193
 20
236.8174728199
 11
147.7702128421
 21
237.2892416331
  0
LINE
  5
267
100
AcDbEntity
  8
BEZUGSACHSEN
100
AcDbLine
 62
7
  6
CONTINUOUS
 10
150.7300972266
 20
231.6215988934
 11
151.1355133859
 21
232.2320147057
  0
LINE
  5
268
100
AcDbEntity
  8
BEZUGSACHSEN
100
AcDbLine
 62
7
  6
CONTINUOUS
 10
169.8938325771
 20
213.6275269838
 11
180.1084213292
 21
219.9253183923
  0
LINE
  5
269
100
AcDbEntity
  8
BEZUGSACHSEN
100
AcDbLine
 62
7
  6
CONTINUOUS
 10
170.6810565031
 20
212.3507033898
 11
175.245021755
 21
215.1646102292
  0
LINE
  5
26A
100
AcDbEntity
  8
BEZUGSACHSEN
100
AcDbLine
 62
7
  6
CONTINUOUS
 10
176.549011653
 20
215.9685835047
 11
179.8089870069
 21
217.9785170687
  0
LINE
  5
26B
100
AcDbEntity
  8
BEZUGSACHSEN
100
AcDbLine
 62
7
  6
CONTINUOUS
 10
101.6557080436
 20
216.5838209504
 11
101.5214579383
 21
216.9976770577
  0
LINE
  5
26C
100
AcDbEntity
  8
BEZUGSACHSEN
100
AcDbLine
 62
7
  6
CONTINUOUS
 10
109.2917716948
 20
219.2081321546
 11
109.1458144776
 21
220.0659762226
  0
LINE
  5
26D
100
AcDbEntity
  8
BEZUGSACHSEN
100
AcDbLine
 62
7
  6
CONTINUOUS
 10
140.8320495324
 20
237.9227539535
 11
141.0118637437
 21
238.5932589466
  0
LINE
  5
26E
100
AcDbEntity
  8
BEZUGSACHSEN
100
AcDbLine
 62
7
  6
CONTINUOUS
 10
147.8522680541
 20
235.706457868
 11
148.195257316
 21
236.6779083497
  0
LINE
  5
26F
100
AcDbEntity
  8
BEZUGSACHSEN
100
AcDbLine
 62
7
  6
CONTINUOUS
 10
147.2245123804
 20
236.0125834759
 11
147.5324336193
 21
236.8174728199
  0
LINE
  5
270
100
AcDbEntity
  8
BEZUGSACHSEN
100
AcDbLine
 62
7
  6
CONTINUOUS
 10
151.1355133859
 20
232.2320147057
 11
151.3732894762
 21
232.7037836912
  0
LINE
  5
271
100
AcDbEntity
  8
BEZUGSACHSEN
100
AcDbLine
 62
7
  6
CONTINUOUS
 10
167.3582169183
 20
216.1051313642
 11
176.1664241587
 21
224.2547009976
  0
LINE
  5
272
100
AcDbEntity
  8
BEZUGSACHSEN
100
AcDbLine
 62
7
  6
CONTINUOUS
 10
177.1851203629
 20
223.1536750926
 11
168.3769131225
 21
215.0041054591
  0
LINE
  5
273
100
AcDbEntity
  8
BEZUGSACHSEN
100
AcDbLine
 62
7
  6
CONTINUOUS
 10
181.7850970511
 20
211.854445079
 11
181.1331014932
 21
211.4524580659
  0
LINE
  5
274
100
AcDbEntity
  8
BEZUGSACHSEN
100
AcDbLine
 62
7
  6
CONTINUOUS
 10
182.5723209771
 20
210.5776214849
 11
181.7029937696
 21
210.0416389259
  0
LINE
  5
275
100
AcDbEntity
  8
BEZUGSACHSEN
100
AcDbLine
 62
7
  6
CONTINUOUS
 10
113.3320758877
 20
224.2064310977
 11
113.2146467199
 21
224.7724456406
  0
LINE
  5
276
100
AcDbEntity
  8
BEZUGSACHSEN
100
AcDbLine
 62
7
  6
CONTINUOUS
 10
126.3533569211
 20
235.0963897944
 11
126.2860970018
 21
235.9555396186
  0
LINE
  5
277
100
AcDbEntity
  8
BEZUGSACHSEN
100
AcDbLine
 62
7
  6
CONTINUOUS
 10
127.1436604427
 20
235.2864260848
 11
127.1161956453
 21
235.9800800196
  0
LINE
  5
278
100
AcDbEntity
  8
BEZUGSACHSEN
100
AcDbLine
 62
7
  6
CONTINUOUS
 10
128.7249087591
 20
107.9496479058
 11
128.7249087591
 21
84.74789911
  0
LINE
  5
279
100
AcDbEntity
  8
0
100
AcDbLine
 62
7
  6
CONTINUOUS
 10
128.7249087591
 20
107.9496479058
 11
128.7249087591
 21
137.4976479058
  0
LINE
  5
27A
100
AcDbEntity
  8
BEZUGSACHSEN
100
AcDbLine
 62
7
  6
CONTINUOUS
 10
131.443798314
 20
232.4690168366
 11
131.4561315416
 21
232.9971760706
  0
LINE
  5
27B
100
AcDbEntity
  8
BEZUGSACHSEN
100
AcDbLine
 62
7
  6
CONTINUOUS
 10
146.9088728659
 20
234.5135389873
 11
147.2245123804
 21
236.0125834759
  0
LINE
  5
27C
100
AcDbEntity
  8
BEZUGSACHSEN
100
AcDbLine
 62
7
  6
CONTINUOUS
 10
147.6067706539
 20
234.540534377
 11
147.8522680541
 21
235.706457868
  0
LINE
  5
27D
100
AcDbEntity
  8
BEZUGSACHSEN
100
AcDbLine
 62
7
  6
CONTINUOUS
 10
145.3612240644
 20
236.6017065108
 11
145.5410413697
 21
237.2722113006
  0
LINE
  5
27E
100
AcDbEntity
  8
BEZUGSACHSEN
100
AcDbLine
 62
7
  6
CONTINUOUS
 10
152.9431407151
 20
232.7395684822
 11
153.2073915989
 21
233.548568696
  0
LINE
  5
27F
100
AcDbEntity
  8
BEZUGSACHSEN
100
AcDbLine
 62
7
  6
CONTINUOUS
 10
155.0102586086
 20
232.9596823242
 11
154.7460077248
 21
232.1506821104
  0
LINE
  5
280
100
AcDbEntity
  8
BEZUGSACHSEN
100
AcDbLine
 62
7
  6
CONTINUOUS
 10
150.7104688137
 20
232.8433475225
 11
151.0534581247
 21
233.8147982375
  0
LINE
  5
281
100
AcDbEntity
  8
BEZUGSACHSEN
100
AcDbLine
 62
7
  6
CONTINUOUS
 10
151.3732894762
 20
232.7037836912
 11
151.6812137984
 21
233.5086726297
  0
LINE
  5
282
100
AcDbEntity
  8
BEZUGSACHSEN
100
AcDbLine
 62
7
  6
CONTINUOUS
 10
102.4554375631
 20
216.866662203
 11
102.112142937
 21
217.581421059
  0
LINE
  5
283
100
AcDbEntity
  8
BEZUGSACHSEN
100
AcDbLine
 62
7
  6
CONTINUOUS
 10
108.3500739484
 20
219.6873206343
 11
108.1502605462
 21
220.2297561203
  0
LINE
  5
284
100
AcDbEntity
  8
BEZUGSACHSEN
100
AcDbLine
 62
7
  6
CONTINUOUS
 10
114.1750501044
 20
224.463291983
 11
113.9489606025
 21
225.1603231324
  0
LINE
  5
285
100
AcDbEntity
  8
BEZUGSACHSEN
100
AcDbLine
 62
7
  6
CONTINUOUS
 10
123.6220578716
 20
233.9496415078
 11
123.5553324928
 21
234.4737140302
  0
LINE
  5
286
100
AcDbEntity
  8
BEZUGSACHSEN
100
AcDbLine
 62
7
  6
CONTINUOUS
 10
124.4391699352
 20
234.0979442466
 11
124.3724445564
 21
234.622016769
  0
LINE
  5
287
100
AcDbEntity
  8
BEZUGSACHSEN
100
AcDbLine
 62
7
  6
CONTINUOUS
 10
132.3136918841
 20
232.3280621596
 11
132.2862300736
 21
233.0217169352
  0
LINE
  5
288
100
AcDbEntity
  8
BEZUGSACHSEN
100
AcDbLine
 62
7
  6
CONTINUOUS
 10
140.2951444604
 20
231.8171581255
 11
140.350939422
 21
232.6663910705
  0
LINE
  5
289
100
AcDbEntity
  8
BEZUGSACHSEN
100
AcDbLine
 62
7
  6
CONTINUOUS
 10
144.7522775171
 20
237.6651933265
 11
144.7299595043
 21
237.3254997202
  0
LINE
  5
28A
100
AcDbEntity
  8
BEZUGSACHSEN
100
AcDbLine
 62
7
  6
CONTINUOUS
 10
145.5633593825
 20
237.6119049068
 11
145.5410413697
 21
237.2722113006
  0
LINE
  5
28B
100
AcDbEntity
  8
BEZUGSACHSEN
100
AcDbLine
 62
7
  6
CONTINUOUS
 10
145.2174306143
 20
232.3466605527
 11
145.1616356527
 21
231.4974276078
  0
LINE
  5
28C
100
AcDbEntity
  8
BEZUGSACHSEN
100
AcDbLine
 62
7
  6
CONTINUOUS
 10
151.2989555248
 20
234.9807217286
 11
151.0534581247
 21
233.8147982375
  0
LINE
  5
28D
100
AcDbEntity
  8
BEZUGSACHSEN
100
AcDbLine
 62
7
  6
CONTINUOUS
 10
151.9968533129
 20
235.0077171182
 11
151.6812137984
 21
233.5086726297
  0
LINE
  5
28E
100
AcDbEntity
  8
BEZUGSACHSEN
100
AcDbLine
 62
7
  6
CONTINUOUS
 10
109.1458144776
 20
220.0659762226
 11
108.8191664293
 21
220.7219255488
  0
LINE
  5
28F
100
AcDbEntity
  8
BEZUGSACHSEN
100
AcDbLine
 62
7
  6
CONTINUOUS
 10
146.9088728659
 20
234.5135389873
 11
146.8660834839
 21
233.6528231108
  0
LINE
  5
290
100
AcDbEntity
  8
BEZUGSACHSEN
100
AcDbLine
 62
7
  6
CONTINUOUS
 10
147.6067706539
 20
234.540534377
 11
147.5289071806
 21
233.5132586406
  0
LINE
  5
291
100
AcDbEntity
  8
BEZUGSACHSEN
100
AcDbLine
 62
7
  6
CONTINUOUS
 10
151.376818949
 20
236.0079972317
 11
151.2989555248
 21
234.9807217286
  0
LINE
  5
292
100
AcDbEntity
  8
BEZUGSACHSEN
100
AcDbLine
 62
7
  6
CONTINUOUS
 10
166.1896762456
 20
232.4680875664
 11
162.9530639669
 21
221.9155927904
  0
LINE
  5
293
100
AcDbEntity
  8
BEZUGSACHSEN
100
AcDbLine
 62
7
  6
CONTINUOUS
 10
161.248908843
 20
221.2502973174
 11
164.9690949137
 21
233.3399712813
  0
LINE
  5
294
100
AcDbEntity
  8
BEZUGSACHSEN
100
AcDbLine
 62
7
  6
CONTINUOUS
 10
182.3058877622
 20
212.4692360549
 11
181.7850970511
 21
211.854445079
  0
LINE
  5
295
100
AcDbEntity
  8
BEZUGSACHSEN
100
AcDbLine
 62
7
  6
CONTINUOUS
 10
183.093112439
 20
211.1924112432
 11
182.5723209771
 21
210.5776214849
  0
LINE
  5
296
100
AcDbEntity
  8
BEZUGSACHSEN
100
AcDbLine
 62
7
  6
CONTINUOUS
 10
101.5214579383
 20
216.9976770577
 11
101.1704940563
 21
217.3925546632
  0
LINE
  5
297
100
AcDbEntity
  8
BEZUGSACHSEN
100
AcDbLine
 62
7
  6
CONTINUOUS
 10
102.112142937
 20
217.581421059
 11
101.7611790549
 21
217.9762986646
  0
LINE
  5
298
100
AcDbEntity
  8
BEZUGSACHSEN
100
AcDbLine
 62
7
  6
CONTINUOUS
 10
108.1502605462
 20
220.2297561203
 11
107.7332677105
 21
220.7847585539
  0
LINE
  5
299
100
AcDbEntity
  8
BEZUGSACHSEN
100
AcDbLine
 62
7
  6
CONTINUOUS
 10
113.9489606025
 20
225.1603231324
 11
113.5099345191
 21
225.9018877105
  0
LINE
  5
29A
100
AcDbEntity
  8
BEZUGSACHSEN
100
AcDbLine
 62
7
  6
CONTINUOUS
 10
113.2146467199
 20
224.7724456406
 11
112.8842808944
 21
225.382993704
  0
LINE
  5
29B
100
AcDbEntity
  8
BEZUGSACHSEN
100
AcDbLine
 62
7
  6
CONTINUOUS
 10
121.7792057786
 20
227.6889404175
 11
118.7675689015
 21
235.1004209255
  0
LINE
  5
29C
100
AcDbEntity
  8
BEZUGSACHSEN
100
AcDbLine
 62
7
  6
CONTINUOUS
 10
122.5322404695
 20
227.9949342122
 11
121.1866154627
 21
231.3064468266
  0
LINE
  5
29D
100
AcDbEntity
  8
BEZUGSACHSEN
100
AcDbLine
 62
7
  6
CONTINUOUS
 10
120.8021512264
 20
232.2525931616
 11
119.840990456
 21
234.617959441
  0
LINE
  5
29E
100
AcDbEntity
  8
BEZUGSACHSEN
100
AcDbLine
 62
7
  6
CONTINUOUS
 10
126.9502821313
 20
232.6139581764
 11
126.3533569211
 21
235.0963897944
  0
LINE
  5
29F
100
AcDbEntity
  8
BEZUGSACHSEN
100
AcDbLine
 62
7
  6
CONTINUOUS
 10
127.7405856529
 20
232.8039944668
 11
127.1436604427
 21
235.2864260848
  0
LINE
  5
2A0
100
AcDbEntity
  8
BEZUGSACHSEN
100
AcDbLine
 62
7
  6
CONTINUOUS
 10
129.7135460592
 20
235.0290578272
 11
129.952316121
 21
234.0360852728
  0
LINE
  5
2A1
100
AcDbEntity
  8
BEZUGSACHSEN
100
AcDbLine
 62
7
  6
CONTINUOUS
 10
131.1377714035
 20
234.3211397083
 11
131.4561315416
 21
232.9971760706
  0
LINE
  5
2A2
100
AcDbEntity
  8
BEZUGSACHSEN
100
AcDbLine
 62
7
  6
CONTINUOUS
 10
146.8660834839
 20
233.6528231108
 11
146.8934362654
 21
233.125228465
  0
LINE
  5
2A3
100
AcDbEntity
  8
BEZUGSACHSEN
100
AcDbLine
 62
7
  6
CONTINUOUS
 10
151.2249087591
 20
84.74789911
 11
151.2249087591
 21
107.9496479058
  0
LINE
  5
2A4
100
AcDbEntity
  8
0
100
AcDbLine
 62
7
  6
CONTINUOUS
 10
151.2249087591
 20
107.9496479058
 11
151.2249087591
 21
137.4976479058
  0
LINE
  5
2A5
100
AcDbEntity
  8
BEZUGSACHSEN
100
AcDbLine
 62
7
  6
CONTINUOUS
 10
152.0396396116
 20
235.8684334003
 11
151.9968533129
 21
235.0077171182
  0
LINE
  5
2A6
100
AcDbEntity
  8
BEZUGSACHSEN
100
AcDbLine
 62
7
  6
CONTINUOUS
 10
105.022910823
 20
217.7563423188
 11
101.0910390148
 21
221.2752693778
  0
LINE
  5
2A7
100
AcDbEntity
  8
BEZUGSACHSEN
100
AcDbLine
 62
7
  6
CONTINUOUS
 10
111.0774750318
 20
220.3463302448
 11
105.9704422996
 21
226.5041071709
  0
LINE
  5
2A8
100
AcDbEntity
  8
BEZUGSACHSEN
100
AcDbLine
 62
7
  6
CONTINUOUS
 10
111.0511670327
 20
221.6513234314
 11
107.2480574719
 21
226.2369020891
  0
LINE
  5
2A9
100
AcDbEntity
  8
BEZUGSACHSEN
100
AcDbLine
 62
7
  6
CONTINUOUS
 10
108.8191664293
 20
220.7219255488
 11
108.2753390363
 21
221.3904417431
  0
LINE
  5
2AA
100
AcDbEntity
  8
BEZUGSACHSEN
100
AcDbLine
 62
7
  6
CONTINUOUS
 10
126.9502821313
 20
232.6139581764
 11
127.2809724266
 21
231.8181532795
  0
LINE
  5
2AB
100
AcDbEntity
  8
BEZUGSACHSEN
100
AcDbLine
 62
7
  6
CONTINUOUS
 10
123.3631001951
 20
234.9467876395
 11
123.5553324928
 21
234.4737140302
  0
LINE
  5
2AC
100
AcDbEntity
  8
BEZUGSACHSEN
100
AcDbLine
 62
7
  6
CONTINUOUS
 10
124.116134886
 20
235.2527814341
 11
124.3724445564
 21
234.622016769
  0
LINE
  5
2AD
100
AcDbEntity
  8
BEZUGSACHSEN
100
AcDbLine
 62
7
  6
CONTINUOUS
 10
131.6893048633
 20
235.5041485532
 11
132.2862300736
 21
233.0217169352
  0
LINE
  5
2AE
100
AcDbEntity
  8
BEZUGSACHSEN
100
AcDbLine
 62
7
  6
CONTINUOUS
 10
145.4728140032
 20
238.3001726387
 11
145.5633593825
 21
237.6119049068
  0
LINE
  5
2AF
100
AcDbEntity
  8
BEZUGSACHSEN
100
AcDbLine
 62
7
  6
CONTINUOUS
 10
152.0122899625
 20
236.3960278738
 11
152.0396396116
 21
235.8684334003
  0
LINE
  5
2B0
100
AcDbEntity
  8
BEZUGSACHSEN
100
AcDbLine
 62
7
  6
CONTINUOUS
 10
103.5352109848
 20
210.7898368015
 11
96.8650002127
 21
215.2066555952
  0
LINE
  5
2B1
100
AcDbEntity
  8
BEZUGSACHSEN
100
AcDbLine
 62
7
  6
CONTINUOUS
 10
103.9839766223
 20
211.4675556596
 11
101.0036696393
 21
213.4410279146
  0
LINE
  5
2B2
100
AcDbEntity
  8
BEZUGSACHSEN
100
AcDbLine
 62
7
  6
CONTINUOUS
 10
100.152153472
 20
214.004877055
 11
98.0233626563
 21
215.4145001695
  0
LINE
  5
2B3
100
AcDbEntity
  8
BEZUGSACHSEN
100
AcDbLine
 62
7
  6
CONTINUOUS
 10
100.744735575
 20
217.6744794967
 11
101.1704940563
 21
217.3925546632
  0
LINE
  5
2B4
100
AcDbEntity
  8
BEZUGSACHSEN
100
AcDbLine
 62
7
  6
CONTINUOUS
 10
101.1935012125
 20
218.3521983548
 11
101.7611790549
 21
217.9762986646
  0
LINE
  5
2B5
100
AcDbEntity
  8
BEZUGSACHSEN
100
AcDbLine
 62
7
  6
CONTINUOUS
 10
105.5649824073
 20
218.3620257968
 11
101.6331105991
 21
221.8809528559
  0
LINE
  5
2B6
100
AcDbEntity
  8
BEZUGSACHSEN
100
AcDbLine
 62
7
  6
CONTINUOUS
 10
103.8013959023
 20
224.303685613
 11
107.7332677105
 21
220.7847585539
  0
LINE
  5
2B7
100
AcDbEntity
  8
BEZUGSACHSEN
100
AcDbLine
 62
7
  6
CONTINUOUS
 10
104.3434672281
 20
224.9093688022
 11
108.2753390363
 21
221.3904417431
  0
LINE
  5
2B8
100
AcDbEntity
  8
BEZUGSACHSEN
100
AcDbLine
 62
7
  6
CONTINUOUS
 10
111.2543768731
 20
227.3482416084
 11
112.8842808944
 21
225.382993704
  0
LINE
  5
2B9
100
AcDbEntity
  8
BEZUGSACHSEN
100
AcDbLine
 62
7
  6
CONTINUOUS
 10
111.8800304977
 20
227.8671356149
 11
113.5099345191
 21
225.9018877105
  0
LINE
  5
2BA
100
AcDbEntity
  8
BEZUGSACHSEN
100
AcDbLine
 62
7
  6
CONTINUOUS
 10
127.7405856529
 20
232.8039944668
 11
128.0314809379
 21
232.1736849956
  0
LINE
  5
2BB
100
AcDbEntity
  8
BEZUGSACHSEN
100
AcDbLine
 62
7
  6
CONTINUOUS
 10
131.0004563491
 20
237.7894120205
 11
131.3311497706
 21
236.9936073849
  0
LINE
  5
2BC
100
AcDbEntity
  8
BEZUGSACHSEN
100
AcDbLine
 62
7
  6
CONTINUOUS
 10
146.8934362654
 20
233.125228465
 11
147.018280884
 21
232.4031606931
  0
LINE
  5
2BD
100
AcDbEntity
  8
0
100
AcDbLine
 62
7
  6
CONTINUOUS
 10
168.8771532413
 20
122.7284100193
 11
168.8771532413
 21
107.9496479058
  0
LINE
  5
2BE
100
AcDbEntity
  8
BEZUGSACHSEN
100
AcDbLine
 62
7
  6
CONTINUOUS
 10
183.5688263239
 20
212.3668064415
 11
183.093112439
 21
211.1924112432
  0
LINE
  5
2BF
100
AcDbEntity
  8
BEZUGSACHSEN
100
AcDbLine
 62
7
  6
CONTINUOUS
 10
105.5649824073
 20
218.3620257968
 11
106.1626655126
 21
218.0089175671
  0
LINE
  5
2C0
100
AcDbEntity
  8
BEZUGSACHSEN
100
AcDbLine
 62
7
  6
CONTINUOUS
 10
105.022910823
 20
217.7563423188
 11
105.7474290026
 21
217.2897209059
  0
LINE
  5
2C1
100
AcDbEntity
  8
BEZUGSACHSEN
100
AcDbLine
 62
7
  6
CONTINUOUS
 10
110.715460635
 20
227.7858256628
 11
111.2543768731
 21
227.3482416084
  0
LINE
  5
2C2
100
AcDbEntity
  8
BEZUGSACHSEN
100
AcDbLine
 62
7
  6
CONTINUOUS
 10
111.2324536973
 20
228.435736551
 11
111.8800304977
 21
227.8671356149
  0
LINE
  5
2C3
100
AcDbEntity
  8
BEZUGSACHSEN
100
AcDbLine
 62
7
  6
CONTINUOUS
 10
125.6698859722
 20
229.2699087457
 11
123.320212796
 21
232.1734288557
  0
LINE
  5
2C4
100
AcDbEntity
  8
BEZUGSACHSEN
100
AcDbLine
 62
7
  6
CONTINUOUS
 10
123.0453613376
 20
235.3688614521
 11
123.3631001951
 21
234.9467876395
  0
LINE
  5
2C5
100
AcDbEntity
  8
BEZUGSACHSEN
100
AcDbLine
 62
7
  6
CONTINUOUS
 10
123.7983960284
 20
235.6748552468
 11
124.116134886
 21
235.2527814341
  0
LINE
  5
2C6
100
AcDbEntity
  8
BEZUGSACHSEN
100
AcDbLine
 62
7
  6
CONTINUOUS
 10
127.2809724266
 20
231.8181532795
 11
127.7035890127
 21
231.219517374
  0
LINE
  5
2C7
100
AcDbEntity
  8
BEZUGSACHSEN
100
AcDbLine
 62
7
  6
CONTINUOUS
 10
130.2897428481
 20
237.2683848787
 11
130.540846249
 21
236.8035710945
  0
LINE
  5
2C8
100
AcDbEntity
  8
BEZUGSACHSEN
100
AcDbLine
 62
7
  6
CONTINUOUS
 10
147.5289071806
 20
233.5132586406
 11
147.8487415909
 21
232.4022435721
  0
LINE
  5
2C9
100
AcDbEntity
  8
BEZUGSACHSEN
100
AcDbLine
 62
7
  6
CONTINUOUS
 10
151.8874422852
 20
237.1180961679
 11
152.0122899625
 21
236.3960278738
  0
LINE
  5
2CA
100
AcDbEntity
  8
BEZUGSACHSEN
100
AcDbLine
 62
7
  6
CONTINUOUS
 10
182.4781433364
 20
213.1628346055
 11
182.3058877622
 21
212.4692360549
  0
LINE
  5
2CB
100
AcDbEntity
  8
BEZUGSACHSEN
100
AcDbLine
 62
7
  6
CONTINUOUS
 10
180.9197953334
 20
209.8524554088
 11
181.7029937696
 21
210.0416389259
  0
LINE
  5
2CC
100
AcDbEntity
  8
BEZUGSACHSEN
100
AcDbLine
 62
7
  6
CONTINUOUS
 10
180.3499023063
 20
211.2632757664
 11
181.1331014932
 21
211.4524580659
  0
LINE
  5
2CD
100
AcDbEntity
  8
BEZUGSACHSEN
100
AcDbLine
 62
7
  6
CONTINUOUS
 10
102.2751722431
 20
215.361231292
 11
105.8538333738
 21
214.2913841273
  0
LINE
  5
2CE
100
AcDbEntity
  8
BEZUGSACHSEN
100
AcDbLine
 62
7
  6
CONTINUOUS
 10
100.2441832898
 20
217.8434510317
 11
100.744735575
 21
217.6744794967
  0
LINE
  5
2CF
100
AcDbEntity
  8
BEZUGSACHSEN
100
AcDbLine
 62
7
  6
CONTINUOUS
 10
105.7474290026
 20
217.2897209059
 11
106.4354578486
 21
217.0375602763
  0
LINE
  5
2D0
100
AcDbEntity
  8
BEZUGSACHSEN
100
AcDbLine
 62
7
  6
CONTINUOUS
 10
128.0314809379
 20
232.1736849956
 11
128.4143024859
 21
231.7405446318
  0
LINE
  5
2D1
100
AcDbEntity
  8
BEZUGSACHSEN
100
AcDbLine
 62
7
  6
CONTINUOUS
 10
123.9450927414
 20
232.794804762
 11
126.5484245298
 21
229.626900728
  0
LINE
  5
2D2
100
AcDbEntity
  8
BEZUGSACHSEN
100
AcDbLine
 62
7
  6
CONTINUOUS
 10
147.018280884
 20
232.4031606931
 11
147.3107625251
 21
231.8197403287
  0
LINE
  5
2D3
100
AcDbEntity
  8
BEZUGSACHSEN
100
AcDbLine
 62
7
  6
CONTINUOUS
 10
144.5153948989
 20
238.1924957609
 11
144.7522775171
 21
237.6651933265
  0
LINE
  5
2D4
100
AcDbEntity
  8
BEZUGSACHSEN
100
AcDbLine
 62
7
  6
CONTINUOUS
 10
151.0569815783
 20
237.119013289
 11
151.376818949
 21
236.0079972317
  0
LINE
  5
2D5
100
AcDbEntity
  8
BEZUGSACHSEN
100
AcDbLine
 62
7
  6
CONTINUOUS
 10
183.6960058227
 20
213.6200079968
 11
183.5688263239
 21
212.3668064415
  0
LINE
  5
2D6
100
AcDbEntity
  8
BEZUGSACHSEN
100
AcDbLine
 62
7
  6
CONTINUOUS
 10
106.1626655126
 20
218.0089175671
 11
106.723859971
 21
217.8702710665
  0
LINE
  5
2D7
100
AcDbEntity
  8
BEZUGSACHSEN
100
AcDbLine
 62
7
  6
CONTINUOUS
 10
102.4400992652
 20
216.2269000251
 11
106.3773934268
 21
215.0820563438
  0
LINE
  5
2D8
100
AcDbEntity
  8
BEZUGSACHSEN
100
AcDbLine
 62
7
  6
CONTINUOUS
 10
100.6929489273
 20
218.5211698898
 11
101.1935012125
 21
218.3521983548
  0
LINE
  5
2D9
100
AcDbEntity
  8
BEZUGSACHSEN
100
AcDbLine
 62
7
  6
CONTINUOUS
 10
110.5892610595
 20
228.7868376112
 11
111.2324536973
 21
228.435736551
  0
LINE
  5
2DA
100
AcDbEntity
  8
BEZUGSACHSEN
100
AcDbLine
 62
7
  6
CONTINUOUS
 10
151.5949606318
 20
237.701516474
 11
151.8874422852
 21
237.1180961679
  0
LINE
  5
2DB
100
AcDbEntity
  8
RUNDUNGEN
100
AcDbLine
 62
7
  6
CONTINUOUS
 10
185.9749087591
 20
150.3153826184
 11
185.9749087591
 21
94.8395586086
  0
LINE
  5
2DC
100
AcDbEntity
  8
BEZUGSACHSEN
100
AcDbLine
 62
7
  6
CONTINUOUS
 10
99.9008886637
 20
218.5582098877
 11
100.6929489273
 21
218.5211698898
  0
LINE
  5
2DD
100
AcDbEntity
  8
BEZUGSACHSEN
100
AcDbLine
 62
7
  6
CONTINUOUS
 10
106.4354578486
 20
217.0375602763
 11
107.3041766613
 21
216.9872936014
  0
LINE
  5
2DE
100
AcDbEntity
  8
BEZUGSACHSEN
100
AcDbLine
 62
7
  6
CONTINUOUS
 10
179.656856021
 20
209.9548862398
 11
180.9197953334
 21
209.8524554088
  0
LINE
  5
2DF
100
AcDbEntity
  8
BEZUGSACHSEN
100
AcDbLine
 62
7
  6
CONTINUOUS
 10
110.1809279507
 20
228.0059105753
 11
110.715460635
 21
227.7858256628
  0
LINE
  5
2E0
100
AcDbEntity
  8
BEZUGSACHSEN
100
AcDbLine
 62
7
  6
CONTINUOUS
 10
123.1655691921
 20
236.1526225728
 11
123.7983960284
 21
235.6748552468
  0
LINE
  5
2E1
100
AcDbEntity
  8
BEZUGSACHSEN
100
AcDbLine
 62
7
  6
CONTINUOUS
 10
127.7035890127
 20
231.219517374
 11
128.3896360724
 21
230.6842259901
  0
LINE
  5
2E2
100
AcDbEntity
  8
BEZUGSACHSEN
100
AcDbLine
 62
7
  6
CONTINUOUS
 10
147.8683730411
 20
231.1804943186
 11
147.3107625251
 21
231.8197403287
  0
LINE
  5
2E3
100
AcDbEntity
  8
BEZUGSACHSEN
100
AcDbLine
 62
7
  6
CONTINUOUS
 10
147.8487415909
 20
232.4022435721
 11
148.1762943014
 21
231.9853837647
  0
LINE
  5
2E4
100
AcDbEntity
  8
BEZUGSACHSEN
100
AcDbLine
 62
7
  6
CONTINUOUS
 10
144.9767307854
 20
239.0150843771
 11
145.4728140032
 21
238.3001726387
  0
LINE
  5
2E5
100
AcDbEntity
  8
RUNDUNGEN
100
AcDbLine
 62
7
  6
CONTINUOUS
 10
190.9274962911
 20
133.1525711578
 11
191.9749087591
 21
142.0271957944
  0
LINE
  5
2E6
100
AcDbEntity
  8
0
100
AcDbLine
 62
7
  6
CONTINUOUS
 10
191.9749087591
 20
142.0271957944
 11
199.9749087591
 21
174.1134432627
  0
LINE
  5
2E7
100
AcDbEntity
  8
BEZUGSACHSEN
100
AcDbLine
 62
7
  6
CONTINUOUS
 10
106.723859971
 20
217.8702710665
 11
107.2485648373
 21
217.9460850602
  0
LINE
  5
2E8
100
AcDbEntity
  8
BEZUGSACHSEN
100
AcDbLine
 62
7
  6
CONTINUOUS
 10
99.8107559502
 20
217.8054943514
 11
100.2441832898
 21
217.8434510317
  0
LINE
  5
2E9
100
AcDbEntity
  8
BEZUGSACHSEN
100
AcDbLine
 62
7
  6
CONTINUOUS
 10
109.737518009
 20
228.9649746624
 11
110.5892610595
 21
228.7868376112
  0
LINE
  5
2EA
100
AcDbEntity
  8
BEZUGSACHSEN
100
AcDbLine
 62
7
  6
CONTINUOUS
 10
179.6528312819
 20
211.4208921333
 11
180.3499023063
 21
211.2632757664
  0
LINE
  5
2EB
100
AcDbEntity
  8
BEZUGSACHSEN
100
AcDbLine
 62
7
  6
CONTINUOUS
 10
128.3896360724
 20
230.6842259901
 11
128.9960961228
 21
230.479926197
  0
LINE
  5
2EC
100
AcDbEntity
  8
BEZUGSACHSEN
100
AcDbLine
 62
7
  6
CONTINUOUS
 10
178.4800456218
 20
210.4041145196
 11
179.656856021
 21
209.9548862398
  0
LINE
  5
2ED
100
AcDbEntity
  8
BEZUGSACHSEN
100
AcDbLine
 62
7
  6
CONTINUOUS
 10
128.4143024859
 20
231.7405446318
 11
128.8890442952
 21
231.5045718096
  0
LINE
  5
2EE
100
AcDbEntity
  8
BEZUGSACHSEN
100
AcDbLine
 62
7
  6
CONTINUOUS
 10
122.666195986
 20
235.5822460213
 11
123.0453613376
 21
235.3688614521
  0
LINE
  5
2EF
100
AcDbEntity
  8
BEZUGSACHSEN
100
AcDbLine
 62
7
  6
CONTINUOUS
 10
162.8763505218
 20
220.0877857668
 11
161.248908843
 21
221.2502973174
  0
LINE
  5
2F0
100
AcDbEntity
  8
BEZUGSACHSEN
100
AcDbLine
 62
7
  6
CONTINUOUS
 10
130.3144062886
 20
238.3247026216
 11
131.0004563491
 21
237.7894120205
  0
LINE
  5
2F1
100
AcDbEntity
  8
BEZUGSACHSEN
100
AcDbLine
 62
7
  6
CONTINUOUS
 10
144.1321719477
 20
238.5588331011
 11
144.5153948989
 21
238.1924957609
  0
LINE
  5
2F2
100
AcDbEntity
  8
BEZUGSACHSEN
100
AcDbLine
 62
7
  6
CONTINUOUS
 10
168.3769131225
 20
215.0041054591
 11
167.3582169183
 21
216.1051313642
  0
LINE
  5
2F3
100
AcDbEntity
  8
BEZUGSACHSEN
100
AcDbLine
 62
7
  6
CONTINUOUS
 10
151.0373531408
 20
238.3407618015
 11
151.5949606318
 21
237.701516474
  0
LINE
  5
2F4
100
AcDbEntity
  8
BEZUGSACHSEN
100
AcDbLine
 62
7
  6
CONTINUOUS
 10
150.7294288678
 20
237.5358730963
 11
151.0569815783
 21
237.119013289
  0
LINE
  5
2F5
100
AcDbEntity
  8
BEZUGSACHSEN
100
AcDbLine
 62
7
  6
CONTINUOUS
 10
170.6810565031
 20
212.3507033898
 11
169.8938325771
 21
213.6275269838
  0
LINE
  5
2F6
100
AcDbEntity
  8
BEZUGSACHSEN
100
AcDbLine
 62
7
  6
CONTINUOUS
 10
175.245021755
 20
215.1646102292
 11
177.6066935332
 21
211.3341394472
  0
LINE
  5
2F7
100
AcDbEntity
  8
BEZUGSACHSEN
100
AcDbLine
 62
7
  6
CONTINUOUS
 10
182.301863023
 20
213.9352419484
 11
182.4781433364
 21
213.1628346055
  0
LINE
  5
2F8
100
AcDbEntity
  8
0
100
AcDbLine
 62
7
  6
CONTINUOUS
 10
199.9749087591
 20
174.1134432627
 11
199.9749087591
 21
209.2428296798
  0
LINE
  5
2F9
100
AcDbEntity
  8
RUNDUNGEN
100
AcDbLine
 62
7
  6
CONTINUOUS
 10
190.9274962911
 20
133.1525711578
 11
186.6447817402
 21
125.7346919613
  0
LINE
  5
2FA
100
AcDbEntity
  8
BEZUGSACHSEN
100
AcDbLine
 62
7
  6
CONTINUOUS
 10
99.1759535598
 20
218.3883219936
 11
99.9008886637
 21
218.5582098877
  0
LINE
  5
2FB
100
AcDbEntity
  8
BEZUGSACHSEN
100
AcDbLine
 62
7
  6
CONTINUOUS
 10
109.6507806225
 20
228.0084966015
 11
110.1809279507
 21
228.0059105753
  0
LINE
  5
2FC
100
AcDbEntity
  8
BEZUGSACHSEN
100
AcDbLine
 62
7
  6
CONTINUOUS
 10
129.6944763997
 20
230.4727940904
 11
128.9960961228
 21
230.479926197
  0
LINE
  5
2FD
100
AcDbEntity
  8
BEZUGSACHSEN
100
AcDbLine
 62
7
  6
CONTINUOUS
 10
128.8890442952
 20
231.5045718096
 11
129.4557063101
 21
231.4657667608
  0
LINE
  5
2FE
100
AcDbEntity
  8
BEZUGSACHSEN
100
AcDbLine
 62
7
  6
CONTINUOUS
 10
122.4713129892
 20
236.4216994881
 11
123.1655691921
 21
236.1526225728
  0
LINE
  5
2FF
100
AcDbEntity
  8
BEZUGSACHSEN
100
AcDbLine
 62
7
  6
CONTINUOUS
 10
148.6286946647
 20
230.8464555466
 11
147.8683730411
 21
231.1804943186
  0
LINE
  5
300
100
AcDbEntity
  8
BEZUGSACHSEN
100
AcDbLine
 62
7
  6
CONTINUOUS
 10
148.1762943014
 20
231.9853837647
 11
148.8040499751
 21
231.6792581569
  0
LINE
  5
301
100
AcDbEntity
  8
BEZUGSACHSEN
100
AcDbLine
 62
7
  6
CONTINUOUS
 10
129.8150010666
 20
237.504357585
 11
130.2897428481
 21
237.2683848787
  0
LINE
  5
302
100
AcDbEntity
  8
BEZUGSACHSEN
100
AcDbLine
 62
7
  6
CONTINUOUS
 10
144.458326492
 20
239.3903031883
 11
144.9767307854
 21
239.0150843771
  0
LINE
  5
303
100
AcDbEntity
  8
BEZUGSACHSEN
100
AcDbLine
 62
7
  6
CONTINUOUS
 10
179.0418876692
 20
211.9253083844
 11
179.6528312819
 21
211.4208921333
  0
LINE
  5
304
100
AcDbEntity
  8
BEZUGSACHSEN
100
AcDbLine
 62
7
  6
CONTINUOUS
 10
177.6066935332
 20
211.3341394472
 11
178.4800456218
 21
210.4041145196
  0
LINE
  5
305
100
AcDbEntity
  8
BEZUGSACHSEN
100
AcDbLine
 62
7
  6
CONTINUOUS
 10
176.549011653
 20
215.9685835047
 11
179.0418876692
 21
211.9253083844
  0
LINE
  5
306
100
AcDbEntity
  8
BEZUGSACHSEN
100
AcDbLine
 62
7
  6
CONTINUOUS
 10
179.8089870069
 20
217.9785170687
 11
182.301863023
 21
213.9352419484
  0
LINE
  5
307
100
AcDbEntity
  8
BEZUGSACHSEN
100
AcDbLine
 62
7
  6
CONTINUOUS
 10
180.1084213292
 20
219.9253183923
 11
183.2573170335
 21
214.8180240162
  0
LINE
  5
308
100
AcDbEntity
  8
BEZUGSACHSEN
100
AcDbLine
 62
7
  6
CONTINUOUS
 10
183.2573170335
 20
214.8180240162
 11
183.6960058227
 21
213.6200079968
  0
LINE
  5
309
100
AcDbEntity
  8
BEZUGSACHSEN
100
AcDbLine
 62
7
  6
CONTINUOUS
 10
130.8799316822
 20
230.757848526
 11
129.6944763997
 21
230.4727940904
  0
LINE
  5
30A
100
AcDbEntity
  8
BEZUGSACHSEN
100
AcDbLine
 62
7
  6
CONTINUOUS
 10
129.4557063101
 20
231.4657667608
 11
130.6411615926
 21
231.7508211964
  0
LINE
  5
30B
100
AcDbEntity
  8
BEZUGSACHSEN
100
AcDbLine
 62
7
  6
CONTINUOUS
 10
129.952316121
 20
234.0360852728
 11
131.1377714035
 21
234.3211397083
  0
LINE
  5
30C
100
AcDbEntity
  8
BEZUGSACHSEN
100
AcDbLine
 62
7
  6
CONTINUOUS
 10
129.7135460592
 20
235.0290578272
 11
131.6893048633
 21
235.5041485532
  0
LINE
  5
30D
100
AcDbEntity
  8
BEZUGSACHSEN
100
AcDbLine
 62
7
  6
CONTINUOUS
 10
130.540846249
 20
236.8035710945
 11
131.3311497706
 21
236.9936073849
  0
LINE
  5
30E
100
AcDbEntity
  8
BEZUGSACHSEN
100
AcDbLine
 62
7
  6
CONTINUOUS
 10
142.2396455325
 20
238.6831728824
 11
142.9267081404
 21
238.8086122957
  0
LINE
  5
30F
100
AcDbEntity
  8
BEZUGSACHSEN
100
AcDbLine
 62
7
  6
CONTINUOUS
 10
109.1030954745
 20
228.8810786841
 11
109.737518009
 21
228.9649746624
  0
LINE
  5
310
100
AcDbEntity
  8
BEZUGSACHSEN
100
AcDbLine
 62
7
  6
CONTINUOUS
 10
148.8040499751
 20
231.6792581569
 11
149.5019416948
 21
231.7062548243
  0
LINE
  5
311
100
AcDbEntity
  8
BEZUGSACHSEN
100
AcDbLine
 62
7
  6
CONTINUOUS
 10
149.4037814743
 20
237.8150020367
 11
150.1016792624
 21
237.8419974264
  0
LINE
  5
312
100
AcDbEntity
  8
BEZUGSACHSEN
100
AcDbLine
 62
7
  6
CONTINUOUS
 10
149.4591553747
 20
230.8455384401
 11
148.6286946647
 21
230.8464555466
  0
LINE
  5
313
100
AcDbEntity
  8
BEZUGSACHSEN
100
AcDbLine
 62
7
  6
CONTINUOUS
 10
122.2256012679
 20
235.5869401798
 11
122.666195986
 21
235.5822460213
  0
LINE
  5
314
100
AcDbEntity
  8
BEZUGSACHSEN
100
AcDbLine
 62
7
  6
CONTINUOUS
 10
145.1616356527
 20
231.4974276078
 11
140.2951444604
 21
231.8171581255
  0
LINE
  5
315
100
AcDbEntity
  8
BEZUGSACHSEN
100
AcDbLine
 62
7
  6
CONTINUOUS
 10
141.4323808779
 20
232.5953399121
 11
145.2174306143
 21
232.3466605527
  0
LINE
  5
316
100
AcDbEntity
  8
BEZUGSACHSEN
100
AcDbLine
 62
7
  6
CONTINUOUS
 10
129.248336037
 20
237.5431619088
 11
129.8150010666
 21
237.504357585
  0
LINE
  5
317
100
AcDbEntity
  8
BEZUGSACHSEN
100
AcDbLine
 62
7
  6
CONTINUOUS
 10
143.4674273213
 20
238.7730868182
 11
144.1321719477
 21
238.5588331011
  0
LINE
  5
318
100
AcDbEntity
  8
BEZUGSACHSEN
100
AcDbLine
 62
7
  6
CONTINUOUS
 10
152.9431407151
 20
232.7395684822
 11
154.7460077248
 21
232.1506821104
  0
LINE
  5
319
100
AcDbEntity
  8
BEZUGSACHSEN
100
AcDbLine
 62
7
  6
CONTINUOUS
 10
153.2073915989
 20
233.548568696
 11
155.0102586086
 21
232.9596823242
  0
LINE
  5
31A
100
AcDbEntity
  8
BEZUGSACHSEN
100
AcDbLine
 62
7
  6
CONTINUOUS
 10
129.7079492634
 20
238.5290030961
 11
130.3144062886
 21
238.3247026216
  0
LINE
  5
31B
100
AcDbEntity
  8
BEZUGSACHSEN
100
AcDbLine
 62
7
  6
CONTINUOUS
 10
150.2770345482
 20
238.67479992
 11
151.0373531408
 21
238.3407618015
  0
LINE
  5
31C
100
AcDbEntity
  8
BEZUGSACHSEN
100
AcDbLine
 62
7
  6
CONTINUOUS
 10
150.1016792624
 20
237.8419974264
 11
150.7294288678
 21
237.5358730963
  0
LINE
  5
31D
100
AcDbEntity
  8
BEZUGSACHSEN
100
AcDbLine
 62
7
  6
CONTINUOUS
 10
164.9690949137
 20
233.3399712813
 11
166.1896762456
 21
232.4680875664
  0
LINE
  5
31E
100
AcDbEntity
  8
BEZUGSACHSEN
100
AcDbLine
 62
7
  6
CONTINUOUS
 10
171.8857222669
 20
228.3992970354
 11
173.1063035987
 21
227.5274133205
  0
LINE
  5
31F
100
AcDbEntity
  8
BEZUGSACHSEN
100
AcDbLine
 62
7
  6
CONTINUOUS
 10
176.1664241587
 20
224.2547009976
 11
177.1851203629
 21
223.1536750926
  0
LINE
  5
320
100
AcDbEntity
  8
BEZUGSACHSEN
100
AcDbLine
 62
7
  6
CONTINUOUS
 10
128.0628807545
 20
237.2581074732
 11
129.248336037
 21
237.5431619088
  0
LINE
  5
321
100
AcDbEntity
  8
BEZUGSACHSEN
100
AcDbLine
 62
7
  6
CONTINUOUS
 10
127.8241106927
 20
238.2510800277
 11
129.0095659752
 21
238.5361344633
  0
LINE
  5
322
100
AcDbEntity
  8
BEZUGSACHSEN
100
AcDbLine
 62
7
  6
CONTINUOUS
 10
121.7797076649
 20
236.3243961042
 11
122.4713129892
 21
236.4216994881
  0
LINE
  5
323
100
AcDbEntity
  8
BEZUGSACHSEN
100
AcDbLine
 62
7
  6
CONTINUOUS
 10
142.1602622381
 20
239.5412869762
 11
143.1176813424
 21
239.648963854
  0
LINE
  5
324
100
AcDbEntity
  8
BEZUGSACHSEN
100
AcDbLine
 62
7
  6
CONTINUOUS
 10
149.4465708072
 20
238.67571768
 11
150.2770345482
 21
238.67479992
  0
LINE
  5
325
100
AcDbEntity
  8
BEZUGSACHSEN
100
AcDbLine
 62
7
  6
CONTINUOUS
 10
129.0095659752
 20
238.5361344633
 11
129.7079492634
 21
238.5290030961
  0
LINE
  5
326
100
AcDbEntity
  8
BEZUGSACHSEN
100
AcDbLine
 62
7
  6
CONTINUOUS
 10
140.8320495324
 20
237.9227539535
 11
141.5079500556
 21
237.878347005
  0
LINE
  5
327
100
AcDbEntity
  8
BEZUGSACHSEN
100
AcDbLine
 62
7
  6
CONTINUOUS
 10
142.9267081404
 20
238.8086122957
 11
143.4674273213
 21
238.7730868182
  0
LINE
  5
328
100
AcDbEntity
  8
BEZUGSACHSEN
100
AcDbLine
 62
7
  6
CONTINUOUS
 10
143.1176813424
 20
239.648963854
 11
143.6584036173
 21
239.6134381732
  0
LINE
  5
329
100
AcDbEntity
  8
BEZUGSACHSEN
100
AcDbLine
 62
7
  6
CONTINUOUS
 10
143.6584036173
 20
239.6134381732
 11
144.458326492
 21
239.3903031883
  0
LINE
  5
32A
100
AcDbEntity
  8
0
100
AcDbLine
 62
7
  6
CONTINUOUS
 10
199.9749087591
 20
209.2428296798
 11
177.0569480841
 21
240.7866964069
  0
LINE
  5
32B
100
AcDbEntity
  8
BEZUGSACHSEN
100
AcDbLine
 62
7
  6
CONTINUOUS
 10
175.9658239087
 20
81.8192850767
 11
185.2730420885
 21
92.9111957795
  0
LINE
  5
32C
100
AcDbEntity
  8
0
100
AcDbLine
 62
7
  6
CONTINUOUS
 10
177.0569480841
 20
240.7866964069
 11
139.9749087591
 21
252.8353813601
  0
LINE
  5
32D
100
AcDbEntity
  8
BEZUGSACHSEN
100
AcDbLine
 62
7
  6
CONTINUOUS
 10
248.0675763866
 20
94.5596814957
 11
244.6648615353
 21
100.0356327543
  0
LINE
  5
32E
100
AcDbEntity
  8
BEZUGSACHSEN
100
AcDbLine
 62
7
  6
CONTINUOUS
 10
259.7087593346
 20
232.5064944684
 11
267.5122878846
 21
252.8353813601
  0
LINE
  5
32F
100
AcDbEntity
  8
BEZUGSACHSEN
100
AcDbLine
 62
7
  6
CONTINUOUS
 10
277.9117244526
 20
133.1525711578
 11
267.9117244526
 21
133.1525711578
  0
LINE
  5
330
100
AcDbEntity
  8
BEZUGSACHSEN
100
AcDbLine
 62
7
  6
CONTINUOUS
 10
243.9117244526
 20
102.6746013714
 11
243.9117244526
 21
122.7284100193
  0
LINE
  5
331
100
AcDbEntity
  8
BEZUGSACHSEN
100
AcDbLine
 62
7
  6
CONTINUOUS
 10
267.0947461318
 20
142.0271957944
 11
278.7287027733
 21
142.0271957944
  0
LINE
  5
332
100
AcDbEntity
  8
BEZUGSACHSEN
100
AcDbLine
 62
7
  6
CONTINUOUS
 10
251.9117244526
 20
156.1511712316
 11
251.9117244526
 21
144.6232922528
  0
LINE
  5
333
100
AcDbEntity
  8
BEZUGSACHSEN
100
AcDbLine
 62
7
  6
CONTINUOUS
 10
258.9117244526
 20
228.2060790739
 11
258.9117244526
 21
164.9391840373
  0
LWPOLYLINE
  5
334
100
AcDbEntity
  8
BEZUGSACHSEN
100
AcDbPolyline
 62
7
  6
CONTINUOUS
 90
3
 70
0
 10
258.9029676079
 20
165.3056713397
 10
258.8733709356
 20
164.9939617419
 10
258.8457609405
 20
164.8084378326
  0
LINE
  5
335
100
AcDbEntity
  8
BEZUGSACHSEN
100
AcDbLine
 62
7
  6
CONTINUOUS
 10
258.890712182
 20
165.1765982523
 11
258.8687074821
 21
164.9590327006
  0
LINE
  5
336
100
AcDbEntity
  8
BEZUGSACHSEN
100
AcDbLine
 62
7
  6
CONTINUOUS
 10
258.8687074821
 20
164.9590327006
 11
258.8445339215
 21
164.8013881303
  0
LINE
  5
337
100
AcDbEntity
  8
BEZUGSACHSEN
100
AcDbLine
 62
7
  6
CONTINUOUS
 10
258.8432185716
 20
164.7936620972
 11
258.8457415886
 21
164.8084411095
  0
LWPOLYLINE
  5
338
100
AcDbEntity
  8
BEZUGSACHSEN
100
AcDbPolyline
 62
7
  6
CONTINUOUS
 90
8
 70
0
 10
258.8432185716
 20
164.7936620972
 10
258.7860032545
 20
164.5122683772
 10
258.6596496615
 20
164.0693091919
 10
258.4802350151
 20
163.6138634247
 10
258.2444043371
 20
163.1579806991
 10
257.9491230355
 20
162.7109857747
 10
257.5919781501
 20
162.2821273938
 10
257.1777574442
 20
161.8866668248
  0
LWPOLYLINE
  5
339
100
AcDbEntity
  8
BEZUGSACHSEN
100
AcDbPolyline
 62
7
  6
CONTINUOUS
 90
7
 70
0
 10
258.7953160265
 20
164.5526950164
 10
258.6726940159
 20
164.108471681
 10
258.4964619533
 20
163.6500149454
 10
258.2626339692
 20
163.1893247269
 10
257.9678315848
 20
162.7363228403
 10
257.6090948309
 20
162.3005068154
 10
257.1917882061
 20
161.8985840395
  0
LINE
  5
33A
100
AcDbEntity
  8
BEZUGSACHSEN
100
AcDbLine
 62
7
  6
CONTINUOUS
 10
267.2980999231
 20
137.8691387491
 11
267.0947461318
 21
142.0271957944
  0
LINE
  5
33B
100
AcDbEntity
  8
BEZUGSACHSEN
100
AcDbLine
 62
7
  6
CONTINUOUS
 10
267.0947461318
 20
174.1134432627
 11
267.0947461318
 21
142.0271957944
  0
LINE
  5
33C
100
AcDbEntity
  8
BEZUGSACHSEN
100
AcDbLine
 62
7
  6
CONTINUOUS
 10
257.1917882061
 20
161.8985840395
 11
256.7122205915
 21
161.5358956947
  0
LINE
  5
33D
100
AcDbEntity
  8
BEZUGSACHSEN
100
AcDbLine
 62
7
  6
CONTINUOUS
 10
267.9117244526
 20
133.1525711578
 11
267.505121024
 21
135.8153863927
  0
LINE
  5
33E
100
AcDbEntity
  8
BEZUGSACHSEN
100
AcDbLine
 62
7
  6
CONTINUOUS
 10
267.0321063391
 20
174.7879677352
 11
267.0947461318
 21
174.1134432627
  0
LINE
  5
33F
100
AcDbEntity
  8
BEZUGSACHSEN
100
AcDbLine
 62
7
  6
CONTINUOUS
 10
267.9117244526
 20
133.1525711578
 11
267.9117244526
 21
130.5469323397
  0
LINE
  5
340
100
AcDbEntity
  8
BEZUGSACHSEN
100
AcDbLine
 62
7
  6
CONTINUOUS
 10
245.9213433958
 20
130.2284100193
 11
255.4589714393
 21
146.7480663743
  0
LINE
  5
341
100
AcDbEntity
  8
BEZUGSACHSEN
100
AcDbLine
 62
7
  6
CONTINUOUS
 10
256.7227983736
 20
161.5429039269
 11
256.2085302019
 21
161.2419589277
  0
LINE
  5
342
100
AcDbEntity
  8
BEZUGSACHSEN
100
AcDbLine
 62
7
  6
CONTINUOUS
 10
256.2153699797
 20
161.2453938836
 11
255.6887781202
 21
161.0145374601
  0
LINE
  5
343
100
AcDbEntity
  8
BEZUGSACHSEN
100
AcDbLine
 62
7
  6
CONTINUOUS
 10
255.6887781202
 20
161.0145374601
 11
255.4314698423
 21
160.9269984869
  0
LINE
  5
344
100
AcDbEntity
  8
RUNDUNGEN
100
AcDbLine
 62
7
  6
CONTINUOUS
 10
290.392033001
 20
160.9270153074
 11
290.1573317387
 21
161.0061923752
  0
LINE
  5
345
100
AcDbEntity
  8
RUNDUNGEN
100
AcDbLine
 62
7
  6
CONTINUOUS
 10
277.9117244526
 20
133.1525711578
 11
277.9117244526
 21
130.5469323397
  0
LINE
  5
346
100
AcDbEntity
  8
0
100
AcDbLine
 62
7
  6
CONTINUOUS
 10
278.7287027733
 20
174.1134432627
 11
278.7287027733
 21
142.0271957944
  0
LINE
  5
347
100
AcDbEntity
  8
0
100
AcDbLine
 62
7
  6
CONTINUOUS
 10
278.791342566
 20
174.7879677352
 11
278.7287027733
 21
174.1134432627
  0
LINE
  5
348
100
AcDbEntity
  8
RUNDUNGEN
100
AcDbLine
 62
7
  6
CONTINUOUS
 10
290.1573317387
 20
161.0061923752
 11
289.6275738579
 21
161.2355192016
  0
LINE
  5
349
100
AcDbEntity
  8
RUNDUNGEN
100
AcDbLine
 62
7
  6
CONTINUOUS
 10
289.6344477222
 20
161.2321046841
 11
289.1170543434
 21
161.5319786414
  0
LWPOLYLINE
  5
34A
100
AcDbEntity
  8
RUNDUNGEN
100
AcDbPolyline
 62
7
  6
CONTINUOUS
 90
8
 70
0
 10
289.1277222148
 20
161.5249712528
 10
288.6450130566
 20
161.8871903109
 10
288.2246955148
 20
162.2893445448
 10
287.8631703908
 20
162.7260270298
 10
287.5658957839
 20
163.1805159774
 10
287.3300654401
 20
163.6430822747
 10
287.1523536752
 20
164.1036026138
 10
287.0287810667
 20
164.5498241935
  0
LINE
  5
34B
100
AcDbEntity
  8
RUNDUNGEN
100
AcDbLine
 62
7
  6
CONTINUOUS
 10
299.9021055093
 20
130.2284100193
 11
290.3644774658
 21
146.7480663743
  0
LINE
  5
34C
100
AcDbEntity
  8
RUNDUNGEN
100
AcDbLine
 62
7
  6
CONTINUOUS
 10
278.525348982
 20
137.8691387491
 11
278.7287027733
 21
142.0271957944
  0
LINE
  5
34D
100
AcDbEntity
  8
RUNDUNGEN
100
AcDbLine
 62
7
  6
CONTINUOUS
 10
277.9117244526
 20
133.1525711578
 11
278.3183278811
 21
135.8153863927
  0
LINE
  5
34E
100
AcDbEntity
  8
BEZUGSACHSEN
100
AcDbLine
 62
7
  6
CONTINUOUS
 10
267.0947461318
 20
174.1134432627
 11
278.7287027733
 21
174.1134432627
  0
LWPOLYLINE
  5
34F
100
AcDbEntity
  8
RUNDUNGEN
100
AcDbPolyline
 62
7
  6
CONTINUOUS
 90
7
 70
0
 10
288.6591786775
 20
161.8752444897
 10
288.2419462985
 20
162.2709349995
 10
287.8819976839
 20
162.7006668286
 10
287.5842272145
 20
163.1491464836
 10
287.3463720476
 20
163.6069036188
 10
287.1654524606
 20
164.0644147803
 10
287.0381244627
 20
164.5093780232
  0
LINE
  5
350
100
AcDbEntity
  8
RUNDUNGEN
100
AcDbLine
 62
7
  6
CONTINUOUS
 10
286.9566602539
 20
164.9450907586
 11
286.9342059428
 21
165.1596762043
  0
LINE
  5
351
100
AcDbEntity
  8
BEZUGSACHSEN
100
AcDbLine
 62
7
  6
CONTINUOUS
 10
286.9117244526
 20
227.6889404175
 11
286.9117244526
 21
223.8378057697
  0
LINE
  5
352
100
AcDbEntity
  8
BEZUGSACHSEN
100
AcDbLine
 62
7
  6
CONTINUOUS
 10
286.9117244526
 20
220.3463302448
 11
286.9117244526
 21
219.3570358078
  0
LINE
  5
353
100
AcDbEntity
  8
BEZUGSACHSEN
100
AcDbLine
 62
7
  6
CONTINUOUS
 10
286.9117244526
 20
216.9872936014
 11
286.9117244526
 21
215.2310550668
  0
LINE
  5
354
100
AcDbEntity
  8
BEZUGSACHSEN
100
AcDbLine
 62
7
  6
CONTINUOUS
 10
286.9117244526
 20
214.2913841273
 11
286.9117244526
 21
211.7292577587
  0
LINE
  5
355
100
AcDbEntity
  8
BEZUGSACHSEN
100
AcDbLine
 62
7
  6
CONTINUOUS
 10
286.9117244526
 20
210.7898368015
 11
286.9117244526
 21
180.4437113358
  0
LINE
  5
356
100
AcDbEntity
  8
RUNDUNGEN
100
AcDbLine
 62
7
  6
CONTINUOUS
 10
286.9117244526
 20
180.44371128
 11
286.9117244526
 21
164.9391840373
  0
LINE
  5
357
100
AcDbEntity
  8
RUNDUNGEN
100
AcDbLine
 62
7
  6
CONTINUOUS
 10
287.0381244627
 20
164.5093780232
 11
286.9799605462
 21
164.7952830588
  0
LINE
  5
358
100
AcDbEntity
  8
RUNDUNGEN
100
AcDbLine
 62
7
  6
CONTINUOUS
 10
286.9799607357
 20
164.7952830924
 11
286.9777054152
 21
164.8084523495
  0
LINE
  5
359
100
AcDbEntity
  8
RUNDUNGEN
100
AcDbLine
 62
7
  6
CONTINUOUS
 10
286.9789109738
 20
164.801411628
 11
286.9566602539
 21
164.9450907586
  0
LWPOLYLINE
  5
35A
100
AcDbEntity
  8
RUNDUNGEN
100
AcDbPolyline
 62
7
  6
CONTINUOUS
 90
3
 70
0
 10
286.9776860633
 20
164.8084490726
 10
286.951887739
 20
164.9800509065
 10
286.9216540961
 20
165.2871875257
  0
LINE
  5
35B
100
AcDbEntity
  8
RUNDUNGEN
100
AcDbLine
 62
7
  6
CONTINUOUS
 10
293.9117244526
 20
144.6232922528
 11
293.9117244526
 21
156.1511712316
  0
LINE
  5
35C
100
AcDbEntity
  8
RUNDUNGEN
100
AcDbLine
 62
7
  6
CONTINUOUS
 10
301.9117244526
 20
102.6746013714
 11
301.9117244526
 21
122.7284100193
  0
LINE
  5
35D
100
AcDbEntity
  8
0
100
AcDbLine
 62
7
  6
CONTINUOUS
 10
278.3111610205
 20
252.8353813601
 11
283.8001276323
 21
238.5361344633
  0
LINE
  5
35E
100
AcDbEntity
  8
BEZUGSACHSEN
100
AcDbLine
 62
7
  6
CONTINUOUS
 10
267.5122878846
 20
209.2428296798
 11
278.3111610205
 21
209.2428296798
  0
LINE
  5
35F
100
AcDbEntity
  8
BEZUGSACHSEN
100
AcDbLine
 62
7
  6
CONTINUOUS
 10
286.3525697019
 20
210.7898368015
 11
287.0719775697
 21
210.7898368015
  0
LINE
  5
360
100
AcDbEntity
  8
BEZUGSACHSEN
100
AcDbLine
 62
7
  6
CONTINUOUS
 10
286.9071818953
 20
212.3507033898
 11
287.9055665696
 21
212.3507033898
  0
LINE
  5
361
100
AcDbEntity
  8
BEZUGSACHSEN
100
AcDbLine
 62
7
  6
CONTINUOUS
 10
286.9104040615
 20
213.6275269838
 11
287.9008567913
 21
213.6275269838
  0
LINE
  5
362
100
AcDbEntity
  8
BEZUGSACHSEN
100
AcDbLine
 62
7
  6
CONTINUOUS
 10
286.3674451973
 20
214.2913841273
 11
287.1169932232
 21
214.2913841273
  0
LINE
  5
363
100
AcDbEntity
  8
BEZUGSACHSEN
100
AcDbLine
 62
7
  6
CONTINUOUS
 10
287.1046294788
 20
215.0041054591
 11
287.9099977216
 21
215.0041054591
  0
LINE
  5
364
100
AcDbEntity
  8
BEZUGSACHSEN
100
AcDbLine
 62
7
  6
CONTINUOUS
 10
283.3096559254
 20
215.2066555952
 11
284.0089712287
 21
215.2066555952
  0
LINE
  5
365
100
AcDbEntity
  8
BEZUGSACHSEN
100
AcDbLine
 62
7
  6
CONTINUOUS
 10
286.9032452661
 20
216.1051313642
 11
287.9103846915
 21
216.1051313642
  0
LINE
  5
366
100
AcDbEntity
  8
BEZUGSACHSEN
100
AcDbLine
 62
7
  6
CONTINUOUS
 10
284.6391211573
 20
216.1509866646
 11
285.356849705
 21
216.1509866646
  0
LINE
  5
367
100
AcDbEntity
  8
BEZUGSACHSEN
100
AcDbLine
 62
7
  6
CONTINUOUS
 10
284.5704039038
 20
216.5838209504
 11
285.2904059012
 21
216.5838209504
  0
LINE
  5
368
100
AcDbEntity
  8
BEZUGSACHSEN
100
AcDbLine
 62
7
  6
CONTINUOUS
 10
286.1974376308
 20
216.9872936014
 11
286.9411388384
 21
216.9872936014
  0
LINE
  5
369
100
AcDbEntity
  8
BEZUGSACHSEN
100
AcDbLine
 62
7
  6
CONTINUOUS
 10
284.4367810561
 20
216.9976770577
 11
285.1582507872
 21
216.9976770577
  0
LINE
  5
36A
100
AcDbEntity
  8
BEZUGSACHSEN
100
AcDbLine
 62
7
  6
CONTINUOUS
 10
285.9302740028
 20
217.0375602763
 11
286.6685358681
 21
217.0375602763
  0
LINE
  5
36B
100
AcDbEntity
  8
BEZUGSACHSEN
100
AcDbLine
 62
7
  6
CONTINUOUS
 10
285.6640718633
 20
217.2897209059
 11
286.4010099573
 21
217.2897209059
  0
LINE
  5
36C
100
AcDbEntity
  8
BEZUGSACHSEN
100
AcDbLine
 62
7
  6
CONTINUOUS
 10
284.3767746575
 20
217.3925546632
 11
284.9613045951
 21
217.3925546632
  0
LINE
  5
36D
100
AcDbEntity
  8
BEZUGSACHSEN
100
AcDbLine
 62
7
  6
CONTINUOUS
 10
284.4068241512
 20
217.6744794967
 11
284.7653270843
 21
217.6744794967
  0
LINE
  5
36E
100
AcDbEntity
  8
BEZUGSACHSEN
100
AcDbLine
 62
7
  6
CONTINUOUS
 10
285.3350669975
 20
217.7563423188
 11
286.0715347858
 21
217.7563423188
  0
LINE
  5
36F
100
AcDbEntity
  8
BEZUGSACHSEN
100
AcDbLine
 62
7
  6
CONTINUOUS
 10
283.3333100495
 20
217.9175310276
 11
284.0501430264
 21
217.9175310276
  0
LINE
  5
370
100
AcDbEntity
  8
BEZUGSACHSEN
100
AcDbLine
 62
7
  6
CONTINUOUS
 10
286.4447526786
 20
217.9460850602
 11
286.6908681761
 21
217.9460850602
  0
LINE
  5
371
100
AcDbEntity
  8
BEZUGSACHSEN
100
AcDbLine
 62
7
  6
CONTINUOUS
 10
286.184020257
 20
218.2363597072
 11
286.7618326503
 21
218.2363597072
  0
LINE
  5
372
100
AcDbEntity
  8
BEZUGSACHSEN
100
AcDbLine
 62
7
  6
CONTINUOUS
 10
283.3933420841
 20
218.3883219936
 11
284.1137534405
 21
218.3883219936
  0
LINE
  5
373
100
AcDbEntity
  8
BEZUGSACHSEN
100
AcDbLine
 62
7
  6
CONTINUOUS
 10
283.5824319453
 20
218.5582098877
 11
284.3057596663
 21
218.5582098877
  0
LINE
  5
374
100
AcDbEntity
  8
BEZUGSACHSEN
100
AcDbLine
 62
7
  6
CONTINUOUS
 10
286.0136246157
 20
218.6401486926
 11
286.7648431477
 21
218.6401486926
  0
LINE
  5
375
100
AcDbEntity
  8
BEZUGSACHSEN
100
AcDbLine
 62
7
  6
CONTINUOUS
 10
285.9456778732
 20
219.1574514387
 11
286.6998621641
 21
219.1574514387
  0
LINE
  5
376
100
AcDbEntity
  8
BEZUGSACHSEN
100
AcDbLine
 62
7
  6
CONTINUOUS
 10
285.8113834655
 20
219.6873206343
 11
286.5677299667
 21
219.6873206343
  0
LINE
  5
377
100
AcDbEntity
  8
BEZUGSACHSEN
100
AcDbLine
 62
7
  6
CONTINUOUS
 10
286.9034603439
 20
220.0877857668
 11
287.9113299339
 21
220.0877857668
  0
LINE
  5
378
100
AcDbEntity
  8
BEZUGSACHSEN
100
AcDbLine
 62
7
  6
CONTINUOUS
 10
285.6122461547
 20
220.2297561203
 11
286.3699642157
 21
220.2297561203
  0
LINE
  5
379
100
AcDbEntity
  8
BEZUGSACHSEN
100
AcDbLine
 62
7
  6
CONTINUOUS
 10
286.5778273422
 20
220.3463302448
 11
287.141207776
 21
220.3463302448
  0
LINE
  5
37A
100
AcDbEntity
  8
BEZUGSACHSEN
100
AcDbLine
 62
7
  6
CONTINUOUS
 10
285.3492287477
 20
220.7847585539
 11
286.1075520282
 21
220.7847585539
  0
LINE
  5
37B
100
AcDbEntity
  8
BEZUGSACHSEN
100
AcDbLine
 62
7
  6
CONTINUOUS
 10
287.1730587803
 20
221.2502973174
 11
287.9115107017
 21
221.2502973174
  0
LINE
  5
37C
100
AcDbEntity
  8
BEZUGSACHSEN
100
AcDbLine
 62
7
  6
CONTINUOUS
 10
283.3122592658
 20
221.2752693778
 11
284.0503477303
 21
221.2752693778
  0
LINE
  5
37D
100
AcDbEntity
  8
BEZUGSACHSEN
100
AcDbLine
 62
7
  6
CONTINUOUS
 10
283.3249292176
 20
221.8809528559
 11
284.06702415
 21
221.8809528559
  0
LINE
  5
37E
100
AcDbEntity
  8
RUNDUNGEN
100
AcDbLine
 62
7
  6
CONTINUOUS
 10
297.7558725185
 20
94.5596814957
 11
301.1585873698
 21
100.0356327543
  0
LINE
  5
37F
100
AcDbEntity
  8
RUNDUNGEN
100
AcDbLine
 62
7
  6
CONTINUOUS
 10
296.7921653382
 20
93.107205546
 11
297.7558725185
 21
94.5596814957
  0
LINE
  5
380
100
AcDbEntity
  8
BEZUGSACHSEN
100
AcDbLine
 62
7
  6
CONTINUOUS
 10
286.0126421396
 20
223.2080054508
 11
286.7979408622
 21
223.2080054508
  0
LINE
  5
381
100
AcDbEntity
  8
BEZUGSACHSEN
100
AcDbLine
 62
7
  6
CONTINUOUS
 10
285.9433949187
 20
223.6849509733
 11
286.7312036225
 21
223.6849509733
  0
LINE
  5
382
100
AcDbEntity
  8
BEZUGSACHSEN
100
AcDbLine
 62
7
  6
CONTINUOUS
 10
285.8081483923
 20
224.2064310977
 11
286.5977729059
 21
224.2064310977
  0
LINE
  5
383
100
AcDbEntity
  8
BEZUGSACHSEN
100
AcDbLine
 62
7
  6
CONTINUOUS
 10
283.3249292128
 20
224.303685613
 11
284.0825303025
 21
224.303685613
  0
LINE
  5
384
100
AcDbEntity
  8
BEZUGSACHSEN
100
AcDbLine
 62
7
  6
CONTINUOUS
 10
285.6084098197
 20
224.7724456406
 11
286.3991737241
 21
224.7724456406
  0
LINE
  5
385
100
AcDbEntity
  8
BEZUGSACHSEN
100
AcDbLine
 62
7
  6
CONTINUOUS
 10
283.3122592658
 20
224.9093688022
 11
284.0735912948
 21
224.9093688022
  0
LINE
  5
386
100
AcDbEntity
  8
BEZUGSACHSEN
100
AcDbLine
 62
7
  6
CONTINUOUS
 10
285.3451363839
 20
225.382993704
 11
286.1363882245
 21
225.382993704
  0
LINE
  5
387
100
AcDbEntity
  8
BEZUGSACHSEN
100
AcDbLine
 62
7
  6
CONTINUOUS
 10
283.3069122497
 20
226.5041071709
 11
284.0783880194
 21
226.5041071709
  0
LINE
  5
388
100
AcDbEntity
  8
BEZUGSACHSEN
100
AcDbLine
 62
7
  6
CONTINUOUS
 10
284.5090602679
 20
227.3482416084
 11
285.1567567931
 21
227.3482416084
  0
LINE
  5
389
100
AcDbEntity
  8
BEZUGSACHSEN
100
AcDbLine
 62
7
  6
CONTINUOUS
 10
286.3525697132
 20
227.6889404175
 11
287.1983567875
 21
227.6889404175
  0
LINE
  5
38A
100
AcDbEntity
  8
BEZUGSACHSEN
100
AcDbLine
 62
7
  6
CONTINUOUS
 10
284.5110913734
 20
227.7858256628
 11
284.8969440784
 21
227.7858256628
  0
LINE
  5
38B
100
AcDbEntity
  8
BEZUGSACHSEN
100
AcDbLine
 62
7
  6
CONTINUOUS
 10
283.3339440415
 20
228.5796831968
 11
284.1190600843
 21
228.5796831968
  0
LINE
  5
38C
100
AcDbEntity
  8
BEZUGSACHSEN
100
AcDbLine
 62
7
  6
CONTINUOUS
 10
283.3946847321
 20
228.8810786841
 11
284.1825282013
 21
228.8810786841
  0
LINE
  5
38D
100
AcDbEntity
  8
BEZUGSACHSEN
100
AcDbLine
 62
7
  6
CONTINUOUS
 10
283.51906192
 20
228.9649746624
 11
284.3090906459
 21
228.9649746624
  0
LINE
  5
38E
100
AcDbEntity
  8
BEZUGSACHSEN
100
AcDbLine
 62
7
  6
CONTINUOUS
 10
286.6920003694
 20
229.2699087457
 11
287.2268564276
 21
229.2699087457
  0
LINE
  5
38F
100
AcDbEntity
  8
BEZUGSACHSEN
100
AcDbLine
 62
7
  6
CONTINUOUS
 10
286.8212317273
 20
230.4727940904
 11
287.2455705996
 21
230.4727940904
  0
LINE
  5
390
100
AcDbEntity
  8
BEZUGSACHSEN
100
AcDbLine
 62
7
  6
CONTINUOUS
 10
286.8179035536
 20
230.479926197
 11
287.1789088337
 21
230.479926197
  0
LINE
  5
391
100
AcDbEntity
  8
BEZUGSACHSEN
100
AcDbLine
 62
7
  6
CONTINUOUS
 10
286.7224191762
 20
230.6842259901
 11
287.0417421201
 21
230.6842259901
  0
LINE
  5
392
100
AcDbEntity
  8
BEZUGSACHSEN
100
AcDbLine
 62
7
  6
CONTINUOUS
 10
287.2288263011
 20
230.8464555466
 11
287.2491174906
 21
230.8464555466
  0
LINE
  5
393
100
AcDbEntity
  8
BEZUGSACHSEN
100
AcDbLine
 62
7
  6
CONTINUOUS
 10
287.1516756369
 20
231.1804943186
 11
287.186949521
 21
231.1804943186
  0
LINE
  5
394
100
AcDbEntity
  8
BEZUGSACHSEN
100
AcDbLine
 62
7
  6
CONTINUOUS
 10
286.4719581939
 20
231.219517374
 11
286.7700785994
 21
231.219517374
  0
LINE
  5
395
100
AcDbEntity
  8
BEZUGSACHSEN
100
AcDbLine
 62
7
  6
CONTINUOUS
 10
287.0436729713
 20
231.4974276078
 11
287.2284474063
 21
231.4974276078
  0
LINE
  5
396
100
AcDbEntity
  8
BEZUGSACHSEN
100
AcDbLine
 62
7
  6
CONTINUOUS
 10
286.6543594454
 20
231.7508211964
 11
286.8607051346
 21
231.7508211964
  0
LINE
  5
397
100
AcDbEntity
  8
BEZUGSACHSEN
100
AcDbLine
 62
7
  6
CONTINUOUS
 10
286.9484319701
 20
231.8171581255
 11
287.230700843
 21
231.8171581255
  0
LINE
  5
398
100
AcDbEntity
  8
BEZUGSACHSEN
100
AcDbLine
 62
7
  6
CONTINUOUS
 10
286.1912269865
 20
231.8181532795
 11
286.5029656131
 21
231.8181532795
  0
LINE
  5
399
100
AcDbEntity
  8
BEZUGSACHSEN
100
AcDbLine
 62
7
  6
CONTINUOUS
 10
286.5146952346
 20
232.043007724
 11
286.7913336391
 21
232.043007724
  0
LINE
  5
39A
100
AcDbEntity
  8
BEZUGSACHSEN
100
AcDbLine
 62
7
  6
CONTINUOUS
 10
286.3308599905
 20
232.4690168366
 11
286.6559653644
 21
232.4690168366
  0
LINE
  5
39B
100
AcDbEntity
  8
BEZUGSACHSEN
100
AcDbLine
 62
7
  6
CONTINUOUS
 10
285.8172316333
 20
232.6139581764
 11
286.1736307074
 21
232.6139581764
  0
LINE
  5
39C
100
AcDbEntity
  8
BEZUGSACHSEN
100
AcDbLine
 62
7
  6
CONTINUOUS
 10
286.6438615537
 20
232.6663910705
 11
286.9095822956
 21
232.6663910705
  0
LINE
  5
39D
100
AcDbEntity
  8
BEZUGSACHSEN
100
AcDbLine
 62
7
  6
CONTINUOUS
 10
286.1146636221
 20
232.9971760706
 11
286.4581842164
 21
232.9971760706
  0
LINE
  5
39E
100
AcDbEntity
  8
BEZUGSACHSEN
100
AcDbLine
 62
7
  6
CONTINUOUS
 10
285.0564036302
 20
233.2215739005
 11
285.4744048922
 21
233.2215739005
  0
LINE
  5
39F
100
AcDbEntity
  8
BEZUGSACHSEN
100
AcDbLine
 62
7
  6
CONTINUOUS
 10
284.9277965194
 20
233.5322618537
 11
285.4066780687
 21
233.5322618537
  0
LINE
  5
3A0
100
AcDbEntity
  8
BEZUGSACHSEN
100
AcDbLine
 62
7
  6
CONTINUOUS
 10
284.755022071
 20
233.9496415078
 11
285.2736835086
 21
233.9496415078
  0
LINE
  5
3A1
100
AcDbEntity
  8
BEZUGSACHSEN
100
AcDbLine
 62
7
  6
CONTINUOUS
 10
285.7049168651
 20
234.0360852728
 11
285.9466041546
 21
234.0360852728
  0
LINE
  5
3A2
100
AcDbEntity
  8
BEZUGSACHSEN
100
AcDbLine
 62
7
  6
CONTINUOUS
 10
284.5380772298
 20
234.4737140302
 11
285.0763466567
 21
234.4737140302
  0
LINE
  5
3A3
100
AcDbEntity
  8
BEZUGSACHSEN
100
AcDbLine
 62
7
  6
CONTINUOUS
 10
284.4893124985
 20
234.9467876395
 11
284.8804071574
 21
234.9467876395
  0
LINE
  5
3A4
100
AcDbEntity
  8
BEZUGSACHSEN
100
AcDbLine
 62
7
  6
CONTINUOUS
 10
285.313267967
 20
235.0290578272
 11
285.5545895748
 21
235.0290578272
  0
LINE
  5
3A5
100
AcDbEntity
  8
BEZUGSACHSEN
100
AcDbLine
 62
7
  6
CONTINUOUS
 10
284.9338088928
 20
235.0963897944
 11
285.1954756055
 21
235.0963897944
  0
LINE
  5
3A6
100
AcDbEntity
  8
BEZUGSACHSEN
100
AcDbLine
 62
7
  6
CONTINUOUS
 10
283.3096559368
 20
235.1004209255
 11
284.1362824077
 21
235.1004209255
  0
LINE
  5
3A7
100
AcDbEntity
  8
BEZUGSACHSEN
100
AcDbLine
 62
7
  6
CONTINUOUS
 10
284.4952105955
 20
235.3688614521
 11
284.6858206878
 21
235.3688614521
  0
LINE
  5
3A8
100
AcDbEntity
  8
BEZUGSACHSEN
100
AcDbLine
 62
7
  6
CONTINUOUS
 10
285.1304960988
 20
235.5041485532
 11
285.5301109119
 21
235.5041485532
  0
LINE
  5
3A9
100
AcDbEntity
  8
BEZUGSACHSEN
100
AcDbLine
 62
7
  6
CONTINUOUS
 10
284.525621026
 20
235.9555396186
 11
284.8724128279
 21
235.9555396186
  0
LINE
  5
3AA
100
AcDbEntity
  8
BEZUGSACHSEN
100
AcDbLine
 62
7
  6
CONTINUOUS
 10
283.3333100465
 20
236.3243961042
 11
284.1681656445
 21
236.3243961042
  0
LINE
  5
3AB
100
AcDbEntity
  8
BEZUGSACHSEN
100
AcDbLine
 62
7
  6
CONTINUOUS
 10
283.3933420902
 20
236.4216994881
 11
284.2297643831
 21
236.4216994881
  0
LINE
  5
3AC
100
AcDbEntity
  8
BEZUGSACHSEN
100
AcDbLine
 62
7
  6
CONTINUOUS
 10
284.7242222472
 20
236.6638761982
 11
285.293832859
 21
236.6638761982
  0
LINE
  5
3AD
100
AcDbEntity
  8
BEZUGSACHSEN
100
AcDbLine
 62
7
  6
CONTINUOUS
 10
283.7728033941
 20
236.680867235
 11
284.6170228702
 21
236.680867235
  0
LINE
  5
3AE
100
AcDbEntity
  8
BEZUGSACHSEN
100
AcDbLine
 62
7
  6
CONTINUOUS
 10
284.682915203
 20
236.8035710945
 11
284.9563827657
 21
236.8035710945
  0
LINE
  5
3AF
100
AcDbEntity
  8
BEZUGSACHSEN
100
AcDbLine
 62
7
  6
CONTINUOUS
 10
284.573469224
 20
237.2683848787
 11
284.7621935483
 21
237.2683848787
  0
LINE
  5
3B0
100
AcDbEntity
  8
BEZUGSACHSEN
100
AcDbLine
 62
7
  6
CONTINUOUS
 10
284.8079174171
 20
237.3254997202
 11
285.0291798465
 21
237.3254997202
  0
LINE
  5
3B1
100
AcDbEntity
  8
BEZUGSACHSEN
100
AcDbLine
 62
7
  6
CONTINUOUS
 10
283.5199688369
 20
237.4695393149
 11
284.3652049761
 21
237.4695393149
  0
LINE
  5
3B2
100
AcDbEntity
  8
BEZUGSACHSEN
100
AcDbLine
 62
7
  6
CONTINUOUS
 10
284.5740269214
 20
237.504357585
 11
284.6357950206
 21
237.504357585
  0
LINE
  5
3B3
100
AcDbEntity
  8
BEZUGSACHSEN
100
AcDbLine
 62
7
  6
CONTINUOUS
 10
284.6697363273
 20
237.6651933265
 11
284.8985854651
 21
237.6651933265
  0
LINE
  5
3B4
100
AcDbEntity
  8
BEZUGSACHSEN
100
AcDbLine
 62
7
  6
CONTINUOUS
 10
284.577434398
 20
237.878347005
 11
284.9000116169
 21
237.878347005
  0
LINE
  5
3B5
100
AcDbEntity
  8
BEZUGSACHSEN
100
AcDbLine
 62
7
  6
CONTINUOUS
 10
284.5565811181
 20
237.9227539535
 11
284.8895205468
 21
237.9227539535
  0
LINE
  5
3B6
100
AcDbEntity
  8
BEZUGSACHSEN
100
AcDbLine
 62
7
  6
CONTINUOUS
 10
283.3953030897
 20
237.9272212683
 11
284.2414747803
 21
237.9272212683
  0
LINE
  5
3B7
100
AcDbEntity
  8
BEZUGSACHSEN
100
AcDbLine
 62
7
  6
CONTINUOUS
 10
283.3342082052
 20
238.2510800277
 11
284.1814747071
 21
238.2510800277
  0
LINE
  5
3B8
100
AcDbEntity
  8
BEZUGSACHSEN
100
AcDbLine
 62
7
  6
CONTINUOUS
 10
283.3329402412
 20
238.5361344633
 11
284.1820208292
 21
238.5361344633
  0
LINE
  5
3B9
100
AcDbEntity
  8
BEZUGSACHSEN
100
AcDbLine
 62
7
  6
CONTINUOUS
 10
283.7739749279
 20
238.5932589466
 11
284.6308183592
 21
238.5932589466
  0
LINE
  5
3BA
100
AcDbEntity
  8
BEZUGSACHSEN
100
AcDbLine
 62
7
  6
CONTINUOUS
 10
283.5208402791
 20
239.2371195266
 11
284.3775833759
 21
239.2371195266
  0
LINE
  5
3BB
100
AcDbEntity
  8
BEZUGSACHSEN
100
AcDbLine
 62
7
  6
CONTINUOUS
 10
283.3958861504
 20
239.5412869762
 11
284.2524924637
 21
239.5412869762
  0
LINE
  5
3BC
100
AcDbEntity
  8
BEZUGSACHSEN
100
AcDbLine
 62
7
  6
CONTINUOUS
 10
283.372952452
 20
239.648963854
 11
284.1912800429
 21
239.648963854
  0
LINE
  5
3BD
100
AcDbEntity
  8
BEZUGSACHSEN
100
AcDbLine
 62
7
  6
CONTINUOUS
 10
267.5122878846
 20
240.7866964069
 11
278.3111610205
 21
240.7866964069
  0
LINE
  5
3BE
100
AcDbEntity
  8
BEZUGSACHSEN
100
AcDbLine
 62
7
  6
CONTINUOUS
 10
278.3111610205
 20
252.8353813601
 11
267.5122878846
 21
252.8353813601
  0
ARC
  5
3BF
100
AcDbEntity
  8
BEZUGSACHSEN
100
AcDbCircle
 62
7
  6
CONTINUOUS
 10
-410.5901829513
 20
184.7571798939
 40
584.8428897733
100
AcDbArc
 50
349.7559271976
 51
351.1281381441
  0
ARC
  5
3C0
100
AcDbEntity
  8
BEZUGSACHSEN
100
AcDbCircle
 62
7
  6
CONTINUOUS
 10
684.8243569661
 20
183.7919701222
 40
579.046774647
100
AcDbArc
 50
188.8647211814
 51
190.2153652053
  0
ARC
  5
3C1
100
AcDbEntity
  8
0
100
AcDbCircle
 62
7
  6
CONTINUOUS
 10
139.9749087591
 20
20.7288589735
 40
65.0
100
AcDbArc
 50
99.9667663002
 51
112.5919479374
  0
ARC
  5
3C2
100
AcDbEntity
  8
0
100
AcDbCircle
 62
7
  6
CONTINUOUS
 10
139.9749087591
 20
20.7288589735
 40
65.0
100
AcDbArc
 50
67.4080520626
 51
80.0332336998
  0
CIRCLE
  5
3C3
100
AcDbEntity
  8
BEZUGSACHSEN
100
AcDbCircle
 62
7
  6
CONTINUOUS
 10
139.9749087591
 20
189.7476479058
 40
26.0
  0
ARC
  5
3C4
100
AcDbEntity
  8
0
100
AcDbCircle
 62
7
  6
CONTINUOUS
 10
139.9749087591
 20
137.4976479058
 40
11.25
100
AcDbArc
 50
0.0
 51
180.0
  0
ARC
  5
3C5
100
AcDbEntity
  8
RUNDUNGEN
100
AcDbCircle
 62
7
  6
CONTINUOUS
 10
190.9749087591
 20
123.2346919613
 40
5.0
100
AcDbArc
 50
150.0
 51
180.0
  0
ARC
  5
3C6
100
AcDbEntity
  8
RUNDUNGEN
100
AcDbCircle
 62
7
  6
CONTINUOUS
 10
88.9749087591
 20
123.2346919613
 40
5.0
100
AcDbArc
 50
0.0
 51
30.0
  0
CIRCLE
  5
3C7
100
AcDbEntity
  8
BEZUGSACHSEN
100
AcDbCircle
 62
7
  6
CONTINUOUS
 10
175.6749087591
 20
109.9976479058
 40
3.0
  0
ARC
  5
3C8
100
AcDbEntity
  8
BEZUGSACHSEN
100
AcDbCircle
 62
7
  6
CONTINUOUS
 10
106.2821269837
 20
83.7476478524
 40
3.0
100
AcDbArc
 50
219.9999986699
 51
269.9999991452
  0
ARC
  5
3C9
100
AcDbEntity
  8
RUNDUNGEN
100
AcDbCircle
 62
7
  6
CONTINUOUS
 10
96.9749087591
 20
94.8395586086
 40
3.0
100
AcDbArc
 50
180.0
 51
220.0
  0
ARC
  5
3CA
100
AcDbEntity
  8
RUNDUNGEN
100
AcDbCircle
 62
7
  6
CONTINUOUS
 10
182.9749087591
 20
94.8395586086
 40
3.0
100
AcDbArc
 50
320.0
 51
360.0
  0
ARC
  5
3CB
100
AcDbEntity
  8
BEZUGSACHSEN
100
AcDbCircle
 62
7
  6
CONTINUOUS
 10
173.6676915324
 20
83.7476490415
 40
3.0
100
AcDbArc
 50
269.9999817986
 51
319.9999716836
  0
ARC
  5
3CC
100
AcDbEntity
  8
BEZUGSACHSEN
100
AcDbCircle
 62
7
  6
CONTINUOUS
 10
96.9749087591
 20
94.8395586086
 40
3.0
100
AcDbArc
 50
180.0
 51
220.0
  0
ARC
  5
3CD
100
AcDbEntity
  8
BEZUGSACHSEN
100
AcDbCircle
 62
7
  6
CONTINUOUS
 10
-416.093934619
 20
-97.8606258935
 40
775.8174040158
100
AcDbArc
 50
24.9861441167
 51
25.1236231297
  0
ARC
  5
3CE
100
AcDbEntity
  8
BEZUGSACHSEN
100
AcDbCircle
 62
7
  6
CONTINUOUS
 10
-172.5506040423
 20
211.2906539368
 40
460.4573908185
100
AcDbArc
 50
0.1319045249
 51
0.2907837735
  0
ARC
  5
3CF
100
AcDbEntity
  8
BEZUGSACHSEN
100
AcDbCircle
 62
7
  6
CONTINUOUS
 10
-54.0619988159
 20
118.7767315681
 40
356.7925370578
100
AcDbArc
 50
17.0840682834
 51
17.2302838169
  0
ARC
  5
3D0
100
AcDbEntity
  8
BEZUGSACHSEN
100
AcDbCircle
 62
7
  6
CONTINUOUS
 10
14.1549466353
 20
-133.3671846366
 40
442.0121710002
100
AcDbArc
 50
51.862981086
 51
52.088110011
  0
ARC
  5
3D1
100
AcDbEntity
  8
BEZUGSACHSEN
100
AcDbCircle
 62
7
  6
CONTINUOUS
 10
-38.1218309586
 20
118.5413127819
 40
340.3096120852
100
AcDbArc
 50
17.2060854353
 51
17.3573437198
  0
ARC
  5
3D2
100
AcDbEntity
  8
0
100
AcDbCircle
 62
7
  6
CONTINUOUS
 10
11.8464341265
 20
149.9408641298
 40
285.4256092955
100
AcDbArc
 50
17.6918206166
 51
17.8580735889
  0
ARC
  5
3D3
100
AcDbEntity
  8
BEZUGSACHSEN
100
AcDbCircle
 62
7
  6
CONTINUOUS
 10
20.1213423541
 20
152.663645125
 40
277.5191139772
100
AcDbArc
 50
17.6224835927
 51
17.7934091407
  0
ARC
  5
3D4
100
AcDbEntity
  8
BEZUGSACHSEN
100
AcDbCircle
 62
7
  6
CONTINUOUS
 10
86.3439117628
 20
129.9655663195
 40
224.7440068912
100
AcDbArc
 50
28.0572912711
 51
28.1954017735
  0
ARC
  5
3D5
100
AcDbEntity
  8
0
100
AcDbCircle
 62
7
  6
CONTINUOUS
 10
73.0995997054
 20
165.4939434232
 40
219.506776852
100
AcDbArc
 50
14.1506992873
 51
14.293379076
  0
ARC
  5
3D6
100
AcDbEntity
  8
0
100
AcDbCircle
 62
7
  6
CONTINUOUS
 10
76.8664695957
 20
169.7388655532
 40
215.9243868457
100
AcDbArc
 50
14.4679174276
 51
14.6108708485
  0
ARC
  5
3D7
100
AcDbEntity
  8
BEZUGSACHSEN
100
AcDbCircle
 62
7
  6
CONTINUOUS
 10
82.0487395828
 20
168.4055061896
 40
210.8502831878
100
AcDbArc
 50
13.9279375751
 51
14.0763318525
  0
ARC
  5
3D8
100
AcDbEntity
  8
BEZUGSACHSEN
100
AcDbCircle
 62
7
  6
CONTINUOUS
 10
85.3671729258
 20
172.4399024601
 40
207.7824050672
100
AcDbArc
 50
14.2780893703
 51
14.4265195342
  0
ARC
  5
3D9
100
AcDbEntity
  8
BEZUGSACHSEN
100
AcDbCircle
 62
7
  6
CONTINUOUS
 10
97.2217646621
 20
165.2556640588
 40
201.2474999387
100
AcDbArc
 50
21.37158133
 51
21.5685589978
  0
ARC
  5
3DA
100
AcDbEntity
  8
BEZUGSACHSEN
100
AcDbCircle
 62
7
  6
CONTINUOUS
 10
123.0831207164
 20
168.6051792488
 40
175.9099240073
100
AcDbArc
 50
22.3937106237
 51
22.7614441707
  0
ARC
  5
3DB
100
AcDbEntity
  8
BEZUGSACHSEN
100
AcDbCircle
 62
7
  6
CONTINUOUS
 10
132.7357717818
 20
152.7096210454
 40
172.8883208846
100
AcDbArc
 50
26.8085933413
 51
27.0075287939
  0
ARC
  5
3DC
100
AcDbEntity
  8
BEZUGSACHSEN
100
AcDbCircle
 62
7
  6
CONTINUOUS
 10
107.8257081694
 20
179.0661864227
 40
181.632721997
100
AcDbArc
 50
11.8056521762
 51
12.0119034053
  0
ARC
  5
3DD
100
AcDbEntity
  8
BEZUGSACHSEN
100
AcDbCircle
 62
7
  6
CONTINUOUS
 10
129.9815800438
 20
185.6154745503
 40
160.5304576863
100
AcDbArc
 50
11.8488621734
 51
12.0790096096
  0
ARC
  5
3DE
100
AcDbEntity
  8
BEZUGSACHSEN
100
AcDbCircle
 62
7
  6
CONTINUOUS
 10
148.692236426
 20
174.0402157407
 40
150.1336024881
100
AcDbArc
 50
25.1263879292
 51
25.3522323603
  0
ARC
  5
3DF
100
AcDbEntity
  8
BEZUGSACHSEN
100
AcDbCircle
 62
7
  6
CONTINUOUS
 10
272.9117244526
 20
109.9976479058
 40
29.25
100
AcDbArc
 50
211.8565064565
 51
324.7285400078
  0
ARC
  5
3E0
100
AcDbEntity
  8
RUNDUNGEN
100
AcDbCircle
 62
7
  6
CONTINUOUS
 10
272.9117244526
 20
109.9976479058
 40
29.25
100
AcDbArc
 50
324.7285400078
 51
328.1434935435
  0
ARC
  5
3E1
100
AcDbEntity
  8
RUNDUNGEN
100
AcDbCircle
 62
7
  6
CONTINUOUS
 10
286.9117244526
 20
122.7284100193
 40
15.0
100
AcDbArc
 50
0.0
 51
30.0
  0
ARC
  5
3E2
100
AcDbEntity
  8
BEZUGSACHSEN
100
AcDbCircle
 62
7
  6
CONTINUOUS
 10
258.9117244526
 20
122.7284100193
 40
15.0
100
AcDbArc
 50
150.0
 51
180.0
  0
CIRCLE
  5
3E3
100
AcDbEntity
  8
0
100
AcDbCircle
 62
7
  6
CONTINUOUS
 10
272.9117244526
 20
109.9976479058
 40
11.75
  0
ARC
  5
3E4
100
AcDbEntity
  8
RUNDUNGEN
100
AcDbCircle
 62
7
  6
CONTINUOUS
 10
296.9117244526
 20
102.6746013714
 40
5.0
100
AcDbArc
 50
328.1434935435
 51
360.0
  0
ARC
  5
3E5
100
AcDbEntity
  8
BEZUGSACHSEN
100
AcDbCircle
 62
7
  6
CONTINUOUS
 10
248.9117244526
 20
102.6746013714
 40
5.0
100
AcDbArc
 50
180.0
 51
211.8565064565
  0
ARC
  5
3E6
100
AcDbEntity
  8
BEZUGSACHSEN
100
AcDbCircle
 62
7
  6
CONTINUOUS
 10
245.8543355932
 20
173.6955123113
 40
67.331134364
100
AcDbArc
 50
54.9064777052
 51
55.1710167566
  0
ARC
  5
3E7
100
AcDbEntity
  8
BEZUGSACHSEN
100
AcDbCircle
 62
7
  6
CONTINUOUS
 10
236.9117244526
 20
144.6232922528
 40
15.0
100
AcDbArc
 50
330.6489714765
 51
360.0
  0
ARC
  5
3E8
100
AcDbEntity
  8
RUNDUNGEN
100
AcDbCircle
 62
7
  6
CONTINUOUS
 10
308.9117244526
 20
144.6232922528
 40
15.0
100
AcDbArc
 50
180.0
 51
209.3510356863
  0
ARC
  5
3E9
100
AcDbEntity
  8
RUNDUNGEN
100
AcDbCircle
 62
7
  6
CONTINUOUS
 10
288.9117244526
 20
156.1511712316
 40
5.0
100
AcDbArc
 50
0.0
 51
72.7786396825
  0
ARC
  5
3EA
100
AcDbEntity
  8
BEZUGSACHSEN
100
AcDbCircle
 62
7
  6
CONTINUOUS
 10
256.9117244526
 20
156.1511712316
 40
5.0
100
AcDbArc
 50
107.2214708243
 51
180.0
  0
ARC
  5
3EB
100
AcDbEntity
  8
BEZUGSACHSEN
100
AcDbCircle
 62
7
  6
CONTINUOUS
 10
144.911558966
 20
177.5554181103
 40
152.3178476483
100
AcDbArc
 50
21.3911516893
 51
22.3961981545
  0
ARC
  5
3EC
100
AcDbEntity
  8
BEZUGSACHSEN
100
AcDbCircle
 62
7
  6
CONTINUOUS
 10
138.5229666459
 20
190.198331336
 40
152.1735368729
100
AcDbArc
 50
12.5110087753
 51
12.6769172621
  0
ARC
  5
3ED
100
AcDbEntity
  8
BEZUGSACHSEN
100
AcDbCircle
 62
7
  6
CONTINUOUS
 10
145.2902087186
 20
187.3142486053
 40
148.4022582243
100
AcDbArc
 50
17.5418387442
 51
17.7144181964
  0
ARC
  5
3EE
100
AcDbEntity
  8
BEZUGSACHSEN
100
AcDbCircle
 62
7
  6
CONTINUOUS
 10
142.7103248033
 20
194.7523115407
 40
148.0693350137
100
AcDbArc
 50
16.3925336289
 51
16.5644396967
  0
ARC
  5
3EF
100
AcDbEntity
  8
0
100
AcDbCircle
 62
7
  6
CONTINUOUS
 10
140.47994491
 20
193.4859871654
 40
145.9300184973
100
AcDbArc
 50
8.935017451
 51
9.1070874635
  0
ARC
  5
3F0
100
AcDbEntity
  8
BEZUGSACHSEN
100
AcDbCircle
 62
7
  6
CONTINUOUS
 10
144.6729310777
 20
194.7763062494
 40
142.2984255822
100
AcDbArc
 50
8.6391103675
 51
8.8154305622
  0
ARC
  5
3F1
100
AcDbEntity
  8
BEZUGSACHSEN
100
AcDbCircle
 62
7
  6
CONTINUOUS
 10
165.1993825917
 20
201.3591995033
 40
124.5646535541
100
AcDbArc
 50
14.6174319648
 51
14.8644603336
  0
ARC
  5
3F2
100
AcDbEntity
  8
0
100
AcDbCircle
 62
7
  6
CONTINUOUS
 10
181.0232570649
 20
205.1129751457
 40
105.8582150928
100
AcDbArc
 50
7.3416591139
 51
7.624054525
  0
ARC
  5
3F3
100
AcDbEntity
  8
BEZUGSACHSEN
100
AcDbCircle
 62
7
  6
CONTINUOUS
 10
184.2151610884
 20
206.0211032273
 40
103.3231706778
100
AcDbArc
 50
7.0151511939
 51
7.3042656414
  0
ARC
  5
3F4
100
AcDbEntity
  8
0
100
AcDbCircle
 62
7
  6
CONTINUOUS
 10
187.6818535667
 20
211.6104836718
 40
99.2654778728
100
AcDbArc
 50
15.0999707685
 51
15.3737685254
  0
ARC
  5
3F5
100
AcDbEntity
  8
BEZUGSACHSEN
100
AcDbCircle
 62
7
  6
CONTINUOUS
 10
190.6448439668
 20
212.3786490931
 40
97.0209195989
100
AcDbArc
 50
14.9877900831
 51
15.267777412
  0
ARC
  5
3F6
100
AcDbEntity
  8
BEZUGSACHSEN
100
AcDbCircle
 62
7
  6
CONTINUOUS
 10
198.1464063393
 20
204.4654332585
 40
92.9285913944
100
AcDbArc
 50
16.787343878
 51
16.9278038593
  0
ARC
  5
3F7
100
AcDbEntity
  8
BEZUGSACHSEN
100
AcDbCircle
 62
7
  6
CONTINUOUS
 10
195.5475632211
 20
208.5943399265
 40
92.0867124608
100
AcDbArc
 50
6.0893695057
 51
6.2235765117
  0
ARC
  5
3F8
100
AcDbEntity
  8
0
100
AcDbCircle
 62
7
  6
CONTINUOUS
 10
196.0404864143
 20
210.3885421099
 40
90.8808420197
100
AcDbArc
 50
8.1090686406
 51
8.4129117728
  0
ARC
  5
3F9
100
AcDbEntity
  8
BEZUGSACHSEN
100
AcDbCircle
 62
7
  6
CONTINUOUS
 10
198.9966573855
 20
211.165435415
 40
88.6232975759
100
AcDbArc
 50
7.809793845
 51
8.1211479234
  0
ARC
  5
3FA
100
AcDbEntity
  8
BEZUGSACHSEN
100
AcDbCircle
 62
7
  6
CONTINUOUS
 10
211.2318303464
 20
213.5231123115
 40
75.8893848035
100
AcDbArc
 50
357.93595601
 51
358.4478840232
  0
ARC
  5
3FB
100
AcDbEntity
  8
BEZUGSACHSEN
100
AcDbCircle
 62
7
  6
CONTINUOUS
 10
211.7255410305
 20
213.5079204891
 40
75.3955229373
100
AcDbArc
 50
0.5953930157
 51
1.1963295846
  0
ARC
  5
3FC
100
AcDbEntity
  8
0
100
AcDbCircle
 62
7
  6
CONTINUOUS
 10
192.6622164112
 20
217.3531534688
 40
90.6728500909
100
AcDbArc
 50
358.6435106131
 51
0.3566300269
  0
ARC
  5
3FD
100
AcDbEntity
  8
BEZUGSACHSEN
100
AcDbCircle
 62
7
  6
CONTINUOUS
 10
194.0830920741
 20
217.9281677602
 40
89.9670515811
100
AcDbArc
 50
358.2665325885
 51
359.9932259658
  0
ARC
  5
3FE
100
AcDbEntity
  8
BEZUGSACHSEN
100
AcDbCircle
 62
7
  6
CONTINUOUS
 10
196.0605432098
 20
217.4571205215
 40
88.3162920823
100
AcDbArc
 50
358.6747183434
 51
0.0671393568
  0
ARC
  5
3FF
100
AcDbEntity
  8
0
100
AcDbCircle
 62
7
  6
CONTINUOUS
 10
200.2440957842
 20
215.4732676688
 40
84.3977464792
100
AcDbArc
 50
359.6794117971
 51
0.4600935108
  0
ARC
  5
400
100
AcDbEntity
  8
BEZUGSACHSEN
100
AcDbCircle
 62
7
  6
CONTINUOUS
 10
201.6572062323
 20
216.0475772751
 40
83.6997073529
100
AcDbArc
 50
358.6015515896
 51
0.0707878591
  0
ARC
  5
401
100
AcDbEntity
  8
BEZUGSACHSEN
100
AcDbCircle
 62
7
  6
CONTINUOUS
 10
203.8800528872
 20
215.4840647388
 40
81.8688945837
100
AcDbArc
 50
358.5700363853
 51
359.9140352296
  0
ARC
  5
402
100
AcDbEntity
  8
BEZUGSACHSEN
100
AcDbCircle
 62
7
  6
CONTINUOUS
 10
211.2370640991
 20
217.2013122
 40
75.9462412038
100
AcDbArc
 50
12.1775690318
 51
12.4174645608
  0
ARC
  5
403
100
AcDbEntity
  8
0
100
AcDbCircle
 62
7
  6
CONTINUOUS
 10
210.7807228556
 20
223.0891481548
 40
72.5543725577
100
AcDbArc
 50
0.9591581916
 51
1.4375688229
  0
ARC
  5
404
100
AcDbEntity
  8
0
100
AcDbCircle
 62
7
  6
CONTINUOUS
 10
210.7807228952
 20
223.0954900244
 40
72.554372518
100
AcDbArc
 50
358.562431177
 51
359.0408420367
  0
ARC
  5
405
100
AcDbEntity
  8
BEZUGSACHSEN
100
AcDbCircle
 62
7
  6
CONTINUOUS
 10
212.1655600114
 20
223.5575607571
 40
71.9210091651
100
AcDbArc
 50
358.1815102149
 51
358.664211465
  0
ARC
  5
406
100
AcDbEntity
  8
BEZUGSACHSEN
100
AcDbCircle
 62
7
  6
CONTINUOUS
 10
212.4432170781
 20
223.5493005378
 40
71.6432850734
100
AcDbArc
 50
0.6033207391
 51
1.0877621356
  0
ARC
  5
407
100
AcDbEntity
  8
BEZUGSACHSEN
100
AcDbCircle
 62
7
  6
CONTINUOUS
 10
234.0003451226
 20
201.2866964669
 40
60.8266561005
100
AcDbArc
 50
29.7876382387
 51
30.0440824005
  0
ARC
  5
408
100
AcDbEntity
  8
BEZUGSACHSEN
100
AcDbCircle
 62
7
  6
CONTINUOUS
 10
232.7722301995
 20
209.5716346637
 40
58.9072692097
100
AcDbArc
 50
28.1105493041
 51
28.306055089
  0
ARC
  5
409
100
AcDbEntity
  8
BEZUGSACHSEN
100
AcDbCircle
 62
7
  6
CONTINUOUS
 10
232.4919086368
 20
212.5373791925
 40
54.9325443001
100
AcDbArc
 50
5.6641528775
 51
6.0875437208
  0
ARC
  5
40A
100
AcDbEntity
  8
BEZUGSACHSEN
100
AcDbCircle
 62
7
  6
CONTINUOUS
 10
239.5393303332
 20
204.606812335
 40
54.8581984769
100
AcDbArc
 50
35.1026272404
 51
35.4468656563
  0
ARC
  5
40B
100
AcDbEntity
  8
0
100
AcDbCircle
 62
7
  6
CONTINUOUS
 10
284.7991400126
 20
209.950887548
 40
7.1739979354
100
AcDbArc
 50
78.76042251
 51
79.4334493322
  0
ARC
  5
40C
100
AcDbEntity
  8
0
100
AcDbCircle
 62
7
  6
CONTINUOUS
 10
281.8786757936
 20
208.2238001584
 40
5.157545032
100
AcDbArc
 50
29.8367620104
 51
34.7824821751
  0
ARC
  5
40D
100
AcDbEntity
  8
BEZUGSACHSEN
100
AcDbCircle
 62
7
  6
CONTINUOUS
 10
283.7305300145
 20
213.0794339386
 40
4.2314670958
100
AcDbArc
 50
26.64798067
 51
27.0578187059
  0
ARC
  5
40E
100
AcDbEntity
  8
BEZUGSACHSEN
100
AcDbCircle
 62
7
  6
CONTINUOUS
 10
220.9081433392
 20
226.6885870852
 40
63.7482827131
100
AcDbArc
 50
352.0916498299
 51
352.518633935
  0
ARC
  5
40F
100
AcDbEntity
  8
0
100
AcDbCircle
 62
7
  6
CONTINUOUS
 10
220.1333589128
 20
226.2155781996
 40
63.7423831571
100
AcDbArc
 50
352.5199482734
 51
352.9465531253
  0
ARC
  5
410
100
AcDbEntity
  8
BEZUGSACHSEN
100
AcDbCircle
 62
7
  6
CONTINUOUS
 10
225.5927763407
 20
218.2142508875
 40
61.56399813
100
AcDbArc
 50
359.3867009764
 51
359.7625063907
  0
ARC
  5
411
100
AcDbEntity
  8
BEZUGSACHSEN
100
AcDbCircle
 62
7
  6
CONTINUOUS
 10
225.3054507786
 20
218.896460872
 40
61.459926833
100
AcDbArc
 50
359.3846114059
 51
359.7610532677
  0
ARC
  5
412
100
AcDbEntity
  8
0
100
AcDbCircle
 62
7
  6
CONTINUOUS
 10
230.1586474901
 20
228.2342611447
 40
53.1764184552
100
AcDbArc
 50
358.1354889681
 51
0.3721831124
  0
ARC
  5
413
100
AcDbEntity
  8
BEZUGSACHSEN
100
AcDbCircle
 62
7
  6
CONTINUOUS
 10
231.5533714308
 20
228.5715505487
 40
52.5656892826
100
AcDbArc
 50
357.7459376503
 51
0.0088644594
  0
ARC
  5
414
100
AcDbEntity
  8
BEZUGSACHSEN
100
AcDbCircle
 62
7
  6
CONTINUOUS
 10
233.0970501459
 20
227.7845573676
 40
51.4140420199
100
AcDbArc
 50
358.275033257
 51
0.010059395
  0
ARC
  5
415
100
AcDbEntity
  8
BEZUGSACHSEN
100
AcDbCircle
 62
7
  6
CONTINUOUS
 10
235.5397756675
 20
230.5114117393
 40
50.5250011555
100
AcDbArc
 50
345.1479104316
 51
345.4350205163
  0
ARC
  5
416
100
AcDbEntity
  8
BEZUGSACHSEN
100
AcDbCircle
 62
7
  6
CONTINUOUS
 10
238.9335172771
 20
220.7257472394
 40
49.0696856272
100
AcDbArc
 50
22.1632349438
 51
22.5472557002
  0
ARC
  5
417
100
AcDbEntity
  8
BEZUGSACHSEN
100
AcDbCircle
 62
7
  6
CONTINUOUS
 10
241.8810333992
 20
217.4336828437
 40
45.5807526289
100
AcDbArc
 50
6.2828654037
 51
6.6405087438
  0
ARC
  5
418
100
AcDbEntity
  8
BEZUGSACHSEN
100
AcDbCircle
 62
7
  6
CONTINUOUS
 10
241.8355693493
 20
222.4033726214
 40
45.3524500499
100
AcDbArc
 50
357.8358397078
 51
0.0234143891
  0
ARC
  5
419
100
AcDbEntity
  8
BEZUGSACHSEN
100
AcDbCircle
 62
7
  6
CONTINUOUS
 10
241.6959584326
 20
223.1991865695
 40
45.1019832918
100
AcDbArc
 50
358.0332695594
 51
0.0112031588
  0
ARC
  5
41A
100
AcDbEntity
  8
BEZUGSACHSEN
100
AcDbCircle
 62
7
  6
CONTINUOUS
 10
244.2207967781
 20
222.3212505419
 40
42.965823516
100
AcDbArc
 50
357.3654762886
 51
357.8251592497
  0
ARC
  5
41B
100
AcDbEntity
  8
BEZUGSACHSEN
100
AcDbCircle
 62
7
  6
CONTINUOUS
 10
248.9553327166
 20
224.478040337
 40
38.8206930284
100
AcDbArc
 50
349.1403246922
 51
349.4090332784
  0
ARC
  5
41C
100
AcDbEntity
  8
BEZUGSACHSEN
100
AcDbCircle
 62
7
  6
CONTINUOUS
 10
247.0177314939
 20
229.2304715133
 40
38.4041192525
100
AcDbArc
 50
11.6201498825
 51
12.065548788
  0
ARC
  5
41D
100
AcDbEntity
  8
BEZUGSACHSEN
100
AcDbCircle
 62
7
  6
CONTINUOUS
 10
252.309437236
 20
226.5054017535
 40
35.4308438475
100
AcDbArc
 50
346.0202989105
 51
346.3828424521
  0
ARC
  5
41E
100
AcDbEntity
  8
0
100
AcDbCircle
 62
7
  6
CONTINUOUS
 10
252.8191030359
 20
232.3268142498
 40
31.0848607605
100
AcDbArc
 50
10.379376504
 51
10.9868464601
  0
ARC
  5
41F
100
AcDbEntity
  8
BEZUGSACHSEN
100
AcDbCircle
 62
7
  6
CONTINUOUS
 10
263.2053615352
 20
214.3564613683
 40
28.8923681434
100
AcDbArc
 50
34.1540669055
 51
34.4108880317
  0
ARC
  5
420
100
AcDbEntity
  8
BEZUGSACHSEN
100
AcDbCircle
 62
7
  6
CONTINUOUS
 10
260.3137991069
 20
223.8385219977
 40
28.0784481096
100
AcDbArc
 50
31.1803959703
 51
31.5467568165
  0
ARC
  5
421
100
AcDbEntity
  8
BEZUGSACHSEN
100
AcDbCircle
 62
7
  6
CONTINUOUS
 10
266.6400776114
 20
221.1705233355
 40
20.8293098249
100
AcDbArc
 50
349.4111766451
 51
350.0048193468
  0
ARC
  5
422
100
AcDbEntity
  8
BEZUGSACHSEN
100
AcDbCircle
 62
7
  6
CONTINUOUS
 10
271.0986933934
 20
228.7893365465
 40
16.135315424
100
AcDbArc
 50
2.0242100849
 51
2.9754900196
  0
ARC
  5
423
100
AcDbEntity
  8
BEZUGSACHSEN
100
AcDbCircle
 62
7
  6
CONTINUOUS
 10
271.3610388739
 20
228.7473224849
 40
15.8726485093
100
AcDbArc
 50
356.4530080661
 51
357.2830726746
  0
ARC
  5
424
100
AcDbEntity
  8
BEZUGSACHSEN
100
AcDbCircle
 62
7
  6
CONTINUOUS
 10
272.035766554
 20
227.8308361347
 40
15.4894646141
100
AcDbArc
 50
10.8925611358
 51
11.5053489289
  0
ARC
  5
425
100
AcDbEntity
  8
BEZUGSACHSEN
100
AcDbCircle
 62
7
  6
CONTINUOUS
 10
272.5234473843
 20
226.9037621627
 40
15.2406075281
100
AcDbArc
 50
15.9103235804
 51
16.7855374651
  0
ARC
  5
426
100
AcDbEntity
  8
BEZUGSACHSEN
100
AcDbCircle
 62
7
  6
CONTINUOUS
 10
272.5622310704
 20
227.9379980255
 40
14.9522043811
100
AcDbArc
 50
11.5053478396
 51
12.1370386676
  0
ARC
  5
427
100
AcDbEntity
  8
BEZUGSACHSEN
100
AcDbCircle
 62
7
  6
CONTINUOUS
 10
272.9813366781
 20
226.9622111413
 40
14.8186824383
100
AcDbArc
 50
16.5385142685
 51
16.7779772884
  0
ARC
  5
428
100
AcDbEntity
  8
BEZUGSACHSEN
100
AcDbCircle
 62
7
  6
CONTINUOUS
 10
273.0857662095
 20
226.9937745778
 40
14.7095871959
100
AcDbArc
 50
16.7776860458
 51
17.2585393561
  0
ARC
  5
429
100
AcDbEntity
  8
BEZUGSACHSEN
100
AcDbCircle
 62
7
  6
CONTINUOUS
 10
273.1876848024
 20
227.0253586563
 40
14.6028869248
100
AcDbArc
 50
17.2588358928
 51
17.5002090526
  0
ARC
  5
42A
100
AcDbEntity
  8
BEZUGSACHSEN
100
AcDbCircle
 62
7
  6
CONTINUOUS
 10
273.9809717561
 20
228.5507788492
 40
13.4652715397
100
AcDbArc
 50
10.1788992972
 51
10.9017831038
  0
ARC
  5
42B
100
AcDbEntity
  8
BEZUGSACHSEN
100
AcDbCircle
 62
7
  6
CONTINUOUS
 10
270.9117244526
 20
228.2060790739
 40
12.0
100
AcDbArc
 50
159.0
 51
180.0
  0
ARC
  5
42C
100
AcDbEntity
  8
BEZUGSACHSEN
100
AcDbCircle
 62
7
  6
CONTINUOUS
 10
274.9117244526
 20
228.2060790739
 40
12.0
100
AcDbArc
 50
2.7811707557
 51
5.0908512802
  0
ARC
  5
42D
100
AcDbEntity
  8
BEZUGSACHSEN
100
AcDbCircle
 62
7
  6
CONTINUOUS
 10
275.9242364186
 20
227.8345758077
 40
11.9873725101
100
AcDbArc
 50
19.4042723556
 51
21.0096433051
  0
ARC
  5
42E
100
AcDbEntity
  8
BEZUGSACHSEN
100
AcDbCircle
 62
7
  6
CONTINUOUS
 10
276.0181397641
 20
221.1893146115
 40
11.8935272796
100
AcDbArc
 50
0.2937788683
 51
21.0940913041
  0
ARC
  5
42F
100
AcDbEntity
  8
BEZUGSACHSEN
100
AcDbCircle
 62
7
  6
CONTINUOUS
 10
277.2739324039
 20
223.8298653175
 40
10.6483172367
100
AcDbArc
 50
21.248382856
 51
22.4578538448
  0
ARC
  5
430
100
AcDbEntity
  8
BEZUGSACHSEN
100
AcDbCircle
 62
7
  6
CONTINUOUS
 10
277.2950021613
 20
224.1847691759
 40
10.6273460255
100
AcDbArc
 50
21.0096145834
 51
22.4816791233
  0
ARC
  5
431
100
AcDbEntity
  8
0
100
AcDbCircle
 62
7
  6
CONTINUOUS
 10
276.3098755091
 20
224.2644724847
 40
10.6104989279
100
AcDbArc
 50
18.8289122477
 51
22.4718851892
  0
ARC
  5
432
100
AcDbEntity
  8
BEZUGSACHSEN
100
AcDbCircle
 62
7
  6
CONTINUOUS
 10
283.1835993292
 20
229.789268701
 40
8.8036643595
100
AcDbArc
 50
83.0909030789
 51
83.4880888189
  0
ARC
  5
433
100
AcDbEntity
  8
BEZUGSACHSEN
100
AcDbCircle
 62
7
  6
CONTINUOUS
 10
279.1824955958
 20
226.1475259249
 40
8.7511768514
100
AcDbArc
 50
23.4275639716
 51
24.985522685
  0
ARC
  5
434
100
AcDbEntity
  8
BEZUGSACHSEN
100
AcDbCircle
 62
7
  6
CONTINUOUS
 10
279.2334962101
 20
225.8297988284
 40
8.702193046
100
AcDbArc
 50
23.285638979
 51
25.0882191141
  0
ARC
  5
435
100
AcDbEntity
  8
BEZUGSACHSEN
100
AcDbCircle
 62
7
  6
CONTINUOUS
 10
279.8735729373
 20
216.7999293993
 40
8.0867468803
100
AcDbArc
 50
26.0110708734
 51
26.4362706269
  0
ARC
  5
436
100
AcDbEntity
  8
BEZUGSACHSEN
100
AcDbCircle
 62
7
  6
CONTINUOUS
 10
281.2731740442
 20
215.6013788113
 40
6.7104452389
100
AcDbArc
 50
27.0838162698
 51
29.4819396839
  0
ARC
  5
437
100
AcDbEntity
  8
BEZUGSACHSEN
100
AcDbCircle
 62
7
  6
CONTINUOUS
 10
281.4216865638
 20
215.6777035048
 40
6.5434682645
100
AcDbArc
 50
25.3272114488
 51
27.0808543894
  0
ARC
  5
438
100
AcDbEntity
  8
BEZUGSACHSEN
100
AcDbCircle
 62
7
  6
CONTINUOUS
 10
280.7673107729
 20
230.6287417157
 40
6.4801369194
100
AcDbArc
 50
359.2511853473
 51
1.14160625
  0
ARC
  5
439
100
AcDbEntity
  8
BEZUGSACHSEN
100
AcDbCircle
 62
7
  6
CONTINUOUS
 10
281.4917423648
 20
215.7112426429
 40
6.4657986589
100
AcDbArc
 50
25.0903557706
 51
25.3241421877
  0
ARC
  5
43A
100
AcDbEntity
  8
BEZUGSACHSEN
100
AcDbCircle
 62
7
  6
CONTINUOUS
 10
281.615583271
 20
215.767874161
 40
6.3296290513
100
AcDbArc
 50
21.6448441198
 51
25.1014588099
  0
ARC
  5
43B
100
AcDbEntity
  8
BEZUGSACHSEN
100
AcDbCircle
 62
7
  6
CONTINUOUS
 10
280.8476832301
 20
231.6217247688
 40
6.01440792
100
AcDbArc
 50
358.5141118689
 51
0.5509453153
  0
ARC
  5
43C
100
AcDbEntity
  8
BEZUGSACHSEN
100
AcDbCircle
 62
7
  6
CONTINUOUS
 10
286.6052104379
 20
224.8026306016
 40
5.7062084721
100
AcDbArc
 50
83.5565998192
 51
84.229771474
  0
ARC
  5
43D
100
AcDbEntity
  8
BEZUGSACHSEN
100
AcDbCircle
 62
7
  6
CONTINUOUS
 10
284.389490158
 20
227.0958633497
 40
5.0199416767
100
AcDbArc
 50
60.5178194096
 51
61.4306568961
  0
ARC
  5
43E
100
AcDbEntity
  8
BEZUGSACHSEN
100
AcDbCircle
 62
7
  6
CONTINUOUS
 10
283.3187984558
 20
228.0018487316
 40
4.587081867
100
AcDbArc
 50
32.699271019
 51
34.1554233613
  0
ARC
  5
43F
100
AcDbEntity
  8
BEZUGSACHSEN
100
AcDbCircle
 62
7
  6
CONTINUOUS
 10
286.710855196
 20
231.6555285265
 40
0.5443928949
100
AcDbArc
 50
11.4789082117
 51
17.2714329211
  0
ARC
  5
440
100
AcDbEntity
  8
BEZUGSACHSEN
100
AcDbCircle
 62
7
  6
CONTINUOUS
 10
286.7308586434
 20
231.6597677884
 40
0.523945941
100
AcDbArc
 50
5.5646145788
 51
11.4599200858
  0
ARC
  5
441
100
AcDbEntity
  8
BEZUGSACHSEN
100
AcDbCircle
 62
7
  6
CONTINUOUS
 10
286.7404106101
 20
231.6607667504
 40
0.5143421251
100
AcDbArc
 50
359.6113434948
 51
5.5570377399
  0
ARC
  5
442
100
AcDbEntity
  8
BEZUGSACHSEN
100
AcDbCircle
 62
7
  6
CONTINUOUS
 10
256.5581089789
 20
249.7249835296
 40
41.7288856539
100
AcDbArc
 50
311.3265252054
 51
311.6785414344
  0
ARC
  5
443
100
AcDbEntity
  8
0
100
AcDbCircle
 62
7
  6
CONTINUOUS
 10
256.7059990622
 20
248.2822379237
 40
40.073189132
100
AcDbArc
 50
311.756403319
 51
312.1198514336
  0
ARC
  5
444
100
AcDbEntity
  8
BEZUGSACHSEN
100
AcDbCircle
 62
7
  6
CONTINUOUS
 10
269.0169724085
 20
249.6109147136
 40
36.2633151902
100
AcDbArc
 50
298.9215779449
 51
299.168306614
  0
ARC
  5
445
100
AcDbEntity
  8
BEZUGSACHSEN
100
AcDbCircle
 62
7
  6
CONTINUOUS
 10
254.249324091
 20
232.5381776345
 40
30.4724612438
100
AcDbArc
 50
10.1863134109
 51
10.8056133948
  0
ARC
  5
446
100
AcDbEntity
  8
0
100
AcDbCircle
 62
7
  6
CONTINUOUS
 10
256.7969754755
 20
234.0845371251
 40
27.101920918
100
AcDbArc
 50
348.2807228094
 51
348.9307127929
  0
ARC
  5
447
100
AcDbEntity
  8
BEZUGSACHSEN
100
AcDbCircle
 62
7
  6
CONTINUOUS
 10
257.6994530227
 20
234.3005267613
 40
27.0319013089
100
AcDbArc
 50
347.7819300083
 51
348.4347703492
  0
ARC
  5
448
100
AcDbEntity
  8
BEZUGSACHSEN
100
AcDbCircle
 62
7
  6
CONTINUOUS
 10
267.0562981521
 20
232.8429283004
 40
25.4324210571
100
AcDbArc
 50
321.4320881429
 51
321.9396192317
  0
ARC
  5
449
100
AcDbEntity
  8
BEZUGSACHSEN
100
AcDbCircle
 62
7
  6
CONTINUOUS
 10
263.0881063474
 20
234.3005321212
 40
22.389387215
100
AcDbArc
 50
343.1045359108
 51
343.678455972
  0
ARC
  5
44A
100
AcDbEntity
  8
0
100
AcDbCircle
 62
7
  6
CONTINUOUS
 10
264.830428902
 20
236.0697600596
 40
18.504633208
100
AcDbArc
 50
356.9972669912
 51
0.7884528688
  0
ARC
  5
44B
100
AcDbEntity
  8
BEZUGSACHSEN
100
AcDbCircle
 62
7
  6
CONTINUOUS
 10
265.9298315971
 20
236.1870822358
 40
18.2388509485
100
AcDbArc
 50
356.5843242626
 51
0.4313637671
  0
ARC
  5
44C
100
AcDbEntity
  8
BEZUGSACHSEN
100
AcDbCircle
 62
7
  6
CONTINUOUS
 10
266.6018254218
 20
235.3980756183
 40
17.8935535084
100
AcDbArc
 50
357.5012489072
 51
0.6047621117
  0
ARC
  5
44D
100
AcDbEntity
  8
BEZUGSACHSEN
100
AcDbCircle
 62
7
  6
CONTINUOUS
 10
274.4561117823
 20
243.6914111788
 40
17.7186095662
100
AcDbArc
 50
303.2941793039
 51
303.7851910013
  0
ARC
  5
44E
100
AcDbEntity
  8
0
100
AcDbCircle
 62
7
  6
CONTINUOUS
 10
273.8920449077
 20
243.1030444284
 40
17.1045161658
100
AcDbArc
 50
303.7495157208
 51
304.2520709624
  0
ARC
  5
44F
100
AcDbEntity
  8
BEZUGSACHSEN
100
AcDbCircle
 62
7
  6
CONTINUOUS
 10
268.5228149375
 20
233.0327336101
 40
16.9526417602
100
AcDbArc
 50
357.3623847263
 51
0.6382471574
  0
ARC
  5
450
100
AcDbEntity
  8
BEZUGSACHSEN
100
AcDbCircle
 62
7
  6
CONTINUOUS
 10
269.2888180798
 20
232.086707324
 40
16.5786721528
100
AcDbArc
 50
357.3024284729
 51
0.2997103973
  0
ARC
  5
451
100
AcDbEntity
  8
0
100
AcDbCircle
 62
7
  6
CONTINUOUS
 10
276.2123475059
 20
238.3619309825
 40
7.1227233383
100
AcDbArc
 50
359.1082696911
 51
1.4014470418
  0
ARC
  5
452
100
AcDbEntity
  8
BEZUGSACHSEN
100
AcDbCircle
 62
7
  6
CONTINUOUS
 10
277.1749003015
 20
238.4070313293
 40
7.0083097612
100
AcDbArc
 50
358.7249295086
 51
1.0555302745
  0
ARC
  5
453
100
AcDbEntity
  8
BEZUGSACHSEN
100
AcDbCircle
 62
7
  6
CONTINUOUS
 10
277.7122979691
 20
237.4140588372
 40
6.8629433786
100
AcDbArc
 50
358.6979166754
 51
1.0778899169
  0
ARC
  5
454
100
AcDbEntity
  8
BEZUGSACHSEN
100
AcDbCircle
 62
7
  6
CONTINUOUS
 10
278.1814773811
 20
236.4177511793
 40
6.7858824023
100
AcDbArc
 50
3.2593815903
 51
4.8680271231
  0
ARC
  5
455
100
AcDbEntity
  8
BEZUGSACHSEN
100
AcDbCircle
 62
7
  6
CONTINUOUS
 10
279.0151776479
 20
234.9302959363
 40
6.5401576633
100
AcDbArc
 50
0.8652474305
 51
5.03377292
  0
ARC
  5
456
100
AcDbEntity
  8
BEZUGSACHSEN
100
AcDbCircle
 62
7
  6
CONTINUOUS
 10
279.5745939971
 20
233.9381535876
 40
6.3727626712
100
AcDbArc
 50
0.8805118593
 51
3.4454003432
  0
ARC
  5
457
100
AcDbEntity
  8
BEZUGSACHSEN
100
AcDbCircle
 62
7
  6
CONTINUOUS
 10
280.5233720068
 20
238.6999133537
 40
4.3505864966
100
AcDbArc
 50
326.9054481794
 51
328.4221415857
  0
ARC
  5
458
100
AcDbEntity
  8
0
100
AcDbCircle
 62
7
  6
CONTINUOUS
 10
279.6940794036
 20
238.6368167137
 40
4.3117616756
100
AcDbArc
 50
327.5675234472
 51
329.0868398247
  0
ARC
  5
459
100
AcDbEntity
  8
BEZUGSACHSEN
100
AcDbCircle
 62
7
  6
CONTINUOUS
 10
282.3583671897
 20
233.9477474531
 40
4.2232870083
100
AcDbArc
 50
57.3670751066
 51
58.356714715
  0
ARC
  5
45A
100
AcDbEntity
  8
BEZUGSACHSEN
100
AcDbCircle
 62
7
  6
CONTINUOUS
 10
282.0486860539
 20
238.3596991317
 40
2.5005824373
100
AcDbArc
 50
28.1983283097
 51
31.0366167343
  0
ARC
  5
45B
100
AcDbEntity
  8
BEZUGSACHSEN
100
AcDbCircle
 62
7
  6
CONTINUOUS
 10
284.3340025574
 20
237.768071
 40
0.576651587
100
AcDbArc
 50
11.0248700831
 51
15.5597626571
  0
SPLINE
  5
45C
100
AcDbEntity
  8
0
100
AcDbSpline
 62
7
  6
CONTINUOUS
 70
0
 71
3
 72
11
 73
7
 74
0
 42
0.0000001
 43
0.0000001
 44
0.0000000001
 40
0.0
 40
0.0
 40
0.0
 40
0.0
 40
0.2612400781
 40
0.5172478691
 40
0.7636728347
 40
1.0
 40
1.0
 40
1.0
 40
1.0
 10
169.8165370236
 20
102.6746013714
 30
0.0
 10
169.894726293
 20
102.4488159319
 30
0.0
 10
170.0062701648
 20
101.9848552626
 30
0.0
 10
170.014040653
 20
101.2800136977
 30
0.0
 10
169.8585247049
 20
100.6158238914
 30
0.0
 10
169.6584773068
 20
100.2174224355
 30
0.0
 10
169.5415363501
 20
100.0356327543
 30
0.0
  0
SPLINE
  5
45D
100
AcDbEntity
  8
0
100
AcDbSpline
 62
7
  6
CONTINUOUS
 70
0
 71
3
 72
9
 73
5
 74
0
 42
0.0000001
 43
0.0000001
 44
0.0000000001
 40
0.0
 40
0.0
 40
0.0
 40
0.0
 40
0.4944707573
 40
1.0
 40
1.0
 40
1.0
 40
1.0
 10
112.6943316261
 20
94.5596814957
 30
0.0
 10
112.5418801862
 20
95.5311228624
 30
0.0
 10
111.9328687231
 20
97.4516069285
 30
0.0
 10
110.9521675337
 20
99.1901383115
 30
0.0
 10
110.4082811681
 20
100.0356327543
 30
0.0
  0
SPLINE
  5
45E
100
AcDbEntity
  8
0
100
AcDbSpline
 62
7
  6
CONTINUOUS
 70
0
 71
3
 72
9
 73
5
 74
0
 42
0.0000001
 43
0.0000001
 44
0.0000000001
 40
0.0
 40
0.0
 40
0.0
 40
0.0
 40
0.5055292427
 40
1.0
 40
1.0
 40
1.0
 40
1.0
 10
169.5415363501
 20
100.0356327543
 30
0.0
 10
168.9976499846
 20
99.1901383115
 30
0.0
 10
168.0169487951
 20
97.4516069285
 30
0.0
 10
167.4079373321
 20
95.5311228624
 30
0.0
 10
167.2554858922
 20
94.5596814957
 30
0.0
  0
SPLINE
  5
45F
100
AcDbEntity
  8
0
100
AcDbSpline
 62
7
  6
CONTINUOUS
 70
0
 71
3
 72
9
 73
5
 74
0
 42
0.0000001
 43
0.0000001
 44
0.0000000001
 40
0.0
 40
0.0
 40
0.0
 40
0.0
 40
0.5000819919
 40
1.0
 40
1.0
 40
1.0
 40
1.0
 10
110.1332804946
 20
102.6746013714
 30
0.0
 10
110.4265884133
 20
103.5215802198
 30
0.0
 10
110.9015323896
 20
105.2576686757
 30
0.0
 10
111.072664277
 20
107.0536144813
 30
0.0
 10
111.072664277
 20
107.9496479058
 30
0.0
  0
LINE
  5
460
100
AcDbEntity
  8
BEZUGSACHSEN
100
AcDbLine
 62
7
  6
CONTINUOUS
 10
115.0200324355
 20
80.747699016
 11
114.9565836381
 21
81.0987953184
  0
SPLINE
  5
461
100
AcDbEntity
  8
0
100
AcDbSpline
 62
7
  6
CONTINUOUS
 70
0
 71
3
 72
9
 73
5
 74
0
 42
0.0000001
 43
0.0000001
 44
0.0000000001
 40
0.0
 40
0.0
 40
0.0
 40
0.0
 40
0.4999180081
 40
1.0
 40
1.0
 40
1.0
 40
1.0
 10
168.8771532413
 20
107.9496479058
 30
0.0
 10
168.8771532413
 20
107.0536144813
 30
0.0
 10
169.0482851287
 20
105.2576686757
 30
0.0
 10
169.523229105
 20
103.5215802198
 30
0.0
 10
169.8165370236
 20
102.6746013714
 30
0.0
  0
SPLINE
  5
462
100
AcDbEntity
  8
0
100
AcDbSpline
 62
7
  6
CONTINUOUS
 70
0
 71
3
 72
11
 73
7
 74
0
 42
0.0000001
 43
0.0000001
 44
0.0000000001
 40
0.0
 40
0.0
 40
0.0
 40
0.0
 40
0.255989082
 40
0.5077658608
 40
0.7550832605
 40
1.0
 40
1.0
 40
1.0
 40
1.0
 10
111.072664277
 20
122.7284100193
 30
0.0
 10
111.072664277
 20
123.501235819
 30
0.0
 10
111.317980915
 20
125.0439862032
 30
0.0
 10
112.3254952813
 20
127.1182968585
 30
0.0
 10
113.7742351722
 20
128.8572018722
 30
0.0
 10
114.9302904123
 20
129.8032510656
 30
0.0
 10
115.5352285822
 20
130.2284100193
 30
0.0
  0
SPLINE
  5
463
100
AcDbEntity
  8
0
100
AcDbSpline
 62
7
  6
CONTINUOUS
 70
0
 71
3
 72
11
 73
7
 74
0
 42
0.0000001
 43
0.0000001
 44
0.0000000001
 40
0.0
 40
0.0
 40
0.0
 40
0.0
 40
0.2449026047
 40
0.4922101403
 40
0.7439897683
 40
1.0
 40
1.0
 40
1.0
 40
1.0
 10
164.4145889361
 20
130.2284100193
 30
0.0
 10
165.0194923873
 20
129.8032754663
 30
0.0
 10
166.1754993929
 20
128.8572822852
 30
0.0
 10
167.6242186972
 20
127.1184469642
 30
0.0
 10
168.6318183771
 20
125.0441284924
 30
0.0
 10
168.8771532413
 20
123.5012999172
 30
0.0
 10
168.8771532413
 20
122.7284100193
 30
0.0
  0
SPLINE
  5
464
100
AcDbEntity
  8
0
100
AcDbSpline
 62
7
  6
CONTINUOUS
 70
0
 71
3
 72
11
 73
7
 74
0
 42
0.0000001
 43
0.0000001
 44
0.0000000001
 40
0.0
 40
0.0
 40
0.0
 40
0.0
 40
0.2363271653
 40
0.4827521309
 40
0.7387599219
 40
1.0
 40
1.0
 40
1.0
 40
1.0
 10
110.4082811681
 20
100.0356327543
 30
0.0
 10
110.2913402114
 20
100.2174224355
 30
0.0
 10
110.0912928134
 20
100.6158238914
 30
0.0
 10
109.9357768653
 20
101.2800136977
 30
0.0
 10
109.9435473535
 20
101.9848552626
 30
0.0
 10
110.0550912253
 20
102.4488159319
 30
0.0
 10
110.1332804946
 20
102.6746013714
 30
0.0
  0
SPLINE
  5
465
100
AcDbEntity
  8
BEZUGSACHSEN
100
AcDbSpline
 62
7
  6
CONTINUOUS
 70
0
 71
3
 72
9
 73
5
 74
0
 42
0.0000001
 43
0.0000001
 44
0.0000000001
 40
0.0
 40
0.0
 40
0.0
 40
0.0
 40
0.4902164658
 40
1.0
 40
1.0
 40
1.0
 40
1.0
 10
287.9008567913
 20
213.6275269838
 30
0.0
 10
287.8823071308
 20
213.8573588722
 30
0.0
 10
287.7955498325
 20
214.3233420075
 30
0.0
 10
287.6200697547
 20
214.7629662151
 30
0.0
 10
287.5125262774
 20
214.9772795726
 30
0.0
  0
SPLINE
  5
466
100
AcDbEntity
  8
BEZUGSACHSEN
100
AcDbSpline
 62
7
  6
CONTINUOUS
 70
0
 71
3
 72
8
 73
4
 74
0
 42
0.0000001
 43
0.0000001
 44
0.0000000001
 40
0.0
 40
0.0
 40
0.0
 40
0.0
 40
1.0
 40
1.0
 40
1.0
 40
1.0
 10
287.9099977216
 20
215.0041054591
 30
0.0
 10
287.9103046638
 20
215.3711139885
 30
0.0
 10
287.9104135174
 20
215.7381227076
 30
0.0
 10
287.9103846915
 20
216.1051313642
 30
0.0
  0
SPLINE
  5
467
100
AcDbEntity
  8
BEZUGSACHSEN
100
AcDbSpline
 62
7
  6
CONTINUOUS
 70
0
 71
3
 72
9
 73
5
 74
0
 42
0.0000001
 43
0.0000001
 44
0.0000000001
 40
0.0
 40
0.0
 40
0.0
 40
0.0
 40
0.4951680941
 40
1.0
 40
1.0
 40
1.0
 40
1.0
 10
287.9103846915
 20
216.1051313642
 30
0.0
 10
287.9029498127
 20
216.4430064269
 30
0.0
 10
287.8248597955
 20
217.1253505987
 30
0.0
 10
287.6259201814
 20
217.7822875533
 30
0.0
 10
287.4988980144
 20
218.1025714771
 30
0.0
  0
LINE
  5
468
100
AcDbEntity
  8
BEZUGSACHSEN
100
AcDbLine
 62
7
  6
CONTINUOUS
 10
287.1146895705
 20
218.9039189941
 11
286.967080142
 21
219.1650706008
  0
LINE
  5
469
100
AcDbEntity
  8
BEZUGSACHSEN
100
AcDbLine
 62
7
  6
CONTINUOUS
 10
287.9113299339
 20
220.0877857668
 11
287.9115107017
 21
221.2502973174
  0
LINE
  5
46A
100
AcDbEntity
  8
BEZUGSACHSEN
100
AcDbLine
 62
7
  6
CONTINUOUS
 10
286.9118526704
 20
225.9943871529
 11
287.1146895705
 21
225.4698021472
  0
LINE
  5
46B
100
AcDbEntity
  8
BEZUGSACHSEN
100
AcDbLine
 62
7
  6
CONTINUOUS
 10
287.2491174906
 20
230.8464555466
 11
287.2343101206
 21
230.9303922284
  0
LINE
  5
46C
100
AcDbEntity
  8
BEZUGSACHSEN
100
AcDbLine
 62
7
  6
CONTINUOUS
 10
287.2032332159
 20
231.0974118277
 11
287.186949521
 21
231.1804943186
  0
LINE
  5
46D
100
AcDbEntity
  8
BEZUGSACHSEN
100
AcDbLine
 62
7
  6
CONTINUOUS
 10
287.0891654971
 20
231.4974289541
 11
287.101801619
 21
231.4574303352
  0
LINE
  5
46E
100
AcDbEntity
  8
BEZUGSACHSEN
100
AcDbLine
 62
7
  6
CONTINUOUS
 10
287.101801619
 20
231.4574303352
 11
287.1146895705
 21
231.4165822589
  0
LINE
  5
46F
100
AcDbEntity
  8
BEZUGSACHSEN
100
AcDbLine
 62
7
  6
CONTINUOUS
 10
286.9095822956
 20
232.6663910705
 11
286.7365581015
 21
233.1107628797
  0
LINE
  5
470
100
AcDbEntity
  8
BEZUGSACHSEN
100
AcDbLine
 62
7
  6
CONTINUOUS
 10
285.7402720291
 20
235.5898931163
 11
285.7273006012
 21
235.6213870934
  0
LINE
  5
471
100
AcDbEntity
  8
BEZUGSACHSEN
100
AcDbLine
 62
7
  6
CONTINUOUS
 10
285.293832859
 20
236.6638761982
 11
285.0956651565
 21
237.1594074662
  0
LINE
  5
472
100
AcDbEntity
  8
BEZUGSACHSEN
100
AcDbLine
 62
7
  6
CONTINUOUS
 10
285.0956651565
 20
237.1594074662
 11
285.0291798465
 21
237.3254997202
  0
LINE
  5
473
100
AcDbEntity
  8
BEZUGSACHSEN
100
AcDbLine
 62
7
  6
CONTINUOUS
 10
284.8985854651
 20
237.6651933265
 11
285.0291798465
 21
237.3254997202
  0
LINE
  5
474
100
AcDbEntity
  8
BEZUGSACHSEN
100
AcDbLine
 62
7
  6
CONTINUOUS
 10
284.8208355455
 20
237.8783483452
 11
284.8507030587
 21
237.7965007836
  0
LINE
  5
475
100
AcDbEntity
  8
BEZUGSACHSEN
100
AcDbLine
 62
7
  6
CONTINUOUS
 10
284.8507030587
 20
237.7965007836
 11
284.8985854651
 21
237.6651933265
  0
LINE
  5
476
100
AcDbEntity
  8
BEZUGSACHSEN
100
AcDbLine
 62
7
  6
CONTINUOUS
 10
284.8895205468
 20
237.9227539535
 11
284.8250678559
 21
238.0898568762
  0
LINE
  5
477
100
AcDbEntity
  8
BEZUGSACHSEN
100
AcDbLine
 62
7
  6
CONTINUOUS
 10
284.8250678559
 20
238.0898568762
 11
284.6308183592
 21
238.5932589466
  0
SPLINE
  5
478
100
AcDbEntity
  8
BEZUGSACHSEN
100
AcDbSpline
 62
7
  6
CONTINUOUS
 70
0
 71
3
 72
9
 73
5
 74
0
 42
0.0000001
 43
0.0000001
 44
0.0000000001
 40
0.0
 40
0.0
 40
0.0
 40
0.0
 40
0.2558574292
 40
1.0
 40
1.0
 40
1.0
 40
1.0
 10
287.2284474063
 20
231.4974276078
 30
0.0
 10
287.2327281793
 20
231.5105962621
 30
0.0
 10
287.2475733634
 20
231.5626564034
 30
0.0
 10
287.2544611517
 20
231.6170059074
 30
0.0
 10
287.2547409018
 20
231.6572778219
 30
0.0
  0
LINE
  5
479
100
AcDbEntity
  8
BEZUGSACHSEN
100
AcDbLine
 62
7
  6
CONTINUOUS
 10
287.1146895705
 20
232.1323494118
 11
287.0052042567
 21
232.4174211432
  0
LINE
  5
47A
100
AcDbEntity
  8
BEZUGSACHSEN
100
AcDbLine
 62
7
  6
CONTINUOUS
 10
287.0052042567
 20
232.4174211432
 11
286.9609239885
 21
232.532713822
  0
LINE
  5
47B
100
AcDbEntity
  8
BEZUGSACHSEN
100
AcDbLine
 62
7
  6
CONTINUOUS
 10
286.9609239885
 20
232.532713822
 11
286.9095822956
 21
232.6663910705
  0
LINE
  5
47C
100
AcDbEntity
  8
BEZUGSACHSEN
100
AcDbLine
 62
7
  6
CONTINUOUS
 10
286.7725398058
 20
232.3280621596
 11
286.7067532522
 21
232.5010391692
  0
LINE
  5
47D
100
AcDbEntity
  8
BEZUGSACHSEN
100
AcDbLine
 62
7
  6
CONTINUOUS
 10
286.7067532522
 20
232.5010391692
 11
286.5086972168
 21
233.0217169352
  0
LINE
  5
47E
100
AcDbEntity
  8
BEZUGSACHSEN
100
AcDbLine
 62
7
  6
CONTINUOUS
 10
287.0436729713
 20
231.5393892968
 11
287.0277214656
 21
231.5859809062
  0
LINE
  5
47F
100
AcDbEntity
  8
BEZUGSACHSEN
100
AcDbLine
 62
7
  6
CONTINUOUS
 10
287.0277214656
 20
231.5859809062
 11
286.9765949097
 21
231.7351480598
  0
LINE
  5
480
100
AcDbEntity
  8
BEZUGSACHSEN
100
AcDbLine
 62
7
  6
CONTINUOUS
 10
286.9765949097
 20
231.7351480598
 11
286.9090468491
 21
231.9318465015
  0
LINE
  5
481
100
AcDbEntity
  8
BEZUGSACHSEN
100
AcDbLine
 62
7
  6
CONTINUOUS
 10
286.9090468491
 20
231.9318465015
 11
286.8410285569
 21
232.1294845562
  0
LINE
  5
482
100
AcDbEntity
  8
BEZUGSACHSEN
100
AcDbLine
 62
7
  6
CONTINUOUS
 10
286.8410285569
 20
232.1294845562
 11
286.7725398058
 21
232.3280621596
  0
LINE
  5
483
100
AcDbEntity
  8
BEZUGSACHSEN
100
AcDbLine
 62
7
  6
CONTINUOUS
 10
287.0486251457
 20
231.5231232901
 11
287.0436729713
 21
231.5393892968
  0
LINE
  5
484
100
AcDbEntity
  8
BEZUGSACHSEN
100
AcDbLine
 62
7
  6
CONTINUOUS
 10
287.2468942766
 20
230.5440533952
 11
287.2455705996
 21
230.4727940904
  0
LINE
  5
485
100
AcDbEntity
  8
BEZUGSACHSEN
100
AcDbLine
 62
7
  6
CONTINUOUS
 10
284.3360754722
 20
238.3756980121
 11
284.3668594861
 21
238.3247026216
  0
LINE
  5
486
100
AcDbEntity
  8
BEZUGSACHSEN
100
AcDbLine
 62
7
  6
CONTINUOUS
 10
284.6191968486
 20
237.7894120205
 11
284.7004250164
 21
237.5897648664
  0
LINE
  5
487
100
AcDbEntity
  8
BEZUGSACHSEN
100
AcDbLine
 62
7
  6
CONTINUOUS
 10
284.7004250164
 20
237.5897648664
 11
284.7981620084
 21
237.3494897627
  0
LINE
  5
488
100
AcDbEntity
  8
BEZUGSACHSEN
100
AcDbLine
 62
7
  6
CONTINUOUS
 10
284.7981620084
 20
237.3494897627
 11
284.8622675757
 21
237.191862579
  0
LINE
  5
489
100
AcDbEntity
  8
BEZUGSACHSEN
100
AcDbLine
 62
7
  6
CONTINUOUS
 10
284.8622675757
 20
237.191862579
 11
284.9088242857
 21
237.0773701286
  0
LINE
  5
48A
100
AcDbEntity
  8
BEZUGSACHSEN
100
AcDbLine
 62
7
  6
CONTINUOUS
 10
284.9088242857
 20
237.0773701286
 11
284.942881792
 21
236.9936073849
  0
LINE
  5
48B
100
AcDbEntity
  8
BEZUGSACHSEN
100
AcDbLine
 62
7
  6
CONTINUOUS
 10
284.952796982
 20
235.9800800196
 11
284.7607537465
 21
236.5399126738
  0
LINE
  5
48C
100
AcDbEntity
  8
BEZUGSACHSEN
100
AcDbLine
 62
7
  6
CONTINUOUS
 10
285.2117547983
 20
235.2864260848
 11
285.180883478
 21
235.3691502124
  0
LINE
  5
48D
100
AcDbEntity
  8
BEZUGSACHSEN
100
AcDbLine
 62
7
  6
CONTINUOUS
 10
285.180883478
 20
235.3691502124
 11
285.0825736131
 21
235.6325291141
  0
LINE
  5
48E
100
AcDbEntity
  8
BEZUGSACHSEN
100
AcDbLine
 62
7
  6
CONTINUOUS
 10
285.0825736131
 20
235.6325291141
 11
284.952796982
 21
235.9800800196
  0
LINE
  5
48F
100
AcDbEntity
  8
BEZUGSACHSEN
100
AcDbLine
 62
7
  6
CONTINUOUS
 10
286.190853345
 20
232.8039944668
 11
286.1322491591
 21
232.9525891124
  0
LINE
  5
490
100
AcDbEntity
  8
BEZUGSACHSEN
100
AcDbLine
 62
7
  6
CONTINUOUS
 10
286.1322491591
 20
232.9525891124
 11
285.9365858774
 21
233.4486980506
  0
LINE
  5
491
100
AcDbEntity
  8
BEZUGSACHSEN
100
AcDbLine
 62
7
  6
CONTINUOUS
 10
285.9365858774
 20
233.4486980506
 11
285.7030387194
 21
234.040847239
  0
LINE
  5
492
100
AcDbEntity
  8
BEZUGSACHSEN
100
AcDbLine
 62
7
  6
CONTINUOUS
 10
285.7030387194
 20
234.040847239
 11
285.6331014764
 21
234.2181671052
  0
LINE
  5
493
100
AcDbEntity
  8
BEZUGSACHSEN
100
AcDbLine
 62
7
  6
CONTINUOUS
 10
285.6331014764
 20
234.2181671052
 11
285.4578303269
 21
234.6625458677
  0
LINE
  5
494
100
AcDbEntity
  8
BEZUGSACHSEN
100
AcDbLine
 62
7
  6
CONTINUOUS
 10
285.4578303269
 20
234.6625458677
 11
285.4275506995
 21
234.7393153148
  0
LINE
  5
495
100
AcDbEntity
  8
BEZUGSACHSEN
100
AcDbLine
 62
7
  6
CONTINUOUS
 10
285.4275506995
 20
234.7393153148
 11
285.2744280812
 21
235.1275308263
  0
LINE
  5
496
100
AcDbEntity
  8
BEZUGSACHSEN
100
AcDbLine
 62
7
  6
CONTINUOUS
 10
285.2744280812
 20
235.1275308263
 11
285.2117547983
 21
235.2864260848
  0
LINE
  5
497
100
AcDbEntity
  8
BEZUGSACHSEN
100
AcDbLine
 62
7
  6
CONTINUOUS
 10
286.190853345
 20
232.8039944668
 11
286.4542743015
 21
232.1736849956
  0
LINE
  5
498
100
AcDbEntity
  8
BEZUGSACHSEN
100
AcDbLine
 62
7
  6
CONTINUOUS
 10
286.4542743015
 20
232.1736849956
 11
286.6045856862
 21
231.8484070593
  0
LINE
  5
499
100
AcDbEntity
  8
BEZUGSACHSEN
100
AcDbLine
 62
7
  6
CONTINUOUS
 10
286.6045856862
 20
231.8484070593
 11
286.6543594454
 21
231.7405446318
  0
LINE
  5
49A
100
AcDbEntity
  8
BEZUGSACHSEN
100
AcDbLine
 62
7
  6
CONTINUOUS
 10
285.5301109119
 20
235.5041485532
 11
285.9883236099
 21
234.3418302122
  0
LINE
  5
49B
100
AcDbEntity
  8
BEZUGSACHSEN
100
AcDbLine
 62
7
  6
CONTINUOUS
 10
285.9883236099
 20
234.3418302122
 11
286.021298728
 21
234.2581808101
  0
LINE
  5
49C
100
AcDbEntity
  8
BEZUGSACHSEN
100
AcDbLine
 62
7
  6
CONTINUOUS
 10
286.021298728
 20
234.2581808101
 11
286.0870284362
 21
234.0914399544
  0
LINE
  5
49D
100
AcDbEntity
  8
BEZUGSACHSEN
100
AcDbLine
 62
7
  6
CONTINUOUS
 10
286.0870284362
 20
234.0914399544
 11
286.5086972168
 21
233.0217169352
  0
LINE
  5
49E
100
AcDbEntity
  8
BEZUGSACHSEN
100
AcDbLine
 62
7
  6
CONTINUOUS
 10
285.4574966153
 20
232.2525931616
 11
284.478365241
 21
234.617959441
  0
LINE
  5
49F
100
AcDbEntity
  8
BEZUGSACHSEN
100
AcDbLine
 62
7
  6
CONTINUOUS
 10
285.616391459
 20
216.2269000251
 11
286.3740351126
 21
215.6455860715
  0
LINE
  5
4A0
100
AcDbEntity
  8
BEZUGSACHSEN
100
AcDbLine
 62
7
  6
CONTINUOUS
 10
286.3740351126
 20
215.6455860715
 11
287.1046294788
 21
215.0820563438
  0
SPLINE
  5
4A1
100
AcDbEntity
  8
BEZUGSACHSEN
100
AcDbSpline
 62
7
  6
CONTINUOUS
 70
0
 71
3
 72
8
 73
4
 74
0
 42
0.0000001
 43
0.0000001
 44
0.0000000001
 40
0.0
 40
0.0
 40
0.0
 40
0.0
 40
1.0
 40
1.0
 40
1.0
 40
1.0
 10
285.481470054
 20
216.866662203
 30
0.0
 10
285.3929851873
 20
217.1049829078
 30
0.0
 10
285.3043151844
 20
217.3432349488
 30
0.0
 10
285.2154686487
 20
217.581421059
 30
0.0
  0
LINE
  5
4A2
100
AcDbEntity
  8
BEZUGSACHSEN
100
AcDbLine
 62
7
  6
CONTINUOUS
 10
287.1146895705
 20
228.2485386982
 11
287.1003178632
 21
228.2832671695
  0
LINE
  5
4A3
100
AcDbEntity
  8
BEZUGSACHSEN
100
AcDbLine
 62
7
  6
CONTINUOUS
 10
287.1003178632
 20
228.2832671695
 11
285.8491189196
 21
231.3064468266
  0
LINE
  5
4A4
100
AcDbEntity
  8
BEZUGSACHSEN
100
AcDbLine
 62
7
  6
CONTINUOUS
 10
285.2154686487
 20
217.581421059
 11
285.0672728651
 21
217.8773524442
  0
LINE
  5
4A5
100
AcDbEntity
  8
BEZUGSACHSEN
100
AcDbLine
 62
7
  6
CONTINUOUS
 10
285.0672728651
 20
217.8773524442
 11
285.0177087814
 21
217.9762986646
  0
LINE
  5
4A6
100
AcDbEntity
  8
BEZUGSACHSEN
100
AcDbLine
 62
7
  6
CONTINUOUS
 10
287.2032816252
 20
227.7653269093
 11
287.1983567875
 21
227.6889404175
  0
LINE
  5
4A7
100
AcDbEntity
  8
BEZUGSACHSEN
100
AcDbLine
 62
7
  6
CONTINUOUS
 10
284.7565329835
 20
218.3521983548
 11
285.0177087814
 21
217.9762986646
  0
LINE
  5
4A8
100
AcDbEntity
  8
BEZUGSACHSEN
100
AcDbLine
 62
7
  6
CONTINUOUS
 10
284.5624631621
 20
218.5211698898
 11
284.7565329835
 21
218.3521983548
  0
LINE
  5
4A9
100
AcDbEntity
  8
BEZUGSACHSEN
100
AcDbLine
 62
7
  6
CONTINUOUS
 10
284.3057596663
 20
218.5582098877
 11
284.5624631621
 21
218.5211698898
  0
LINE
  5
4AA
100
AcDbEntity
  8
BEZUGSACHSEN
100
AcDbLine
 62
7
  6
CONTINUOUS
 10
287.0933714111
 20
211.4675556596
 11
285.7234515268
 21
213.4410279146
  0
LINE
  5
4AB
100
AcDbEntity
  8
BEZUGSACHSEN
100
AcDbLine
 62
7
  6
CONTINUOUS
 10
285.3319837149
 20
214.004877055
 11
284.3532107947
 21
215.4145001695
  0
LINE
  5
4AC
100
AcDbEntity
  8
BEZUGSACHSEN
100
AcDbLine
 62
7
  6
CONTINUOUS
 10
284.6754898536
 20
235.6748552468
 11
284.8690742821
 21
235.2527814341
  0
LINE
  5
4AD
100
AcDbEntity
  8
BEZUGSACHSEN
100
AcDbLine
 62
7
  6
CONTINUOUS
 10
284.8690742821
 20
235.2527814341
 11
285.1301614644
 21
234.622016769
  0
LINE
  5
4AE
100
AcDbEntity
  8
BEZUGSACHSEN
100
AcDbLine
 62
7
  6
CONTINUOUS
 10
285.3282896137
 20
234.0979442466
 11
285.1301614644
 21
234.622016769
  0
LINE
  5
4AF
100
AcDbEntity
  8
BEZUGSACHSEN
100
AcDbLine
 62
7
  6
CONTINUOUS
 10
284.4410579114
 20
217.8054943514
 11
284.5702878271
 21
217.8434510317
  0
SPLINE
  5
4B0
100
AcDbEntity
  8
BEZUGSACHSEN
100
AcDbSpline
 62
7
  6
CONTINUOUS
 70
0
 71
3
 72
8
 73
4
 74
0
 42
0.0000001
 43
0.0000001
 44
0.0000000001
 40
0.0
 40
0.0
 40
0.0
 40
0.0
 40
1.0
 40
1.0
 40
1.0
 40
1.0
 10
285.5955284466
 20
233.3141831259
 30
0.0
 10
285.506630295
 20
233.5754986346
 30
0.0
 10
285.4175478246
 20
233.8367515051
 30
0.0
 10
285.3282896137
 20
234.0979442466
 30
0.0
  0
LINE
  5
4B1
100
AcDbEntity
  8
BEZUGSACHSEN
100
AcDbLine
 62
7
  6
CONTINUOUS
 10
284.0735912948
 20
224.9093688022
 11
284.3375934827
 21
224.4503971615
  0
LINE
  5
4B2
100
AcDbEntity
  8
BEZUGSACHSEN
100
AcDbLine
 62
7
  6
CONTINUOUS
 10
284.3375934827
 20
224.4503971615
 11
286.0975463596
 21
221.3904417431
  0
LINE
  5
4B3
100
AcDbEntity
  8
BEZUGSACHSEN
100
AcDbLine
 62
7
  6
CONTINUOUS
 10
285.7321816012
 20
232.794804762
 11
285.8818690944
 21
232.4767293079
  0
LINE
  5
4B4
100
AcDbEntity
  8
BEZUGSACHSEN
100
AcDbLine
 62
7
  6
CONTINUOUS
 10
285.8818690944
 20
232.4767293079
 11
285.9960132919
 21
232.2339657329
  0
LINE
  5
4B5
100
AcDbEntity
  8
BEZUGSACHSEN
100
AcDbLine
 62
7
  6
CONTINUOUS
 10
285.9960132919
 20
232.2339657329
 11
286.0867725078
 21
232.0408016228
  0
LINE
  5
4B6
100
AcDbEntity
  8
BEZUGSACHSEN
100
AcDbLine
 62
7
  6
CONTINUOUS
 10
286.0867725078
 20
232.0408016228
 11
286.3263515547
 21
231.5303058965
  0
LINE
  5
4B7
100
AcDbEntity
  8
BEZUGSACHSEN
100
AcDbLine
 62
7
  6
CONTINUOUS
 10
286.3538043626
 20
218.0089175671
 11
286.5543487644
 21
217.8702710665
  0
LINE
  5
4B8
100
AcDbEntity
  8
BEZUGSACHSEN
100
AcDbLine
 62
7
  6
CONTINUOUS
 10
287.2239402381
 20
229.3592646382
 11
287.2268564276
 21
229.2699087457
  0
LINE
  5
4B9
100
AcDbEntity
  8
BEZUGSACHSEN
100
AcDbLine
 62
7
  6
CONTINUOUS
 10
286.0901963385
 20
218.3620257968
 11
286.3538043626
 21
218.0089175671
  0
LINE
  5
4BA
100
AcDbEntity
  8
BEZUGSACHSEN
100
AcDbLine
 62
7
  6
CONTINUOUS
 10
286.0901963385
 20
218.3620257968
 11
284.3246148786
 21
221.4329707818
  0
LINE
  5
4BB
100
AcDbEntity
  8
BEZUGSACHSEN
100
AcDbLine
 62
7
  6
CONTINUOUS
 10
284.3246148786
 20
221.4329707818
 11
284.06702415
 21
221.8809528559
  0
LINE
  5
4BC
100
AcDbEntity
  8
BEZUGSACHSEN
100
AcDbLine
 62
7
  6
CONTINUOUS
 10
286.7713732012
 20
221.6513234314
 11
285.9995130202
 21
223.2014661935
  0
LINE
  5
4BD
100
AcDbEntity
  8
BEZUGSACHSEN
100
AcDbLine
 62
7
  6
CONTINUOUS
 10
285.9995130202
 20
223.2014661935
 11
284.998965324
 21
225.2105793045
  0
LINE
  5
4BE
100
AcDbEntity
  8
BEZUGSACHSEN
100
AcDbLine
 62
7
  6
CONTINUOUS
 10
284.998965324
 20
225.2105793045
 11
284.4877932809
 21
226.2369020891
  0
LINE
  5
4BF
100
AcDbEntity
  8
BEZUGSACHSEN
100
AcDbLine
 62
7
  6
CONTINUOUS
 10
286.6909994388
 20
220.0659762226
 11
286.4260617172
 21
220.7219255488
  0
LINE
  5
4C0
100
AcDbEntity
  8
BEZUGSACHSEN
100
AcDbLine
 62
7
  6
CONTINUOUS
 10
286.4260617172
 20
220.7219255488
 11
286.3392455159
 21
220.8986110586
  0
LINE
  5
4C1
100
AcDbEntity
  8
BEZUGSACHSEN
100
AcDbLine
 62
7
  6
CONTINUOUS
 10
286.3392455159
 20
220.8986110586
 11
286.1799184042
 21
221.2228348725
  0
LINE
  5
4C2
100
AcDbEntity
  8
BEZUGSACHSEN
100
AcDbLine
 62
7
  6
CONTINUOUS
 10
286.1799184042
 20
221.2228348725
 11
286.0975463596
 21
221.3904417431
  0
LINE
  5
4C3
100
AcDbEntity
  8
BEZUGSACHSEN
100
AcDbLine
 62
7
  6
CONTINUOUS
 10
287.122397577
 20
222.9853347988
 11
287.1393966557
 21
222.8452243463
  0
LINE
  5
4C4
100
AcDbEntity
  8
BEZUGSACHSEN
100
AcDbLine
 62
7
  6
CONTINUOUS
 10
287.1393966557
 20
222.8452243463
 11
287.1559964048
 21
222.7046158777
  0
LINE
  5
4C5
100
AcDbEntity
  8
BEZUGSACHSEN
100
AcDbLine
 62
7
  6
CONTINUOUS
 10
287.1146895705
 20
223.0203472241
 11
287.0830519661
 21
223.1632577588
  0
LINE
  5
4C6
100
AcDbEntity
  8
BEZUGSACHSEN
100
AcDbLine
 62
7
  6
CONTINUOUS
 10
287.1146895705
 20
223.0203472241
 11
287.122397577
 21
222.9853347988
  0
LINE
  5
4C7
100
AcDbEntity
  8
BEZUGSACHSEN
100
AcDbLine
 62
7
  6
CONTINUOUS
 10
286.7183783302
 20
224.463291983
 11
286.4526535708
 21
225.1603231324
  0
LINE
  5
4C8
100
AcDbEntity
  8
BEZUGSACHSEN
100
AcDbLine
 62
7
  6
CONTINUOUS
 10
286.4526535708
 20
225.1603231324
 11
286.2885531865
 21
225.5304223329
  0
LINE
  5
4C9
100
AcDbEntity
  8
BEZUGSACHSEN
100
AcDbLine
 62
7
  6
CONTINUOUS
 10
286.2885531865
 20
225.5304223329
 11
286.1238275536
 21
225.9018877105
  0
LINE
  5
4CA
100
AcDbEntity
  8
BEZUGSACHSEN
100
AcDbLine
 62
7
  6
CONTINUOUS
 10
285.1448826237
 20
227.8671356149
 11
285.3543398564
 21
227.446667967
  0
LINE
  5
4CB
100
AcDbEntity
  8
BEZUGSACHSEN
100
AcDbLine
 62
7
  6
CONTINUOUS
 10
285.3543398564
 20
227.446667967
 11
285.3909300641
 21
227.3732150922
  0
LINE
  5
4CC
100
AcDbEntity
  8
BEZUGSACHSEN
100
AcDbLine
 62
7
  6
CONTINUOUS
 10
285.3909300641
 20
227.3732150922
 11
286.1238275536
 21
225.9018877105
  0
LINE
  5
4CD
100
AcDbEntity
  8
BEZUGSACHSEN
100
AcDbLine
 62
7
  6
CONTINUOUS
 10
284.8208540422
 20
228.435736551
 11
285.1191023313
 21
227.9123904124
  0
LINE
  5
4CE
100
AcDbEntity
  8
BEZUGSACHSEN
100
AcDbLine
 62
7
  6
CONTINUOUS
 10
285.1191023313
 20
227.9123904124
 11
285.1448826237
 21
227.8671356149
  0
LINE
  5
4CF
100
AcDbEntity
  8
BEZUGSACHSEN
100
AcDbLine
 62
7
  6
CONTINUOUS
 10
284.5638632504
 20
228.7868376112
 11
284.8208540422
 21
228.435736551
  0
LINE
  5
4D0
100
AcDbEntity
  8
BEZUGSACHSEN
100
AcDbLine
 62
7
  6
CONTINUOUS
 10
266.5411205534
 20
125.7346919613
 11
264.4753196595
 21
123.2346919613
  0
LINE
  5
4D1
100
AcDbEntity
  8
RUNDUNGEN
100
AcDbLine
 62
7
  6
CONTINUOUS
 10
279.2823283517
 20
125.7346919613
 11
281.3481292456
 21
123.2346919613
  0
SPLINE
  5
4D2
100
AcDbEntity
  8
0
100
AcDbSpline
 62
7
  6
CONTINUOUS
 70
0
 71
3
 72
9
 73
5
 74
0
 42
0.0000001
 43
0.0000001
 44
0.0000000001
 40
0.0
 40
0.0
 40
0.0
 40
0.0
 40
0.2593208895
 40
1.0
 40
1.0
 40
1.0
 40
1.0
 10
286.1146895705
 20
214.5116220761
 30
0.0
 10
286.1374567562
 20
214.4936822101
 30
0.0
 10
286.2244390476
 20
214.423482996
 30
0.0
 10
286.3080705896
 20
214.3490807191
 30
0.0
 10
286.3674451973
 20
214.2913841273
 30
0.0
  0
LINE
  5
4D3
100
AcDbEntity
  8
BEZUGSACHSEN
100
AcDbLine
 62
7
  6
CONTINUOUS
 10
286.5029656131
 20
231.8181532795
 11
286.5700625135
 21
231.6678794295
  0
LINE
  5
4D4
100
AcDbEntity
  8
BEZUGSACHSEN
100
AcDbLine
 62
7
  6
CONTINUOUS
 10
286.5700625135
 20
231.6678794295
 11
286.7700785994
 21
231.219517374
  0
LINE
  5
4D5
100
AcDbEntity
  8
BEZUGSACHSEN
100
AcDbLine
 62
7
  6
CONTINUOUS
 10
286.1736307074
 20
232.6139581764
 11
286.5029656131
 21
231.8181532795
  0
LINE
  5
4D6
100
AcDbEntity
  8
BEZUGSACHSEN
100
AcDbLine
 62
7
  6
CONTINUOUS
 10
286.1736307074
 20
232.6139581764
 11
286.1111334736
 21
232.7725849622
  0
LINE
  5
4D7
100
AcDbEntity
  8
BEZUGSACHSEN
100
AcDbLine
 62
7
  6
CONTINUOUS
 10
286.1111334736
 20
232.7725849622
 11
286.0526341077
 21
232.9210624057
  0
LINE
  5
4D8
100
AcDbEntity
  8
BEZUGSACHSEN
100
AcDbLine
 62
7
  6
CONTINUOUS
 10
286.0526341077
 20
232.9210624057
 11
285.930631702
 21
233.2307104156
  0
LINE
  5
4D9
100
AcDbEntity
  8
BEZUGSACHSEN
100
AcDbLine
 62
7
  6
CONTINUOUS
 10
285.930631702
 20
233.2307104156
 11
285.857129183
 21
233.4172590451
  0
LINE
  5
4DA
100
AcDbEntity
  8
BEZUGSACHSEN
100
AcDbLine
 62
7
  6
CONTINUOUS
 10
285.857129183
 20
233.4172590451
 11
285.6866059443
 21
233.8500330094
  0
LINE
  5
4DB
100
AcDbEntity
  8
BEZUGSACHSEN
100
AcDbLine
 62
7
  6
CONTINUOUS
 10
285.6866059443
 20
233.8500330094
 11
285.4415537991
 21
234.4719260935
  0
LINE
  5
4DC
100
AcDbEntity
  8
BEZUGSACHSEN
100
AcDbLine
 62
7
  6
CONTINUOUS
 10
285.4415537991
 20
234.4719260935
 11
285.3485044971
 21
234.7080577765
  0
LINE
  5
4DD
100
AcDbEntity
  8
BEZUGSACHSEN
100
AcDbLine
 62
7
  6
CONTINUOUS
 10
285.3485044971
 20
234.7080577765
 11
285.1954756055
 21
235.0963897944
  0
LINE
  5
4DE
100
AcDbEntity
  8
BEZUGSACHSEN
100
AcDbLine
 62
7
  6
CONTINUOUS
 10
285.1954756055
 20
235.0963897944
 11
285.1035471239
 21
235.3409397566
  0
LINE
  5
4DF
100
AcDbEntity
  8
BEZUGSACHSEN
100
AcDbLine
 62
7
  6
CONTINUOUS
 10
285.1035471239
 20
235.3409397566
 11
285.03437604
 21
235.5249096443
  0
LINE
  5
4E0
100
AcDbEntity
  8
BEZUGSACHSEN
100
AcDbLine
 62
7
  6
CONTINUOUS
 10
285.03437604
 20
235.5249096443
 11
284.9404975995
 21
235.7745374337
  0
LINE
  5
4E1
100
AcDbEntity
  8
BEZUGSACHSEN
100
AcDbLine
 62
7
  6
CONTINUOUS
 10
284.9404975995
 20
235.7745374337
 11
284.8724128279
 21
235.9555396186
  0
LINE
  5
4E2
100
AcDbEntity
  8
0
100
AcDbLine
 62
7
  6
CONTINUOUS
 10
283.7728033941
 20
236.680867235
 11
283.8643437601
 21
236.4217011971
  0
LINE
  5
4E3
100
AcDbEntity
  8
BEZUGSACHSEN
100
AcDbLine
 62
7
  6
CONTINUOUS
 10
284.8724128279
 20
235.9555396186
 11
284.8089312685
 21
236.1360343042
  0
LINE
  5
4E4
100
AcDbEntity
  8
BEZUGSACHSEN
100
AcDbLine
 62
7
  6
CONTINUOUS
 10
284.8089312685
 20
236.1360343042
 11
284.6170228702
 21
236.680867235
  0
SPLINE
  5
4E5
100
AcDbEntity
  8
0
100
AcDbSpline
 62
7
  6
CONTINUOUS
 70
0
 71
3
 72
11
 73
7
 74
0
 42
0.0000001
 43
0.0000001
 44
0.0000000001
 40
0.0
 40
0.0
 40
0.0
 40
0.0
 40
0.2500018457
 40
0.5000008304
 40
0.7499992698
 40
1.0
 40
1.0
 40
1.0
 40
1.0
 10
278.3111610205
 20
209.2428296798
 30
0.0
 10
278.6500225946
 20
206.3861434869
 30
0.0
 10
279.1945411313
 20
200.6558100714
 30
0.0
 10
279.5594726059
 20
192.0292858167
 30
0.0
 10
279.4461338985
 20
183.3956582742
 30
0.0
 10
279.057343223
 20
177.6523442767
 30
0.0
 10
278.791342566
 20
174.7879677352
 30
0.0
  0
SPLINE
  5
4E6
100
AcDbEntity
  8
0
100
AcDbSpline
 62
7
  6
CONTINUOUS
 70
0
 71
3
 72
11
 73
7
 74
0
 42
0.0000001
 43
0.0000001
 44
0.0000000001
 40
0.0
 40
0.0
 40
0.0
 40
0.0
 40
0.2502389943
 40
0.5000000009
 40
0.7497610074
 40
1.0
 40
1.0
 40
1.0
 40
1.0
 10
278.3111610205
 20
240.7866964069
 30
0.0
 10
278.6942029655
 20
238.1742692464
 30
0.0
 10
279.2906460095
 20
232.9274094265
 30
0.0
 10
279.5992248951
 20
225.0147630154
 30
0.0
 10
279.2906460205
 20
217.1021166217
 30
0.0
 10
278.6942029628
 20
211.8552568218
 30
0.0
 10
278.3111610205
 20
209.2428296798
 30
0.0
  0
LINE
  5
4E7
100
AcDbEntity
  8
BEZUGSACHSEN
100
AcDbLine
 62
7
  6
CONTINUOUS
 10
284.7621935483
 20
237.2683848787
 11
284.8108848857
 21
237.151878745
  0
LINE
  5
4E8
100
AcDbEntity
  8
BEZUGSACHSEN
100
AcDbLine
 62
7
  6
CONTINUOUS
 10
284.8108848857
 20
237.151878745
 11
284.850854253
 21
237.0562211821
  0
LINE
  5
4E9
100
AcDbEntity
  8
BEZUGSACHSEN
100
AcDbLine
 62
7
  6
CONTINUOUS
 10
284.850854253
 20
237.0562211821
 11
284.9079795232
 21
236.9194718622
  0
LINE
  5
4EA
100
AcDbEntity
  8
BEZUGSACHSEN
100
AcDbLine
 62
7
  6
CONTINUOUS
 10
284.9079795232
 20
236.9194718622
 11
284.9563827657
 21
236.8035710945
  0
LINE
  5
4EB
100
AcDbEntity
  8
BEZUGSACHSEN
100
AcDbLine
 62
7
  6
CONTINUOUS
 10
284.7308054919
 20
237.3272254397
 11
284.7621935483
 21
237.2683848787
  0
SPLINE
  5
4EC
100
AcDbEntity
  8
BEZUGSACHSEN
100
AcDbSpline
 62
7
  6
CONTINUOUS
 70
0
 71
3
 72
11
 73
7
 74
0
 42
0.0000001
 43
0.0000001
 44
0.0000000001
 40
0.0
 40
0.0
 40
0.0
 40
0.0
 40
0.2502389943
 40
0.5000000009
 40
0.7497610074
 40
1.0
 40
1.0
 40
1.0
 40
1.0
 10
267.5122878846
 20
240.7866964069
 30
0.0
 10
267.1292459396
 20
238.1742692464
 30
0.0
 10
266.5328028956
 20
232.9274094265
 30
0.0
 10
266.22422401
 20
225.0147630154
 30
0.0
 10
266.5328028846
 20
217.1021166217
 30
0.0
 10
267.1292459423
 20
211.8552568218
 30
0.0
 10
267.5122878846
 20
209.2428296798
 30
0.0
  0
SPLINE
  5
4ED
100
AcDbEntity
  8
BEZUGSACHSEN
100
AcDbSpline
 62
7
  6
CONTINUOUS
 70
0
 71
3
 72
11
 73
7
 74
0
 42
0.0000001
 43
0.0000001
 44
0.0000000001
 40
0.0
 40
0.0
 40
0.0
 40
0.0
 40
0.2500018457
 40
0.5000008304
 40
0.7499992698
 40
1.0
 40
1.0
 40
1.0
 40
1.0
 10
267.5122878846
 20
209.2428296798
 30
0.0
 10
267.1734263105
 20
206.3861434869
 30
0.0
 10
266.6289077738
 20
200.6558100714
 30
0.0
 10
266.2639762992
 20
192.0292858167
 30
0.0
 10
266.3773150067
 20
183.3956582742
 30
0.0
 10
266.7661056821
 20
177.6523442767
 30
0.0
 10
267.0321063391
 20
174.7879677352
 30
0.0
  0
LINE
  5
4EE
100
AcDbEntity
  8
BEZUGSACHSEN
100
AcDbLine
 62
7
  6
CONTINUOUS
 10
286.8618130948
 20
231.6795572799
 11
286.8607051346
 21
231.7508211964
  0
LINE
  5
4EF
100
AcDbEntity
  8
BEZUGSACHSEN
100
AcDbLine
 62
7
  6
CONTINUOUS
 10
286.8607051346
 20
231.7508211964
 11
286.8263506353
 21
231.8969042009
  0
LINE
  5
4F0
100
AcDbEntity
  8
BEZUGSACHSEN
100
AcDbLine
 62
7
  6
CONTINUOUS
 10
286.8263506353
 20
231.8969042009
 11
286.8089247065
 21
231.9699533822
  0
LINE
  5
4F1
100
AcDbEntity
  8
BEZUGSACHSEN
100
AcDbLine
 62
7
  6
CONTINUOUS
 10
286.8089247065
 20
231.9699533822
 11
286.7913336391
 21
232.043007724
  0
LINE
  5
4F2
100
AcDbEntity
  8
BEZUGSACHSEN
100
AcDbLine
 62
7
  6
CONTINUOUS
 10
286.6559653644
 20
232.4690168366
 11
286.4581842164
 21
232.9971760706
  0
LINE
  5
4F3
100
AcDbEntity
  8
BEZUGSACHSEN
100
AcDbLine
 62
7
  6
CONTINUOUS
 10
285.9358380337
 20
234.3211397083
 11
286.0667578411
 21
233.989309399
  0
LINE
  5
4F4
100
AcDbEntity
  8
BEZUGSACHSEN
100
AcDbLine
 62
7
  6
CONTINUOUS
 10
286.0667578411
 20
233.989309399
 11
286.3279309546
 21
233.3273275884
  0
LINE
  5
4F5
100
AcDbEntity
  8
BEZUGSACHSEN
100
AcDbLine
 62
7
  6
CONTINUOUS
 10
286.3279309546
 20
233.3273275884
 11
286.4581842164
 21
232.9971760706
  0
LINE
  5
4F6
100
AcDbEntity
  8
BEZUGSACHSEN
100
AcDbLine
 62
7
  6
CONTINUOUS
 10
285.5545895748
 20
235.0290578272
 11
285.9466041546
 21
234.0360852728
  0
LINE
  5
4F7
100
AcDbEntity
  8
BEZUGSACHSEN
100
AcDbLine
 62
7
  6
CONTINUOUS
 10
285.4066780687
 20
233.5322618537
 11
285.2736835086
 21
233.9496415078
  0
LINE
  5
4F8
100
AcDbEntity
  8
BEZUGSACHSEN
100
AcDbLine
 62
7
  6
CONTINUOUS
 10
285.2736835086
 20
233.9496415078
 11
285.0763466567
 21
234.4737140302
  0
LINE
  5
4F9
100
AcDbEntity
  8
BEZUGSACHSEN
100
AcDbLine
 62
7
  6
CONTINUOUS
 10
284.8804071574
 20
234.9467876395
 11
285.0763466567
 21
234.4737140302
  0
LINE
  5
4FA
100
AcDbEntity
  8
BEZUGSACHSEN
100
AcDbLine
 62
7
  6
CONTINUOUS
 10
284.6858206878
 20
235.3688614521
 11
284.8804071574
 21
234.9467876395
  0
LINE
  5
4FB
100
AcDbEntity
  8
BEZUGSACHSEN
100
AcDbLine
 62
7
  6
CONTINUOUS
 10
284.5574347793
 20
235.5822460213
 11
284.621845496
 21
235.4753203155
  0
LINE
  5
4FC
100
AcDbEntity
  8
BEZUGSACHSEN
100
AcDbLine
 62
7
  6
CONTINUOUS
 10
284.621845496
 20
235.4753203155
 11
284.6538875086
 21
235.422032525
  0
LINE
  5
4FD
100
AcDbEntity
  8
BEZUGSACHSEN
100
AcDbLine
 62
7
  6
CONTINUOUS
 10
284.6538875086
 20
235.422032525
 11
284.6858206878
 21
235.3688614521
  0
LINE
  5
4FE
100
AcDbEntity
  8
BEZUGSACHSEN
100
AcDbLine
 62
7
  6
CONTINUOUS
 10
284.4943821797
 20
235.5869401798
 11
284.5574347793
 21
235.5822460213
  0
LINE
  5
4FF
100
AcDbEntity
  8
0
100
AcDbLine
 62
7
  6
CONTINUOUS
 10
286.1146895705
 20
214.5116220761
 11
285.7459622993
 21
214.8018015088
  0
SPLINE
  5
500
100
AcDbEntity
  8
BEZUGSACHSEN
100
AcDbSpline
 62
7
  6
CONTINUOUS
 70
0
 71
3
 72
11
 73
7
 74
0
 42
0.0000001
 43
0.0000001
 44
0.0000000001
 40
0.0
 40
0.0
 40
0.0
 40
0.0
 40
0.2540845274
 40
0.5000000008
 40
0.7459154741
 40
1.0
 40
1.0
 40
1.0
 40
1.0
 10
267.5122878846
 20
252.8353813601
 30
0.0
 10
267.1379714112
 20
251.8602536085
 30
0.0
 10
266.540871721
 20
249.8814368809
 30
0.0
 10
266.2218382166
 20
246.8110388734
 30
0.0
 10
266.5408717105
 20
243.7406408693
 30
0.0
 10
267.1379714135
 20
241.7618241524
 30
0.0
 10
267.5122878846
 20
240.7866964069
 30
0.0
  0
SPLINE
  5
501
100
AcDbEntity
  8
0
100
AcDbSpline
 62
7
  6
CONTINUOUS
 70
0
 71
3
 72
8
 73
4
 74
0
 42
0.0000001
 43
0.0000001
 44
0.0000000001
 40
0.0
 40
0.0
 40
0.0
 40
0.0
 40
1.0
 40
1.0
 40
1.0
 40
1.0
 10
283.3096559368
 20
235.1004209255
 30
0.0
 10
284.2448480141
 20
232.8403967633
 30
0.0
 10
285.1798901577
 20
230.5803105445
 30
0.0
 10
286.1146895707
 20
228.3201239388
 30
0.0
  0
LINE
  5
502
100
AcDbEntity
  8
BEZUGSACHSEN
100
AcDbLine
 62
7
  6
CONTINUOUS
 10
287.1146895705
 20
227.8975622532
 11
287.0950766798
 21
227.9450111819
  0
LINE
  5
503
100
AcDbEntity
  8
BEZUGSACHSEN
100
AcDbLine
 62
7
  6
CONTINUOUS
 10
287.0950766798
 20
227.9450111819
 11
286.9907841176
 21
228.19731863
  0
LINE
  5
504
100
AcDbEntity
  8
BEZUGSACHSEN
100
AcDbLine
 62
7
  6
CONTINUOUS
 10
286.9907841176
 20
228.19731863
 11
286.9764571462
 21
228.2319782231
  0
LINE
  5
505
100
AcDbEntity
  8
BEZUGSACHSEN
100
AcDbLine
 62
7
  6
CONTINUOUS
 10
286.9764571462
 20
228.2319782231
 11
285.7263534814
 21
231.2556851757
  0
LINE
  5
506
100
AcDbEntity
  8
BEZUGSACHSEN
100
AcDbLine
 62
7
  6
CONTINUOUS
 10
285.7263534814
 20
231.2556851757
 11
285.3350520187
 21
232.2019581691
  0
LINE
  5
507
100
AcDbEntity
  8
BEZUGSACHSEN
100
AcDbLine
 62
7
  6
CONTINUOUS
 10
285.3350520187
 20
232.2019581691
 11
284.3566632033
 21
234.5676210447
  0
LINE
  5
508
100
AcDbEntity
  8
BEZUGSACHSEN
100
AcDbLine
 62
7
  6
CONTINUOUS
 10
284.3566632033
 20
234.5676210447
 11
284.1362824077
 21
235.1004209255
  0
LINE
  5
509
100
AcDbEntity
  8
BEZUGSACHSEN
100
AcDbLine
 62
7
  6
CONTINUOUS
 10
287.0719775697
 20
210.7898368015
 11
286.761614215
 21
211.2375724399
  0
LINE
  5
50A
100
AcDbEntity
  8
BEZUGSACHSEN
100
AcDbLine
 62
7
  6
CONTINUOUS
 10
286.761614215
 20
211.2375724399
 11
285.3927900921
 21
213.2116951527
  0
LINE
  5
50B
100
AcDbEntity
  8
BEZUGSACHSEN
100
AcDbLine
 62
7
  6
CONTINUOUS
 10
285.3927900921
 20
213.2116951527
 11
285.0016057128
 21
213.7757122983
  0
LINE
  5
50C
100
AcDbEntity
  8
BEZUGSACHSEN
100
AcDbLine
 62
7
  6
CONTINUOUS
 10
285.0016057128
 20
213.7757122983
 11
284.0089712287
 21
215.2066555952
  0
SPLINE
  5
50D
100
AcDbEntity
  8
0
100
AcDbSpline
 62
7
  6
CONTINUOUS
 70
0
 71
3
 72
8
 73
4
 74
0
 42
0.0000001
 43
0.0000001
 44
0.0000000001
 40
0.0
 40
0.0
 40
0.0
 40
0.0
 40
1.0
 40
1.0
 40
1.0
 40
1.0
 10
283.3096559254
 20
215.2066555952
 30
0.0
 10
284.2448100694
 20
213.8598649917
 30
0.0
 10
285.1798457508
 20
212.5129921135
 30
0.0
 10
286.1146895705
 20
211.165986087
 30
0.0
  0
LINE
  5
50E
100
AcDbEntity
  8
BEZUGSACHSEN
100
AcDbLine
 62
7
  6
CONTINUOUS
 10
284.5702878271
 20
217.8434510317
 11
284.6191854298
 21
217.8011023842
  0
LINE
  5
50F
100
AcDbEntity
  8
BEZUGSACHSEN
100
AcDbLine
 62
7
  6
CONTINUOUS
 10
284.6191854298
 20
217.8011023842
 11
284.7653270843
 21
217.6744794967
  0
LINE
  5
510
100
AcDbEntity
  8
BEZUGSACHSEN
100
AcDbLine
 62
7
  6
CONTINUOUS
 10
284.7653270843
 20
217.6744794967
 11
284.9613045951
 21
217.3925546632
  0
LINE
  5
511
100
AcDbEntity
  8
BEZUGSACHSEN
100
AcDbLine
 62
7
  6
CONTINUOUS
 10
285.1582507872
 20
216.9976770577
 11
284.9613045951
 21
217.3925546632
  0
LINE
  5
512
100
AcDbEntity
  8
0
100
AcDbLine
 62
7
  6
CONTINUOUS
 10
284.3759524414
 20
217.1192475451
 11
284.4367810561
 21
216.9976770577
  0
LINE
  5
513
100
AcDbEntity
  8
BEZUGSACHSEN
100
AcDbLine
 62
7
  6
CONTINUOUS
 10
285.2904059012
 20
216.5838209504
 11
285.1582507872
 21
216.9976770577
  0
LINE
  5
514
100
AcDbEntity
  8
0
100
AcDbLine
 62
7
  6
CONTINUOUS
 10
284.4367810561
 20
216.9976770577
 11
284.5704039038
 21
216.5838209504
  0
SPLINE
  5
515
100
AcDbEntity
  8
0
100
AcDbSpline
 62
7
  6
CONTINUOUS
 70
0
 71
3
 72
11
 73
7
 74
0
 42
0.0000001
 43
0.0000001
 44
0.0000000001
 40
0.0
 40
0.0
 40
0.0
 40
0.0
 40
0.2540845274
 40
0.5000000008
 40
0.7459154741
 40
1.0
 40
1.0
 40
1.0
 40
1.0
 10
278.3111610205
 20
252.8353813601
 30
0.0
 10
278.6854774939
 20
251.8602536085
 30
0.0
 10
279.2825771841
 20
249.8814368809
 30
0.0
 10
279.6016106885
 20
246.8110388734
 30
0.0
 10
279.2825771946
 20
243.7406408693
 30
0.0
 10
278.6854774916
 20
241.7618241524
 30
0.0
 10
278.3111610205
 20
240.7866964069
 30
0.0
  0
LINE
  5
516
100
AcDbEntity
  8
BEZUGSACHSEN
100
AcDbLine
 62
7
  6
CONTINUOUS
 10
284.0825303025
 20
224.303685613
 11
285.8432274101
 21
221.2440925385
  0
LINE
  5
517
100
AcDbEntity
  8
BEZUGSACHSEN
100
AcDbLine
 62
7
  6
CONTINUOUS
 10
285.8432274101
 20
221.2440925385
 11
286.1075520282
 21
220.7847585539
  0
LINE
  5
518
100
AcDbEntity
  8
0
100
AcDbLine
 62
7
  6
CONTINUOUS
 10
285.3492287477
 20
220.7847585539
 11
283.3249292128
 21
224.303685613
  0
LINE
  5
519
100
AcDbEntity
  8
BEZUGSACHSEN
100
AcDbLine
 62
7
  6
CONTINUOUS
 10
286.3699642157
 20
220.2297561203
 11
286.1733484862
 21
220.6456241613
  0
LINE
  5
51A
100
AcDbEntity
  8
BEZUGSACHSEN
100
AcDbLine
 62
7
  6
CONTINUOUS
 10
286.1733484862
 20
220.6456241613
 11
286.1075520282
 21
220.7847585539
  0
LINE
  5
51B
100
AcDbEntity
  8
0
100
AcDbLine
 62
7
  6
CONTINUOUS
 10
285.3492287477
 20
220.7847585539
 11
285.6122461547
 21
220.2297561203
  0
LINE
  5
51C
100
AcDbEntity
  8
BEZUGSACHSEN
100
AcDbLine
 62
7
  6
CONTINUOUS
 10
286.5677299667
 20
219.6873206343
 11
286.3699642157
 21
220.2297561203
  0
LINE
  5
51D
100
AcDbEntity
  8
0
100
AcDbLine
 62
7
  6
CONTINUOUS
 10
285.6122461547
 20
220.2297561203
 11
285.8113834655
 21
219.6873206343
  0
LINE
  5
51E
100
AcDbEntity
  8
0
100
AcDbLine
 62
7
  6
CONTINUOUS
 10
286.0136246157
 20
218.6401486926
 11
286.0139264922
 21
218.4947309523
  0
LINE
  5
51F
100
AcDbEntity
  8
BEZUGSACHSEN
100
AcDbLine
 62
7
  6
CONTINUOUS
 10
286.7443392789
 20
218.1638061605
 11
286.7618326503
 21
218.2363597072
  0
LINE
  5
520
100
AcDbEntity
  8
BEZUGSACHSEN
100
AcDbLine
 62
7
  6
CONTINUOUS
 10
285.8672634148
 20
232.1734288557
 11
286.1858770842
 21
231.4975362062
  0
LINE
  5
521
100
AcDbEntity
  8
BEZUGSACHSEN
100
AcDbLine
 62
7
  6
CONTINUOUS
 10
286.1858770842
 20
231.4975362062
 11
286.198461228
 21
231.4708152238
  0
SPLINE
  5
522
100
AcDbEntity
  8
BEZUGSACHSEN
100
AcDbSpline
 62
7
  6
CONTINUOUS
 70
0
 71
3
 72
8
 73
4
 74
0
 42
0.0000001
 43
0.0000001
 44
0.0000000001
 40
0.0
 40
0.0
 40
0.0
 40
0.0
 40
1.0
 40
1.0
 40
1.0
 40
1.0
 10
286.198461228
 20
231.4708152238
 30
0.0
 10
286.4024874183
 20
231.0375729865
 30
0.0
 10
286.6062125911
 20
230.6041888318
 30
0.0
 10
286.8096003427
 20
230.1706465097
 30
0.0
  0
LINE
  5
523
100
AcDbEntity
  8
BEZUGSACHSEN
100
AcDbLine
 62
7
  6
CONTINUOUS
 10
286.8096003427
 20
230.1706465097
 11
287.0910660289
 21
229.5701008556
  0
LINE
  5
524
100
AcDbEntity
  8
BEZUGSACHSEN
100
AcDbLine
 62
7
  6
CONTINUOUS
 10
287.0910660289
 20
229.5701008556
 11
287.1146895705
 21
229.5196436796
  0
LINE
  5
525
100
AcDbEntity
  8
BEZUGSACHSEN
100
AcDbLine
 62
7
  6
CONTINUOUS
 10
286.0715347858
 20
217.7563423188
 11
285.8146053714
 21
218.2037592123
  0
LINE
  5
526
100
AcDbEntity
  8
BEZUGSACHSEN
100
AcDbLine
 62
7
  6
CONTINUOUS
 10
285.8146053714
 20
218.2037592123
 11
284.0503477303
 21
221.2752693778
  0
LINE
  5
527
100
AcDbEntity
  8
0
100
AcDbLine
 62
7
  6
CONTINUOUS
 10
283.3122592658
 20
221.2752693778
 11
284.7330135651
 21
218.8038007791
  0
LINE
  5
528
100
AcDbEntity
  8
0
100
AcDbLine
 62
7
  6
CONTINUOUS
 10
284.7330135651
 20
218.8038007791
 11
284.812768322
 21
218.6650485516
  0
LINE
  5
529
100
AcDbEntity
  8
0
100
AcDbLine
 62
7
  6
CONTINUOUS
 10
284.812768322
 20
218.6650485516
 11
284.8350702205
 21
218.626248822
  0
LINE
  5
52A
100
AcDbEntity
  8
0
100
AcDbLine
 62
7
  6
CONTINUOUS
 10
284.8350702205
 20
218.626248822
 11
284.9339713972
 21
218.4541838281
  0
LINE
  5
52B
100
AcDbEntity
  8
0
100
AcDbLine
 62
7
  6
CONTINUOUS
 10
284.9339713972
 20
218.4541838281
 11
285.1612330738
 21
218.0587909927
  0
LINE
  5
52C
100
AcDbEntity
  8
0
100
AcDbLine
 62
7
  6
CONTINUOUS
 10
285.1612330738
 20
218.0587909927
 11
285.3350669975
 21
217.7563423188
  0
LINE
  5
52D
100
AcDbEntity
  8
BEZUGSACHSEN
100
AcDbLine
 62
7
  6
CONTINUOUS
 10
286.0715347858
 20
217.7563423188
 11
286.4010099573
 21
217.2897209059
  0
LINE
  5
52E
100
AcDbEntity
  8
0
100
AcDbLine
 62
7
  6
CONTINUOUS
 10
285.6640718633
 20
217.2897209059
 11
285.5820470449
 21
217.4060644699
  0
LINE
  5
52F
100
AcDbEntity
  8
0
100
AcDbLine
 62
7
  6
CONTINUOUS
 10
285.5820470449
 20
217.4060644699
 11
285.3777313115
 21
217.6958378693
  0
LINE
  5
530
100
AcDbEntity
  8
0
100
AcDbLine
 62
7
  6
CONTINUOUS
 10
285.3777313115
 20
217.6958378693
 11
285.3350669975
 21
217.7563423188
  0
LINE
  5
531
100
AcDbEntity
  8
BEZUGSACHSEN
100
AcDbLine
 62
7
  6
CONTINUOUS
 10
286.4010099573
 20
217.2897209059
 11
286.6685358681
 21
217.0375602763
  0
LINE
  5
532
100
AcDbEntity
  8
0
100
AcDbLine
 62
7
  6
CONTINUOUS
 10
285.9302740028
 20
217.0375602763
 11
285.7309482439
 21
217.2264158799
  0
LINE
  5
533
100
AcDbEntity
  8
0
100
AcDbLine
 62
7
  6
CONTINUOUS
 10
285.7309482439
 20
217.2264158799
 11
285.6640718633
 21
217.2897209059
  0
LINE
  5
534
100
AcDbEntity
  8
BEZUGSACHSEN
100
AcDbLine
 62
7
  6
CONTINUOUS
 10
286.6685358681
 20
217.0375602763
 11
286.9411388384
 21
216.9872936014
  0
LINE
  5
535
100
AcDbEntity
  8
0
100
AcDbLine
 62
7
  6
CONTINUOUS
 10
286.1146896804
 20
217.0032329344
 11
285.9302740028
 21
217.0375602763
  0
LINE
  5
536
100
AcDbEntity
  8
0
100
AcDbLine
 62
7
  6
CONTINUOUS
 10
286.0126421396
 20
223.2080054508
 11
286.0128810996
 21
223.1748652983
  0
LINE
  5
537
100
AcDbEntity
  8
BEZUGSACHSEN
100
AcDbLine
 62
7
  6
CONTINUOUS
 10
287.1146895705
 20
220.4001661985
 11
286.8499155865
 21
220.9326798992
  0
LINE
  5
538
100
AcDbEntity
  8
BEZUGSACHSEN
100
AcDbLine
 62
7
  6
CONTINUOUS
 10
286.8499155865
 20
220.9326798992
 11
286.5478389837
 21
221.540154114
  0
LINE
  5
539
100
AcDbEntity
  8
BEZUGSACHSEN
100
AcDbLine
 62
7
  6
CONTINUOUS
 10
286.5478389837
 20
221.540154114
 11
286.5182457968
 21
221.5996623732
  0
SPLINE
  5
53A
100
AcDbEntity
  8
BEZUGSACHSEN
100
AcDbSpline
 62
7
  6
CONTINUOUS
 70
0
 71
3
 72
8
 73
4
 74
0
 42
0.0000001
 43
0.0000001
 44
0.0000000001
 40
0.0
 40
0.0
 40
0.0
 40
0.0
 40
1.0
 40
1.0
 40
1.0
 40
1.0
 10
286.5182457968
 20
221.5996623732
 30
0.0
 10
285.7677754658
 20
223.1087582392
 30
0.0
 10
285.0170766917
 20
224.6177405103
 30
0.0
 10
284.266222714
 20
226.1266455288
 30
0.0
  0
LINE
  5
53B
100
AcDbEntity
  8
BEZUGSACHSEN
100
AcDbLine
 62
7
  6
CONTINUOUS
 10
284.266222714
 20
226.1266455288
 11
284.0783880194
 21
226.5041071709
  0
LINE
  5
53C
100
AcDbEntity
  8
0
100
AcDbLine
 62
7
  6
CONTINUOUS
 10
283.3069122497
 20
226.5041071709
 11
284.0955554708
 21
224.9203044033
  0
LINE
  5
53D
100
AcDbEntity
  8
0
100
AcDbLine
 62
7
  6
CONTINUOUS
 10
284.0955554708
 20
224.9203044033
 11
284.2567812898
 21
224.5964948202
  0
LINE
  5
53E
100
AcDbEntity
  8
0
100
AcDbLine
 62
7
  6
CONTINUOUS
 10
285.6084098197
 20
224.7724456406
 11
285.8081483923
 21
224.2064310977
  0
LINE
  5
53F
100
AcDbEntity
  8
BEZUGSACHSEN
100
AcDbLine
 62
7
  6
CONTINUOUS
 10
286.5977729059
 20
224.2064310977
 11
286.3991737241
 21
224.7724456406
  0
LINE
  5
540
100
AcDbEntity
  8
0
100
AcDbLine
 62
7
  6
CONTINUOUS
 10
285.3451363839
 20
225.382993704
 11
285.6084098197
 21
224.7724456406
  0
LINE
  5
541
100
AcDbEntity
  8
BEZUGSACHSEN
100
AcDbLine
 62
7
  6
CONTINUOUS
 10
286.3991737241
 20
224.7724456406
 11
286.2022733267
 21
225.2299434859
  0
LINE
  5
542
100
AcDbEntity
  8
BEZUGSACHSEN
100
AcDbLine
 62
7
  6
CONTINUOUS
 10
286.2022733267
 20
225.2299434859
 11
286.1363882245
 21
225.382993704
  0
LINE
  5
543
100
AcDbEntity
  8
0
100
AcDbLine
 62
7
  6
CONTINUOUS
 10
285.3451363839
 20
225.382993704
 11
284.857160873
 21
226.362334733
  0
LINE
  5
544
100
AcDbEntity
  8
0
100
AcDbLine
 62
7
  6
CONTINUOUS
 10
284.857160873
 20
226.362334733
 11
284.8337620493
 21
226.4092937473
  0
LINE
  5
545
100
AcDbEntity
  8
0
100
AcDbLine
 62
7
  6
CONTINUOUS
 10
284.8337620493
 20
226.4092937473
 11
284.5059192359
 21
227.0672294151
  0
LINE
  5
546
100
AcDbEntity
  8
BEZUGSACHSEN
100
AcDbLine
 62
7
  6
CONTINUOUS
 10
285.1567567931
 20
227.3482416084
 11
285.8925201205
 21
225.8722293841
  0
LINE
  5
547
100
AcDbEntity
  8
BEZUGSACHSEN
100
AcDbLine
 62
7
  6
CONTINUOUS
 10
285.8925201205
 20
225.8722293841
 11
285.9267135363
 21
225.8036327067
  0
LINE
  5
548
100
AcDbEntity
  8
BEZUGSACHSEN
100
AcDbLine
 62
7
  6
CONTINUOUS
 10
285.9267135363
 20
225.8036327067
 11
286.1363882245
 21
225.382993704
  0
LINE
  5
549
100
AcDbEntity
  8
BEZUGSACHSEN
100
AcDbLine
 62
7
  6
CONTINUOUS
 10
284.8969440784
 20
227.7858256628
 11
284.9621072453
 21
227.6761066295
  0
LINE
  5
54A
100
AcDbEntity
  8
BEZUGSACHSEN
100
AcDbLine
 62
7
  6
CONTINUOUS
 10
284.9621072453
 20
227.6761066295
 11
285.1567567931
 21
227.3482416084
  0
LINE
  5
54B
100
AcDbEntity
  8
BEZUGSACHSEN
100
AcDbLine
 62
7
  6
CONTINUOUS
 10
284.7033831534
 20
228.0059105753
 11
284.7520223866
 21
227.9506749205
  0
LINE
  5
54C
100
AcDbEntity
  8
BEZUGSACHSEN
100
AcDbLine
 62
7
  6
CONTINUOUS
 10
284.7520223866
 20
227.9506749205
 11
284.8969440784
 21
227.7858256628
  0
LINE
  5
54D
100
AcDbEntity
  8
BEZUGSACHSEN
100
AcDbLine
 62
7
  6
CONTINUOUS
 10
284.5751943047
 20
228.0084966015
 11
284.7033831534
 21
228.0059105753
  0
ELLIPSE
  5
54E
100
AcDbEntity
  8
0
100
AcDbEllipse
 62
7
  6
CONTINUOUS
 10
139.9749087591
 20
25.9062834183
 30
0.0
 11
0.0
 21
112.583302492
 31
0.0
 40
0.5773502692
 41
-0.3854704199
 42
-0.1739528877
  0
ELLIPSE
  5
54F
100
AcDbEntity
  8
0
100
AcDbEllipse
 62
7
  6
CONTINUOUS
 10
139.9749087591
 20
25.9062834183
 30
0.0
 11
-0.0
 21
112.583302492
 31
0.0
 40
0.5773502692
 41
0.1739528877
 42
0.3854704199
  0
ELLIPSE
  5
550
100
AcDbEntity
  8
RUNDUNGEN
100
AcDbEllipse
 62
7
  6
CONTINUOUS
 10
283.2674494207
 20
133.2346919613
 30
0.0
 11
2.4415210557
 21
8.5526760869
 31
0.0
 40
0.5573507153
 41
-4.2390381249
 42
-3.5074078107
  0
ELLIPSE
  5
551
100
AcDbEntity
  8
BEZUGSACHSEN
100
AcDbEllipse
 62
7
  6
CONTINUOUS
 10
262.5559994844
 20
133.2346919613
 30
0.0
 11
-2.4415210557
 21
8.5526760869
 31
0.0
 40
0.5573507153
 41
-2.7757774965
 42
-2.0441471822
  0
ELLIPSE
  5
552
100
AcDbEntity
  8
BEZUGSACHSEN
100
AcDbEllipse
 62
7
  6
CONTINUOUS
 10
288.771220166
 20
136.8422625709
 30
0.0
 11
18.5701735795
 21
-12.0398819833
 31
0.0
 40
0.8993801471
 41
-2.566886172
 42
-2.4670944126
  0
ELLIPSE
  5
553
100
AcDbEntity
  8
RUNDUNGEN
100
AcDbEllipse
 62
7
  6
CONTINUOUS
 10
257.0522287391
 20
136.8422625709
 30
0.0
 11
18.5701735795
 21
12.0398819833
 31
0.0
 40
0.8993801471
 41
-0.674498241
 42
-0.5747064816
  0
ENDSEC
  0
SECTION
  2
OBJECTS
  0
DICTIONARY
  5
C
100
AcDbDictionary
280
0
281
1
  3
ACAD_GROUP
350
D
  3
ACAD_MLINESTYLE
350
17
  3
ACAD_LAYOUT
350
1A
  3
ACAD_PLOTSETTINGS
350
19
  3
ACAD_PLOTSTYLENAME
350
E
  0
DICTIONARY
  5
D
102
{ACAD_REACTORS
330
C
102
}
100
AcDbDictionary
280
0
281
1
  0
ACDBDICTIONARYWDFLT
  5
E
102
{ACAD_REACTORS
330
C
102
}
100
AcDbDictionary
281
1
  3
Normal
350
F
100
AcDbDictionaryWithDefault
340
F
  0
DICTIONARY
  5
17
102
{ACAD_REACTORS
330
C
102
}
100
AcDbDictionary
280
0
281
1
  3
Standard
350
18
  0
DICTIONARY
  5
19
102
{ACAD_REACTORS
330
C
102
}
100
AcDbDictionary
281
1
  0
DICTIONARY
  5
1A
102
{ACAD_REACTORS
330
C
102
}
100
AcDbDictionary
281
1
  3
Model
350
554
  3
Layout1
350
555
  0
ACDBPLACEHOLDER
  5
F
102
{ACAD_REACTORS
330
E
102
}
  0
MLINESTYLE
  5
18
102
{ACAD_REACTORS
330
17
102
}
100
AcDbMlineStyle
  2
STANDARD
 70
0
  3

 62
256
 51
90.0
 52
90.0
 71
2
 49
0.5
 62
256
  6
BYLAYER
 49
-0.5
 62
256
  6
BYLAYER
  0
LAYOUT
  5
554
102
{ACAD_REACTORS
330
1A
102
}
100
AcDbPlotSettings
  1

  2
none_device
  4
ISO_A3_(420.00_x_297.00_MM)
  6

 40
0.0
 41
0.0
 42
0.0
 43
0.0
 44
420.0
 45
297.0
 46
0.0
 47
0.0
 48
0.0
 49
0.0
140
0.0
141
0.0
142
1.0
143
1.0
 70
1024
 72
1
 73
0
 74
0
  7

 75
0
147
1.0
148
0.0
149
0.0
100
AcDbLayout
  1
Model
 70
0
 71
0
 10
0.0
 20
0.0
 11
420.0
 21
297.0
 12
0.0
 22
0.0
 32
0.0
 14
0.0
 24
0.0
 34
0.0
 15
0.0
 25
0.0
 35
0.0
146
0.0
 13
0.0
 23
0.0
 33
0.0
 16
1.0
 26
0.0
 36
0.0
 17
0.0
 27
1.0
 37
0.0
 76
0
330
207
345
0
346
0
  0
LAYOUT
  5
555
102
{ACAD_REACTORS
330
1A
102
}
100
AcDbPlotSettings
  1

  2
none_device
  4
ISO_A3_(420.00_x_297.00_MM)
  6

 40
0.0
 41
0.0
 42
0.0
 43
0.0
 44
420.0
 45
297.0
 46
0.0
 47
0.0
 48
0.0
 49
0.0
140
0.0
141
0.0
142
1.0
143
1.0
 70
0
 72
1
 73
0
 74
0
  7

 75
0
147
1.0
148
0.0
149
0.0
100
AcDbLayout
  1
Layout1
 70
0
 71
1
 10
0.0
 20
0.0
 11
420.0
 21
297.0
 12
0.0
 22
0.0
 32
0.0
 14
0.0
 24
0.0
 34
0.0
 15
0.0
 25
0.0
 35
0.0
146
0.0
 13
0.0
 23
0.0
 33
0.0
 16
1.0
 26
0.0
 36
0.0
 17
0.0
 27
1.0
 37
0.0
 76
0
330
208
345
0
346
0
  0
ENDSEC
  0
EOF
