999
DXF file: VRG-16_7100473_M31493-P-3.dxf
999
Pro/ENGINEER 2010140 by Parametric Technology Corporation
  0
SECTION
  2
HEADER
  9
$ACADVER
  1
AC1015
  9
$DWGCODEPAGE
  3
ANSI_1252
  9
$EXTMAX
 10
297.0
 20
210.0
 30
0.0
  9
$EXTMIN
 10
0.0
 20
0.0
 30
0.0
  9
$LIMMIN
 10
0.0
 20
0.0
  9
$LIMMAX
 10
297.0
 20
210.0
  9
$VIEWCTR
 10
148.5
 20
105.0
  9
$VIEWSIZE
 40
210.0
  9
$CLAYER
  8
0
  9
$LTSCALE
 40
16.335
  9
$CELTYPE
  6
BYLAYER
  9
$DIMSCALE
 40
1.0
  9
$DIMASZ
 40
3.5
  9
$DIMEXO
 40
1.85625
  9
$DIMDLI
 40
11.286
  9
$DIMEXE
 40
5.346
  9
$DIMCEN
 40
2.673
  9
$DIMLFAC
 40
1.0
  9
$DIMBLK
  1
_FILLED
  9
$DIMTXT
 40
3.5
  9
$DIMTOL
 70
1
  9
$DIMLIM
 70
0
  9
$DIMTFAC
 40
1.0
  9
$DIMTP
 40
0.005
  9
$DIMTM
 40
0.005
  9
$PDMODE
 70
3
  9
$PDSIZE
 40
0.3125
  9
$HANDSEED
  5
40B
  9
$TILEMODE
 70
1
  9
$MEASUREMENT
 70
1
  9
$INSUNITS
 70
4
  0
ENDSEC
  0
SECTION
  2
CLASSES
  0
CLASS
  1
ACDBDICTIONARYWDFLT
  2
AcDbDictionaryWithDefault
  3
AutoCAD 2000
 90
0
280
0
281
0
  0
CLASS
  1
ACDBPLACEHOLDER
  2
AcDbPlaceHolder
  3
AutoCAD 2000
 90
0
280
0
281
0
  0
CLASS
  1
LAYOUT
  2
AcDbLayout
  3
AutoCAD 2000
 90
0
280
0
281
0
  0
ENDSEC
  0
SECTION
  2
TABLES
  0
TABLE
  2
VPORT
  5
8
100
AcDbSymbolTable
 70
2
  0
VPORT
  5
1F4
100
AcDbSymbolTableRecord
100
AcDbViewportTableRecord
  2
*ACTIVE
 70
0
 10
0.0
 20
0.0
 11
1.0
 21
1.0
 12
148.5
 22
105.0
 13
0.0
 23
0.0
 14
1.0
 24
1.0
 15
0.0
 25
0.0
 16
0.0
 26
0.0
 36
1.0
 17
0.0
 27
0.0
 37
0.0
 40
210.0
 41
1.4142857143
 42
50.0
 43
0.0
 44
0.0
 50
0.0
 51
0.0
 71
0
 72
100
 73
1
 74
1
 75
0
 76
0
 77
0
 78
0
  0
ENDTAB
  0
TABLE
  2
LTYPE
  5
5
100
AcDbSymbolTable
 70
6
  0
LTYPE
  5
14
100
AcDbSymbolTableRecord
100
AcDbLinetypeTableRecord
  2
BYBLOCK
 70
0
  3

 72
65
 73
0
 40
0.0
  0
LTYPE
  5
15
100
AcDbSymbolTableRecord
100
AcDbLinetypeTableRecord
  2
BYLAYER
 70
0
  3

 72
65
 73
0
 40
0.0
  0
LTYPE
  5
16
100
AcDbSymbolTableRecord
100
AcDbLinetypeTableRecord
  2
CONTINUOUS
 70
64
  3
Solid line
 72
65
 73
0
 40
0.0
  0
LTYPE
  5
1F5
100
AcDbSymbolTableRecord
100
AcDbLinetypeTableRecord
  2
CENTER
 70
64
  3
____ _ ____ _ ____ _ ____ _ ____ _ ____ _ ____
 72
65
 73
4
 40
0.6
 49
0.375
 74
0
 49
-0.075
 74
0
 49
0.075
 74
0
 49
-0.075
 74
0
  0
LTYPE
  5
1F6
100
AcDbSymbolTableRecord
100
AcDbLinetypeTableRecord
  2
HIDDEN
 70
64
  3
- - - - - - - - - - - - - - - - - - - -
 72
65
 73
2
 40
0.2
 49
0.1
 74
0
 49
-0.1
 74
0
  0
LTYPE
  5
1F7
100
AcDbSymbolTableRecord
100
AcDbLinetypeTableRecord
  2
PHANTOM
 70
64
  3
_____ _ _ _____ _ _ _____ _ _ _____
 72
65
 73
6
 40
0.8
 49
0.45
 74
0
 49
-0.05
 74
0
 49
0.1
 74
0
 49
-0.05
 74
0
 49
0.1
 74
0
 49
-0.05
 74
0
  0
LTYPE
  5
1F8
100
AcDbSymbolTableRecord
100
AcDbLinetypeTableRecord
  2
DOT
 70
64
  3
. . . . . . . . . . . . . . . . . . . .
 72
65
 73
2
 40
0.2
 49
0.1
 74
0
 49
-0.1
 74
0
  0
LTYPE
  5
1F9
100
AcDbSymbolTableRecord
100
AcDbLinetypeTableRecord
  2
DASHED
 70
64
  3
- - - - - - - - - - - - - - - - - - - -
 72
65
 73
2
 40
0.2
 49
0.1
 74
0
 49
-0.1
 74
0
  0
ENDTAB
  0
TABLE
  2
LAYER
  5
2
100
AcDbSymbolTable
 70
36
  0
LAYER
  5
10
100
AcDbSymbolTableRecord
100
AcDbLayerTableRecord
  2
0
 70
0
 62
7
  6
CONTINUOUS
370
-3
390
F
  0
LAYER
  5
1FA
100
AcDbSymbolTableRecord
100
AcDbLayerTableRecord
  2
DEFAULT_1
 70
0
 62
7
  6
CENTER
370
-3
390
F
  0
LAYER
  5
1FB
100
AcDbSymbolTableRecord
100
AcDbLayerTableRecord
  2
DEFAULT_2
 70
0
 62
8
  6
HIDDEN
370
-3
390
F
  0
LAYER
  5
1FC
100
AcDbSymbolTableRecord
100
AcDbLayerTableRecord
  2
DEFAULT_3
 70
0
 62
7
  6
PHANTOM
370
-3
390
F
  0
LAYER
  5
1FD
100
AcDbSymbolTableRecord
100
AcDbLayerTableRecord
  2
AUSFORMSCHRAEGEN
 70
0
 62
7
  6
CONTINUOUS
370
-3
390
F
  0
LAYER
  5
1FE
100
AcDbSymbolTableRecord
100
AcDbLayerTableRecord
  2
BEZUGSACHSEN
 70
0
 62
7
  6
CONTINUOUS
370
-3
390
F
  0
LAYER
  5
1FF
100
AcDbSymbolTableRecord
100
AcDbLayerTableRecord
  2
BEZUGSEBENEN
 70
0
 62
7
  6
CONTINUOUS
370
-3
390
F
  0
LAYER
  5
200
100
AcDbSymbolTableRecord
100
AcDbLayerTableRecord
  2
FASEN
 70
0
 62
7
  6
CONTINUOUS
370
-3
390
F
  0
LAYER
  5
201
100
AcDbSymbolTableRecord
100
AcDbLayerTableRecord
  2
FLAECHEN
 70
0
 62
7
  6
CONTINUOUS
370
-3
390
F
  0
LAYER
  5
202
100
AcDbSymbolTableRecord
100
AcDbLayerTableRecord
  2
HILFEN
 70
0
 62
7
  6
CONTINUOUS
370
-3
390
F
  0
LAYER
  5
203
100
AcDbSymbolTableRecord
100
AcDbLayerTableRecord
  2
KONSTRUKTIONSELEMENTE
 70
0
 62
7
  6
CONTINUOUS
370
-3
390
F
  0
LAYER
  5
204
100
AcDbSymbolTableRecord
100
AcDbLayerTableRecord
  2
PLAZIERUNG
 70
0
 62
7
  6
CONTINUOUS
370
-3
390
F
  0
LAYER
  5
205
100
AcDbSymbolTableRecord
100
AcDbLayerTableRecord
  2
RUNDUNGEN
 70
0
 62
7
  6
CONTINUOUS
370
-3
390
F
  0
LAYER
  5
206
100
AcDbSymbolTableRecord
100
AcDbLayerTableRecord
  2
TEIL_STARTBEZUEGE
 70
0
 62
7
  6
CONTINUOUS
370
-3
390
F
  0
ENDTAB
  0
TABLE
  2
STYLE
  5
3
100
AcDbSymbolTable
 70
1
  0
STYLE
  5
11
100
AcDbSymbolTableRecord
100
AcDbTextStyleTableRecord
  2
STANDARD
 70
0
 40
0.0
 41
0.7
 50
0.0
 71
0
 42
0.2
  3
txt
  4

  0
STYLE
  5
207
100
AcDbSymbolTableRecord
100
AcDbTextStyleTableRecord
  2
TEXTSTYLE_1
 70
0
 40
0.0
 41
0.8
 50
0.0
 71
0
 42
0.2
  3
gdt
  4

  0
ENDTAB
  0
TABLE
  2
VIEW
  5
6
100
AcDbSymbolTable
 70
0
  0
ENDTAB
  0
TABLE
  2
UCS
  5
7
100
AcDbSymbolTable
 70
0
  0
ENDTAB
  0
TABLE
  2
APPID
  5
9
100
AcDbSymbolTable
 70
1
  0
APPID
  5
208
100
AcDbSymbolTableRecord
100
AcDbRegAppTableRecord
  2
ACAD
 70
0
  0
ENDTAB
  0
TABLE
  2
BLOCK_RECORD
  5
1
100
AcDbSymbolTable
 70
0
  0
BLOCK_RECORD
  5
209
100
AcDbSymbolTableRecord
100
AcDbBlockTableRecord
  2
*Model_Space
  0
BLOCK_RECORD
  5
20A
100
AcDbSymbolTableRecord
100
AcDbBlockTableRecord
  2
*Paper_Space
  0
ENDTAB
  0
TABLE
  2
DIMSTYLE
  5
A
100
AcDbSymbolTable
 70
1
100
AcDbDimStyleTable
 71
0
  0
DIMSTYLE
105
20B
100
AcDbSymbolTableRecord
100
AcDbDimStyleTableRecord
  2
STANDARD
 70
0
  3

  4

 40
1.0
 41
3.5
 42
0.0625
 43
0.38
 44
0.18
 45
0.0
 46
0.0
 47
0.005
 48
0.005
140
3.5
141
0.09
142
0.0
143
25.4
144
1.0
145
0.0
146
1.0
147
0.09
 71
1.0
 72
0.0
 73
0
 74
0
 75
0
 76
0
 77
1
 78
8
170
0
171
2
172
0
173
0
174
0
175
0
176
0
177
0
178
5
270
2
271
3
272
3
273
2
274
2
275
0
280
0
281
0
282
0
283
1
284
8
285
0
286
0
287
3
288
0
340
11
  0
ENDTAB
  0
ENDSEC
  0
SECTION
  2
BLOCKS
  0
BLOCK
  5
20
100
AcDbEntity
  8
0
100
AcDbBlockBegin
  2
*Model_Space
 70
0
 10
0.0
 20
0.0
 30
0.0
  3
*Model_Space
  1

  0
ENDBLK
  5
21
100
AcDbEntity
  8
0
100
AcDbBlockEnd
  0
BLOCK
  5
1C
100
AcDbEntity
  8
0
100
AcDbBlockBegin
  2
*Paper_Space
 70
0
 10
0.0
 20
0.0
 30
0.0
  3
*Paper_Space
  1

  0
ENDBLK
  5
1D
100
AcDbEntity
  8
0
100
AcDbBlockEnd
  0
ENDSEC
  0
SECTION
  2
ENTITIES
  0
MTEXT
  5
20C
100
AcDbEntity
  8
0
100
AcDbMText
 62
5
  6
CONTINUOUS
  7
STANDARD
 71
1
 72
1
 10
186.4435506338
 20
54.6185648493
 30
0.0
 11
0.0
 21
1.0
 31
0.0
 44
0.9
  1
RUD
 40
5.0
 41
13.3333333333
  0
MTEXT
  5
20D
100
AcDbEntity
  8
0
100
AcDbMText
 62
5
  6
CONTINUOUS
  7
STANDARD
 71
1
 72
1
 10
216.7953402063
 20
50.2851273519
 30
0.0
 11
0.0
 21
1.0
 31
0.0
 44
0.9
  1
VRG 16
 40
5.0
 41
23.6904761905
  0
LINE
  5
20E
100
AcDbEntity
  8
0
100
AcDbLine
 62
7
  6
CONTINUOUS
 10
0.0
 20
0.0
 11
0.0
 21
210.0
  0
LINE
  5
20F
100
AcDbEntity
  8
0
100
AcDbLine
 62
7
  6
CONTINUOUS
 10
0.0
 20
0.0
 11
297.0
 21
0.0
  0
LINE
  5
210
100
AcDbEntity
  8
0
100
AcDbLine
 62
7
  6
CONTINUOUS
 10
0.0
 20
210.0
 11
297.0
 21
210.0
  0
LINE
  5
211
100
AcDbEntity
  8
0
100
AcDbLine
 62
7
  6
CONTINUOUS
 10
297.0
 20
0.0
 11
297.0
 21
210.0
  0
LINE
  5
212
100
AcDbEntity
  8
KONSTRUKTIONSELEMENTE
100
AcDbLine
 62
7
  6
CONTINUOUS
 10
123.7002896863
 20
36.7111541617
 11
119.5768545939
 21
36.7111541617
  0
LINE
  5
213
100
AcDbEntity
  8
KONSTRUKTIONSELEMENTE
100
AcDbLine
 62
7
  6
CONTINUOUS
 10
74.8273465597
 20
36.7111541617
 11
70.7039114672
 21
36.7111541617
  0
LINE
  5
214
100
AcDbEntity
  8
0
100
AcDbLine
 62
7
  6
CONTINUOUS
 10
97.2021005768
 20
172.5784164767
 11
68.7725370943
 21
163.3410913459
  0
LINE
  5
215
100
AcDbEntity
  8
0
100
AcDbLine
 62
7
  6
CONTINUOUS
 10
69.171822581
 20
37.4255789423
 11
61.1433907406
 21
46.9934914309
  0
LINE
  5
216
100
AcDbEntity
  8
RUNDUNGEN
100
AcDbLine
 62
7
  6
CONTINUOUS
 10
61.1433907406
 20
46.9934914309
 11
60.1700116905
 21
48.1535194109
  0
LINE
  5
217
100
AcDbEntity
  8
0
100
AcDbLine
 62
7
  6
CONTINUOUS
 10
68.7725370943
 20
163.3410913459
 11
51.2021005768
 21
139.1574601884
  0
LINE
  5
218
100
AcDbEntity
  8
BEZUGSACHSEN
100
AcDbLine
 62
7
  6
CONTINUOUS
 10
70.6997084788
 20
153.9410388962
 11
71.2967030119
 21
154.4146269894
  0
LINE
  5
219
100
AcDbEntity
  8
BEZUGSACHSEN
100
AcDbLine
 62
7
  6
CONTINUOUS
 10
73.6846800055
 20
156.3089784591
 11
74.2816742539
 21
156.7825663266
  0
LINE
  5
21A
100
AcDbEntity
  8
BEZUGSACHSEN
100
AcDbLine
 62
7
  6
CONTINUOUS
 10
67.8080668308
 20
150.9956772924
 11
68.3478794734
 21
151.3662467836
  0
LINE
  5
21B
100
AcDbEntity
  8
BEZUGSACHSEN
100
AcDbLine
 62
7
  6
CONTINUOUS
 10
76.2631969401
 20
158.1085145562
 11
78.9532971359
 21
159.541819321
  0
LINE
  5
21C
100
AcDbEntity
  8
BEZUGSACHSEN
100
AcDbLine
 62
7
  6
CONTINUOUS
 10
77.3859389799
 20
157.6218503133
 11
79.4035141268
 21
158.696828887
  0
LINE
  5
21D
100
AcDbEntity
  8
0
100
AcDbLine
 62
7
  6
CONTINUOUS
 10
106.0021005768
 20
49.7111541617
 11
88.4021005768
 21
49.7111541617
  0
LINE
  5
21E
100
AcDbEntity
  8
BEZUGSACHSEN
100
AcDbLine
 62
7
  6
CONTINUOUS
 10
65.7912938223
 20
148.7101514788
 11
67.8080668308
 21
150.9956772924
  0
LINE
  5
21F
100
AcDbEntity
  8
BEZUGSACHSEN
100
AcDbLine
 62
7
  6
CONTINUOUS
 10
66.8937446698
 20
148.7536238781
 11
68.4903565547
 21
150.5629983897
  0
LINE
  5
220
100
AcDbEntity
  8
BEZUGSACHSEN
100
AcDbLine
 62
7
  6
CONTINUOUS
 10
68.6885177911
 20
147.1698964199
 11
70.285129676
 21
148.9792709316
  0
LINE
  5
221
100
AcDbEntity
  8
BEZUGSACHSEN
100
AcDbLine
 62
7
  6
CONTINUOUS
 10
69.4064269055
 20
146.536405555
 11
70.8349744131
 21
148.1553196276
  0
LINE
  5
222
100
AcDbEntity
  8
BEZUGSACHSEN
100
AcDbLine
 62
7
  6
CONTINUOUS
 10
76.3577789891
 20
150.0783230182
 11
76.7557753444
 21
150.3940484137
  0
LINE
  5
223
100
AcDbEntity
  8
BEZUGSACHSEN
100
AcDbLine
 62
7
  6
CONTINUOUS
 10
80.012205128
 20
152.6927387575
 11
82.0297802749
 21
153.7677173311
  0
LINE
  5
224
100
AcDbEntity
  8
BEZUGSACHSEN
100
AcDbLine
 62
7
  6
CONTINUOUS
 10
79.7898971225
 20
151.4894220336
 11
82.4799973184
 21
152.9227267984
  0
LINE
  5
225
100
AcDbEntity
  8
BEZUGSACHSEN
100
AcDbLine
 62
7
  6
CONTINUOUS
 10
68.4903565547
 20
150.5629983897
 11
68.8621046998
 21
150.7431073056
  0
LINE
  5
226
100
AcDbEntity
  8
BEZUGSACHSEN
100
AcDbLine
 62
7
  6
CONTINUOUS
 10
76.3561481127
 20
149.0585913933
 11
76.9528159546
 21
149.3282327595
  0
LINE
  5
227
100
AcDbEntity
  8
BEZUGSACHSEN
100
AcDbLine
 62
7
  6
CONTINUOUS
 10
75.860610387
 20
149.8876131029
 11
76.3577789891
 21
150.0783230182
  0
LINE
  5
228
100
AcDbEntity
  8
0
100
AcDbLine
 62
7
  6
CONTINUOUS
 10
51.2021005768
 20
139.1574601884
 11
51.2021005768
 21
109.264848135
  0
LINE
  5
229
100
AcDbEntity
  8
BEZUGSACHSEN
100
AcDbLine
 62
7
  6
CONTINUOUS
 10
77.35081231
 20
149.643958155
 11
77.7491345025
 21
150.1636296001
  0
LINE
  5
22A
100
AcDbEntity
  8
BEZUGSACHSEN
100
AcDbLine
 62
7
  6
CONTINUOUS
 10
71.4149158891
 20
143.7478057785
 11
71.9191091412
 21
144.3191872319
  0
LINE
  5
22B
100
AcDbEntity
  8
BEZUGSACHSEN
100
AcDbLine
 62
7
  6
CONTINUOUS
 10
74.0199142783
 20
146.6999431969
 11
74.6081398994
 21
147.3665550742
  0
LINE
  5
22C
100
AcDbEntity
  8
BEZUGSACHSEN
100
AcDbLine
 62
7
  6
CONTINUOUS
 10
82.0297802749
 20
153.7677173311
 11
82.4030937148
 21
154.1474329698
  0
LINE
  5
22D
100
AcDbEntity
  8
BEZUGSACHSEN
100
AcDbLine
 62
7
  6
CONTINUOUS
 10
82.4799973184
 20
152.9227267984
 11
82.965399115
 21
153.3621639369
  0
LINE
  5
22E
100
AcDbEntity
  8
BEZUGSACHSEN
100
AcDbLine
 62
7
  6
CONTINUOUS
 10
76.9528159546
 20
149.3282327595
 11
77.35081231
 21
149.643958155
  0
LINE
  5
22F
100
AcDbEntity
  8
RUNDUNGEN
100
AcDbLine
 62
7
  6
CONTINUOUS
 10
59.3001767881
 20
76.4073065844
 11
55.982541747
 21
82.1536190366
  0
LINE
  5
230
100
AcDbEntity
  8
0
100
AcDbLine
 62
7
  6
CONTINUOUS
 10
51.2021005768
 20
109.264848135
 11
55.982541747
 21
82.1536190366
  0
LINE
  5
231
100
AcDbEntity
  8
BEZUGSACHSEN
100
AcDbLine
 62
7
  6
CONTINUOUS
 10
70.285129676
 20
148.9792709316
 11
70.417574783
 21
149.3705434691
  0
LINE
  5
232
100
AcDbEntity
  8
BEZUGSACHSEN
100
AcDbLine
 62
7
  6
CONTINUOUS
 10
76.7557753444
 20
150.3940484137
 11
77.0545988838
 21
150.8347888377
  0
LINE
  5
233
100
AcDbEntity
  8
BEZUGSACHSEN
100
AcDbLine
 62
7
  6
CONTINUOUS
 10
114.250525491
 20
156.7650618227
 11
114.6182979963
 21
156.9414697471
  0
LINE
  5
234
100
AcDbEntity
  8
RUNDUNGEN
100
AcDbLine
 62
7
  6
CONTINUOUS
 10
59.7021005768
 20
49.4390946302
 11
59.7021005768
 21
90.5687499968
  0
LINE
  5
235
100
AcDbEntity
  8
BEZUGSACHSEN
100
AcDbLine
 62
7
  6
CONTINUOUS
 10
71.0998647473
 20
148.9378648389
 11
71.1966904638
 21
149.5299493386
  0
LINE
  5
236
100
AcDbEntity
  8
BEZUGSACHSEN
100
AcDbLine
 62
7
  6
CONTINUOUS
 10
77.7491345025
 20
150.1636296001
 11
77.9487851998
 21
150.7293850855
  0
LINE
  5
237
100
AcDbEntity
  8
BEZUGSACHSEN
100
AcDbLine
 62
7
  6
CONTINUOUS
 10
82.4030937148
 20
154.1474329698
 11
82.5892838565
 21
154.608259642
  0
LINE
  5
238
100
AcDbEntity
  8
BEZUGSACHSEN
100
AcDbLine
 62
7
  6
CONTINUOUS
 10
82.965399115
 20
153.3621639369
 11
83.2636763701
 21
153.8827113516
  0
LINE
  5
239
100
AcDbEntity
  8
BEZUGSACHSEN
100
AcDbLine
 62
7
  6
CONTINUOUS
 10
114.613170808
 20
156.0573058868
 11
115.2344292807
 21
156.4655140286
  0
LINE
  5
23A
100
AcDbEntity
  8
BEZUGSACHSEN
100
AcDbLine
 62
7
  6
CONTINUOUS
 10
117.8350934094
 20
156.2159659722
 11
118.4179861723
 21
156.5795343051
  0
LINE
  5
23B
100
AcDbEntity
  8
BEZUGSACHSEN
100
AcDbLine
 62
7
  6
CONTINUOUS
 10
118.3542898847
 20
155.6358049874
 11
118.8426054277
 21
155.8708470133
  0
LINE
  5
23C
100
AcDbEntity
  8
0
100
AcDbLine
 62
7
  6
CONTINUOUS
 10
106.0021005768
 20
68.7111541617
 11
88.4021005768
 21
68.7111541617
  0
LINE
  5
23D
100
AcDbEntity
  8
BEZUGSACHSEN
100
AcDbLine
 62
7
  6
CONTINUOUS
 10
77.0545988838
 20
150.8347888377
 11
77.1547503065
 21
151.3216129161
  0
LINE
  5
23E
100
AcDbEntity
  8
KONSTRUKTIONSELEMENTE
100
AcDbLine
 62
7
  6
CONTINUOUS
 10
73.5499886203
 20
69.0316622374
 11
73.5499886203
 21
58.6335154117
  0
LINE
  5
23F
100
AcDbEntity
  8
BEZUGSACHSEN
100
AcDbLine
 62
7
  6
CONTINUOUS
 10
83.2636763701
 20
153.8827113516
 11
83.4118812883
 21
154.6849222566
  0
LINE
  5
240
100
AcDbEntity
  8
BEZUGSACHSEN
100
AcDbLine
 62
7
  6
CONTINUOUS
 10
117.2599236739
 20
155.648594553
 11
117.8350934094
 21
156.2159659722
  0
LINE
  5
241
100
AcDbEntity
  8
BEZUGSACHSEN
100
AcDbLine
 62
7
  6
CONTINUOUS
 10
117.8736955576
 20
155.1969623181
 11
118.3542898847
 21
155.6358049874
  0
LINE
  5
242
100
AcDbEntity
  8
BEZUGSACHSEN
100
AcDbLine
 62
7
  6
CONTINUOUS
 10
118.4527196502
 20
150.412265116
 11
118.8387388338
 21
150.7225793953
  0
LINE
  5
243
100
AcDbEntity
  8
BEZUGSACHSEN
100
AcDbLine
 62
7
  6
CONTINUOUS
 10
128.401001263
 20
143.4272158772
 11
129.4465163221
 21
143.8404521473
  0
LINE
  5
244
100
AcDbEntity
  8
BEZUGSACHSEN
100
AcDbLine
 62
7
  6
CONTINUOUS
 10
128.699641538
 20
142.8668014395
 11
129.6043325382
 21
143.2049871315
  0
LINE
  5
245
100
AcDbEntity
  8
BEZUGSACHSEN
100
AcDbLine
 62
7
  6
CONTINUOUS
 10
77.9487851998
 20
150.7293850855
 11
77.9500902564
 21
151.5451706389
  0
LINE
  5
246
100
AcDbEntity
  8
BEZUGSACHSEN
100
AcDbLine
 62
7
  6
CONTINUOUS
 10
114.6182979963
 20
156.9414697471
 11
114.9413823704
 21
157.3168668537
  0
LINE
  5
247
100
AcDbEntity
  8
BEZUGSACHSEN
100
AcDbLine
 62
7
  6
CONTINUOUS
 10
115.2344292807
 20
156.4655140286
 11
115.5575136548
 21
156.8409111352
  0
LINE
  5
248
100
AcDbEntity
  8
BEZUGSACHSEN
100
AcDbLine
 62
7
  6
CONTINUOUS
 10
118.8773411806
 20
149.7035760113
 11
119.357935574
 21
150.1424187705
  0
LINE
  5
249
100
AcDbEntity
  8
BEZUGSACHSEN
100
AcDbLine
 62
7
  6
CONTINUOUS
 10
127.2709192969
 20
146.4112186376
 11
128.3131765486
 21
147.1483734853
  0
LINE
  5
24A
100
AcDbEntity
  8
BEZUGSACHSEN
100
AcDbLine
 62
7
  6
CONTINUOUS
 10
123.541915532
 20
142.8404534541
 11
128.6229185846
 21
146.4340825945
  0
LINE
  5
24B
100
AcDbEntity
  8
BEZUGSACHSEN
100
AcDbLine
 62
7
  6
CONTINUOUS
 10
127.4152137121
 20
142.9018977457
 11
128.401001263
 21
143.4272158772
  0
LINE
  5
24C
100
AcDbEntity
  8
BEZUGSACHSEN
100
AcDbLine
 62
7
  6
CONTINUOUS
 10
128.417987952
 20
142.7167105448
 11
128.699641538
 21
142.8668014395
  0
LINE
  5
24D
100
AcDbEntity
  8
BEZUGSACHSEN
100
AcDbLine
 62
7
  6
CONTINUOUS
 10
126.9286232741
 20
141.7791235266
 11
127.3511036531
 21
142.0042598687
  0
LINE
  5
24E
100
AcDbEntity
  8
BEZUGSACHSEN
100
AcDbLine
 62
7
  6
CONTINUOUS
 10
70.417574783
 20
149.3705434691
 11
70.3463362423
 21
149.772167666
  0
LINE
  5
24F
100
AcDbEntity
  8
BEZUGSACHSEN
100
AcDbLine
 62
7
  6
CONTINUOUS
 10
82.5892838565
 20
154.608259642
 11
82.5883508049
 21
155.1501971506
  0
LINE
  5
250
100
AcDbEntity
  8
BEZUGSACHSEN
100
AcDbLine
 62
7
  6
CONTINUOUS
 10
109.1016971426
 20
154.2953568178
 11
112.3728226506
 21
161.0444114116
  0
LINE
  5
251
100
AcDbEntity
  8
BEZUGSACHSEN
100
AcDbLine
 62
7
  6
CONTINUOUS
 10
115.8412963887
 20
153.7206685237
 11
117.2599236739
 21
155.648594553
  0
LINE
  5
252
100
AcDbEntity
  8
BEZUGSACHSEN
100
AcDbLine
 62
7
  6
CONTINUOUS
 10
116.4550682724
 20
153.2690362889
 11
117.8736955576
 21
155.1969623181
  0
LINE
  5
253
100
AcDbEntity
  8
BEZUGSACHSEN
100
AcDbLine
 62
7
  6
CONTINUOUS
 10
119.2421331499
 20
153.1994253868
 11
118.6746822888
 21
152.4282550471
  0
LINE
  5
254
100
AcDbEntity
  8
BEZUGSACHSEN
100
AcDbLine
 62
7
  6
CONTINUOUS
 10
130.1051996181
 20
146.5490906169
 11
123.9819396788
 21
142.218306887
  0
LINE
  5
255
100
AcDbEntity
  8
BEZUGSACHSEN
100
AcDbLine
 62
7
  6
CONTINUOUS
 10
127.4152137121
 20
142.9018977457
 11
126.489153472
 21
142.2644976477
  0
LINE
  5
256
100
AcDbEntity
  8
BEZUGSACHSEN
100
AcDbLine
 62
7
  6
CONTINUOUS
 10
128.8443132303
 20
139.2021722879
 11
128.4218328514
 21
138.9770359458
  0
LINE
  5
257
100
AcDbEntity
  8
BEZUGSACHSEN
100
AcDbLine
 62
7
  6
CONTINUOUS
 10
129.2837832297
 20
138.7167982719
 11
128.5796490675
 21
138.34157093
  0
LINE
  5
258
100
AcDbEntity
  8
BEZUGSACHSEN
100
AcDbLine
 62
7
  6
CONTINUOUS
 10
71.1966904638
 20
149.5299493386
 11
70.9701810135
 21
150.2379673086
  0
LINE
  5
259
100
AcDbEntity
  8
BEZUGSACHSEN
100
AcDbLine
 62
7
  6
CONTINUOUS
 10
77.1547503065
 20
151.3216129161
 11
77.0562297515
 21
151.8545204736
  0
LINE
  5
25A
100
AcDbEntity
  8
0
100
AcDbLine
 62
7
  6
CONTINUOUS
 10
88.4021005768
 20
40.6777647964
 11
88.4021005768
 21
58.6335154117
  0
LINE
  5
25B
100
AcDbEntity
  8
KONSTRUKTIONSELEMENTE
100
AcDbLine
 62
7
  6
CONTINUOUS
 10
88.4021005768
 20
58.6335154117
 11
88.4021005768
 21
80.4111541617
  0
LINE
  5
25C
100
AcDbEntity
  8
BEZUGSACHSEN
100
AcDbLine
 62
7
  6
CONTINUOUS
 10
109.7874268337
 20
153.9629979884
 11
111.2489935708
 21
156.9785330625
  0
LINE
  5
25D
100
AcDbEntity
  8
BEZUGSACHSEN
100
AcDbLine
 62
7
  6
CONTINUOUS
 10
111.6665840114
 20
157.8401143973
 11
112.7105603079
 21
159.9940681366
  0
LINE
  5
25E
100
AcDbEntity
  8
BEZUGSACHSEN
100
AcDbLine
 62
7
  6
CONTINUOUS
 10
115.1501777857
 20
157.7476579234
 11
114.9413823704
 21
157.3168668537
  0
LINE
  5
25F
100
AcDbEntity
  8
BEZUGSACHSEN
100
AcDbLine
 62
7
  6
CONTINUOUS
 10
115.8359074768
 20
157.415299094
 11
115.5575136548
 21
156.8409111352
  0
LINE
  5
260
100
AcDbEntity
  8
BEZUGSACHSEN
100
AcDbLine
 62
7
  6
CONTINUOUS
 10
115.8412963887
 20
153.7206685237
 11
115.4707144241
 21
153.0027556834
  0
LINE
  5
261
100
AcDbEntity
  8
BEZUGSACHSEN
100
AcDbLine
 62
7
  6
CONTINUOUS
 10
119.5953401144
 20
151.7508066949
 11
118.8387388338
 21
150.7225793953
  0
LINE
  5
262
100
AcDbEntity
  8
BEZUGSACHSEN
100
AcDbLine
 62
7
  6
CONTINUOUS
 10
120.7765628592
 20
152.0703447997
 11
119.357935574
 21
150.1424187705
  0
LINE
  5
263
100
AcDbEntity
  8
BEZUGSACHSEN
100
AcDbLine
 62
7
  6
CONTINUOUS
 10
126.489153472
 20
142.2644976477
 11
125.9044771589
 21
141.6651015048
  0
LINE
  5
264
100
AcDbEntity
  8
BEZUGSACHSEN
100
AcDbLine
 62
7
  6
CONTINUOUS
 10
126.9286232741
 20
141.7791235266
 11
126.5658704033
 21
141.4419053231
  0
LINE
  5
265
100
AcDbEntity
  8
BEZUGSACHSEN
100
AcDbLine
 62
7
  6
CONTINUOUS
 10
77.9500902564
 20
151.5451706389
 11
77.7523968159
 21
152.2030933125
  0
LINE
  5
266
100
AcDbEntity
  8
BEZUGSACHSEN
100
AcDbLine
 62
7
  6
CONTINUOUS
 10
83.4118812883
 20
154.6849222566
 11
83.335912019
 21
155.3676916028
  0
LINE
  5
267
100
AcDbEntity
  8
BEZUGSACHSEN
100
AcDbLine
 62
7
  6
CONTINUOUS
 10
116.4550682724
 20
153.2690362889
 11
116.1790614514
 21
152.6796518385
  0
LINE
  5
268
100
AcDbEntity
  8
BEZUGSACHSEN
100
AcDbLine
 62
7
  6
CONTINUOUS
 10
121.9983213803
 20
153.9450135096
 11
121.6277391508
 21
153.2271003093
  0
LINE
  5
269
100
AcDbEntity
  8
BEZUGSACHSEN
100
AcDbLine
 62
7
  6
CONTINUOUS
 10
129.8684594442
 20
139.3161943622
 11
129.2837832297
 21
138.7167982719
  0
LINE
  5
26A
100
AcDbEntity
  8
BEZUGSACHSEN
100
AcDbLine
 62
7
  6
CONTINUOUS
 10
129.2070662984
 20
139.5393905965
 11
128.8443132303
 21
139.2021722879
  0
LINE
  5
26B
100
AcDbEntity
  8
BEZUGSACHSEN
100
AcDbLine
 62
7
  6
CONTINUOUS
 10
132.0619610184
 20
140.6290035916
 11
131.6992081476
 21
140.2917853881
  0
LINE
  5
26C
100
AcDbEntity
  8
BEZUGSACHSEN
100
AcDbLine
 62
7
  6
CONTINUOUS
 10
82.5883508049
 20
155.1501971506
 11
82.4002932249
 21
155.7732449107
  0
LINE
  5
26D
100
AcDbEntity
  8
BEZUGSACHSEN
100
AcDbLine
 62
7
  6
CONTINUOUS
 10
115.4707144241
 20
153.0027556834
 11
115.2970059727
 21
152.3380968068
  0
LINE
  5
26E
100
AcDbEntity
  8
BEZUGSACHSEN
100
AcDbLine
 62
7
  6
CONTINUOUS
 10
121.1953992095
 20
154.1395889646
 11
121.0139672671
 21
153.6787325441
  0
LINE
  5
26F
100
AcDbEntity
  8
BEZUGSACHSEN
100
AcDbLine
 62
7
  6
CONTINUOUS
 10
125.9044771589
 20
141.6651015048
 11
125.5203551963
 21
141.0286689742
  0
LINE
  5
270
100
AcDbEntity
  8
BEZUGSACHSEN
100
AcDbLine
 62
7
  6
CONTINUOUS
 10
126.5658704033
 20
141.4419053231
 11
126.2628476762
 21
140.992600075
  0
LINE
  5
271
100
AcDbEntity
  8
BEZUGSACHSEN
100
AcDbLine
 62
7
  6
CONTINUOUS
 10
70.3463362423
 20
149.772167666
 11
70.0714138137
 21
150.1841432499
  0
LINE
  5
272
100
AcDbEntity
  8
BEZUGSACHSEN
100
AcDbLine
 62
7
  6
CONTINUOUS
 10
70.9701810135
 20
150.2379673086
 11
70.6952585849
 21
150.6499428925
  0
LINE
  5
273
100
AcDbEntity
  8
BEZUGSACHSEN
100
AcDbLine
 62
7
  6
CONTINUOUS
 10
77.0562297515
 20
151.8545204736
 11
76.7590377186
 21
152.4335120495
  0
LINE
  5
274
100
AcDbEntity
  8
BEZUGSACHSEN
100
AcDbLine
 62
7
  6
CONTINUOUS
 10
83.335912019
 20
155.3676916028
 11
83.0728182739
 21
156.1315711019
  0
LINE
  5
275
100
AcDbEntity
  8
0
100
AcDbLine
 62
7
  6
CONTINUOUS
 10
106.0021005768
 20
58.6335154117
 11
106.0021005768
 21
40.6777647964
  0
LINE
  5
276
100
AcDbEntity
  8
KONSTRUKTIONSELEMENTE
100
AcDbLine
 62
7
  6
CONTINUOUS
 10
106.0021005768
 20
58.6335154117
 11
106.0021005768
 21
80.4111541617
  0
LINE
  5
277
100
AcDbEntity
  8
BEZUGSACHSEN
100
AcDbLine
 62
7
  6
CONTINUOUS
 10
114.0168199951
 20
155.9916850841
 11
113.4446509812
 21
152.1904179876
  0
LINE
  5
278
100
AcDbEntity
  8
BEZUGSACHSEN
100
AcDbLine
 62
7
  6
CONTINUOUS
 10
113.1918934904
 20
156.0368501352
 11
112.6446347521
 21
152.57816911
  0
LINE
  5
279
100
AcDbEntity
  8
BEZUGSACHSEN
100
AcDbLine
 62
7
  6
CONTINUOUS
 10
115.2446838522
 20
158.2338421516
 11
115.1501777857
 21
157.7476579234
  0
LINE
  5
27A
100
AcDbEntity
  8
BEZUGSACHSEN
100
AcDbLine
 62
7
  6
CONTINUOUS
 10
115.9304135433
 20
157.9014833222
 11
115.8359074768
 21
157.415299094
  0
LINE
  5
27B
100
AcDbEntity
  8
BEZUGSACHSEN
100
AcDbLine
 62
7
  6
CONTINUOUS
 10
132.4460829318
 20
141.2654360959
 11
132.0619610184
 21
140.6290035916
  0
LINE
  5
27C
100
AcDbEntity
  8
BEZUGSACHSEN
100
AcDbLine
 62
7
  6
CONTINUOUS
 10
131.7035905012
 20
141.3015050214
 11
131.4005651385
 21
140.8522049566
  0
LINE
  5
27D
100
AcDbEntity
  8
BEZUGSACHSEN
100
AcDbLine
 62
7
  6
CONTINUOUS
 10
73.774066192
 20
150.0655724865
 11
70.6997084788
 21
153.9410388962
  0
LINE
  5
27E
100
AcDbEntity
  8
BEZUGSACHSEN
100
AcDbLine
 62
7
  6
CONTINUOUS
 10
74.371060725
 20
150.5391605798
 11
71.2967030119
 21
154.4146269894
  0
LINE
  5
27F
100
AcDbEntity
  8
BEZUGSACHSEN
100
AcDbLine
 62
7
  6
CONTINUOUS
 10
77.7523968159
 20
152.2030933125
 11
77.356031967
 21
152.9070999169
  0
LINE
  5
280
100
AcDbEntity
  8
BEZUGSACHSEN
100
AcDbLine
 62
7
  6
CONTINUOUS
 10
79.7898971225
 20
151.4894220336
 11
76.2631969401
 21
158.1085145562
  0
LINE
  5
281
100
AcDbEntity
  8
BEZUGSACHSEN
100
AcDbLine
 62
7
  6
CONTINUOUS
 10
80.012205128
 20
152.6927387575
 11
77.3859389799
 21
157.6218503133
  0
LINE
  5
282
100
AcDbEntity
  8
BEZUGSACHSEN
100
AcDbLine
 62
7
  6
CONTINUOUS
 10
81.2747506425
 20
157.8857211932
 11
82.4002932249
 21
155.7732449107
  0
LINE
  5
283
100
AcDbEntity
  8
BEZUGSACHSEN
100
AcDbLine
 62
7
  6
CONTINUOUS
 10
116.1790614514
 20
152.6796518385
 11
116.0999258683
 21
152.1435231647
  0
LINE
  5
284
100
AcDbEntity
  8
BEZUGSACHSEN
100
AcDbLine
 62
7
  6
CONTINUOUS
 10
129.3692621339
 20
139.9136503447
 11
129.2070662984
 21
139.5393905965
  0
LINE
  5
285
100
AcDbEntity
  8
BEZUGSACHSEN
100
AcDbLine
 62
7
  6
CONTINUOUS
 10
130.1117545645
 20
139.8775814192
 11
129.8684594442
 21
139.3161943622
  0
LINE
  5
286
100
AcDbEntity
  8
BEZUGSACHSEN
100
AcDbLine
 62
7
  6
CONTINUOUS
 10
71.4149158891
 20
143.7478057785
 11
65.7912938223
 21
148.7101514788
  0
LINE
  5
287
100
AcDbEntity
  8
BEZUGSACHSEN
100
AcDbLine
 62
7
  6
CONTINUOUS
 10
71.9191091412
 20
144.3191872319
 11
69.4064269055
 21
146.536405555
  0
LINE
  5
288
100
AcDbEntity
  8
BEZUGSACHSEN
100
AcDbLine
 62
7
  6
CONTINUOUS
 10
68.6885177911
 20
147.1698964199
 11
66.8937446698
 21
148.7536238781
  0
LINE
  5
289
100
AcDbEntity
  8
BEZUGSACHSEN
100
AcDbLine
 62
7
  6
CONTINUOUS
 10
69.7124589213
 20
150.5008889782
 11
70.0714138137
 21
150.1841432499
  0
LINE
  5
28A
100
AcDbEntity
  8
BEZUGSACHSEN
100
AcDbLine
 62
7
  6
CONTINUOUS
 10
70.2166521734
 20
151.0722704316
 11
70.6952585849
 21
150.6499428925
  0
LINE
  5
28B
100
AcDbEntity
  8
BEZUGSACHSEN
100
AcDbLine
 62
7
  6
CONTINUOUS
 10
73.6846800055
 20
156.3089784591
 11
76.7590377186
 21
152.4335120495
  0
LINE
  5
28C
100
AcDbEntity
  8
BEZUGSACHSEN
100
AcDbLine
 62
7
  6
CONTINUOUS
 10
74.2816742539
 20
156.7825663266
 11
77.356031967
 21
152.9070999169
  0
LINE
  5
28D
100
AcDbEntity
  8
BEZUGSACHSEN
100
AcDbLine
 62
7
  6
CONTINUOUS
 10
81.9472756915
 20
158.2440473844
 11
83.0728182739
 21
156.1315711019
  0
LINE
  5
28E
100
AcDbEntity
  8
BEZUGSACHSEN
100
AcDbLine
 62
7
  6
CONTINUOUS
 10
115.2970059727
 20
152.3380968068
 11
115.3278850604
 21
151.522896194
  0
LINE
  5
28F
100
AcDbEntity
  8
BEZUGSACHSEN
100
AcDbLine
 62
7
  6
CONTINUOUS
 10
125.5203551963
 20
141.0286689742
 11
125.3965150553
 21
140.2431181747
  0
LINE
  5
290
100
AcDbEntity
  8
BEZUGSACHSEN
100
AcDbLine
 62
7
  6
CONTINUOUS
 10
126.2628476762
 20
140.992600075
 11
126.1603793488
 21
140.5062584653
  0
LINE
  5
291
100
AcDbEntity
  8
BEZUGSACHSEN
100
AcDbLine
 62
7
  6
CONTINUOUS
 10
74.371060725
 20
150.5391605798
 11
74.8672506509
 21
150.1180314758
  0
LINE
  5
292
100
AcDbEntity
  8
BEZUGSACHSEN
100
AcDbLine
 62
7
  6
CONTINUOUS
 10
73.774066192
 20
150.0655724865
 11
74.3694295032
 21
149.5194288057
  0
LINE
  5
293
100
AcDbEntity
  8
BEZUGSACHSEN
100
AcDbLine
 62
7
  6
CONTINUOUS
 10
80.8625189014
 20
158.3893273452
 11
81.2747506425
 21
157.8857211932
  0
LINE
  5
294
100
AcDbEntity
  8
BEZUGSACHSEN
100
AcDbLine
 62
7
  6
CONTINUOUS
 10
81.460007575
 20
158.8884856699
 11
81.9472756915
 21
158.2440473844
  0
LINE
  5
295
100
AcDbEntity
  8
BEZUGSACHSEN
100
AcDbLine
 62
7
  6
CONTINUOUS
 10
115.8659423248
 20
158.6420502935
 11
115.9304135433
 21
157.9014833222
  0
LINE
  5
296
100
AcDbEntity
  8
BEZUGSACHSEN
100
AcDbLine
 62
7
  6
CONTINUOUS
 10
121.9674422594
 20
154.7602140774
 11
121.9983213803
 21
153.9450135096
  0
LINE
  5
297
100
AcDbEntity
  8
KONSTRUKTIONSELEMENTE
100
AcDbLine
 62
7
  6
CONTINUOUS
 10
120.8542125332
 20
69.0316622374
 11
120.8542125332
 21
58.6335154117
  0
LINE
  5
298
100
AcDbEntity
  8
BEZUGSACHSEN
100
AcDbLine
 62
7
  6
CONTINUOUS
 10
130.2355919344
 20
140.6631373298
 11
130.1117545645
 21
139.8775814192
  0
LINE
  5
299
100
AcDbEntity
  8
BEZUGSACHSEN
100
AcDbLine
 62
7
  6
CONTINUOUS
 10
129.4717304613
 20
140.3999919544
 11
129.3692621339
 21
139.9136503447
  0
LINE
  5
29A
100
AcDbEntity
  8
BEZUGSACHSEN
100
AcDbLine
 62
7
  6
CONTINUOUS
 10
131.8060588285
 20
141.787846631
 11
131.7035905012
 21
141.3015050214
  0
LINE
  5
29B
100
AcDbEntity
  8
BEZUGSACHSEN
100
AcDbLine
 62
7
  6
CONTINUOUS
 10
127.9396249642
 20
138.8639814652
 11
128.4218328514
 21
138.9770359458
  0
LINE
  5
29C
100
AcDbEntity
  8
BEZUGSACHSEN
100
AcDbLine
 62
7
  6
CONTINUOUS
 10
127.7560572534
 20
138.1905124942
 11
128.5796490675
 21
138.34157093
  0
LINE
  5
29D
100
AcDbEntity
  8
BEZUGSACHSEN
100
AcDbLine
 62
7
  6
CONTINUOUS
 10
74.3694295032
 20
149.5194288057
 11
74.9651190144
 21
149.1772313018
  0
LINE
  5
29E
100
AcDbEntity
  8
BEZUGSACHSEN
100
AcDbLine
 62
7
  6
CONTINUOUS
 10
126.1603793488
 20
140.5062584653
 11
126.1987378145
 21
140.0949623031
  0
LINE
  5
29F
100
AcDbEntity
  8
BEZUGSACHSEN
100
AcDbLine
 62
7
  6
CONTINUOUS
 10
132.5699203016
 20
142.0509920064
 11
132.4460829318
 21
141.2654360959
  0
LINE
  5
2A0
100
AcDbEntity
  8
BEZUGSACHSEN
100
AcDbLine
 62
7
  6
CONTINUOUS
 10
127.3511036531
 20
142.0042598687
 11
127.8333117375
 21
142.1173144545
  0
LINE
  5
2A1
100
AcDbEntity
  8
BEZUGSACHSEN
100
AcDbLine
 62
7
  6
CONTINUOUS
 10
129.6043325382
 20
143.2049871315
 11
130.0865408199
 21
143.3180418224
  0
LINE
  5
2A2
100
AcDbEntity
  8
BEZUGSACHSEN
100
AcDbLine
 62
7
  6
CONTINUOUS
 10
129.4465163221
 20
143.8404521473
 11
130.2701084321
 21
143.9915107408
  0
LINE
  5
2A3
100
AcDbEntity
  8
BEZUGSACHSEN
100
AcDbLine
 62
7
  6
CONTINUOUS
 10
74.8672506509
 20
150.1180314758
 11
75.3637675613
 21
149.9008493138
  0
LINE
  5
2A4
100
AcDbEntity
  8
BEZUGSACHSEN
100
AcDbLine
 62
7
  6
CONTINUOUS
 10
71.0998647473
 20
148.9378648389
 11
74.6081398994
 21
147.3665550742
  0
LINE
  5
2A5
100
AcDbEntity
  8
BEZUGSACHSEN
100
AcDbLine
 62
7
  6
CONTINUOUS
 10
70.8349744131
 20
148.1553196276
 11
74.0199142783
 21
146.6999431969
  0
LINE
  5
2A6
100
AcDbEntity
  8
BEZUGSACHSEN
100
AcDbLine
 62
7
  6
CONTINUOUS
 10
69.2694722355
 20
150.7224042593
 11
69.7124589213
 21
150.5008889782
  0
LINE
  5
2A7
100
AcDbEntity
  8
BEZUGSACHSEN
100
AcDbLine
 62
7
  6
CONTINUOUS
 10
69.7736654876
 20
151.2937857127
 11
70.2166521734
 21
151.0722704316
  0
LINE
  5
2A8
100
AcDbEntity
  8
BEZUGSACHSEN
100
AcDbLine
 62
7
  6
CONTINUOUS
 10
80.9356874705
 20
159.3323703344
 11
81.460007575
 21
158.8884856699
  0
LINE
  5
2A9
100
AcDbEntity
  8
BEZUGSACHSEN
100
AcDbLine
 62
7
  6
CONTINUOUS
 10
116.0999258683
 20
152.1435231647
 11
116.2176614569
 21
151.6606501774
  0
LINE
  5
2AA
100
AcDbEntity
  8
BEZUGSACHSEN
100
AcDbLine
 62
7
  6
CONTINUOUS
 10
115.1553049739
 20
158.6318217837
 11
115.2446838522
 21
158.2338421516
  0
LINE
  5
2AB
100
AcDbEntity
  8
BEZUGSACHSEN
100
AcDbLine
 62
7
  6
CONTINUOUS
 10
129.4333719956
 20
140.8112881166
 11
129.4717304613
 21
140.3999919544
  0
LINE
  5
2AC
100
AcDbEntity
  8
BEZUGSACHSEN
100
AcDbLine
 62
7
  6
CONTINUOUS
 10
131.7677003629
 20
142.1991427933
 11
131.8060588285
 21
141.787846631
  0
LINE
  5
2AD
100
AcDbEntity
  8
RUNDUNGEN
100
AcDbLine
 62
7
  6
CONTINUOUS
 10
134.7021005768
 20
90.5687496815
 11
134.7021005768
 21
49.4390946302
  0
LINE
  5
2AE
100
AcDbEntity
  8
BEZUGSACHSEN
100
AcDbLine
 62
7
  6
CONTINUOUS
 10
118.0898608785
 20
149.4905494144
 11
118.8773411806
 21
149.7035760113
  0
LINE
  5
2AF
100
AcDbEntity
  8
BEZUGSACHSEN
100
AcDbLine
 62
7
  6
CONTINUOUS
 10
127.3976867362
 20
138.8630139241
 11
127.9396249642
 21
138.8639814652
  0
LINE
  5
2B0
100
AcDbEntity
  8
BEZUGSACHSEN
100
AcDbLine
 62
7
  6
CONTINUOUS
 10
130.0865408199
 20
143.3180418224
 11
130.6284789493
 21
143.3190093109
  0
LINE
  5
2B1
100
AcDbEntity
  8
BEZUGSACHSEN
100
AcDbLine
 62
7
  6
CONTINUOUS
 10
127.0135647735
 20
138.2265813934
 11
127.7560572534
 21
138.1905124942
  0
LINE
  5
2B2
100
AcDbEntity
  8
BEZUGSACHSEN
100
AcDbLine
 62
7
  6
CONTINUOUS
 10
74.9651190144
 20
149.1772313018
 11
75.7598060992
 21
148.9928960877
  0
LINE
  5
2B3
100
AcDbEntity
  8
BEZUGSACHSEN
100
AcDbLine
 62
7
  6
CONTINUOUS
 10
80.4132347518
 20
158.6923806652
 11
80.8625189014
 21
158.3893273452
  0
LINE
  5
2B4
100
AcDbEntity
  8
BEZUGSACHSEN
100
AcDbLine
 62
7
  6
CONTINUOUS
 10
115.3278850604
 20
151.522896194
 11
115.5479167848
 21
150.9647506495
  0
LINE
  5
2B5
100
AcDbEntity
  8
BEZUGSACHSEN
100
AcDbLine
 62
7
  6
CONTINUOUS
 10
115.6175835457
 20
159.2944139364
 11
115.8659423248
 21
158.6420502935
  0
LINE
  5
2B6
100
AcDbEntity
  8
BEZUGSACHSEN
100
AcDbLine
 62
7
  6
CONTINUOUS
 10
125.3965150553
 20
140.2431181747
 11
125.554331259
 21
139.6076531523
  0
LINE
  5
2B7
100
AcDbEntity
  8
BEZUGSACHSEN
100
AcDbLine
 62
7
  6
CONTINUOUS
 10
121.0776635547
 20
154.6224618619
 11
121.1953992095
 21
154.1395889646
  0
LINE
  5
2B8
100
AcDbEntity
  8
BEZUGSACHSEN
100
AcDbLine
 62
7
  6
CONTINUOUS
 10
117.956683355
 20
150.3810243635
 11
118.4527196502
 21
150.412265116
  0
LINE
  5
2B9
100
AcDbEntity
  8
BEZUGSACHSEN
100
AcDbLine
 62
7
  6
CONTINUOUS
 10
127.2709192969
 20
146.4112186376
 11
128.6229185846
 21
146.4340825945
  0
LINE
  5
2BA
100
AcDbEntity
  8
BEZUGSACHSEN
100
AcDbLine
 62
7
  6
CONTINUOUS
 10
128.3131765486
 20
147.1483734853
 11
129.6651754713
 21
147.171237184
  0
LINE
  5
2BB
100
AcDbEntity
  8
BEZUGSACHSEN
100
AcDbLine
 62
7
  6
CONTINUOUS
 10
130.2701084321
 20
143.9915107408
 11
131.0126008627
 21
143.9554418153
  0
LINE
  5
2BC
100
AcDbEntity
  8
BEZUGSACHSEN
100
AcDbLine
 62
7
  6
CONTINUOUS
 10
127.8333117375
 20
142.1173144545
 11
128.234423074
 21
142.0432364956
  0
LINE
  5
2BD
100
AcDbEntity
  8
BEZUGSACHSEN
100
AcDbLine
 62
7
  6
CONTINUOUS
 10
69.0429627853
 20
151.4304222293
 11
69.7736654876
 21
151.2937857127
  0
LINE
  5
2BE
100
AcDbEntity
  8
BEZUGSACHSEN
100
AcDbLine
 62
7
  6
CONTINUOUS
 10
126.9368478915
 20
139.0491737443
 11
127.3976867362
 21
138.8630139241
  0
LINE
  5
2BF
100
AcDbEntity
  8
BEZUGSACHSEN
100
AcDbLine
 62
7
  6
CONTINUOUS
 10
80.1871932048
 20
159.6568133908
 11
80.9356874705
 21
159.3323703344
  0
LINE
  5
2C0
100
AcDbEntity
  8
BEZUGSACHSEN
100
AcDbLine
 62
7
  6
CONTINUOUS
 10
126.2924413484
 20
138.5618646001
 11
127.0135647735
 21
138.2265813934
  0
LINE
  5
2C1
100
AcDbEntity
  8
BEZUGSACHSEN
100
AcDbLine
 62
7
  6
CONTINUOUS
 10
125.8529742681
 20
139.0472335839
 11
126.2924413484
 21
138.5618646001
  0
LINE
  5
2C2
100
AcDbEntity
  8
BEZUGSACHSEN
100
AcDbLine
 62
7
  6
CONTINUOUS
 10
115.5479167848
 20
150.9647506495
 11
115.9648197637
 21
150.4598609041
  0
LINE
  5
2C3
100
AcDbEntity
  8
BEZUGSACHSEN
100
AcDbLine
 62
7
  6
CONTINUOUS
 10
116.2176614569
 20
151.6606501774
 11
116.532270691
 21
151.2310313338
  0
LINE
  5
2C4
100
AcDbEntity
  8
BEZUGSACHSEN
100
AcDbLine
 62
7
  6
CONTINUOUS
 10
123.541915532
 20
142.8404534541
 11
123.9819396788
 21
142.218306887
  0
LINE
  5
2C5
100
AcDbEntity
  8
BEZUGSACHSEN
100
AcDbLine
 62
7
  6
CONTINUOUS
 10
125.554331259
 20
139.6076531523
 11
125.8529742681
 21
139.0472335839
  0
LINE
  5
2C6
100
AcDbEntity
  8
BEZUGSACHSEN
100
AcDbLine
 62
7
  6
CONTINUOUS
 10
126.1987378145
 20
140.0949623031
 11
126.6168358399
 21
139.3103790118
  0
LINE
  5
2C7
100
AcDbEntity
  8
BEZUGSACHSEN
100
AcDbLine
 62
7
  6
CONTINUOUS
 10
121.7474081689
 20
155.318361311
 11
121.9674422594
 21
154.7602140774
  0
LINE
  5
2C8
100
AcDbEntity
  8
BEZUGSACHSEN
100
AcDbLine
 62
7
  6
CONTINUOUS
 10
130.0777784524
 20
141.2985972148
 11
130.2355919344
 21
140.6631373298
  0
LINE
  5
2C9
100
AcDbEntity
  8
BEZUGSACHSEN
100
AcDbLine
 62
7
  6
CONTINUOUS
 10
132.4121040855
 20
142.6864570223
 11
132.5699203016
 21
142.0509920064
  0
LINE
  5
2CA
100
AcDbEntity
  8
0
100
AcDbLine
 62
7
  6
CONTINUOUS
 10
143.2021005768
 20
109.264848135
 11
143.2021005768
 21
139.1574601884
  0
LINE
  5
2CB
100
AcDbEntity
  8
0
100
AcDbLine
 62
7
  6
CONTINUOUS
 10
138.4216594066
 20
82.1536190366
 11
143.2021005768
 21
109.264848135
  0
LINE
  5
2CC
100
AcDbEntity
  8
RUNDUNGEN
100
AcDbLine
 62
7
  6
CONTINUOUS
 10
135.1040243654
 20
76.4073065844
 11
138.4216594066
 21
82.1536190366
  0
LINE
  5
2CD
100
AcDbEntity
  8
BEZUGSACHSEN
100
AcDbLine
 62
7
  6
CONTINUOUS
 10
118.4179861723
 20
156.5795343051
 11
119.2054664413
 21
156.7925608569
  0
LINE
  5
2CE
100
AcDbEntity
  8
BEZUGSACHSEN
100
AcDbLine
 62
7
  6
CONTINUOUS
 10
75.7598060992
 20
148.9928960877
 11
76.3561481127
 21
149.0585913933
  0
LINE
  5
2CF
100
AcDbEntity
  8
BEZUGSACHSEN
100
AcDbLine
 62
7
  6
CONTINUOUS
 10
114.0168199951
 20
155.9916850841
 11
114.613170808
 21
156.0573058868
  0
LINE
  5
2D0
100
AcDbEntity
  8
BEZUGSACHSEN
100
AcDbLine
 62
7
  6
CONTINUOUS
 10
68.3478794734
 20
151.3662467836
 11
69.0429627853
 21
151.4304222293
  0
LINE
  5
2D1
100
AcDbEntity
  8
BEZUGSACHSEN
100
AcDbLine
 62
7
  6
CONTINUOUS
 10
118.8426054277
 20
155.8708470133
 11
119.3386416566
 21
155.9020876758
  0
LINE
  5
2D2
100
AcDbEntity
  8
BEZUGSACHSEN
100
AcDbLine
 62
7
  6
CONTINUOUS
 10
75.3637675613
 20
149.9008493138
 11
75.860610387
 21
149.8876131029
  0
LINE
  5
2D3
100
AcDbEntity
  8
BEZUGSACHSEN
100
AcDbLine
 62
7
  6
CONTINUOUS
 10
68.8621046998
 20
150.7431073056
 11
69.2694722355
 21
150.7224042593
  0
LINE
  5
2D4
100
AcDbEntity
  8
BEZUGSACHSEN
100
AcDbLine
 62
7
  6
CONTINUOUS
 10
117.491526189
 20
149.5345830545
 11
118.0898608785
 21
149.4905494144
  0
LINE
  5
2D5
100
AcDbEntity
  8
BEZUGSACHSEN
100
AcDbLine
 62
7
  6
CONTINUOUS
 10
79.926899897
 20
158.7948810476
 11
80.4132347518
 21
158.6923806652
  0
LINE
  5
2D6
100
AcDbEntity
  8
BEZUGSACHSEN
100
AcDbLine
 62
7
  6
CONTINUOUS
 10
128.234423074
 20
142.0432364956
 11
128.6952619186
 21
141.8570766754
  0
LINE
  5
2D7
100
AcDbEntity
  8
BEZUGSACHSEN
100
AcDbLine
 62
7
  6
CONTINUOUS
 10
128.417987952
 20
142.7167105448
 11
129.3396656412
 21
142.3443909044
  0
LINE
  5
2D8
100
AcDbEntity
  8
BEZUGSACHSEN
100
AcDbLine
 62
7
  6
CONTINUOUS
 10
130.6284789493
 20
143.3190093109
 11
131.089317794
 21
143.1328494907
  0
LINE
  5
2D9
100
AcDbEntity
  8
BEZUGSACHSEN
100
AcDbLine
 62
7
  6
CONTINUOUS
 10
116.8854775893
 20
149.7824125518
 11
117.491526189
 21
149.5345830545
  0
LINE
  5
2DA
100
AcDbEntity
  8
BEZUGSACHSEN
100
AcDbLine
 62
7
  6
CONTINUOUS
 10
131.0126008627
 20
143.9554418153
 11
131.7337215166
 21
143.6201637197
  0
LINE
  5
2DB
100
AcDbEntity
  8
BEZUGSACHSEN
100
AcDbLine
 62
7
  6
CONTINUOUS
 10
109.1016971426
 20
154.2953568178
 11
109.7874268337
 21
153.9629979884
  0
LINE
  5
2DC
100
AcDbEntity
  8
BEZUGSACHSEN
100
AcDbLine
 62
7
  6
CONTINUOUS
 10
112.6446347521
 20
152.57816911
 11
113.4446509812
 21
152.1904179876
  0
LINE
  5
2DD
100
AcDbEntity
  8
BEZUGSACHSEN
100
AcDbLine
 62
7
  6
CONTINUOUS
 10
115.9648197637
 20
150.4598609041
 11
116.8854775893
 21
149.7824125518
  0
LINE
  5
2DE
100
AcDbEntity
  8
BEZUGSACHSEN
100
AcDbLine
 62
7
  6
CONTINUOUS
 10
116.532270691
 20
151.2310313338
 11
117.4529285166
 21
150.5535829815
  0
LINE
  5
2DF
100
AcDbEntity
  8
BEZUGSACHSEN
100
AcDbLine
 62
7
  6
CONTINUOUS
 10
126.6168358399
 20
139.3103790118
 11
126.9368478915
 21
139.0491737443
  0
LINE
  5
2E0
100
AcDbEntity
  8
BEZUGSACHSEN
100
AcDbLine
 62
7
  6
CONTINUOUS
 10
128.6952619186
 20
141.8570766754
 11
129.0152739702
 21
141.5958714079
  0
LINE
  5
2E1
100
AcDbEntity
  8
BEZUGSACHSEN
100
AcDbLine
 62
7
  6
CONTINUOUS
 10
129.3396656412
 20
142.3443909044
 11
129.7791354433
 21
141.8590167833
  0
LINE
  5
2E2
100
AcDbEntity
  8
BEZUGSACHSEN
100
AcDbLine
 62
7
  6
CONTINUOUS
 10
114.8820385351
 20
158.9415980876
 11
115.1553049739
 21
158.6318217837
  0
LINE
  5
2E3
100
AcDbEntity
  8
BEZUGSACHSEN
100
AcDbLine
 62
7
  6
CONTINUOUS
 10
120.7630590033
 20
155.0520772598
 11
121.0776635547
 21
154.6224618619
  0
LINE
  5
2E4
100
AcDbEntity
  8
BEZUGSACHSEN
100
AcDbLine
 62
7
  6
CONTINUOUS
 10
129.0152739702
 20
141.5958714079
 11
129.4333719956
 21
140.8112881166
  0
LINE
  5
2E5
100
AcDbEntity
  8
BEZUGSACHSEN
100
AcDbLine
 62
7
  6
CONTINUOUS
 10
129.7791354433
 20
141.8590167833
 11
130.0777784524
 21
141.2985972148
  0
LINE
  5
2E6
100
AcDbEntity
  8
BEZUGSACHSEN
100
AcDbLine
 62
7
  6
CONTINUOUS
 10
131.4005651385
 20
140.8522049566
 11
131.6992081476
 21
140.2917853881
  0
LINE
  5
2E7
100
AcDbEntity
  8
BEZUGSACHSEN
100
AcDbLine
 62
7
  6
CONTINUOUS
 10
131.4093298456
 20
142.8716442232
 11
131.7677003629
 21
142.1991427933
  0
LINE
  5
2E8
100
AcDbEntity
  8
BEZUGSACHSEN
100
AcDbLine
 62
7
  6
CONTINUOUS
 10
132.1731913187
 20
143.1347895986
 11
132.4121040855
 21
142.6864570223
  0
LINE
  5
2E9
100
AcDbEntity
  8
BEZUGSACHSEN
100
AcDbLine
 62
7
  6
CONTINUOUS
 10
113.8380622387
 20
156.7876443483
 11
114.250525491
 21
156.7650618227
  0
LINE
  5
2EA
100
AcDbEntity
  8
BEZUGSACHSEN
100
AcDbLine
 62
7
  6
CONTINUOUS
 10
79.5887712694
 20
159.6995929692
 11
80.1871932048
 21
159.6568133908
  0
LINE
  5
2EB
100
AcDbEntity
  8
BEZUGSACHSEN
100
AcDbLine
 62
7
  6
CONTINUOUS
 10
119.2054664413
 20
156.7925608569
 11
119.8037987646
 21
156.748528906
  0
LINE
  5
2EC
100
AcDbEntity
  8
BEZUGSACHSEN
100
AcDbLine
 62
7
  6
CONTINUOUS
 10
117.4529285166
 20
150.5535829815
 11
117.956683355
 21
150.3810243635
  0
LINE
  5
2ED
100
AcDbEntity
  8
BEZUGSACHSEN
100
AcDbLine
 62
7
  6
CONTINUOUS
 10
111.2489935708
 20
156.9785330625
 11
113.1918934904
 21
156.0368501352
  0
LINE
  5
2EE
100
AcDbEntity
  8
BEZUGSACHSEN
100
AcDbLine
 62
7
  6
CONTINUOUS
 10
111.6665840114
 20
157.8401143973
 11
113.8380622387
 21
156.7876443483
  0
LINE
  5
2EF
100
AcDbEntity
  8
BEZUGSACHSEN
100
AcDbLine
 62
7
  6
CONTINUOUS
 10
118.6746822888
 20
152.4282550471
 11
119.5953401144
 21
151.7508066949
  0
LINE
  5
2F0
100
AcDbEntity
  8
BEZUGSACHSEN
100
AcDbLine
 62
7
  6
CONTINUOUS
 10
119.2421331499
 20
153.1994253868
 11
120.7765628592
 21
152.0703447997
  0
LINE
  5
2F1
100
AcDbEntity
  8
BEZUGSACHSEN
100
AcDbLine
 62
7
  6
CONTINUOUS
 10
121.0139672671
 20
153.6787325441
 11
121.6277391508
 21
153.2271003093
  0
LINE
  5
2F2
100
AcDbEntity
  8
BEZUGSACHSEN
100
AcDbLine
 62
7
  6
CONTINUOUS
 10
119.8424011777
 20
155.729525612
 11
120.7630590033
 21
155.0520772598
  0
LINE
  5
2F3
100
AcDbEntity
  8
BEZUGSACHSEN
100
AcDbLine
 62
7
  6
CONTINUOUS
 10
131.089317794
 20
143.1328494907
 11
131.4093298456
 21
142.8716442232
  0
LINE
  5
2F4
100
AcDbEntity
  8
BEZUGSACHSEN
100
AcDbLine
 62
7
  6
CONTINUOUS
 10
115.1157414152
 20
159.7149760941
 11
115.6175835457
 21
159.2944139364
  0
LINE
  5
2F5
100
AcDbEntity
  8
BEZUGSACHSEN
100
AcDbLine
 62
7
  6
CONTINUOUS
 10
131.7337215166
 20
143.6201637197
 11
132.1731913187
 21
143.1347895986
  0
LINE
  5
2F6
100
AcDbEntity
  8
BEZUGSACHSEN
100
AcDbLine
 62
7
  6
CONTINUOUS
 10
121.3305098644
 20
155.8232475995
 11
121.7474081689
 21
155.318361311
  0
LINE
  5
2F7
100
AcDbEntity
  8
BEZUGSACHSEN
100
AcDbLine
 62
7
  6
CONTINUOUS
 10
129.6651754713
 20
147.171237184
 11
130.1051996181
 21
146.5490906169
  0
LINE
  5
2F8
100
AcDbEntity
  8
BEZUGSACHSEN
100
AcDbLine
 62
7
  6
CONTINUOUS
 10
78.9532971359
 20
159.541819321
 11
79.5887712694
 21
159.6995929692
  0
LINE
  5
2F9
100
AcDbEntity
  8
BEZUGSACHSEN
100
AcDbLine
 62
7
  6
CONTINUOUS
 10
79.4035141268
 20
158.696828887
 11
79.926899897
 21
158.7948810476
  0
LINE
  5
2FA
100
AcDbEntity
  8
BEZUGSACHSEN
100
AcDbLine
 62
7
  6
CONTINUOUS
 10
119.3386416566
 20
155.9020876758
 11
119.8424011777
 21
155.729525612
  0
LINE
  5
2FB
100
AcDbEntity
  8
BEZUGSACHSEN
100
AcDbLine
 62
7
  6
CONTINUOUS
 10
119.8037987646
 20
156.748528906
 11
120.4098520388
 21
156.5006959517
  0
LINE
  5
2FC
100
AcDbEntity
  8
BEZUGSACHSEN
100
AcDbLine
 62
7
  6
CONTINUOUS
 10
112.7105603079
 20
159.9940681366
 11
114.8820385351
 21
158.9415980876
  0
LINE
  5
2FD
100
AcDbEntity
  8
BEZUGSACHSEN
100
AcDbLine
 62
7
  6
CONTINUOUS
 10
112.3728226506
 20
161.0444114116
 11
115.1157414152
 21
159.7149760941
  0
LINE
  5
2FE
100
AcDbEntity
  8
BEZUGSACHSEN
100
AcDbLine
 62
7
  6
CONTINUOUS
 10
120.4098520388
 20
156.5006959517
 11
121.3305098644
 21
155.8232475995
  0
LINE
  5
2FF
100
AcDbEntity
  8
0
100
AcDbLine
 62
7
  6
CONTINUOUS
 10
143.2021005768
 20
139.1574601884
 11
125.6316640593
 21
163.3410913459
  0
LINE
  5
300
100
AcDbEntity
  8
RUNDUNGEN
100
AcDbLine
 62
7
  6
CONTINUOUS
 10
134.234189463
 20
48.1535194109
 11
133.2608104129
 21
46.9934914309
  0
LINE
  5
301
100
AcDbEntity
  8
0
100
AcDbLine
 62
7
  6
CONTINUOUS
 10
133.2608104129
 20
46.9934914309
 11
125.2323785726
 21
37.4255789423
  0
LINE
  5
302
100
AcDbEntity
  8
0
100
AcDbLine
 62
7
  6
CONTINUOUS
 10
125.6316640593
 20
163.3410913459
 11
97.2021005768
 21
172.5784164767
  0
LINE
  5
303
100
AcDbEntity
  8
0
100
AcDbLine
 62
7
  6
CONTINUOUS
 10
185.606522929
 20
47.2125215272
 11
183.0645903857
 21
51.2448521258
  0
LINE
  5
304
100
AcDbEntity
  8
0
100
AcDbLine
 62
7
  6
CONTINUOUS
 10
182.140251279
 20
54.444487495
 11
182.140251279
 21
69.0316622374
  0
LINE
  5
305
100
AcDbEntity
  8
0
100
AcDbLine
 62
7
  6
CONTINUOUS
 10
194.8695147205
 20
154.4816158552
 11
199.29777366
 21
172.5784164767
  0
LINE
  5
306
100
AcDbEntity
  8
0
100
AcDbLine
 62
7
  6
CONTINUOUS
 10
198.8828698762
 20
82.1536190366
 11
210.3976326818
 21
82.1536190366
  0
LINE
  5
307
100
AcDbEntity
  8
0
100
AcDbLine
 62
7
  6
CONTINUOUS
 10
189.640251279
 20
97.5649841295
 11
189.640251279
 21
87.3810271428
  0
LINE
  5
308
100
AcDbEntity
  8
0
100
AcDbLine
 62
7
  6
CONTINUOUS
 10
194.640251279
 20
152.5801287166
 11
194.640251279
 21
104.4930633683
  0
LINE
  5
309
100
AcDbEntity
  8
0
100
AcDbLine
 62
7
  6
CONTINUOUS
 10
198.8291286748
 20
117.7462757654
 11
199.1179674343
 21
109.264848135
  0
LINE
  5
30A
100
AcDbEntity
  8
0
100
AcDbLine
 62
7
  6
CONTINUOUS
 10
198.6965543351
 20
79.9932577975
 11
198.6965543351
 21
79.8377200689
  0
LINE
  5
30B
100
AcDbEntity
  8
0
100
AcDbLine
 62
7
  6
CONTINUOUS
 10
199.1179674343
 20
109.264848135
 11
198.8828698762
 21
82.1536190366
  0
LINE
  5
30C
100
AcDbEntity
  8
0
100
AcDbLine
 62
7
  6
CONTINUOUS
 10
198.7389052013
 20
80.7934905106
 11
198.8828698762
 21
82.1536190366
  0
LINE
  5
30D
100
AcDbEntity
  8
0
100
AcDbLine
 62
7
  6
CONTINUOUS
 10
183.4799972412
 20
74.0316622374
 11
193.3930357145
 21
91.2015485307
  0
LINE
  5
30E
100
AcDbEntity
  8
RUNDUNGEN
100
AcDbLine
 62
7
  6
CONTINUOUS
 10
210.5415973567
 20
80.7934905106
 11
210.3976326818
 21
82.1536190366
  0
LINE
  5
30F
100
AcDbEntity
  8
0
100
AcDbLine
 62
7
  6
CONTINUOUS
 10
210.4513738832
 20
117.7462757654
 11
210.1625351237
 21
109.264848135
  0
LINE
  5
310
100
AcDbEntity
  8
0
100
AcDbLine
 62
7
  6
CONTINUOUS
 10
199.1179674343
 20
109.264848135
 11
210.1625351237
 21
109.264848135
  0
LWPOLYLINE
  5
311
100
AcDbEntity
  8
RUNDUNGEN
100
AcDbPolyline
 62
7
  6
CONTINUOUS
 90
3
 70
0
 10
216.4332855112
 20
102.2325129283
 10
216.4833228045
 20
102.2132814894
 10
216.4989873626
 20
102.2068299454
  0
LINE
  5
312
100
AcDbEntity
  8
RUNDUNGEN
100
AcDbLine
 62
7
  6
CONTINUOUS
 10
225.8005053168
 20
74.0316622374
 11
215.8874668435
 21
91.2015485307
  0
LINE
  5
313
100
AcDbEntity
  8
0
100
AcDbLine
 62
7
  6
CONTINUOUS
 10
210.1625351237
 20
109.264848135
 11
210.3976326818
 21
82.1536190366
  0
LINE
  5
314
100
AcDbEntity
  8
RUNDUNGEN
100
AcDbLine
 62
7
  6
CONTINUOUS
 10
210.5839482229
 20
79.9932577975
 11
210.5839482229
 21
79.8377200689
  0
LINE
  5
315
100
AcDbEntity
  8
BEZUGSACHSEN
100
AcDbLine
 62
7
  6
CONTINUOUS
 10
214.640251279
 20
152.5801287166
 11
214.640251279
 21
120.2629560018
  0
LINE
  5
316
100
AcDbEntity
  8
KONSTRUKTIONSELEMENTE
100
AcDbLine
 62
7
  6
CONTINUOUS
 10
214.640251279
 20
120.2629560018
 11
214.640251279
 21
104.4930510712
  0
LINE
  5
317
100
AcDbEntity
  8
RUNDUNGEN
100
AcDbLine
 62
7
  6
CONTINUOUS
 10
214.640251279
 20
120.2629559752
 11
214.640251279
 21
104.4930633683
  0
LINE
  5
318
100
AcDbEntity
  8
KONSTRUKTIONSELEMENTE
100
AcDbLine
 62
7
  6
CONTINUOUS
 10
219.640251279
 20
87.3810271428
 11
219.640251279
 21
97.5649841295
  0
LINE
  5
319
100
AcDbEntity
  8
RUNDUNGEN
100
AcDbLine
 62
7
  6
CONTINUOUS
 10
227.140251279
 20
54.444487495
 11
227.140251279
 21
69.0316622374
  0
LINE
  5
31A
100
AcDbEntity
  8
KONSTRUKTIONSELEMENTE
100
AcDbLine
 62
7
  6
CONTINUOUS
 10
209.982728898
 20
172.5784164767
 11
214.4109878375
 21
154.4816158552
  0
LINE
  5
31B
100
AcDbEntity
  8
0
100
AcDbLine
 62
7
  6
CONTINUOUS
 10
199.29777366
 20
139.1574601884
 11
209.982728898
 21
139.1574601884
  0
LINE
  5
31C
100
AcDbEntity
  8
BEZUGSACHSEN
100
AcDbLine
 62
7
  6
CONTINUOUS
 10
213.9016093586
 20
143.7478057785
 11
214.5312366726
 21
143.7478057785
  0
LINE
  5
31D
100
AcDbEntity
  8
BEZUGSACHSEN
100
AcDbLine
 62
7
  6
CONTINUOUS
 10
213.9148577122
 20
146.6999431969
 11
214.5416110485
 21
146.6999431969
  0
LINE
  5
31E
100
AcDbEntity
  8
RUNDUNGEN
100
AcDbLine
 62
7
  6
CONTINUOUS
 10
223.673979629
 20
47.2125215272
 11
226.2159121723
 21
51.2448521258
  0
LINE
  5
31F
100
AcDbEntity
  8
BEZUGSACHSEN
100
AcDbLine
 62
7
  6
CONTINUOUS
 10
212.0705220401
 20
148.7101514788
 11
212.6998101951
 21
148.7101514788
  0
LINE
  5
320
100
AcDbEntity
  8
BEZUGSACHSEN
100
AcDbLine
 62
7
  6
CONTINUOUS
 10
212.9063117289
 20
148.9792709316
 11
213.494786366
 21
148.9792709316
  0
LINE
  5
321
100
AcDbEntity
  8
BEZUGSACHSEN
100
AcDbLine
 62
7
  6
CONTINUOUS
 10
213.7992284167
 20
148.9928960877
 11
214.4241190067
 21
148.9928960877
  0
LINE
  5
322
100
AcDbEntity
  8
BEZUGSACHSEN
100
AcDbLine
 62
7
  6
CONTINUOUS
 10
213.6370359523
 20
149.1772313018
 11
214.2622217351
 21
149.1772313018
  0
LINE
  5
323
100
AcDbEntity
  8
BEZUGSACHSEN
100
AcDbLine
 62
7
  6
CONTINUOUS
 10
212.9095808414
 20
149.3705434691
 11
213.4530962185
 21
149.3705434691
  0
LINE
  5
324
100
AcDbEntity
  8
BEZUGSACHSEN
100
AcDbLine
 62
7
  6
CONTINUOUS
 10
213.5635236919
 20
149.5194288057
 11
214.1027066718
 21
149.5194288057
  0
LINE
  5
325
100
AcDbEntity
  8
BEZUGSACHSEN
100
AcDbLine
 62
7
  6
CONTINUOUS
 10
212.9111896405
 20
149.772167666
 11
213.3727605444
 21
149.772167666
  0
LINE
  5
326
100
AcDbEntity
  8
BEZUGSACHSEN
100
AcDbLine
 62
7
  6
CONTINUOUS
 10
213.4416584047
 20
150.0655724865
 11
213.9059178704
 21
150.0655724865
  0
LINE
  5
327
100
AcDbEntity
  8
BEZUGSACHSEN
100
AcDbLine
 62
7
  6
CONTINUOUS
 10
214.0947906694
 20
150.0783230182
 11
214.313331756
 21
150.0783230182
  0
LINE
  5
328
100
AcDbEntity
  8
BEZUGSACHSEN
100
AcDbLine
 62
7
  6
CONTINUOUS
 10
212.9109819009
 20
150.1841432499
 11
213.254426353
 21
150.1841432499
  0
LINE
  5
329
100
AcDbEntity
  8
BEZUGSACHSEN
100
AcDbLine
 62
7
  6
CONTINUOUS
 10
213.9698672642
 20
150.3940484137
 11
214.3130363342
 21
150.3940484137
  0
LINE
  5
32A
100
AcDbEntity
  8
BEZUGSACHSEN
100
AcDbLine
 62
7
  6
CONTINUOUS
 10
212.9092223813
 20
150.5008889782
 11
213.1373904762
 21
150.5008889782
  0
LINE
  5
32B
100
AcDbEntity
  8
BEZUGSACHSEN
100
AcDbLine
 62
7
  6
CONTINUOUS
 10
213.8233939128
 20
150.8347888377
 11
214.2718106873
 21
150.8347888377
  0
LINE
  5
32C
100
AcDbEntity
  8
BEZUGSACHSEN
100
AcDbLine
 62
7
  6
CONTINUOUS
 10
212.0871824372
 20
150.9956772924
 11
212.7146496078
 21
150.9956772924
  0
LINE
  5
32D
100
AcDbEntity
  8
BEZUGSACHSEN
100
AcDbLine
 62
7
  6
CONTINUOUS
 10
213.6714629738
 20
151.3216129161
 11
214.1908951421
 21
151.3216129161
  0
LINE
  5
32E
100
AcDbEntity
  8
BEZUGSACHSEN
100
AcDbLine
 62
7
  6
CONTINUOUS
 10
212.1224887615
 20
151.3662467836
 11
212.7495885817
 21
151.3662467836
  0
LINE
  5
32F
100
AcDbEntity
  8
BEZUGSACHSEN
100
AcDbLine
 62
7
  6
CONTINUOUS
 10
212.2347319304
 20
151.4304222293
 11
212.8615307686
 21
151.4304222293
  0
LINE
  5
330
100
AcDbEntity
  8
BEZUGSACHSEN
100
AcDbLine
 62
7
  6
CONTINUOUS
 10
214.2600201209
 20
151.4894220336
 11
214.5214265161
 21
151.4894220336
  0
LINE
  5
331
100
AcDbEntity
  8
BEZUGSACHSEN
100
AcDbLine
 62
7
  6
CONTINUOUS
 10
213.5051443941
 20
151.8545204736
 11
214.0713830172
 21
151.8545204736
  0
LINE
  5
332
100
AcDbEntity
  8
BEZUGSACHSEN
100
AcDbLine
 62
7
  6
CONTINUOUS
 10
213.3244401719
 20
152.4335120495
 11
213.913965362
 21
152.4335120495
  0
LINE
  5
333
100
AcDbEntity
  8
BEZUGSACHSEN
100
AcDbLine
 62
7
  6
CONTINUOUS
 10
214.0018501861
 20
153.7677173311
 11
214.3091698532
 21
153.7677173311
  0
LINE
  5
334
100
AcDbEntity
  8
BEZUGSACHSEN
100
AcDbLine
 62
7
  6
CONTINUOUS
 10
212.0723552699
 20
153.9410388962
 11
212.6975539191
 21
153.9410388962
  0
LINE
  5
335
100
AcDbEntity
  8
BEZUGSACHSEN
100
AcDbLine
 62
7
  6
CONTINUOUS
 10
214.509816886
 20
153.9629979884
 11
214.533100342
 21
153.9629979884
  0
LINE
  5
336
100
AcDbEntity
  8
BEZUGSACHSEN
100
AcDbLine
 62
7
  6
CONTINUOUS
 10
213.8966962396
 20
154.1474329698
 11
214.2670780536
 21
154.1474329698
  0
LINE
  5
337
100
AcDbEntity
  8
BEZUGSACHSEN
100
AcDbLine
 62
7
  6
CONTINUOUS
 10
214.4464818006
 20
154.2953568178
 11
214.5211026766
 21
154.2953568178
  0
LINE
  5
338
100
AcDbEntity
  8
BEZUGSACHSEN
100
AcDbLine
 62
7
  6
CONTINUOUS
 10
212.0812786215
 20
154.4146269894
 11
212.7060857954
 21
154.4146269894
  0
LINE
  5
339
100
AcDbEntity
  8
BEZUGSACHSEN
100
AcDbLine
 62
7
  6
CONTINUOUS
 10
213.7690762075
 20
154.608259642
 11
214.1855328914
 21
154.608259642
  0
LINE
  5
33A
100
AcDbEntity
  8
BEZUGSACHSEN
100
AcDbLine
 62
7
  6
CONTINUOUS
 10
213.6189931143
 20
155.1501971506
 11
214.065628966
 21
155.1501971506
  0
LINE
  5
33B
100
AcDbEntity
  8
BEZUGSACHSEN
100
AcDbLine
 62
7
  6
CONTINUOUS
 10
213.4464328796
 20
155.7732449107
 11
213.9080521802
 21
155.7732449107
  0
LINE
  5
33C
100
AcDbEntity
  8
BEZUGSACHSEN
100
AcDbLine
 62
7
  6
CONTINUOUS
 10
212.0812786181
 20
156.3089784591
 11
212.704605223
 21
156.3089784591
  0
LINE
  5
33D
100
AcDbEntity
  8
BEZUGSACHSEN
100
AcDbLine
 62
7
  6
CONTINUOUS
 10
212.0723552699
 20
156.7825663266
 11
212.6953350887
 21
156.7825663266
  0
LINE
  5
33E
100
AcDbEntity
  8
BEZUGSACHSEN
100
AcDbLine
 62
7
  6
CONTINUOUS
 10
212.9394622488
 20
157.8857211932
 11
213.3230953097
 21
157.8857211932
  0
LINE
  5
33F
100
AcDbEntity
  8
BEZUGSACHSEN
100
AcDbLine
 62
7
  6
CONTINUOUS
 10
212.0685900928
 20
158.1085145562
 11
212.6905449315
 21
158.1085145562
  0
LINE
  5
340
100
AcDbEntity
  8
BEZUGSACHSEN
100
AcDbLine
 62
7
  6
CONTINUOUS
 10
212.9435362987
 20
158.3893273452
 11
213.1685419111
 21
158.3893273452
  0
LINE
  5
341
100
AcDbEntity
  8
BEZUGSACHSEN
100
AcDbLine
 62
7
  6
CONTINUOUS
 10
212.9426728683
 20
158.6923806652
 11
213.0540754226
 21
158.6923806652
  0
LINE
  5
342
100
AcDbEntity
  8
BEZUGSACHSEN
100
AcDbLine
 62
7
  6
CONTINUOUS
 10
212.0876290891
 20
159.541819321
 11
212.7084114976
 21
159.541819321
  0
LINE
  5
343
100
AcDbEntity
  8
BEZUGSACHSEN
100
AcDbLine
 62
7
  6
CONTINUOUS
 10
212.1234351488
 20
159.6995929692
 11
212.7439916996
 21
159.6995929692
  0
LINE
  5
344
100
AcDbEntity
  8
0
100
AcDbLine
 62
7
  6
CONTINUOUS
 10
199.29777366
 20
163.3410913459
 11
209.982728898
 21
163.3410913459
  0
LINE
  5
345
100
AcDbEntity
  8
0
100
AcDbLine
 62
7
  6
CONTINUOUS
 10
209.982728898
 20
172.5784164767
 11
199.29777366
 21
172.5784164767
  0
ARC
  5
346
100
AcDbEntity
  8
KONSTRUKTIONSELEMENTE
100
AcDbCircle
 62
7
  6
CONTINUOUS
 10
97.2021005768
 20
-14.6264845883
 40
56.0
100
AcDbArc
 50
99.0410961486
 51
113.5499984999
  0
ARC
  5
347
100
AcDbEntity
  8
KONSTRUKTIONSELEMENTE
100
AcDbCircle
 62
7
  6
CONTINUOUS
 10
97.2021005768
 20
-14.6264845883
 40
56.0
100
AcDbArc
 50
66.4500015001
 51
80.9589038514
  0
CIRCLE
  5
348
100
AcDbEntity
  8
BEZUGSACHSEN
100
AcDbCircle
 62
7
  6
CONTINUOUS
 10
97.2021005768
 20
124.2111541617
 40
20.0
  0
ARC
  5
349
100
AcDbEntity
  8
KONSTRUKTIONSELEMENTE
100
AcDbCircle
 62
7
  6
CONTINUOUS
 10
97.2021005768
 20
80.4111541617
 40
8.8
100
AcDbArc
 50
0.0
 51
180.0
  0
CIRCLE
  5
34A
100
AcDbEntity
  8
BEZUGSACHSEN
100
AcDbCircle
 62
7
  6
CONTINUOUS
 10
124.2021005768
 20
59.2111541617
 40
3.0
  0
ARC
  5
34B
100
AcDbEntity
  8
RUNDUNGEN
100
AcDbCircle
 62
7
  6
CONTINUOUS
 10
137.7021005768
 20
74.9073065844
 40
3.0
100
AcDbArc
 50
150.0
 51
180.0
  0
ARC
  5
34C
100
AcDbEntity
  8
RUNDUNGEN
100
AcDbCircle
 62
7
  6
CONTINUOUS
 10
56.7021005768
 20
74.9073065844
 40
3.0
100
AcDbArc
 50
0.0
 51
30.0
  0
ARC
  5
34D
100
AcDbEntity
  8
0
100
AcDbCircle
 62
7
  6
CONTINUOUS
 10
70.7039110809
 20
38.7111546221
 40
2.0
100
AcDbArc
 50
220.0000172178
 51
270.0000110674
  0
ARC
  5
34E
100
AcDbEntity
  8
0
100
AcDbCircle
 62
7
  6
CONTINUOUS
 10
123.700290353
 20
38.7111549562
 40
2.0
100
AcDbArc
 50
269.9999809015
 51
319.9999702881
  0
ARC
  5
34F
100
AcDbEntity
  8
RUNDUNGEN
100
AcDbCircle
 62
7
  6
CONTINUOUS
 10
132.7021005768
 20
49.4390946302
 40
2.0
100
AcDbArc
 50
320.0
 51
359.9999999998
  0
ARC
  5
350
100
AcDbEntity
  8
RUNDUNGEN
100
AcDbCircle
 62
7
  6
CONTINUOUS
 10
61.7021005768
 20
49.4390946302
 40
2.0
100
AcDbArc
 50
180.0
 51
220.0
  0
ARC
  5
351
100
AcDbEntity
  8
0
100
AcDbCircle
 62
7
  6
CONTINUOUS
 10
61.7021005768
 20
49.4390946302
 40
2.0
100
AcDbArc
 50
180.0
 51
220.0
  0
ARC
  5
352
100
AcDbEntity
  8
BEZUGSACHSEN
100
AcDbCircle
 62
7
  6
CONTINUOUS
 10
-107.0334375314
 20
-31.6394076188
 40
367.7166098643
100
AcDbArc
 50
29.1037086153
 51
29.2715362397
  0
ARC
  5
353
100
AcDbEntity
  8
BEZUGSACHSEN
100
AcDbCircle
 62
7
  6
CONTINUOUS
 10
-19.043480197
 20
17.4609131207
 40
267.265783981
100
AcDbArc
 50
29.0815601877
 51
29.3126957374
  0
ARC
  5
354
100
AcDbEntity
  8
BEZUGSACHSEN
100
AcDbCircle
 62
7
  6
CONTINUOUS
 10
-29.0478502057
 20
110.6425071239
 40
246.6168625346
100
AcDbArc
 50
9.3795943628
 51
9.4942484532
  0
ARC
  5
355
100
AcDbEntity
  8
BEZUGSACHSEN
100
AcDbCircle
 62
7
  6
CONTINUOUS
 10
-7.4296695217
 20
115.1549160419
 40
225.099676281
100
AcDbArc
 50
9.9752838139
 51
10.0944027048
  0
ARC
  5
356
100
AcDbEntity
  8
BEZUGSACHSEN
100
AcDbCircle
 62
7
  6
CONTINUOUS
 10
-3.8850299063
 20
118.5343206491
 40
219.6465398311
100
AcDbArc
 50
7.9564472385
 51
8.1124262205
  0
ARC
  5
357
100
AcDbEntity
  8
BEZUGSACHSEN
100
AcDbCircle
 62
7
  6
CONTINUOUS
 10
36.6812482286
 20
124.4638993031
 40
179.6714177361
100
AcDbArc
 50
8.2236451481
 51
8.4059767173
  0
ARC
  5
358
100
AcDbEntity
  8
BEZUGSACHSEN
100
AcDbCircle
 62
7
  6
CONTINUOUS
 10
49.2655205514
 20
131.6784753518
 40
165.1380309853
100
AcDbArc
 50
6.0136656722
 51
6.150188844
  0
ARC
  5
359
100
AcDbEntity
  8
0
100
AcDbCircle
 62
7
  6
CONTINUOUS
 10
204.640251279
 20
59.2111541617
 40
22.5
100
AcDbArc
 50
212.2268364662
 51
327.7731635338
  0
CIRCLE
  5
35A
100
AcDbEntity
  8
0
100
AcDbCircle
 62
7
  6
CONTINUOUS
 10
204.640251279
 20
59.2111541617
 40
9.0
  0
ARC
  5
35B
100
AcDbEntity
  8
RUNDUNGEN
100
AcDbCircle
 62
7
  6
CONTINUOUS
 10
221.140251279
 20
54.444487495
 40
6.0
100
AcDbArc
 50
327.7731635338
 51
360.0
  0
ARC
  5
35C
100
AcDbEntity
  8
0
100
AcDbCircle
 62
7
  6
CONTINUOUS
 10
188.140251279
 20
54.444487495
 40
6.0
100
AcDbArc
 50
180.0
 51
212.2268364662
  0
ARC
  5
35D
100
AcDbEntity
  8
BEZUGSACHSEN
100
AcDbCircle
 62
7
  6
CONTINUOUS
 10
61.7075403561
 20
129.1053610477
 40
154.7060908598
100
AcDbArc
 50
9.0207882484
 51
9.2160417851
  0
ARC
  5
35E
100
AcDbEntity
  8
BEZUGSACHSEN
100
AcDbCircle
 62
7
  6
CONTINUOUS
 10
109.4565714059
 20
140.8083613912
 40
105.2937017725
100
AcDbArc
 50
5.2233028691
 51
5.4641797109
  0
ARC
  5
35F
100
AcDbEntity
  8
BEZUGSACHSEN
100
AcDbCircle
 62
7
  6
CONTINUOUS
 10
121.026800494
 20
150.4481751
 40
91.6894837687
100
AcDbArc
 50
358.9138625442
 51
0.342130308
  0
ARC
  5
360
100
AcDbEntity
  8
KONSTRUKTIONSELEMENTE
100
AcDbCircle
 62
7
  6
CONTINUOUS
 10
120.5769543078
 20
150.5199197422
 40
91.5114648421
100
AcDbArc
 50
358.8668212899
 51
0.2978754907
  0
ARC
  5
361
100
AcDbEntity
  8
BEZUGSACHSEN
100
AcDbCircle
 62
7
  6
CONTINUOUS
 10
124.1897465237
 20
142.5760179135
 40
90.6335757858
100
AcDbArc
 50
4.4726772657
 51
4.8022771823
  0
ARC
  5
362
100
AcDbEntity
  8
BEZUGSACHSEN
100
AcDbCircle
 62
7
  6
CONTINUOUS
 10
123.149843071
 20
149.9199942194
 40
89.761682407
100
AcDbArc
 50
359.3992548995
 51
0.4104395024
  0
ARC
  5
363
100
AcDbEntity
  8
BEZUGSACHSEN
100
AcDbCircle
 62
7
  6
CONTINUOUS
 10
129.2128011376
 20
148.3362889165
 40
84.2844378276
100
AcDbArc
 50
359.2070718828
 51
0.4370974531
  0
ARC
  5
364
100
AcDbEntity
  8
BEZUGSACHSEN
100
AcDbCircle
 62
7
  6
CONTINUOUS
 10
131.6448297563
 20
147.7028430841
 40
82.0866953548
100
AcDbArc
 50
359.1858096308
 51
0.3158261816
  0
ARC
  5
365
100
AcDbEntity
  8
BEZUGSACHSEN
100
AcDbCircle
 62
7
  6
CONTINUOUS
 10
135.7885061459
 20
145.2558261513
 40
78.9806743481
100
AcDbArc
 50
6.1868867428
 51
6.4640353672
  0
ARC
  5
366
100
AcDbEntity
  8
BEZUGSACHSEN
100
AcDbCircle
 62
7
  6
CONTINUOUS
 10
143.2042739123
 20
127.3295294145
 40
76.7531637808
100
AcDbArc
 50
24.6426778303
 51
24.8421631791
  0
ARC
  5
367
100
AcDbEntity
  8
BEZUGSACHSEN
100
AcDbCircle
 62
7
  6
CONTINUOUS
 10
139.7211644508
 20
145.4785674723
 40
74.8304148575
100
AcDbArc
 50
0.9352184119
 51
1.4457383597
  0
ARC
  5
368
100
AcDbEntity
  8
BEZUGSACHSEN
100
AcDbCircle
 62
7
  6
CONTINUOUS
 10
139.7835544614
 20
145.4913085167
 40
74.7680131991
100
AcDbArc
 50
358.6638082286
 51
359.1017501881
  0
ARC
  5
369
100
AcDbEntity
  8
0
100
AcDbCircle
 62
7
  6
CONTINUOUS
 10
192.140251279
 20
69.0316622374
 40
10.0
100
AcDbArc
 50
150.0
 51
180.0
  0
ARC
  5
36A
100
AcDbEntity
  8
0
100
AcDbCircle
 62
7
  6
CONTINUOUS
 10
179.640251279
 20
87.3810271428
 40
10.0
100
AcDbArc
 50
330.0
 51
360.0
  0
ARC
  5
36B
100
AcDbEntity
  8
BEZUGSACHSEN
100
AcDbCircle
 62
7
  6
CONTINUOUS
 10
174.4852992243
 20
108.8605923447
 40
57.3142701598
100
AcDbArc
 50
47.7620915444
 51
47.9656892606
  0
ARC
  5
36C
100
AcDbEntity
  8
BEZUGSACHSEN
100
AcDbCircle
 62
7
  6
CONTINUOUS
 10
178.4964511834
 20
117.6017355415
 40
47.7095616796
100
AcDbArc
 50
41.1447585713
 51
41.4393910159
  0
ARC
  5
36D
100
AcDbEntity
  8
0
100
AcDbCircle
 62
7
  6
CONTINUOUS
 10
194.640251279
 20
97.5649841295
 40
5.0
100
AcDbArc
 50
111.9135496435
 51
180.0
  0
ARC
  5
36E
100
AcDbEntity
  8
0
100
AcDbCircle
 62
7
  6
CONTINUOUS
 10
191.640251279
 20
104.9811826166
 40
3.0
100
AcDbArc
 50
292.0243248612
 51
357.6377964176
  0
ARC
  5
36F
100
AcDbEntity
  8
RUNDUNGEN
100
AcDbCircle
 62
7
  6
CONTINUOUS
 10
217.140251279
 20
69.0316622374
 40
10.0
100
AcDbArc
 50
0.0
 51
30.0
  0
ARC
  5
370
100
AcDbEntity
  8
KONSTRUKTIONSELEMENTE
100
AcDbCircle
 62
7
  6
CONTINUOUS
 10
229.640251279
 20
87.3810271428
 40
10.0
100
AcDbArc
 50
180.0
 51
210.0
  0
ARC
  5
371
100
AcDbEntity
  8
BEZUGSACHSEN
100
AcDbCircle
 62
7
  6
CONTINUOUS
 10
207.6430061856
 20
109.8247638978
 40
40.6076917276
100
AcDbArc
 50
80.6037240985
 51
80.7188140711
  0
ARC
  5
372
100
AcDbEntity
  8
RUNDUNGEN
100
AcDbCircle
 62
7
  6
CONTINUOUS
 10
214.640251279
 20
97.5649841295
 40
5.0
100
AcDbArc
 50
0.0
 51
68.0864505433
  0
ARC
  5
373
100
AcDbEntity
  8
RUNDUNGEN
100
AcDbCircle
 62
7
  6
CONTINUOUS
 10
217.640251279
 20
104.9811826166
 40
3.0
100
AcDbArc
 50
182.3622035824
 51
247.9756751388
  0
ARC
  5
374
100
AcDbEntity
  8
BEZUGSACHSEN
100
AcDbCircle
 62
7
  6
CONTINUOUS
 10
149.4312467664
 20
146.7333391102
 40
65.4056855322
100
AcDbArc
 50
5.4300663805
 51
5.81687832
  0
ARC
  5
375
100
AcDbEntity
  8
BEZUGSACHSEN
100
AcDbCircle
 62
7
  6
CONTINUOUS
 10
149.5193198527
 20
155.3090576122
 40
63.1931968571
100
AcDbArc
 50
0.9066424585
 51
1.3361166544
  0
ARC
  5
376
100
AcDbEntity
  8
BEZUGSACHSEN
100
AcDbCircle
 62
7
  6
CONTINUOUS
 10
149.5607577572
 20
155.3153440878
 40
63.1517517124
100
AcDbArc
 50
358.7530337392
 51
359.1827774094
  0
ARC
  5
377
100
AcDbEntity
  8
KONSTRUKTIONSELEMENTE
100
AcDbCircle
 62
7
  6
CONTINUOUS
 10
149.073324617
 20
155.3586598422
 40
63.0151201925
100
AcDbArc
 50
0.8640991224
 51
1.2947809349
  0
ARC
  5
378
100
AcDbEntity
  8
KONSTRUKTIONSELEMENTE
100
AcDbCircle
 62
7
  6
CONTINUOUS
 10
149.0733246627
 20
155.3649453796
 40
63.0151201468
100
AcDbArc
 50
358.705219065
 51
359.1359010832
  0
ARC
  5
379
100
AcDbEntity
  8
BEZUGSACHSEN
100
AcDbCircle
 62
7
  6
CONTINUOUS
 10
157.5726971943
 20
156.3816427352
 40
55.4043639051
100
AcDbArc
 50
354.4213562311
 51
354.806276654
  0
ARC
  5
37A
100
AcDbEntity
  8
KONSTRUKTIONSELEMENTE
100
AcDbCircle
 62
7
  6
CONTINUOUS
 10
156.9971917478
 20
156.4313897948
 40
55.3575111847
100
AcDbArc
 50
354.3648830388
 51
354.7501651226
  0
ARC
  5
37B
100
AcDbEntity
  8
BEZUGSACHSEN
100
AcDbCircle
 62
7
  6
CONTINUOUS
 10
161.7186696254
 20
150.1869734418
 40
52.5947743559
100
AcDbArc
 50
359.8816381434
 51
0.2255842473
  0
ARC
  5
37C
100
AcDbEntity
  8
BEZUGSACHSEN
100
AcDbCircle
 62
7
  6
CONTINUOUS
 10
163.4641543163
 20
149.4368831572
 40
51.0835754074
100
AcDbArc
 50
359.8781366834
 51
0.2322577427
  0
ARC
  5
37D
100
AcDbEntity
  8
BEZUGSACHSEN
100
AcDbCircle
 62
7
  6
CONTINUOUS
 10
176.6597875081
 20
158.0082095333
 40
37.0061170295
100
AcDbArc
 50
348.3935226877
 51
348.6780585163
  0
ARC
  5
37E
100
AcDbEntity
  8
BEZUGSACHSEN
100
AcDbCircle
 62
7
  6
CONTINUOUS
 10
176.6018698245
 20
159.2751342611
 40
36.1075265355
100
AcDbArc
 50
358.1484741037
 51
0.423182333
  0
ARC
  5
37F
100
AcDbEntity
  8
KONSTRUKTIONSELEMENTE
100
AcDbCircle
 62
7
  6
CONTINUOUS
 10
176.07717852
 20
159.3033775813
 40
36.0112399766
100
AcDbArc
 50
358.0985609926
 51
0.3793761388
  0
ARC
  5
380
100
AcDbEntity
  8
BEZUGSACHSEN
100
AcDbCircle
 62
7
  6
CONTINUOUS
 10
177.7417654562
 20
158.429862745
 40
35.2019197426
100
AcDbArc
 50
358.6847374026
 51
0.4345268652
  0
ARC
  5
381
100
AcDbEntity
  8
BEZUGSACHSEN
100
AcDbCircle
 62
7
  6
CONTINUOUS
 10
184.1492058867
 20
153.5007840399
 40
30.1611452011
100
AcDbArc
 50
358.4648088061
 51
0.5070878628
  0
ARC
  5
382
100
AcDbEntity
  8
BEZUGSACHSEN
100
AcDbCircle
 62
7
  6
CONTINUOUS
 10
185.1699952382
 20
152.6570734129
 40
29.3746477052
100
AcDbArc
 50
357.721874742
 51
359.8189692269
  0
ARC
  5
383
100
AcDbEntity
  8
BEZUGSACHSEN
100
AcDbCircle
 62
7
  6
CONTINUOUS
 10
185.2862230254
 20
152.6556941741
 40
29.2584161522
100
AcDbArc
 50
359.8514620183
 51
0.5229283328
  0
ARC
  5
384
100
AcDbEntity
  8
BEZUGSACHSEN
100
AcDbCircle
 62
7
  6
CONTINUOUS
 10
189.1280137486
 20
153.2121797694
 40
25.4161806302
100
AcDbArc
 50
2.0676937503
 51
2.442549345
  0
ARC
  5
385
100
AcDbEntity
  8
BEZUGSACHSEN
100
AcDbCircle
 62
7
  6
CONTINUOUS
 10
189.2034966794
 20
153.2149127342
 40
25.3406482406
100
AcDbArc
 50
1.6916834775
 51
2.0676762414
  0
ARC
  5
386
100
AcDbEntity
  8
BEZUGSACHSEN
100
AcDbCircle
 62
7
  6
CONTINUOUS
 10
189.926612676
 20
152.9705405047
 40
24.8889557976
100
AcDbArc
 50
351.1140374909
 51
351.5849818104
  0
ARC
  5
387
100
AcDbEntity
  8
BEZUGSACHSEN
100
AcDbCircle
 62
7
  6
CONTINUOUS
 10
193.9631232098
 20
154.3152637536
 40
20.7865989575
100
AcDbArc
 50
347.701485479
 51
348.1046884839
  0
ARC
  5
388
100
AcDbEntity
  8
BEZUGSACHSEN
100
AcDbCircle
 62
7
  6
CONTINUOUS
 10
196.3110411842
 20
146.5208122274
 40
20.6996692019
100
AcDbArc
 50
36.1032729073
 51
36.3673171868
  0
ARC
  5
389
100
AcDbEntity
  8
KONSTRUKTIONSELEMENTE
100
AcDbCircle
 62
7
  6
CONTINUOUS
 10
202.4591089013
 20
168.3977901627
 40
19.5819912214
100
AcDbArc
 50
299.5697675892
 51
299.9480759671
  0
ARC
  5
38A
100
AcDbEntity
  8
BEZUGSACHSEN
100
AcDbCircle
 62
7
  6
CONTINUOUS
 10
203.1429819312
 20
168.2529129738
 40
19.4279794718
100
AcDbArc
 50
299.6349896114
 51
300.0155266446
  0
ARC
  5
38B
100
AcDbEntity
  8
BEZUGSACHSEN
100
AcDbCircle
 62
7
  6
CONTINUOUS
 10
202.2857797233
 20
161.9751697938
 40
10.7029177155
100
AcDbArc
 50
346.8586631967
 51
347.7244895244
  0
ARC
  5
38C
100
AcDbEntity
  8
KONSTRUKTIONSELEMENTE
100
AcDbCircle
 62
7
  6
CONTINUOUS
 10
201.6816324431
 20
161.9863659269
 40
10.6892737969
100
AcDbArc
 50
346.779949863
 51
347.6471484994
  0
ARC
  5
38D
100
AcDbEntity
  8
BEZUGSACHSEN
100
AcDbCircle
 62
7
  6
CONTINUOUS
 10
208.4939058394
 20
156.487725018
 40
9.5571904294
100
AcDbArc
 50
308.3524767164
 51
308.9828336289
  0
ARC
  5
38E
100
AcDbEntity
  8
BEZUGSACHSEN
100
AcDbCircle
 62
7
  6
CONTINUOUS
 10
208.4482308797
 20
152.2380501373
 40
8.6097724972
100
AcDbArc
 50
59.5043560862
 51
60.0700971492
  0
ARC
  5
38F
100
AcDbEntity
  8
0
100
AcDbCircle
 62
7
  6
CONTINUOUS
 10
202.640251279
 20
152.5801287166
 40
8.0
100
AcDbArc
 50
166.25
 51
180.0
  0
ARC
  5
390
100
AcDbEntity
  8
BEZUGSACHSEN
100
AcDbCircle
 62
7
  6
CONTINUOUS
 10
206.640251279
 20
152.5801287166
 40
8.0
100
AcDbArc
 50
0.0
 51
13.75
  0
ARC
  5
391
100
AcDbEntity
  8
BEZUGSACHSEN
100
AcDbCircle
 62
7
  6
CONTINUOUS
 10
206.3172364362
 20
161.2127074155
 40
7.0870341249
100
AcDbArc
 50
339.2067163463
 51
340.0523179638
  0
SPLINE
  5
392
100
AcDbEntity
  8
KONSTRUKTIONSELEMENTE
100
AcDbSpline
 62
7
  6
CONTINUOUS
 70
0
 71
3
 72
10
 73
6
 74
0
 42
0.0000001
 43
0.0000001
 44
0.0000000001
 40
0.0
 40
0.0
 40
0.0
 40
0.0
 40
0.5045240611
 40
0.7531930253
 40
1.0
 40
1.0
 40
1.0
 40
1.0
 10
121.4995697639
 20
51.2448521258
 30
0.0
 10
121.1458842947
 20
50.6195831354
 30
0.0
 10
120.6838303218
 20
49.6419439431
 30
0.0
 10
120.3067647667
 20
48.2656260161
 30
0.0
 10
120.2137837979
 20
47.5633536036
 30
0.0
 10
120.1935073181
 20
47.2125215272
 30
0.0
  0
SPLINE
  5
393
100
AcDbEntity
  8
KONSTRUKTIONSELEMENTE
100
AcDbSpline
 62
7
  6
CONTINUOUS
 70
0
 71
3
 72
9
 73
5
 74
0
 42
0.0000001
 43
0.0000001
 44
0.0000000001
 40
0.0
 40
0.0
 40
0.0
 40
0.0
 40
0.5001118291
 40
1.0
 40
1.0
 40
1.0
 40
1.0
 10
72.7373532114
 20
54.444487495
 30
0.0
 10
72.9892582159
 20
55.1129009634
 30
0.0
 10
73.4003014554
 20
56.487898266
 30
0.0
 10
73.5499886203
 20
57.9195291169
 30
0.0
 10
73.5499886203
 20
58.6335154117
 30
0.0
  0
SPLINE
  5
394
100
AcDbEntity
  8
KONSTRUKTIONSELEMENTE
100
AcDbSpline
 62
7
  6
CONTINUOUS
 70
0
 71
3
 72
9
 73
5
 74
0
 42
0.0000001
 43
0.0000001
 44
0.0000000001
 40
0.0
 40
0.0
 40
0.0
 40
0.0
 40
0.4998905156
 40
1.0
 40
1.0
 40
1.0
 40
1.0
 10
120.8542125332
 20
58.6335154117
 30
0.0
 10
120.8542125332
 20
57.9195257521
 30
0.0
 10
121.0038992915
 20
56.4878946613
 30
0.0
 10
121.414944113
 20
55.1128978445
 30
0.0
 10
121.6668479421
 20
54.444487495
 30
0.0
  0
SPLINE
  5
395
100
AcDbEntity
  8
KONSTRUKTIONSELEMENTE
100
AcDbSpline
 62
7
  6
CONTINUOUS
 70
0
 71
3
 72
12
 73
8
 74
0
 42
0.0000001
 43
0.0000001
 44
0.0000000001
 40
0.0
 40
0.0
 40
0.0
 40
0.0
 40
0.1285132186
 40
0.2563009494
 40
0.5076943296
 40
0.7549652517
 40
1.0
 40
1.0
 40
1.0
 40
1.0
 10
73.5499886203
 20
69.0316622374
 30
0.0
 10
73.5499886203
 20
69.294082235
 30
0.0
 10
73.5946562045
 20
69.8185378655
 30
0.0
 10
73.8521755957
 20
70.8267382084
 30
0.0
 10
74.4511198265
 20
71.9778615936
 30
0.0
 10
75.462201377
 20
73.1244565516
 30
0.0
 10
76.2555492014
 20
73.7495664945
 30
0.0
 10
76.6687990722
 20
74.0316622374
 30
0.0
  0
LINE
  5
396
100
AcDbEntity
  8
0
100
AcDbLine
 62
7
  6
CONTINUOUS
 10
120.1935073181
 20
47.2125215272
 11
119.5727726797
 21
36.7111890848
  0
SPLINE
  5
397
100
AcDbEntity
  8
KONSTRUKTIONSELEMENTE
100
AcDbSpline
 62
7
  6
CONTINUOUS
 70
0
 71
3
 72
12
 73
8
 74
0
 42
0.0000001
 43
0.0000001
 44
0.0000000001
 40
0.0
 40
0.0
 40
0.0
 40
0.0
 40
0.2450368206
 40
0.4923099601
 40
0.743702568
 40
0.8714882186
 40
1.0
 40
1.0
 40
1.0
 40
1.0
 10
117.7354020814
 20
74.0316622374
 30
0.0
 10
118.1486554328
 20
73.7495641184
 30
0.0
 10
118.9420098798
 20
73.1244483109
 30
0.0
 10
119.9530934006
 20
71.9778450093
 30
0.0
 10
120.5520314609
 20
70.8267200126
 30
0.0
 10
120.8095459775
 20
69.8185276978
 30
0.0
 10
120.8542125332
 20
69.2940792912
 30
0.0
 10
120.8542125332
 20
69.0316622374
 30
0.0
  0
LINE
  5
398
100
AcDbEntity
  8
0
100
AcDbLine
 62
7
  6
CONTINUOUS
 10
74.8314284738
 20
36.7111890848
 11
74.2106938355
 21
47.2125215272
  0
SPLINE
  5
399
100
AcDbEntity
  8
KONSTRUKTIONSELEMENTE
100
AcDbSpline
 62
7
  6
CONTINUOUS
 70
0
 71
3
 72
11
 73
7
 74
0
 42
0.0000001
 43
0.0000001
 44
0.0000000001
 40
0.0
 40
0.0
 40
0.0
 40
0.0
 40
0.2351463867
 40
0.4815732643
 40
0.7381035996
 40
1.0
 40
1.0
 40
1.0
 40
1.0
 10
72.9046313896
 20
51.2448521258
 30
0.0
 10
72.7771055466
 20
51.470300899
 30
0.0
 10
72.5674317554
 20
51.9634903548
 30
0.0
 10
72.4309897292
 20
52.7723401667
 30
0.0
 10
72.4825907667
 20
53.6199574907
 30
0.0
 10
72.6356176617
 20
54.1745388619
 30
0.0
 10
72.7373532114
 20
54.444487495
 30
0.0
  0
SPLINE
  5
39A
100
AcDbEntity
  8
KONSTRUKTIONSELEMENTE
100
AcDbSpline
 62
7
  6
CONTINUOUS
 70
0
 71
3
 72
11
 73
7
 74
0
 42
0.0000001
 43
0.0000001
 44
0.0000000001
 40
0.0
 40
0.0
 40
0.0
 40
0.0
 40
0.2619122588
 40
0.5184363163
 40
0.764853663
 40
1.0
 40
1.0
 40
1.0
 40
1.0
 10
121.6668479421
 20
54.444487495
 30
0.0
 10
121.7685896892
 20
54.1745224177
 30
0.0
 10
121.9216216542
 20
53.6199302912
 30
0.0
 10
121.9732079744
 20
52.7723117802
 30
0.0
 10
121.8367671671
 20
51.9634801664
 30
0.0
 10
121.6270956264
 20
51.4703009334
 30
0.0
 10
121.4995697639
 20
51.2448521258
 30
0.0
  0
SPLINE
  5
39B
100
AcDbEntity
  8
KONSTRUKTIONSELEMENTE
100
AcDbSpline
 62
7
  6
CONTINUOUS
 70
0
 71
3
 72
10
 73
6
 74
0
 42
0.0000001
 43
0.0000001
 44
0.0000000001
 40
0.0
 40
0.0
 40
0.0
 40
0.0
 40
0.2468076172
 40
0.4954770037
 40
1.0
 40
1.0
 40
1.0
 40
1.0
 10
74.2106938355
 20
47.2125215272
 30
0.0
 10
74.190417303
 20
47.5633545145
 30
0.0
 10
74.097433843
 20
48.2656280581
 30
0.0
 10
73.7203721365
 20
49.6419469384
 30
0.0
 10
73.25831611
 20
50.6195844593
 30
0.0
 10
72.9046313896
 20
51.2448521258
 30
0.0
  0
LINE
  5
39C
100
AcDbEntity
  8
BEZUGSACHSEN
100
AcDbLine
 62
7
  6
CONTINUOUS
 10
214.5211026766
 20
154.2953568178
 11
214.4665169896
 21
154.4966733619
  0
LINE
  5
39D
100
AcDbEntity
  8
BEZUGSACHSEN
100
AcDbLine
 62
7
  6
CONTINUOUS
 10
214.4665169896
 20
154.4966733619
 11
214.4043674955
 21
154.7258762982
  0
LINE
  5
39E
100
AcDbEntity
  8
BEZUGSACHSEN
100
AcDbLine
 62
7
  6
CONTINUOUS
 10
214.4043674955
 20
154.7258762982
 11
214.2246646696
 21
155.3885522531
  0
LINE
  5
39F
100
AcDbEntity
  8
BEZUGSACHSEN
100
AcDbLine
 62
7
  6
CONTINUOUS
 10
214.2246646696
 20
155.3885522531
 11
214.2209286991
 21
155.402328249
  0
LINE
  5
3A0
100
AcDbEntity
  8
BEZUGSACHSEN
100
AcDbLine
 62
7
  6
CONTINUOUS
 10
214.2209286991
 20
155.402328249
 11
214.0265408145
 21
156.1190675028
  0
LINE
  5
3A1
100
AcDbEntity
  8
BEZUGSACHSEN
100
AcDbLine
 62
7
  6
CONTINUOUS
 10
214.0265408145
 20
156.1190675028
 11
214.0144528556
 21
156.1636348702
  0
LINE
  5
3A2
100
AcDbEntity
  8
BEZUGSACHSEN
100
AcDbLine
 62
7
  6
CONTINUOUS
 10
214.0144528556
 20
156.1636348702
 11
213.8606809319
 21
156.7305520219
  0
LINE
  5
3A3
100
AcDbEntity
  8
BEZUGSACHSEN
100
AcDbLine
 62
7
  6
CONTINUOUS
 10
214.2995250005
 20
152.6927387575
 11
214.2161839104
 21
152.9937173243
  0
LINE
  5
3A4
100
AcDbEntity
  8
BEZUGSACHSEN
100
AcDbLine
 62
7
  6
CONTINUOUS
 10
214.2161839104
 20
152.9937173243
 11
212.9344105609
 21
157.6218503133
  0
LINE
  5
3A5
100
AcDbEntity
  8
BEZUGSACHSEN
100
AcDbLine
 62
7
  6
CONTINUOUS
 10
212.8174566969
 20
159.6568133908
 11
212.85535721
 21
159.5750678009
  0
LINE
  5
3A6
100
AcDbEntity
  8
BEZUGSACHSEN
100
AcDbLine
 62
7
  6
CONTINUOUS
 10
212.9672033478
 20
159.3323703344
 11
213.1193161281
 21
158.8884856699
  0
LINE
  5
3A7
100
AcDbEntity
  8
BEZUGSACHSEN
100
AcDbLine
 62
7
  6
CONTINUOUS
 10
213.1193161281
 20
158.8884856699
 11
213.1335002148
 21
158.8410772984
  0
LINE
  5
3A8
100
AcDbEntity
  8
BEZUGSACHSEN
100
AcDbLine
 62
7
  6
CONTINUOUS
 10
213.1335002148
 20
158.8410772984
 11
213.2640848639
 21
158.4044395784
  0
LINE
  5
3A9
100
AcDbEntity
  8
BEZUGSACHSEN
100
AcDbLine
 62
7
  6
CONTINUOUS
 10
213.2640848639
 20
158.4044395784
 11
213.3120287271
 21
158.2440473844
  0
LINE
  5
3AA
100
AcDbEntity
  8
BEZUGSACHSEN
100
AcDbLine
 62
7
  6
CONTINUOUS
 10
213.3120287271
 20
158.2440473844
 11
213.4048806167
 21
157.908341578
  0
LINE
  5
3AB
100
AcDbEntity
  8
BEZUGSACHSEN
100
AcDbLine
 62
7
  6
CONTINUOUS
 10
213.4048806167
 20
157.908341578
 11
213.4592352502
 21
157.7118146424
  0
LINE
  5
3AC
100
AcDbEntity
  8
BEZUGSACHSEN
100
AcDbLine
 62
7
  6
CONTINUOUS
 10
213.4592352502
 20
157.7118146424
 11
213.8962302339
 21
156.1315711019
  0
LINE
  5
3AD
100
AcDbEntity
  8
BEZUGSACHSEN
100
AcDbLine
 62
7
  6
CONTINUOUS
 10
214.0932204181
 20
155.3676916028
 11
213.8962302339
 21
156.1315711019
  0
LINE
  5
3AE
100
AcDbEntity
  8
BEZUGSACHSEN
100
AcDbLine
 62
7
  6
CONTINUOUS
 10
214.2533379534
 20
154.6849222566
 11
214.0932204181
 21
155.3676916028
  0
LINE
  5
3AF
100
AcDbEntity
  8
BEZUGSACHSEN
100
AcDbLine
 62
7
  6
CONTINUOUS
 10
214.4166018457
 20
153.8827113516
 11
214.3356452259
 21
154.2814951114
  0
LINE
  5
3B0
100
AcDbEntity
  8
BEZUGSACHSEN
100
AcDbLine
 62
7
  6
CONTINUOUS
 10
214.3356452259
 20
154.2814951114
 11
214.2533379534
 21
154.6849222566
  0
LINE
  5
3B1
100
AcDbEntity
  8
BEZUGSACHSEN
100
AcDbLine
 62
7
  6
CONTINUOUS
 10
214.5444963205
 20
152.5642619287
 11
214.5445408556
 21
152.5798424926
  0
LINE
  5
3B2
100
AcDbEntity
  8
BEZUGSACHSEN
100
AcDbLine
 62
7
  6
CONTINUOUS
 10
214.1002591318
 20
152.2030933125
 11
214.0020290143
 21
152.5543753949
  0
LINE
  5
3B3
100
AcDbEntity
  8
BEZUGSACHSEN
100
AcDbLine
 62
7
  6
CONTINUOUS
 10
214.0020290143
 20
152.5543753949
 11
213.9033859334
 21
152.9070999169
  0
LINE
  5
3B4
100
AcDbEntity
  8
BEZUGSACHSEN
100
AcDbLine
 62
7
  6
CONTINUOUS
 10
214.2600201209
 20
151.5451706389
 11
214.1002591318
 21
152.2030933125
  0
SPLINE
  5
3B5
100
AcDbEntity
  8
BEZUGSACHSEN
100
AcDbSpline
 62
7
  6
CONTINUOUS
 70
0
 71
3
 72
8
 73
4
 74
0
 42
0.0000001
 43
0.0000001
 44
0.0000000001
 40
0.0
 40
0.0
 40
0.0
 40
0.0
 40
1.0
 40
1.0
 40
1.0
 40
1.0
 10
214.4224719442
 20
150.7293850855
 30
0.0
 10
214.3821796289
 20
150.9327686067
 30
0.0
 10
214.3417342191
 20
151.1361218529
 30
0.0
 10
214.3011426298
 20
151.339445856
 30
0.0
  0
LINE
  5
3B6
100
AcDbEntity
  8
BEZUGSACHSEN
100
AcDbLine
 62
7
  6
CONTINUOUS
 10
214.3011426298
 20
151.339445856
 11
214.2600201209
 21
151.5451706389
  0
LINE
  5
3B7
100
AcDbEntity
  8
BEZUGSACHSEN
100
AcDbLine
 62
7
  6
CONTINUOUS
 10
214.5062150872
 20
149.0585913933
 11
214.5168447608
 21
149.1259850408
  0
LINE
  5
3B8
100
AcDbEntity
  8
BEZUGSACHSEN
100
AcDbLine
 62
7
  6
CONTINUOUS
 10
213.6470986644
 20
148.9378648389
 11
214.0018099503
 21
148.3077397048
  0
LINE
  5
3B9
100
AcDbEntity
  8
BEZUGSACHSEN
100
AcDbLine
 62
7
  6
CONTINUOUS
 10
213.5635236919
 20
149.5299493386
 11
213.4336967895
 21
150.1004999932
  0
LINE
  5
3BA
100
AcDbEntity
  8
BEZUGSACHSEN
100
AcDbLine
 62
7
  6
CONTINUOUS
 10
213.4336967895
 20
150.1004999932
 11
213.4023401695
 21
150.2379673086
  0
LINE
  5
3BB
100
AcDbEntity
  8
BEZUGSACHSEN
100
AcDbLine
 62
7
  6
CONTINUOUS
 10
213.4023401695
 20
150.2379673086
 11
213.2834918544
 21
150.6499428925
  0
LINE
  5
3BC
100
AcDbEntity
  8
BEZUGSACHSEN
100
AcDbLine
 62
7
  6
CONTINUOUS
 10
213.1276108476
 20
151.0722704316
 11
213.2834918544
 21
150.6499428925
  0
LINE
  5
3BD
100
AcDbEntity
  8
BEZUGSACHSEN
100
AcDbLine
 62
7
  6
CONTINUOUS
 10
213.0125579451
 20
151.2937857127
 11
213.1276108476
 21
151.0722704316
  0
LINE
  5
3BE
100
AcDbEntity
  8
BEZUGSACHSEN
100
AcDbLine
 62
7
  6
CONTINUOUS
 10
213.9156553288
 20
150.5391605798
 11
213.3214491044
 21
152.4430961649
  0
LINE
  5
3BF
100
AcDbEntity
  8
BEZUGSACHSEN
100
AcDbLine
 62
7
  6
CONTINUOUS
 10
213.3214491044
 20
152.4430961649
 11
213.3158484829
 21
152.4610405458
  0
LINE
  5
3C0
100
AcDbEntity
  8
BEZUGSACHSEN
100
AcDbLine
 62
7
  6
CONTINUOUS
 10
213.3158484829
 20
152.4610405458
 11
212.8400285711
 21
153.9855096835
  0
LINE
  5
3C1
100
AcDbEntity
  8
BEZUGSACHSEN
100
AcDbLine
 62
7
  6
CONTINUOUS
 10
212.8400285711
 20
153.9855096835
 11
212.7060857954
 21
154.4146269894
  0
LINE
  5
3C2
100
AcDbEntity
  8
BEZUGSACHSEN
100
AcDbLine
 62
7
  6
CONTINUOUS
 10
214.5423795555
 20
144.3191872319
 11
213.7232372564
 21
146.536405555
  0
LINE
  5
3C3
100
AcDbEntity
  8
BEZUGSACHSEN
100
AcDbLine
 62
7
  6
CONTINUOUS
 10
213.9156553288
 20
150.5391605798
 11
214.0729611863
 21
150.1180314758
  0
LINE
  5
3C4
100
AcDbEntity
  8
BEZUGSACHSEN
100
AcDbLine
 62
7
  6
CONTINUOUS
 10
214.0729611863
 20
150.1180314758
 11
214.1922050049
 21
149.9008493138
  0
LINE
  5
3C5
100
AcDbEntity
  8
BEZUGSACHSEN
100
AcDbLine
 62
7
  6
CONTINUOUS
 10
213.4891678631
 20
147.1698964199
 11
212.9039479177
 21
148.7536238781
  0
LINE
  5
3C6
100
AcDbEntity
  8
BEZUGSACHSEN
100
AcDbLine
 62
7
  6
CONTINUOUS
 10
212.9039479177
 20
148.7536238781
 11
212.9065915567
 21
148.9788620215
  0
LINE
  5
3C7
100
AcDbEntity
  8
BEZUGSACHSEN
100
AcDbLine
 62
7
  6
CONTINUOUS
 10
212.6953350887
 20
156.7825663266
 11
212.8307331823
 21
156.3483020241
  0
LINE
  5
3C8
100
AcDbEntity
  8
BEZUGSACHSEN
100
AcDbLine
 62
7
  6
CONTINUOUS
 10
212.8307331823
 20
156.3483020241
 11
213.9033859334
 21
152.9070999169
  0
SPLINE
  5
3C9
100
AcDbEntity
  8
0
100
AcDbSpline
 62
7
  6
CONTINUOUS
 70
0
 71
3
 72
9
 73
5
 74
0
 42
0.0000001
 43
0.0000001
 44
0.0000000001
 40
0.0
 40
0.0
 40
0.0
 40
0.0
 40
0.5000030521
 40
1.0
 40
1.0
 40
1.0
 40
1.0
 10
209.982728898
 20
139.1574601884
 30
0.0
 10
210.2519683774
 20
135.5968439215
 30
0.0
 10
210.6157975651
 20
128.460802381
 30
0.0
 10
210.5729064715
 20
121.3149445091
 30
0.0
 10
210.4513738832
 20
117.7462757654
 30
0.0
  0
SPLINE
  5
3CA
100
AcDbEntity
  8
0
100
AcDbSpline
 62
7
  6
CONTINUOUS
 70
0
 71
3
 72
11
 73
7
 74
0
 42
0.0000001
 43
0.0000001
 44
0.0000000001
 40
0.0
 40
0.0
 40
0.0
 40
0.0
 40
0.2500976456
 40
0.5000000002
 40
0.7499023549
 40
1.0
 40
1.0
 40
1.0
 40
1.0
 10
209.982728898
 20
163.3410913459
 30
0.0
 10
210.1706147495
 20
161.3308965172
 30
0.0
 10
210.4619291366
 20
157.3035075615
 30
0.0
 10
210.6120073406
 20
151.2492757612
 30
0.0
 10
210.4619291411
 20
145.1950439648
 30
0.0
 10
210.1706147491
 20
141.1676550128
 30
0.0
 10
209.982728898
 20
139.1574601884
 30
0.0
  0
SPLINE
  5
3CB
100
AcDbEntity
  8
0
100
AcDbSpline
 62
7
  6
CONTINUOUS
 70
0
 71
3
 72
11
 73
7
 74
0
 42
0.0000001
 43
0.0000001
 44
0.0000000001
 40
0.0
 40
0.0
 40
0.0
 40
0.0
 40
0.2517094103
 40
0.5000000002
 40
0.7482905901
 40
1.0
 40
1.0
 40
1.0
 40
1.0
 10
209.982728898
 20
172.5784164767
 30
0.0
 10
210.1687284052
 20
171.8182992289
 30
0.0
 10
210.4603405895
 20
170.2874510676
 30
0.0
 10
210.6124736202
 20
167.9597539091
 30
0.0
 10
210.4603405939
 20
165.6320567514
 30
0.0
 10
210.1687284049
 20
164.1012085922
 30
0.0
 10
209.982728898
 20
163.3410913459
 30
0.0
  0
SPLINE
  5
3CC
100
AcDbEntity
  8
0
100
AcDbSpline
 62
7
  6
CONTINUOUS
 70
0
 71
3
 72
11
 73
7
 74
0
 42
0.0000001
 43
0.0000001
 44
0.0000000001
 40
0.0
 40
0.0
 40
0.0
 40
0.0
 40
0.2500976456
 40
0.5000000002
 40
0.7499023549
 40
1.0
 40
1.0
 40
1.0
 40
1.0
 10
199.29777366
 20
163.3410913459
 30
0.0
 10
199.1098878085
 20
161.3308965172
 30
0.0
 10
198.8185734214
 20
157.3035075615
 30
0.0
 10
198.6684952174
 20
151.2492757612
 30
0.0
 10
198.8185734169
 20
145.1950439648
 30
0.0
 10
199.1098878089
 20
141.1676550128
 30
0.0
 10
199.29777366
 20
139.1574601884
 30
0.0
  0
SPLINE
  5
3CD
100
AcDbEntity
  8
0
100
AcDbSpline
 62
7
  6
CONTINUOUS
 70
0
 71
3
 72
9
 73
5
 74
0
 42
0.0000001
 43
0.0000001
 44
0.0000000001
 40
0.0
 40
0.0
 40
0.0
 40
0.0
 40
0.5000030521
 40
1.0
 40
1.0
 40
1.0
 40
1.0
 10
199.29777366
 20
139.1574601884
 30
0.0
 10
199.0285341806
 20
135.5968439215
 30
0.0
 10
198.664704993
 20
128.460802381
 30
0.0
 10
198.7075960865
 20
121.3149445091
 30
0.0
 10
198.8291286748
 20
117.7462757654
 30
0.0
  0
LINE
  5
3CE
100
AcDbEntity
  8
BEZUGSACHSEN
100
AcDbLine
 62
7
  6
CONTINUOUS
 10
214.1855328914
 20
154.608259642
 11
214.065628966
 21
155.1501971506
  0
LINE
  5
3CF
100
AcDbEntity
  8
BEZUGSACHSEN
100
AcDbLine
 62
7
  6
CONTINUOUS
 10
214.065628966
 20
155.1501971506
 11
213.9080521802
 21
155.7732449107
  0
LINE
  5
3D0
100
AcDbEntity
  8
BEZUGSACHSEN
100
AcDbLine
 62
7
  6
CONTINUOUS
 10
213.3230953097
 20
157.8857211932
 11
213.7627853374
 21
156.2978867528
  0
LINE
  5
3D1
100
AcDbEntity
  8
BEZUGSACHSEN
100
AcDbLine
 62
7
  6
CONTINUOUS
 10
213.7627853374
 20
156.2978867528
 11
213.8150599338
 21
156.1090959824
  0
LINE
  5
3D2
100
AcDbEntity
  8
BEZUGSACHSEN
100
AcDbLine
 62
7
  6
CONTINUOUS
 10
213.8150599338
 20
156.1090959824
 11
213.9080521802
 21
155.7732449107
  0
LINE
  5
3D3
100
AcDbEntity
  8
BEZUGSACHSEN
100
AcDbLine
 62
7
  6
CONTINUOUS
 10
213.1685419111
 20
158.3893273452
 11
213.2460323806
 21
158.1368928428
  0
LINE
  5
3D4
100
AcDbEntity
  8
BEZUGSACHSEN
100
AcDbLine
 62
7
  6
CONTINUOUS
 10
213.2460323806
 20
158.1368928428
 11
213.3230953097
 21
157.8857211932
  0
LINE
  5
3D5
100
AcDbEntity
  8
BEZUGSACHSEN
100
AcDbLine
 62
7
  6
CONTINUOUS
 10
213.0540754226
 20
158.6923806652
 11
213.0828755453
 21
158.6162504789
  0
LINE
  5
3D6
100
AcDbEntity
  8
BEZUGSACHSEN
100
AcDbLine
 62
7
  6
CONTINUOUS
 10
213.0828755453
 20
158.6162504789
 11
213.1685419111
 21
158.3893273452
  0
LINE
  5
3D7
100
AcDbEntity
  8
BEZUGSACHSEN
100
AcDbLine
 62
7
  6
CONTINUOUS
 10
213.0354677902
 20
158.7179372891
 11
213.0540754226
 21
158.6923806652
  0
LINE
  5
3D8
100
AcDbEntity
  8
KONSTRUKTIONSELEMENTE
100
AcDbLine
 62
7
  6
CONTINUOUS
 10
212.0685900928
 20
158.1085145562
 11
212.4354510193
 21
156.7825667243
  0
LINE
  5
3D9
100
AcDbEntity
  8
BEZUGSACHSEN
100
AcDbLine
 62
7
  6
CONTINUOUS
 10
214.5214265161
 20
151.4894220336
 11
214.4885466801
 21
151.6083546856
  0
LINE
  5
3DA
100
AcDbEntity
  8
BEZUGSACHSEN
100
AcDbLine
 62
7
  6
CONTINUOUS
 10
214.4885466801
 20
151.6083546856
 11
214.3082174411
 21
152.2605902908
  0
LINE
  5
3DB
100
AcDbEntity
  8
BEZUGSACHSEN
100
AcDbLine
 62
7
  6
CONTINUOUS
 10
214.3082174411
 20
152.2605902908
 11
214.2250155677
 21
152.5614970207
  0
LINE
  5
3DC
100
AcDbEntity
  8
BEZUGSACHSEN
100
AcDbLine
 62
7
  6
CONTINUOUS
 10
214.2250155677
 20
152.5614970207
 11
214.1965960222
 21
152.6642749207
  0
LINE
  5
3DD
100
AcDbEntity
  8
BEZUGSACHSEN
100
AcDbLine
 62
7
  6
CONTINUOUS
 10
214.1965960222
 20
152.6642749207
 11
214.1133903345
 21
152.9651732796
  0
LINE
  5
3DE
100
AcDbEntity
  8
BEZUGSACHSEN
100
AcDbLine
 62
7
  6
CONTINUOUS
 10
214.1133903345
 20
152.9651732796
 11
212.8329821643
 21
157.5937834896
  0
LINE
  5
3DF
100
AcDbEntity
  8
BEZUGSACHSEN
100
AcDbLine
 62
7
  6
CONTINUOUS
 10
212.8329821643
 20
157.5937834896
 11
212.6905449315
 21
158.1085145562
  0
LINE
  5
3E0
100
AcDbEntity
  8
RUNDUNGEN
100
AcDbLine
 62
7
  6
CONTINUOUS
 10
211.6107017432
 20
76.4073065844
 11
212.9383632061
 21
74.9073065844
  0
LINE
  5
3E1
100
AcDbEntity
  8
0
100
AcDbLine
 62
7
  6
CONTINUOUS
 10
197.6698008148
 20
76.4073065844
 11
196.3421393519
 21
74.9073065844
  0
SPLINE
  5
3E2
100
AcDbEntity
  8
0
100
AcDbSpline
 62
7
  6
CONTINUOUS
 70
0
 71
3
 72
11
 73
7
 74
0
 42
0.0000001
 43
0.0000001
 44
0.0000000001
 40
0.0
 40
0.0
 40
0.0
 40
0.0
 40
0.2517094103
 40
0.5000000002
 40
0.7482905901
 40
1.0
 40
1.0
 40
1.0
 40
1.0
 10
199.29777366
 20
172.5784164767
 30
0.0
 10
199.1117741528
 20
171.8182992289
 30
0.0
 10
198.8201619685
 20
170.2874510676
 30
0.0
 10
198.6680289378
 20
167.9597539091
 30
0.0
 10
198.8201619641
 20
165.6320567514
 30
0.0
 10
199.1117741532
 20
164.1012085922
 30
0.0
 10
199.29777366
 20
163.3410913459
 30
0.0
  0
LINE
  5
3E3
100
AcDbEntity
  8
BEZUGSACHSEN
100
AcDbLine
 62
7
  6
CONTINUOUS
 10
214.2555459836
 20
147.21498635
 11
214.5416110485
 21
146.6999431969
  0
LINE
  5
3E4
100
AcDbEntity
  8
KONSTRUKTIONSELEMENTE
100
AcDbLine
 62
7
  6
CONTINUOUS
 10
213.9148577122
 20
146.6999431969
 11
213.7286512296
 21
147.0351213263
  0
LINE
  5
3E5
100
AcDbEntity
  8
KONSTRUKTIONSELEMENTE
100
AcDbLine
 62
7
  6
CONTINUOUS
 10
213.7992284167
 20
148.9928960877
 11
213.718814274
 21
149.0845260132
  0
LINE
  5
3E6
100
AcDbEntity
  8
KONSTRUKTIONSELEMENTE
100
AcDbLine
 62
7
  6
CONTINUOUS
 10
213.718814274
 20
149.0845260132
 11
213.6780957594
 21
149.1307442427
  0
LINE
  5
3E7
100
AcDbEntity
  8
KONSTRUKTIONSELEMENTE
100
AcDbLine
 62
7
  6
CONTINUOUS
 10
213.6780957594
 20
149.1307442427
 11
213.6370359523
 21
149.1772313018
  0
LINE
  5
3E8
100
AcDbEntity
  8
KONSTRUKTIONSELEMENTE
100
AcDbLine
 62
7
  6
CONTINUOUS
 10
213.6370359523
 20
149.1772313018
 11
213.6032954891
 21
149.2496126796
  0
LINE
  5
3E9
100
AcDbEntity
  8
BEZUGSACHSEN
100
AcDbLine
 62
7
  6
CONTINUOUS
 10
214.1027066718
 20
149.5194288057
 11
214.2622217351
 21
149.1772313018
  0
LINE
  5
3EA
100
AcDbEntity
  8
BEZUGSACHSEN
100
AcDbLine
 62
7
  6
CONTINUOUS
 10
213.9059178704
 20
150.0655724865
 11
214.1027066718
 21
149.5194288057
  0
LINE
  5
3EB
100
AcDbEntity
  8
KONSTRUKTIONSELEMENTE
100
AcDbLine
 62
7
  6
CONTINUOUS
 10
212.0723552699
 20
153.9410388962
 11
212.8556915851
 21
151.4286013114
  0
LINE
  5
3EC
100
AcDbEntity
  8
BEZUGSACHSEN
100
AcDbLine
 62
7
  6
CONTINUOUS
 10
213.9059178704
 20
150.0655724865
 11
213.7722246392
 21
150.4944463741
  0
LINE
  5
3ED
100
AcDbEntity
  8
BEZUGSACHSEN
100
AcDbLine
 62
7
  6
CONTINUOUS
 10
213.7722246392
 20
150.4944463741
 11
212.6975539191
 21
153.9410388962
  0
LINE
  5
3EE
100
AcDbEntity
  8
BEZUGSACHSEN
100
AcDbLine
 62
7
  6
CONTINUOUS
 10
214.5312366726
 20
143.7478057785
 11
214.3470357724
 21
144.2471188524
  0
LINE
  5
3EF
100
AcDbEntity
  8
BEZUGSACHSEN
100
AcDbLine
 62
7
  6
CONTINUOUS
 10
214.3470357724
 20
144.2471188524
 11
213.5287501717
 21
146.4646202278
  0
LINE
  5
3F0
100
AcDbEntity
  8
BEZUGSACHSEN
100
AcDbLine
 62
7
  6
CONTINUOUS
 10
213.5287501717
 20
146.4646202278
 11
213.3236929027
 21
147.0201738041
  0
LINE
  5
3F1
100
AcDbEntity
  8
BEZUGSACHSEN
100
AcDbLine
 62
7
  6
CONTINUOUS
 10
213.3236929027
 20
147.0201738041
 11
213.2948979731
 21
147.0981828505
  0
LINE
  5
3F2
100
AcDbEntity
  8
BEZUGSACHSEN
100
AcDbLine
 62
7
  6
CONTINUOUS
 10
213.2948979731
 20
147.0981828505
 11
212.710172925
 21
148.6820840364
  0
LINE
  5
3F3
100
AcDbEntity
  8
BEZUGSACHSEN
100
AcDbLine
 62
7
  6
CONTINUOUS
 10
212.710172925
 20
148.6820840364
 11
212.6998101951
 21
148.7101514788
  0
SPLINE
  5
3F4
100
AcDbEntity
  8
KONSTRUKTIONSELEMENTE
100
AcDbSpline
 62
7
  6
CONTINUOUS
 70
0
 71
3
 72
8
 73
4
 74
0
 42
0.0000001
 43
0.0000001
 44
0.0000000001
 40
0.0
 40
0.0
 40
0.0
 40
0.0
 40
1.0
 40
1.0
 40
1.0
 40
1.0
 10
212.0705220401
 20
148.7101514788
 30
0.0
 10
212.6811134942
 20
147.0561207689
 30
0.0
 10
213.291528953
 20
145.4020250541
 30
0.0
 10
213.9016093586
 20
143.7478057785
 30
0.0
  0
LINE
  5
3F5
100
AcDbEntity
  8
BEZUGSACHSEN
100
AcDbLine
 62
7
  6
CONTINUOUS
 10
214.3033477357
 20
150.0306444641
 11
214.313331756
 21
150.0783230182
  0
LINE
  5
3F6
100
AcDbEntity
  8
BEZUGSACHSEN
100
AcDbLine
 62
7
  6
CONTINUOUS
 10
212.9457488047
 20
150.7431073056
 11
213.0216048651
 21
150.7224042593
  0
LINE
  5
3F7
100
AcDbEntity
  8
BEZUGSACHSEN
100
AcDbLine
 62
7
  6
CONTINUOUS
 10
213.0216048651
 20
150.7224042593
 11
213.062938417
 21
150.6433568899
  0
LINE
  5
3F8
100
AcDbEntity
  8
BEZUGSACHSEN
100
AcDbLine
 62
7
  6
CONTINUOUS
 10
213.062938417
 20
150.6433568899
 11
213.079638699
 21
150.6114094698
  0
LINE
  5
3F9
100
AcDbEntity
  8
BEZUGSACHSEN
100
AcDbLine
 62
7
  6
CONTINUOUS
 10
213.079638699
 20
150.6114094698
 11
213.1373904762
 21
150.5008889782
  0
LINE
  5
3FA
100
AcDbEntity
  8
BEZUGSACHSEN
100
AcDbLine
 62
7
  6
CONTINUOUS
 10
213.1373904762
 20
150.5008889782
 11
213.254426353
 21
150.1841432499
  0
LINE
  5
3FB
100
AcDbEntity
  8
BEZUGSACHSEN
100
AcDbLine
 62
7
  6
CONTINUOUS
 10
213.3727605444
 20
149.772167666
 11
213.254426353
 21
150.1841432499
  0
LINE
  5
3FC
100
AcDbEntity
  8
BEZUGSACHSEN
100
AcDbLine
 62
7
  6
CONTINUOUS
 10
213.4530962185
 20
149.3705434691
 11
213.3727605444
 21
149.772167666
  0
LINE
  5
3FD
100
AcDbEntity
  8
BEZUGSACHSEN
100
AcDbLine
 62
7
  6
CONTINUOUS
 10
212.704605223
 20
156.3089784591
 11
213.7783682229
 21
152.868090751
  0
LINE
  5
3FE
100
AcDbEntity
  8
BEZUGSACHSEN
100
AcDbLine
 62
7
  6
CONTINUOUS
 10
213.7783682229
 20
152.868090751
 11
213.913965362
 21
152.4335120495
  0
LINE
  5
3FF
100
AcDbEntity
  8
KONSTRUKTIONSELEMENTE
100
AcDbLine
 62
7
  6
CONTINUOUS
 10
212.6754850341
 20
154.4050767459
 11
212.0812786181
 21
156.3089784591
  0
LINE
  5
400
100
AcDbEntity
  8
BEZUGSACHSEN
100
AcDbLine
 62
7
  6
CONTINUOUS
 10
214.0713830172
 20
151.8545204736
 11
213.9534502793
 21
152.2883077378
  0
LINE
  5
401
100
AcDbEntity
  8
BEZUGSACHSEN
100
AcDbLine
 62
7
  6
CONTINUOUS
 10
213.9534502793
 20
152.2883077378
 11
213.913965362
 21
152.4335120495
  0
LINE
  5
402
100
AcDbEntity
  8
BEZUGSACHSEN
100
AcDbLine
 62
7
  6
CONTINUOUS
 10
214.1908951421
 20
151.3216129161
 11
214.0713830172
 21
151.8545204736
  0
ELLIPSE
  5
403
100
AcDbEntity
  8
KONSTRUKTIONSELEMENTE
100
AcDbEllipse
 62
7
  6
CONTINUOUS
 10
97.2021005768
 20
-16.2077448305
 30
0.0
 11
-0.0
 21
96.9948452239
 31
0.0
 40
0.5773502692
 41
-0.3754229971
 42
-0.1577968958
  0
ELLIPSE
  5
404
100
AcDbEntity
  8
KONSTRUKTIONSELEMENTE
100
AcDbEllipse
 62
7
  6
CONTINUOUS
 10
97.2021005768
 20
-16.2077448305
 30
0.0
 11
-0.0
 21
96.9948452239
 31
0.0
 40
0.5773502692
 41
0.1577968958
 42
0.3754229971
  0
ELLIPSE
  5
405
100
AcDbEntity
  8
RUNDUNGEN
100
AcDbEllipse
 62
7
  6
CONTINUOUS
 10
200.2889138465
 20
80.3933741541
 30
0.0
 11
10.2192634631
 21
-1.4644770085
 31
0.0
 40
0.8513282235
 41
0.121400111
 42
0.2121364471
  0
ELLIPSE
  5
406
100
AcDbEntity
  8
0
100
AcDbEllipse
 62
7
  6
CONTINUOUS
 10
208.9915887115
 20
80.3933741541
 30
0.0
 11
10.2192634631
 21
1.4644770085
 31
0.0
 40
0.8513282235
 41
2.9294562065
 42
3.0201925426
  0
ELLIPSE
  5
407
100
AcDbEntity
  8
0
100
AcDbEllipse
 62
7
  6
CONTINUOUS
 10
195.6080440222
 20
80.9073065844
 30
0.0
 11
-0.9450767383
 21
5.1682589597
 31
0.0
 40
0.5689268959
 41
-2.7216559163
 42
-1.8817824418
  0
ELLIPSE
  5
408
100
AcDbEntity
  8
RUNDUNGEN
100
AcDbEllipse
 62
7
  6
CONTINUOUS
 10
213.6724585358
 20
80.9073065844
 30
0.0
 11
0.9450767383
 21
5.1682589597
 31
0.0
 40
0.5689268959
 41
-4.4014028654
 42
-3.5615293909
  0
ENDSEC
  0
SECTION
  2
OBJECTS
  0
DICTIONARY
  5
C
100
AcDbDictionary
280
0
281
1
  3
ACAD_GROUP
350
D
  3
ACAD_MLINESTYLE
350
17
  3
ACAD_LAYOUT
350
1A
  3
ACAD_PLOTSETTINGS
350
19
  3
ACAD_PLOTSTYLENAME
350
E
  0
DICTIONARY
  5
D
102
{ACAD_REACTORS
330
C
102
}
100
AcDbDictionary
280
0
281
1
  0
ACDBDICTIONARYWDFLT
  5
E
102
{ACAD_REACTORS
330
C
102
}
100
AcDbDictionary
281
1
  3
Normal
350
F
100
AcDbDictionaryWithDefault
340
F
  0
DICTIONARY
  5
17
102
{ACAD_REACTORS
330
C
102
}
100
AcDbDictionary
280
0
281
1
  3
Standard
350
18
  0
DICTIONARY
  5
19
102
{ACAD_REACTORS
330
C
102
}
100
AcDbDictionary
281
1
  0
DICTIONARY
  5
1A
102
{ACAD_REACTORS
330
C
102
}
100
AcDbDictionary
281
1
  3
Model
350
409
  3
Layout1
350
40A
  0
ACDBPLACEHOLDER
  5
F
102
{ACAD_REACTORS
330
E
102
}
  0
MLINESTYLE
  5
18
102
{ACAD_REACTORS
330
17
102
}
100
AcDbMlineStyle
  2
STANDARD
 70
0
  3

 62
256
 51
90.0
 52
90.0
 71
2
 49
0.5
 62
256
  6
BYLAYER
 49
-0.5
 62
256
  6
BYLAYER
  0
LAYOUT
  5
409
102
{ACAD_REACTORS
330
1A
102
}
100
AcDbPlotSettings
  1

  2
none_device
  4
ISO_A4_(297.00_x_210.00_MM)
  6

 40
0.0
 41
0.0
 42
0.0
 43
0.0
 44
297.0
 45
210.0
 46
0.0
 47
0.0
 48
0.0
 49
0.0
140
0.0
141
0.0
142
1.0
143
1.0
 70
1024
 72
1
 73
0
 74
0
  7

 75
0
147
1.0
148
0.0
149
0.0
100
AcDbLayout
  1
Model
 70
0
 71
0
 10
0.0
 20
0.0
 11
297.0
 21
210.0
 12
0.0
 22
0.0
 32
0.0
 14
0.0
 24
0.0
 34
0.0
 15
0.0
 25
0.0
 35
0.0
146
0.0
 13
0.0
 23
0.0
 33
0.0
 16
1.0
 26
0.0
 36
0.0
 17
0.0
 27
1.0
 37
0.0
 76
0
330
209
345
0
346
0
  0
LAYOUT
  5
40A
102
{ACAD_REACTORS
330
1A
102
}
100
AcDbPlotSettings
  1

  2
none_device
  4
ISO_A4_(297.00_x_210.00_MM)
  6

 40
0.0
 41
0.0
 42
0.0
 43
0.0
 44
297.0
 45
210.0
 46
0.0
 47
0.0
 48
0.0
 49
0.0
140
0.0
141
0.0
142
1.0
143
1.0
 70
0
 72
1
 73
0
 74
0
  7

 75
0
147
1.0
148
0.0
149
0.0
100
AcDbLayout
  1
Layout1
 70
0
 71
1
 10
0.0
 20
0.0
 11
297.0
 21
210.0
 12
0.0
 22
0.0
 32
0.0
 14
0.0
 24
0.0
 34
0.0
 15
0.0
 25
0.0
 35
0.0
146
0.0
 13
0.0
 23
0.0
 33
0.0
 16
1.0
 26
0.0
 36
0.0
 17
0.0
 27
1.0
 37
0.0
 76
0
330
20A
345
0
346
0
  0
ENDSEC
  0
EOF
