999
DXF file: VRG-13_7100472_M31492-P-3.dxf
999
Pro/ENGINEER 2010140 by Parametric Technology Corporation
  0
SECTION
  2
HEADER
  9
$ACADVER
  1
AC1015
  9
$DWGCODEPAGE
  3
ANSI_1252
  9
$EXTMAX
 10
297.0
 20
210.0
 30
0.0
  9
$EXTMIN
 10
0.0
 20
0.0
 30
0.0
  9
$LIMMIN
 10
0.0
 20
0.0
  9
$LIMMAX
 10
297.0
 20
210.0
  9
$VIEWCTR
 10
148.5
 20
105.0
  9
$VIEWSIZE
 40
210.0
  9
$CLAYER
  8
0
  9
$LTSCALE
 40
16.335
  9
$CELTYPE
  6
BYLAYER
  9
$DIMSCALE
 40
1.0
  9
$DIMASZ
 40
3.5
  9
$DIMEXO
 40
1.85625
  9
$DIMDLI
 40
11.286
  9
$DIMEXE
 40
5.346
  9
$DIMCEN
 40
2.673
  9
$DIMLFAC
 40
1.0
  9
$DIMBLK
  1
_FILLED
  9
$DIMTXT
 40
3.5
  9
$DIMTOL
 70
1
  9
$DIMLIM
 70
0
  9
$DIMTFAC
 40
1.0
  9
$DIMTP
 40
0.005
  9
$DIMTM
 40
0.005
  9
$PDMODE
 70
3
  9
$PDSIZE
 40
0.3125
  9
$HANDSEED
  5
3FC
  9
$TILEMODE
 70
1
  9
$MEASUREMENT
 70
1
  9
$INSUNITS
 70
4
  0
ENDSEC
  0
SECTION
  2
CLASSES
  0
CLASS
  1
ACDBDICTIONARYWDFLT
  2
AcDbDictionaryWithDefault
  3
AutoCAD 2000
 90
0
280
0
281
0
  0
CLASS
  1
ACDBPLACEHOLDER
  2
AcDbPlaceHolder
  3
AutoCAD 2000
 90
0
280
0
281
0
  0
CLASS
  1
LAYOUT
  2
AcDbLayout
  3
AutoCAD 2000
 90
0
280
0
281
0
  0
ENDSEC
  0
SECTION
  2
TABLES
  0
TABLE
  2
VPORT
  5
8
100
AcDbSymbolTable
 70
2
  0
VPORT
  5
1F4
100
AcDbSymbolTableRecord
100
AcDbViewportTableRecord
  2
*ACTIVE
 70
0
 10
0.0
 20
0.0
 11
1.0
 21
1.0
 12
148.5
 22
105.0
 13
0.0
 23
0.0
 14
1.0
 24
1.0
 15
0.0
 25
0.0
 16
0.0
 26
0.0
 36
1.0
 17
0.0
 27
0.0
 37
0.0
 40
210.0
 41
1.4142857143
 42
50.0
 43
0.0
 44
0.0
 50
0.0
 51
0.0
 71
0
 72
100
 73
1
 74
1
 75
0
 76
0
 77
0
 78
0
  0
ENDTAB
  0
TABLE
  2
LTYPE
  5
5
100
AcDbSymbolTable
 70
6
  0
LTYPE
  5
14
100
AcDbSymbolTableRecord
100
AcDbLinetypeTableRecord
  2
BYBLOCK
 70
0
  3

 72
65
 73
0
 40
0.0
  0
LTYPE
  5
15
100
AcDbSymbolTableRecord
100
AcDbLinetypeTableRecord
  2
BYLAYER
 70
0
  3

 72
65
 73
0
 40
0.0
  0
LTYPE
  5
16
100
AcDbSymbolTableRecord
100
AcDbLinetypeTableRecord
  2
CONTINUOUS
 70
64
  3
Solid line
 72
65
 73
0
 40
0.0
  0
LTYPE
  5
1F5
100
AcDbSymbolTableRecord
100
AcDbLinetypeTableRecord
  2
CENTER
 70
64
  3
____ _ ____ _ ____ _ ____ _ ____ _ ____ _ ____
 72
65
 73
4
 40
0.6
 49
0.375
 74
0
 49
-0.075
 74
0
 49
0.075
 74
0
 49
-0.075
 74
0
  0
LTYPE
  5
1F6
100
AcDbSymbolTableRecord
100
AcDbLinetypeTableRecord
  2
HIDDEN
 70
64
  3
- - - - - - - - - - - - - - - - - - - -
 72
65
 73
2
 40
0.2
 49
0.1
 74
0
 49
-0.1
 74
0
  0
LTYPE
  5
1F7
100
AcDbSymbolTableRecord
100
AcDbLinetypeTableRecord
  2
PHANTOM
 70
64
  3
_____ _ _ _____ _ _ _____ _ _ _____
 72
65
 73
6
 40
0.8
 49
0.45
 74
0
 49
-0.05
 74
0
 49
0.1
 74
0
 49
-0.05
 74
0
 49
0.1
 74
0
 49
-0.05
 74
0
  0
LTYPE
  5
1F8
100
AcDbSymbolTableRecord
100
AcDbLinetypeTableRecord
  2
DOT
 70
64
  3
. . . . . . . . . . . . . . . . . . . .
 72
65
 73
2
 40
0.2
 49
0.1
 74
0
 49
-0.1
 74
0
  0
LTYPE
  5
1F9
100
AcDbSymbolTableRecord
100
AcDbLinetypeTableRecord
  2
DASHED
 70
64
  3
- - - - - - - - - - - - - - - - - - - -
 72
65
 73
2
 40
0.2
 49
0.1
 74
0
 49
-0.1
 74
0
  0
ENDTAB
  0
TABLE
  2
LAYER
  5
2
100
AcDbSymbolTable
 70
36
  0
LAYER
  5
10
100
AcDbSymbolTableRecord
100
AcDbLayerTableRecord
  2
0
 70
0
 62
7
  6
CONTINUOUS
370
-3
390
F
  0
LAYER
  5
1FA
100
AcDbSymbolTableRecord
100
AcDbLayerTableRecord
  2
DEFAULT_1
 70
0
 62
7
  6
CENTER
370
-3
390
F
  0
LAYER
  5
1FB
100
AcDbSymbolTableRecord
100
AcDbLayerTableRecord
  2
DEFAULT_2
 70
0
 62
8
  6
HIDDEN
370
-3
390
F
  0
LAYER
  5
1FC
100
AcDbSymbolTableRecord
100
AcDbLayerTableRecord
  2
DEFAULT_3
 70
0
 62
7
  6
PHANTOM
370
-3
390
F
  0
LAYER
  5
1FD
100
AcDbSymbolTableRecord
100
AcDbLayerTableRecord
  2
AUSFORMSCHRAEGEN
 70
0
 62
7
  6
CONTINUOUS
370
-3
390
F
  0
LAYER
  5
1FE
100
AcDbSymbolTableRecord
100
AcDbLayerTableRecord
  2
BEZUGSACHSEN
 70
0
 62
7
  6
CONTINUOUS
370
-3
390
F
  0
LAYER
  5
1FF
100
AcDbSymbolTableRecord
100
AcDbLayerTableRecord
  2
BEZUGSEBENEN
 70
0
 62
7
  6
CONTINUOUS
370
-3
390
F
  0
LAYER
  5
200
100
AcDbSymbolTableRecord
100
AcDbLayerTableRecord
  2
FASEN
 70
0
 62
7
  6
CONTINUOUS
370
-3
390
F
  0
LAYER
  5
201
100
AcDbSymbolTableRecord
100
AcDbLayerTableRecord
  2
HILFEN
 70
0
 62
7
  6
CONTINUOUS
370
-3
390
F
  0
LAYER
  5
202
100
AcDbSymbolTableRecord
100
AcDbLayerTableRecord
  2
KONSTRUKTIONSELEMENTE
 70
0
 62
7
  6
CONTINUOUS
370
-3
390
F
  0
LAYER
  5
203
100
AcDbSymbolTableRecord
100
AcDbLayerTableRecord
  2
PLAZIERUNG
 70
0
 62
7
  6
CONTINUOUS
370
-3
390
F
  0
LAYER
  5
204
100
AcDbSymbolTableRecord
100
AcDbLayerTableRecord
  2
RUNDUNGEN
 70
0
 62
7
  6
CONTINUOUS
370
-3
390
F
  0
LAYER
  5
205
100
AcDbSymbolTableRecord
100
AcDbLayerTableRecord
  2
TEIL_STARTBEZUEGE
 70
0
 62
7
  6
CONTINUOUS
370
-3
390
F
  0
ENDTAB
  0
TABLE
  2
STYLE
  5
3
100
AcDbSymbolTable
 70
1
  0
STYLE
  5
11
100
AcDbSymbolTableRecord
100
AcDbTextStyleTableRecord
  2
STANDARD
 70
0
 40
0.0
 41
0.7
 50
0.0
 71
0
 42
0.2
  3
txt
  4

  0
STYLE
  5
206
100
AcDbSymbolTableRecord
100
AcDbTextStyleTableRecord
  2
TEXTSTYLE_1
 70
0
 40
0.0
 41
0.8
 50
0.0
 71
0
 42
0.2
  3
gdt
  4

  0
ENDTAB
  0
TABLE
  2
VIEW
  5
6
100
AcDbSymbolTable
 70
0
  0
ENDTAB
  0
TABLE
  2
UCS
  5
7
100
AcDbSymbolTable
 70
0
  0
ENDTAB
  0
TABLE
  2
APPID
  5
9
100
AcDbSymbolTable
 70
1
  0
APPID
  5
207
100
AcDbSymbolTableRecord
100
AcDbRegAppTableRecord
  2
ACAD
 70
0
  0
ENDTAB
  0
TABLE
  2
BLOCK_RECORD
  5
1
100
AcDbSymbolTable
 70
0
  0
BLOCK_RECORD
  5
208
100
AcDbSymbolTableRecord
100
AcDbBlockTableRecord
  2
*Model_Space
  0
BLOCK_RECORD
  5
209
100
AcDbSymbolTableRecord
100
AcDbBlockTableRecord
  2
*Paper_Space
  0
ENDTAB
  0
TABLE
  2
DIMSTYLE
  5
A
100
AcDbSymbolTable
 70
1
100
AcDbDimStyleTable
 71
0
  0
DIMSTYLE
105
20A
100
AcDbSymbolTableRecord
100
AcDbDimStyleTableRecord
  2
STANDARD
 70
0
  3

  4

 40
1.0
 41
3.5
 42
0.0625
 43
0.38
 44
0.18
 45
0.0
 46
0.0
 47
0.005
 48
0.005
140
3.5
141
0.09
142
0.0
143
25.4
144
1.0
145
0.0
146
1.0
147
0.09
 71
1.0
 72
0.0
 73
0
 74
0
 75
0
 76
0
 77
1
 78
8
170
0
171
2
172
0
173
0
174
0
175
0
176
0
177
0
178
5
270
2
271
3
272
3
273
2
274
2
275
0
280
0
281
0
282
0
283
1
284
8
285
0
286
0
287
3
288
0
340
11
  0
ENDTAB
  0
ENDSEC
  0
SECTION
  2
BLOCKS
  0
BLOCK
  5
20
100
AcDbEntity
  8
0
100
AcDbBlockBegin
  2
*Model_Space
 70
0
 10
0.0
 20
0.0
 30
0.0
  3
*Model_Space
  1

  0
ENDBLK
  5
21
100
AcDbEntity
  8
0
100
AcDbBlockEnd
  0
BLOCK
  5
1C
100
AcDbEntity
  8
0
100
AcDbBlockBegin
  2
*Paper_Space
 70
0
 10
0.0
 20
0.0
 30
0.0
  3
*Paper_Space
  1

  0
ENDBLK
  5
1D
100
AcDbEntity
  8
0
100
AcDbBlockEnd
  0
ENDSEC
  0
SECTION
  2
ENTITIES
  0
MTEXT
  5
20B
100
AcDbEntity
  8
0
100
AcDbMText
 62
5
  6
CONTINUOUS
  7
STANDARD
 71
1
 72
1
 10
179.8443905422
 20
70.6314277466
 30
0.0
 11
0.0
 21
1.0
 31
0.0
 44
0.9
  1
RUD
 40
4.0
 41
10.6666666667
  0
MTEXT
  5
20C
100
AcDbEntity
  8
0
100
AcDbMText
 62
5
  6
CONTINUOUS
  7
STANDARD
 71
1
 72
1
 10
205.8590634098
 20
66.5751349166
 30
0.0
 11
0.0
 21
1.0
 31
0.0
 44
0.9
  1
VRG 13
 40
4.0
 41
18.6666666667
  0
LINE
  5
20D
100
AcDbEntity
  8
0
100
AcDbLine
 62
7
  6
CONTINUOUS
 10
0.0
 20
0.0
 11
0.0
 21
210.0
  0
LINE
  5
20E
100
AcDbEntity
  8
0
100
AcDbLine
 62
7
  6
CONTINUOUS
 10
0.0
 20
0.0
 11
297.0
 21
0.0
  0
LINE
  5
20F
100
AcDbEntity
  8
0
100
AcDbLine
 62
7
  6
CONTINUOUS
 10
0.0
 20
210.0
 11
297.0
 21
210.0
  0
LINE
  5
210
100
AcDbEntity
  8
0
100
AcDbLine
 62
7
  6
CONTINUOUS
 10
297.0
 20
0.0
 11
297.0
 21
210.0
  0
LINE
  5
211
100
AcDbEntity
  8
KONSTRUKTIONSELEMENTE
100
AcDbLine
 62
7
  6
CONTINUOUS
 10
108.8821738497
 20
55.5966545938
 11
103.285506246
 21
55.5966545938
  0
LINE
  5
212
100
AcDbEntity
  8
KONSTRUKTIONSELEMENTE
100
AcDbLine
 62
7
  6
CONTINUOUS
 10
68.2869650783
 20
55.5966545938
 11
62.6902974746
 21
55.5966545938
  0
LINE
  5
213
100
AcDbEntity
  8
RUNDUNGEN
100
AcDbLine
 62
7
  6
CONTINUOUS
 10
54.2541467759
 20
64.5390198429
 11
54.6569896695
 21
64.0589303773
  0
LINE
  5
214
100
AcDbEntity
  8
0
100
AcDbLine
 62
7
  6
CONTINUOUS
 10
54.6569896695
 20
64.0589303773
 11
61.1582085884
 21
56.3110793744
  0
LINE
  5
215
100
AcDbEntity
  8
0
100
AcDbLine
 62
7
  6
CONTINUOUS
 10
85.7862356621
 20
163.0264880027
 11
62.609961084
 21
155.496059907
  0
LINE
  5
216
100
AcDbEntity
  8
0
100
AcDbLine
 62
7
  6
CONTINUOUS
 10
62.609961084
 20
155.496059907
 11
48.2862356621
 21
135.7811432025
  0
LINE
  5
217
100
AcDbEntity
  8
BEZUGSACHSEN
100
AcDbLine
 62
7
  6
CONTINUOUS
 10
63.4982265824
 20
148.4055121324
 11
63.9733784127
 21
148.7874429601
  0
LINE
  5
218
100
AcDbEntity
  8
BEZUGSACHSEN
100
AcDbLine
 62
7
  6
CONTINUOUS
 10
65.8739848275
 20
150.3151655423
 11
66.3491364311
 21
150.6970961879
  0
LINE
  5
219
100
AcDbEntity
  8
BEZUGSACHSEN
100
AcDbLine
 62
7
  6
CONTINUOUS
 10
61.2263890952
 20
146.0902541264
 11
61.6591995157
 21
146.3853059517
  0
LINE
  5
21A
100
AcDbEntity
  8
BEZUGSACHSEN
100
AcDbLine
 62
7
  6
CONTINUOUS
 10
67.8728717117
 20
151.7414716165
 11
70.0059642423
 21
152.9230626151
  0
LINE
  5
21B
100
AcDbEntity
  8
BEZUGSACHSEN
100
AcDbLine
 62
7
  6
CONTINUOUS
 10
68.7772957377
 20
151.3668412437
 11
70.3771151356
 21
152.2530344927
  0
LINE
  5
21C
100
AcDbEntity
  8
BEZUGSACHSEN
100
AcDbLine
 62
7
  6
CONTINUOUS
 10
61.7710940802
 20
145.7423405288
 11
62.0689588754
 21
145.8854612575
  0
LINE
  5
21D
100
AcDbEntity
  8
0
100
AcDbLine
 62
7
  6
CONTINUOUS
 10
78.6862356621
 20
65.7966545938
 11
92.8862356621
 21
65.7966545938
  0
LINE
  5
21E
100
AcDbEntity
  8
BEZUGSACHSEN
100
AcDbLine
 62
7
  6
CONTINUOUS
 10
59.607042364
 20
144.2670818372
 11
61.2263890952
 21
146.0902541264
  0
LINE
  5
21F
100
AcDbEntity
  8
BEZUGSACHSEN
100
AcDbLine
 62
7
  6
CONTINUOUS
 10
60.4891113157
 20
144.2989958723
 11
61.7710940802
 21
145.7423405288
  0
LINE
  5
220
100
AcDbEntity
  8
BEZUGSACHSEN
100
AcDbLine
 62
7
  6
CONTINUOUS
 10
61.9208083898
 20
143.0273585231
 11
63.2027911544
 21
144.4707031796
  0
LINE
  5
221
100
AcDbEntity
  8
BEZUGSACHSEN
100
AcDbLine
 62
7
  6
CONTINUOUS
 10
62.4934871125
 20
142.5187036784
 11
63.6405243483
 21
143.8101173471
  0
LINE
  5
222
100
AcDbEntity
  8
BEZUGSACHSEN
100
AcDbLine
 62
7
  6
CONTINUOUS
 10
68.0444414818
 20
145.3444820715
 11
68.3612093687
 21
145.5991026233
  0
LINE
  5
223
100
AcDbEntity
  8
BEZUGSACHSEN
100
AcDbLine
 62
7
  6
CONTINUOUS
 10
70.9423429187
 20
147.4583433155
 11
72.5421623167
 21
148.3445365645
  0
LINE
  5
224
100
AcDbEntity
  8
BEZUGSACHSEN
100
AcDbLine
 62
7
  6
CONTINUOUS
 10
70.7802207228
 20
146.4929173652
 11
72.9133132533
 21
147.6745083639
  0
LINE
  5
225
100
AcDbEntity
  8
BEZUGSACHSEN
100
AcDbLine
 62
7
  6
CONTINUOUS
 10
68.048377578
 20
144.528705224
 11
68.5243162168
 21
144.7474803578
  0
LINE
  5
226
100
AcDbEntity
  8
BEZUGSACHSEN
100
AcDbLine
 62
7
  6
CONTINUOUS
 10
67.647694935
 20
145.1893621579
 11
68.0444414818
 21
145.3444820715
  0
LINE
  5
227
100
AcDbEntity
  8
RUNDUNGEN
100
AcDbLine
 62
7
  6
CONTINUOUS
 10
53.0843689915
 20
82.43310672
 11
52.2130374876
 21
83.4715191701
  0
LINE
  5
228
100
AcDbEntity
  8
0
100
AcDbLine
 62
7
  6
CONTINUOUS
 10
48.2862356621
 20
135.7811432025
 11
48.2862356621
 21
111.412165985
  0
LINE
  5
229
100
AcDbEntity
  8
BEZUGSACHSEN
100
AcDbLine
 62
7
  6
CONTINUOUS
 10
68.3612093687
 20
145.5991026233
 11
68.5979981423
 21
145.9532234491
  0
LINE
  5
22A
100
AcDbEntity
  8
BEZUGSACHSEN
100
AcDbLine
 62
7
  6
CONTINUOUS
 10
68.8410841037
 20
145.0021009096
 11
69.1570645022
 21
145.4198766089
  0
LINE
  5
22B
100
AcDbEntity
  8
BEZUGSACHSEN
100
AcDbLine
 62
7
  6
CONTINUOUS
 10
64.0930262266
 20
140.2826184122
 11
64.4978629094
 21
140.7384114845
  0
LINE
  5
22C
100
AcDbEntity
  8
BEZUGSACHSEN
100
AcDbLine
 62
7
  6
CONTINUOUS
 10
66.1846823567
 20
142.6375492134
 11
66.6569919486
 21
143.1693079426
  0
LINE
  5
22D
100
AcDbEntity
  8
BEZUGSACHSEN
100
AcDbLine
 62
7
  6
CONTINUOUS
 10
72.5421623167
 20
148.3445365645
 11
72.8358189172
 21
148.6531395636
  0
LINE
  5
22E
100
AcDbEntity
  8
BEZUGSACHSEN
100
AcDbLine
 62
7
  6
CONTINUOUS
 10
72.9133132533
 20
147.6745083639
 11
73.2958493819
 21
148.0323447066
  0
LINE
  5
22F
100
AcDbEntity
  8
BEZUGSACHSEN
100
AcDbLine
 62
7
  6
CONTINUOUS
 10
68.5243162168
 20
144.7474803578
 11
68.8410841037
 21
145.0021009096
  0
LINE
  5
230
100
AcDbEntity
  8
BEZUGSACHSEN
100
AcDbLine
 62
7
  6
CONTINUOUS
 10
101.4860948581
 20
151.9955737631
 11
102.1009567186
 21
152.2143622531
  0
LINE
  5
231
100
AcDbEntity
  8
RUNDUNGEN
100
AcDbLine
 62
7
  6
CONTINUOUS
 10
52.2130374876
 20
83.4715191701
 11
48.2862356621
 21
111.412165985
  0
LINE
  5
232
100
AcDbEntity
  8
RUNDUNGEN
100
AcDbLine
 62
7
  6
CONTINUOUS
 10
53.7862356621
 20
65.8245950623
 11
53.7862356621
 21
97.6702633798
  0
LINE
  5
233
100
AcDbEntity
  8
BEZUGSACHSEN
100
AcDbLine
 62
7
  6
CONTINUOUS
 10
63.2027911544
 20
144.4707031796
 11
63.309763042
 21
144.7833755232
  0
LINE
  5
234
100
AcDbEntity
  8
BEZUGSACHSEN
100
AcDbLine
 62
7
  6
CONTINUOUS
 10
98.19047801
 20
151.8845272489
 11
98.4744790362
 21
152.0452266419
  0
LINE
  5
235
100
AcDbEntity
  8
BEZUGSACHSEN
100
AcDbLine
 62
7
  6
CONTINUOUS
 10
63.85446822
 20
144.4354621429
 11
63.93346637
 21
144.9088757336
  0
LINE
  5
236
100
AcDbEntity
  8
BEZUGSACHSEN
100
AcDbLine
 62
7
  6
CONTINUOUS
 10
69.1570645022
 20
145.4198766089
 11
69.3138741417
 21
145.8734977348
  0
LINE
  5
237
100
AcDbEntity
  8
BEZUGSACHSEN
100
AcDbLine
 62
7
  6
CONTINUOUS
 10
72.8358189172
 20
148.6531395636
 11
72.9787384757
 21
149.0241812241
  0
LINE
  5
238
100
AcDbEntity
  8
BEZUGSACHSEN
100
AcDbLine
 62
7
  6
CONTINUOUS
 10
73.2958493819
 20
148.0323447066
 11
73.527647484
 21
148.4526190887
  0
LINE
  5
239
100
AcDbEntity
  8
BEZUGSACHSEN
100
AcDbLine
 62
7
  6
CONTINUOUS
 10
98.5182190102
 20
151.3392373307
 11
98.992004458
 21
151.6986657305
  0
LINE
  5
23A
100
AcDbEntity
  8
BEZUGSACHSEN
100
AcDbLine
 62
7
  6
CONTINUOUS
 10
101.4938712682
 20
151.2389125691
 11
101.8687563054
 21
151.4566903822
  0
LINE
  5
23B
100
AcDbEntity
  8
BEZUGSACHSEN
100
AcDbLine
 62
7
  6
CONTINUOUS
 10
101.664418362
 20
146.3211152479
 11
102.2792802461
 21
146.5399037759
  0
LINE
  5
23C
100
AcDbEntity
  8
0
100
AcDbLine
 62
7
  6
CONTINUOUS
 10
78.6862356621
 20
81.3966545938
 11
92.8862356621
 21
81.3966545938
  0
LINE
  5
23D
100
AcDbEntity
  8
BEZUGSACHSEN
100
AcDbLine
 62
7
  6
CONTINUOUS
 10
68.5979981423
 20
145.9532234491
 11
68.6756156619
 21
146.3431893895
  0
LINE
  5
23E
100
AcDbEntity
  8
BEZUGSACHSEN
100
AcDbLine
 62
7
  6
CONTINUOUS
 10
101.0437541176
 20
151.6694142178
 11
101.4860948581
 21
151.9955737631
  0
LINE
  5
23F
100
AcDbEntity
  8
KONSTRUKTIONSELEMENTE
100
AcDbLine
 62
7
  6
CONTINUOUS
 10
67.2169088031
 20
80.9171626694
 11
67.2169088031
 21
73.1270295938
  0
LINE
  5
240
100
AcDbEntity
  8
BEZUGSACHSEN
100
AcDbLine
 62
7
  6
CONTINUOUS
 10
73.527647484
 20
148.4526190887
 11
73.6357286161
 21
149.096236188
  0
LINE
  5
241
100
AcDbEntity
  8
BEZUGSACHSEN
100
AcDbLine
 62
7
  6
CONTINUOUS
 10
101.1377950364
 20
150.8590650387
 11
101.4938712682
 21
151.2389125691
  0
LINE
  5
242
100
AcDbEntity
  8
BEZUGSACHSEN
100
AcDbLine
 62
7
  6
CONTINUOUS
 10
111.2965516681
 20
142.8202277764
 11
111.7770540744
 21
143.0207068693
  0
LINE
  5
243
100
AcDbEntity
  8
BEZUGSACHSEN
100
AcDbLine
 62
7
  6
CONTINUOUS
 10
112.5309037007
 20
139.6100598324
 11
113.0114061071
 21
139.8105389252
  0
LINE
  5
244
100
AcDbEntity
  8
BEZUGSACHSEN
100
AcDbLine
 62
7
  6
CONTINUOUS
 10
110.2564881598
 20
137.9592755949
 11
110.6310348605
 21
138.0885484472
  0
LINE
  5
245
100
AcDbEntity
  8
BEZUGSACHSEN
100
AcDbLine
 62
7
  6
CONTINUOUS
 10
69.3138741417
 20
145.8734977348
 11
69.3107255479
 21
146.5261194174
  0
LINE
  5
246
100
AcDbEntity
  8
BEZUGSACHSEN
100
AcDbLine
 62
7
  6
CONTINUOUS
 10
98.4744790362
 20
152.0452266419
 11
98.7120462883
 21
152.3623353944
  0
LINE
  5
247
100
AcDbEntity
  8
BEZUGSACHSEN
100
AcDbLine
 62
7
  6
CONTINUOUS
 10
98.992004458
 20
151.6986657305
 11
99.2295717102
 21
152.0157744831
  0
LINE
  5
248
100
AcDbEntity
  8
BEZUGSACHSEN
100
AcDbLine
 62
7
  6
CONTINUOUS
 10
100.6202237789
 20
151.1811831193
 11
101.0437541176
 21
151.6694142178
  0
LINE
  5
249
100
AcDbEntity
  8
BEZUGSACHSEN
100
AcDbLine
 62
7
  6
CONTINUOUS
 10
102.2792802461
 20
146.5399037759
 11
102.6353565251
 21
146.9197513822
  0
LINE
  5
24A
100
AcDbEntity
  8
BEZUGSACHSEN
100
AcDbLine
 62
7
  6
CONTINUOUS
 10
101.8966168717
 20
147.0787884614
 11
102.1852391855
 21
147.3502527273
  0
LINE
  5
24B
100
AcDbEntity
  8
BEZUGSACHSEN
100
AcDbLine
 62
7
  6
CONTINUOUS
 10
63.309763042
 20
144.7833755232
 11
63.2538157597
 21
145.1048582347
  0
LINE
  5
24C
100
AcDbEntity
  8
BEZUGSACHSEN
100
AcDbLine
 62
7
  6
CONTINUOUS
 10
72.9787384757
 20
149.0241812241
 11
72.970921079
 21
149.4576613896
  0
LINE
  5
24D
100
AcDbEntity
  8
BEZUGSACHSEN
100
AcDbLine
 62
7
  6
CONTINUOUS
 10
99.6084149153
 20
149.5554340001
 11
100.6202237789
 21
151.1811831193
  0
LINE
  5
24E
100
AcDbEntity
  8
BEZUGSACHSEN
100
AcDbLine
 62
7
  6
CONTINUOUS
 10
100.1259861728
 20
149.2333159195
 11
101.1377950364
 21
150.8590650387
  0
LINE
  5
24F
100
AcDbEntity
  8
BEZUGSACHSEN
100
AcDbLine
 62
7
  6
CONTINUOUS
 10
109.1739830821
 20
144.534892467
 11
109.9479666453
 21
145.2011925576
  0
LINE
  5
250
100
AcDbEntity
  8
BEZUGSACHSEN
100
AcDbLine
 62
7
  6
CONTINUOUS
 10
106.4757790067
 20
141.4076847771
 11
110.248948098
 21
144.6558970481
  0
LINE
  5
251
100
AcDbEntity
  8
BEZUGSACHSEN
100
AcDbLine
 62
7
  6
CONTINUOUS
 10
111.4206607544
 20
144.860188878
 11
106.8735083709
 21
140.9456767498
  0
LINE
  5
252
100
AcDbEntity
  8
BEZUGSACHSEN
100
AcDbLine
 62
7
  6
CONTINUOUS
 10
110.6631807593
 20
140.5584148455
 11
111.0870142554
 21
140.8432245656
  0
LINE
  5
253
100
AcDbEntity
  8
BEZUGSACHSEN
100
AcDbLine
 62
7
  6
CONTINUOUS
 10
112.9399760066
 20
140.3746009815
 11
112.7280589617
 21
140.232195922
  0
LINE
  5
254
100
AcDbEntity
  8
BEZUGSACHSEN
100
AcDbLine
 62
7
  6
CONTINUOUS
 10
110.7715186171
 20
138.7950190244
 11
110.347685121
 21
138.5102093043
  0
LINE
  5
255
100
AcDbEntity
  8
BEZUGSACHSEN
100
AcDbLine
 62
7
  6
CONTINUOUS
 10
113.223323152
 20
139.9529439847
 11
113.0114061071
 21
139.8105389252
  0
LINE
  5
256
100
AcDbEntity
  8
BEZUGSACHSEN
100
AcDbLine
 62
7
  6
CONTINUOUS
 10
111.0548683566
 20
138.3733581673
 11
110.6310348605
 21
138.0885484472
  0
LINE
  5
257
100
AcDbEntity
  8
BEZUGSACHSEN
100
AcDbLine
 62
7
  6
CONTINUOUS
 10
63.93346637
 20
144.9088757336
 11
63.7540988963
 21
145.4758754995
  0
LINE
  5
258
100
AcDbEntity
  8
BEZUGSACHSEN
100
AcDbLine
 62
7
  6
CONTINUOUS
 10
68.6756156619
 20
146.3431893895
 11
68.5940620392
 21
146.7690003053
  0
LINE
  5
259
100
AcDbEntity
  8
0
100
AcDbLine
 62
7
  6
CONTINUOUS
 10
78.6862356621
 20
58.5733885805
 11
78.6862356621
 21
73.1270295938
  0
LINE
  5
25A
100
AcDbEntity
  8
KONSTRUKTIONSELEMENTE
100
AcDbLine
 62
7
  6
CONTINUOUS
 10
78.6862356621
 20
73.1270295938
 11
78.6862356621
 21
90.9966545938
  0
LINE
  5
25B
100
AcDbEntity
  8
BEZUGSACHSEN
100
AcDbLine
 62
7
  6
CONTINUOUS
 10
94.2144527279
 20
149.6347397687
 11
96.4602460258
 21
155.1985884783
  0
LINE
  5
25C
100
AcDbEntity
  8
BEZUGSACHSEN
100
AcDbLine
 62
7
  6
CONTINUOUS
 10
94.7797609802
 20
149.406558603
 11
95.7832005531
 21
151.8925335936
  0
LINE
  5
25D
100
AcDbEntity
  8
BEZUGSACHSEN
100
AcDbLine
 62
7
  6
CONTINUOUS
 10
96.0698975356
 20
152.6028120676
 11
96.7866401259
 21
154.3785085843
  0
LINE
  5
25E
100
AcDbEntity
  8
BEZUGSACHSEN
100
AcDbLine
 62
7
  6
CONTINUOUS
 10
98.8553949135
 20
152.7174749631
 11
98.7120462883
 21
152.3623353944
  0
LINE
  5
25F
100
AcDbEntity
  8
BEZUGSACHSEN
100
AcDbLine
 62
7
  6
CONTINUOUS
 10
102.3532372449
 20
149.350795703
 11
101.9485137373
 21
148.7004961161
  0
LINE
  5
260
100
AcDbEntity
  8
BEZUGSACHSEN
100
AcDbLine
 62
7
  6
CONTINUOUS
 10
102.7248706236
 20
148.2173189951
 11
102.1852391855
 21
147.3502527273
  0
LINE
  5
261
100
AcDbEntity
  8
BEZUGSACHSEN
100
AcDbLine
 62
7
  6
CONTINUOUS
 10
103.6471653887
 20
148.5455005014
 11
102.6353565251
 21
146.9197513822
  0
LINE
  5
262
100
AcDbEntity
  8
BEZUGSACHSEN
100
AcDbLine
 62
7
  6
CONTINUOUS
 10
108.590922962
 20
141.1244973538
 11
108.3297166759
 21
140.8265593866
  0
LINE
  5
263
100
AcDbEntity
  8
BEZUGSACHSEN
100
AcDbLine
 62
7
  6
CONTINUOUS
 10
69.3107255479
 20
146.5261194174
 11
69.1491927561
 21
147.0514306768
  0
LINE
  5
264
100
AcDbEntity
  8
BEZUGSACHSEN
100
AcDbLine
 62
7
  6
CONTINUOUS
 10
73.6357286161
 20
149.096236188
 11
73.5660526938
 21
149.6413877856
  0
LINE
  5
265
100
AcDbEntity
  8
BEZUGSACHSEN
100
AcDbLine
 62
7
  6
CONTINUOUS
 10
100.1259861728
 20
149.2333159195
 11
99.942431061
 21
148.7460973339
  0
LINE
  5
266
100
AcDbEntity
  8
BEZUGSACHSEN
100
AcDbLine
 62
7
  6
CONTINUOUS
 10
99.4207031658
 20
152.4892937974
 11
99.2295717102
 21
152.0157744831
  0
LINE
  5
267
100
AcDbEntity
  8
BEZUGSACHSEN
100
AcDbLine
 62
7
  6
CONTINUOUS
 10
99.6084149153
 20
149.5554340001
 11
99.3574058856
 21
148.9598321501
  0
LINE
  5
268
100
AcDbEntity
  8
BEZUGSACHSEN
100
AcDbLine
 62
7
  6
CONTINUOUS
 10
111.4220304967
 20
138.7425024748
 11
111.0548683566
 21
138.3733581673
  0
LINE
  5
269
100
AcDbEntity
  8
BEZUGSACHSEN
100
AcDbLine
 62
7
  6
CONTINUOUS
 10
113.5904877378
 20
140.3220843321
 11
113.223323152
 21
139.9529439847
  0
LINE
  5
26A
100
AcDbEntity
  8
BEZUGSACHSEN
100
AcDbLine
 62
7
  6
CONTINUOUS
 10
72.970921079
 20
149.4576613896
 11
72.8123656665
 21
149.953579575
  0
LINE
  5
26B
100
AcDbEntity
  8
BEZUGSACHSEN
100
AcDbLine
 62
7
  6
CONTINUOUS
 10
104.5052598689
 20
150.1165520355
 11
104.2542506502
 21
149.5209498818
  0
LINE
  5
26C
100
AcDbEntity
  8
BEZUGSACHSEN
100
AcDbLine
 62
7
  6
CONTINUOUS
 10
108.8742701073
 20
140.702840357
 11
108.7190248637
 21
140.4761010093
  0
LINE
  5
26D
100
AcDbEntity
  8
BEZUGSACHSEN
100
AcDbLine
 62
7
  6
CONTINUOUS
 10
111.0820118469
 20
139.2484939592
 11
110.7715186171
 21
138.7950190244
  0
LINE
  5
26E
100
AcDbEntity
  8
BEZUGSACHSEN
100
AcDbLine
 62
7
  6
CONTINUOUS
 10
63.2538157597
 20
145.1048582347
 11
63.0349491145
 21
145.4351510966
  0
LINE
  5
26F
100
AcDbEntity
  8
BEZUGSACHSEN
100
AcDbLine
 62
7
  6
CONTINUOUS
 10
63.7540988963
 20
145.4758754995
 11
63.535232251
 21
145.8061683615
  0
LINE
  5
270
100
AcDbEntity
  8
BEZUGSACHSEN
100
AcDbLine
 62
7
  6
CONTINUOUS
 10
69.1491927561
 20
147.0514306768
 11
68.8284892753
 21
147.6125872758
  0
LINE
  5
271
100
AcDbEntity
  8
BEZUGSACHSEN
100
AcDbLine
 62
7
  6
CONTINUOUS
 10
70.7802207228
 20
146.4929173652
 11
67.8728717117
 21
151.7414716165
  0
LINE
  5
272
100
AcDbEntity
  8
BEZUGSACHSEN
100
AcDbLine
 62
7
  6
CONTINUOUS
 10
68.5940620392
 20
146.7690003053
 11
68.3533376716
 21
147.2306566303
  0
LINE
  5
273
100
AcDbEntity
  8
BEZUGSACHSEN
100
AcDbLine
 62
7
  6
CONTINUOUS
 10
73.5660526938
 20
149.6413877856
 11
73.3456387991
 21
150.2489773247
  0
LINE
  5
274
100
AcDbEntity
  8
0
100
AcDbLine
 62
7
  6
CONTINUOUS
 10
92.8862356621
 20
73.1270295938
 11
92.8862356621
 21
58.5733885805
  0
LINE
  5
275
100
AcDbEntity
  8
KONSTRUKTIONSELEMENTE
100
AcDbLine
 62
7
  6
CONTINUOUS
 10
92.8862356621
 20
73.1270295938
 11
92.8862356621
 21
90.9966545938
  0
LINE
  5
276
100
AcDbEntity
  8
BEZUGSACHSEN
100
AcDbLine
 62
7
  6
CONTINUOUS
 10
98.0457804623
 20
151.2545989066
 11
97.794737607
 21
148.1895926761
  0
LINE
  5
277
100
AcDbEntity
  8
BEZUGSACHSEN
100
AcDbLine
 62
7
  6
CONTINUOUS
 10
97.3849065491
 20
151.246020581
 11
97.1352127503
 21
148.4558034558
  0
LINE
  5
278
100
AcDbEntity
  8
BEZUGSACHSEN
100
AcDbLine
 62
7
  6
CONTINUOUS
 10
98.9045246439
 20
153.1106446845
 11
98.8553949135
 21
152.7174749631
  0
LINE
  5
279
100
AcDbEntity
  8
BEZUGSACHSEN
100
AcDbLine
 62
7
  6
CONTINUOUS
 10
99.4698328962
 20
152.8824635188
 11
99.4207031658
 21
152.4892937974
  0
LINE
  5
27A
100
AcDbEntity
  8
BEZUGSACHSEN
100
AcDbLine
 62
7
  6
CONTINUOUS
 10
99.3574058856
 20
148.9598321501
 11
99.2601152353
 21
148.4189255034
  0
LINE
  5
27B
100
AcDbEntity
  8
BEZUGSACHSEN
100
AcDbLine
 62
7
  6
CONTINUOUS
 10
103.8527807755
 20
150.2219035872
 11
103.7366793927
 21
149.8430679625
  0
LINE
  5
27C
100
AcDbEntity
  8
BEZUGSACHSEN
100
AcDbLine
 62
7
  6
CONTINUOUS
 10
108.3297166759
 20
140.8265593866
 11
108.1251819685
 21
140.4442869815
  0
LINE
  5
27D
100
AcDbEntity
  8
BEZUGSACHSEN
100
AcDbLine
 62
7
  6
CONTINUOUS
 10
111.6265677983
 20
139.1247710194
 11
111.4220304967
 21
138.7425024748
  0
LINE
  5
27E
100
AcDbEntity
  8
BEZUGSACHSEN
100
AcDbLine
 62
7
  6
CONTINUOUS
 10
113.144510714
 20
140.7568733865
 11
112.9399760066
 21
140.3746009815
  0
LINE
  5
27F
100
AcDbEntity
  8
BEZUGSACHSEN
100
AcDbLine
 62
7
  6
CONTINUOUS
 10
64.0930262266
 20
140.2826184122
 11
59.607042364
 21
144.2670818372
  0
LINE
  5
280
100
AcDbEntity
  8
BEZUGSACHSEN
100
AcDbLine
 62
7
  6
CONTINUOUS
 10
65.9775794265
 20
145.3210032204
 11
63.4982265824
 21
148.4055121324
  0
LINE
  5
281
100
AcDbEntity
  8
BEZUGSACHSEN
100
AcDbLine
 62
7
  6
CONTINUOUS
 10
66.4527312568
 20
145.7029340481
 11
63.9733784127
 21
148.7874429601
  0
LINE
  5
282
100
AcDbEntity
  8
BEZUGSACHSEN
100
AcDbLine
 62
7
  6
CONTINUOUS
 10
70.9423429187
 20
147.4583433155
 11
68.7772957377
 21
151.3668412437
  0
LINE
  5
283
100
AcDbEntity
  8
BEZUGSACHSEN
100
AcDbLine
 62
7
  6
CONTINUOUS
 10
71.8844883465
 20
151.6286500375
 11
72.8123656665
 21
149.953579575
  0
LINE
  5
284
100
AcDbEntity
  8
BEZUGSACHSEN
100
AcDbLine
 62
7
  6
CONTINUOUS
 10
72.4177614792
 20
151.9240477871
 11
73.3456387991
 21
150.2489773247
  0
LINE
  5
285
100
AcDbEntity
  8
BEZUGSACHSEN
100
AcDbLine
 62
7
  6
CONTINUOUS
 10
99.942431061
 20
148.7460973339
 11
99.9125924016
 21
148.3135752565
  0
LINE
  5
286
100
AcDbEntity
  8
BEZUGSACHSEN
100
AcDbLine
 62
7
  6
CONTINUOUS
 10
108.7190248637
 20
140.4761010093
 11
108.6204458619
 21
140.1650348448
  0
LINE
  5
287
100
AcDbEntity
  8
BEZUGSACHSEN
100
AcDbLine
 62
7
  6
CONTINUOUS
 10
64.4978629094
 20
140.7384114845
 11
62.4934871125
 21
142.5187036784
  0
LINE
  5
288
100
AcDbEntity
  8
BEZUGSACHSEN
100
AcDbLine
 62
7
  6
CONTINUOUS
 10
61.9208083898
 20
143.0273585231
 11
60.4891113157
 21
144.2989958723
  0
LINE
  5
289
100
AcDbEntity
  8
BEZUGSACHSEN
100
AcDbLine
 62
7
  6
CONTINUOUS
 10
62.7486094857
 20
145.6894787565
 11
63.0349491145
 21
145.4351510966
  0
LINE
  5
28A
100
AcDbEntity
  8
BEZUGSACHSEN
100
AcDbLine
 62
7
  6
CONTINUOUS
 10
63.1534461685
 20
146.1452718288
 11
63.535232251
 21
145.8061683615
  0
LINE
  5
28B
100
AcDbEntity
  8
BEZUGSACHSEN
100
AcDbLine
 62
7
  6
CONTINUOUS
 10
65.9775794265
 20
145.3210032204
 11
66.4566670773
 21
144.8871570794
  0
LINE
  5
28C
100
AcDbEntity
  8
BEZUGSACHSEN
100
AcDbLine
 62
7
  6
CONTINUOUS
 10
65.8739848275
 20
150.3151655423
 11
68.3533376716
 21
147.2306566303
  0
LINE
  5
28D
100
AcDbEntity
  8
BEZUGSACHSEN
100
AcDbLine
 62
7
  6
CONTINUOUS
 10
66.3491364311
 20
150.6970961879
 11
68.8284892753
 21
147.6125872758
  0
LINE
  5
28E
100
AcDbEntity
  8
BEZUGSACHSEN
100
AcDbLine
 62
7
  6
CONTINUOUS
 10
113.7876429988
 20
140.9442204217
 11
113.5904877378
 21
140.3220843321
  0
LINE
  5
28F
100
AcDbEntity
  8
BEZUGSACHSEN
100
AcDbLine
 62
7
  6
CONTINUOUS
 10
66.4527312568
 20
145.7029340481
 11
66.8518393413
 21
145.3685878168
  0
LINE
  5
290
100
AcDbEntity
  8
BEZUGSACHSEN
100
AcDbLine
 62
7
  6
CONTINUOUS
 10
71.5481759012
 20
152.026102682
 11
71.8844883465
 21
151.6286500375
  0
LINE
  5
291
100
AcDbEntity
  8
BEZUGSACHSEN
100
AcDbLine
 62
7
  6
CONTINUOUS
 10
72.0195903784
 20
152.4331720982
 11
72.4177614792
 21
151.9240477871
  0
LINE
  5
292
100
AcDbEntity
  8
BEZUGSACHSEN
100
AcDbLine
 62
7
  6
CONTINUOUS
 10
99.2601152353
 20
148.4189255034
 11
99.3353457287
 21
147.7706478396
  0
LINE
  5
293
100
AcDbEntity
  8
KONSTRUKTIONSELEMENTE
100
AcDbLine
 62
7
  6
CONTINUOUS
 10
104.3555625212
 20
80.9171626694
 11
104.3555625212
 21
73.1270295938
  0
LINE
  5
294
100
AcDbEntity
  8
BEZUGSACHSEN
100
AcDbLine
 62
7
  6
CONTINUOUS
 10
108.1251819685
 20
140.4442869815
 11
108.0832745082
 21
140.0488863543
  0
LINE
  5
295
100
AcDbEntity
  8
BEZUGSACHSEN
100
AcDbLine
 62
7
  6
CONTINUOUS
 10
111.1239192701
 20
139.6438945615
 11
111.0820118469
 21
139.2484939592
  0
LINE
  5
296
100
AcDbEntity
  8
BEZUGSACHSEN
100
AcDbLine
 62
7
  6
CONTINUOUS
 10
63.6405243483
 20
143.8101173471
 11
66.1846823567
 21
142.6375492134
  0
LINE
  5
297
100
AcDbEntity
  8
BEZUGSACHSEN
100
AcDbLine
 62
7
  6
CONTINUOUS
 10
62.3947974083
 20
145.8678407392
 11
62.7486094857
 21
145.6894787565
  0
LINE
  5
298
100
AcDbEntity
  8
BEZUGSACHSEN
100
AcDbLine
 62
7
  6
CONTINUOUS
 10
66.4566670773
 20
144.8871570794
 11
66.9349675294
 21
144.6164661896
  0
LINE
  5
299
100
AcDbEntity
  8
BEZUGSACHSEN
100
AcDbLine
 62
7
  6
CONTINUOUS
 10
99.3783100918
 20
153.4700730843
 11
99.4698328962
 21
152.8824635188
  0
LINE
  5
29A
100
AcDbEntity
  8
BEZUGSACHSEN
100
AcDbLine
 62
7
  6
CONTINUOUS
 10
108.0832745082
 20
140.0488863543
 11
108.0980359674
 21
139.5691551061
  0
LINE
  5
29B
100
AcDbEntity
  8
BEZUGSACHSEN
100
AcDbLine
 62
7
  6
CONTINUOUS
 10
108.6204458619
 20
140.1650348448
 11
108.6278279025
 21
139.9251672999
  0
LINE
  5
29C
100
AcDbEntity
  8
BEZUGSACHSEN
100
AcDbLine
 62
7
  6
CONTINUOUS
 10
113.1864181372
 20
141.1522739888
 11
113.144510714
 21
140.7568733865
  0
LINE
  5
29D
100
AcDbEntity
  8
BEZUGSACHSEN
100
AcDbLine
 62
7
  6
CONTINUOUS
 10
110.0790994627
 20
138.4521350715
 11
110.347685121
 21
138.5102093043
  0
LINE
  5
29E
100
AcDbEntity
  8
BEZUGSACHSEN
100
AcDbLine
 62
7
  6
CONTINUOUS
 10
112.190885051
 20
140.1160513168
 11
112.7280589617
 21
140.232195922
  0
LINE
  5
29F
100
AcDbEntity
  8
BEZUGSACHSEN
100
AcDbLine
 62
7
  6
CONTINUOUS
 10
109.8252752172
 20
137.9143295593
 11
110.2564881598
 21
137.9592755949
  0
LINE
  5
2A0
100
AcDbEntity
  8
BEZUGSACHSEN
100
AcDbLine
 62
7
  6
CONTINUOUS
 10
66.8518393413
 20
145.3685878168
 11
67.2501608508
 21
145.1973974529
  0
LINE
  5
2A1
100
AcDbEntity
  8
BEZUGSACHSEN
100
AcDbLine
 62
7
  6
CONTINUOUS
 10
63.85446822
 20
144.4354621429
 11
66.6569919486
 21
143.1693079426
  0
LINE
  5
2A2
100
AcDbEntity
  8
BEZUGSACHSEN
100
AcDbLine
 62
7
  6
CONTINUOUS
 10
62.7996340911
 20
146.3236338115
 11
63.1534461685
 21
146.1452718288
  0
LINE
  5
2A3
100
AcDbEntity
  8
BEZUGSACHSEN
100
AcDbLine
 62
7
  6
CONTINUOUS
 10
71.5943983995
 20
152.7813914088
 11
72.0195903784
 21
152.4331720982
  0
LINE
  5
2A4
100
AcDbEntity
  8
BEZUGSACHSEN
100
AcDbLine
 62
7
  6
CONTINUOUS
 10
99.9125924016
 20
148.3135752565
 11
100.0364701472
 21
147.9357496112
  0
LINE
  5
2A5
100
AcDbEntity
  8
BEZUGSACHSEN
100
AcDbLine
 62
7
  6
CONTINUOUS
 10
98.8116549395
 20
153.4234642742
 11
98.9045246439
 21
153.1106446845
  0
LINE
  5
2A6
100
AcDbEntity
  8
BEZUGSACHSEN
100
AcDbLine
 62
7
  6
CONTINUOUS
 10
104.4300293519
 20
150.7648296614
 11
104.5052598689
 21
150.1165520355
  0
LINE
  5
2A7
100
AcDbEntity
  8
BEZUGSACHSEN
100
AcDbLine
 62
7
  6
CONTINUOUS
 10
113.7728789176
 20
141.4239555117
 11
113.7876429988
 21
140.9442204217
  0
LINE
  5
2A8
100
AcDbEntity
  8
BEZUGSACHSEN
100
AcDbLine
 62
7
  6
CONTINUOUS
 10
112.099688164
 20
139.5651176572
 11
112.5309037007
 21
139.6100598324
  0
LINE
  5
2A9
100
AcDbEntity
  8
BEZUGSACHSEN
100
AcDbLine
 62
7
  6
CONTINUOUS
 10
111.5799014076
 20
142.3985669193
 11
112.0111143501
 21
142.4435129548
  0
LINE
  5
2AA
100
AcDbEntity
  8
BEZUGSACHSEN
100
AcDbLine
 62
7
  6
CONTINUOUS
 10
109.7538422258
 20
138.4783952766
 11
110.0790994627
 21
138.4521350715
  0
LINE
  5
2AB
100
AcDbEntity
  8
BEZUGSACHSEN
100
AcDbLine
 62
7
  6
CONTINUOUS
 10
66.9349675294
 20
144.6164661896
 11
67.5716514438
 21
144.4730852463
  0
LINE
  5
2AC
100
AcDbEntity
  8
BEZUGSACHSEN
100
AcDbLine
 62
7
  6
CONTINUOUS
 10
71.1848422314
 20
152.2626509516
 11
71.5481759012
 21
152.026102682
  0
LINE
  5
2AD
100
AcDbEntity
  8
BEZUGSACHSEN
100
AcDbLine
 62
7
  6
CONTINUOUS
 10
99.3353457287
 20
147.7706478396
 11
99.5454860383
 21
147.3391354854
  0
LINE
  5
2AE
100
AcDbEntity
  8
BEZUGSACHSEN
100
AcDbLine
 62
7
  6
CONTINUOUS
 10
99.144785696
 20
153.9773333886
 11
99.3783100918
 21
153.4700730843
  0
LINE
  5
2AF
100
AcDbEntity
  8
BEZUGSACHSEN
100
AcDbLine
 62
7
  6
CONTINUOUS
 10
103.7289029826
 20
150.5997291565
 11
103.8527807755
 21
150.2219035872
  0
LINE
  5
2B0
100
AcDbEntity
  8
BEZUGSACHSEN
100
AcDbLine
 62
7
  6
CONTINUOUS
 10
108.0980359674
 20
139.5691551061
 11
108.2187558193
 21
139.1606263003
  0
LINE
  5
2B1
100
AcDbEntity
  8
BEZUGSACHSEN
100
AcDbLine
 62
7
  6
CONTINUOUS
 10
111.5551348068
 20
139.6888367366
 11
111.6265677983
 21
139.1247710194
  0
LINE
  5
2B2
100
AcDbEntity
  8
RUNDUNGEN
100
AcDbLine
 62
7
  6
CONTINUOUS
 10
117.7862356621
 20
97.6702633798
 11
117.7862356621
 21
65.8245950623
  0
LINE
  5
2B3
100
AcDbEntity
  8
BEZUGSACHSEN
100
AcDbLine
 62
7
  6
CONTINUOUS
 10
101.5029233598
 20
147.0230808968
 11
101.8966168717
 21
147.0787884614
  0
LINE
  5
2B4
100
AcDbEntity
  8
BEZUGSACHSEN
100
AcDbLine
 62
7
  6
CONTINUOUS
 10
109.1739830821
 20
144.534892467
 11
110.248948098
 21
144.6558970481
  0
LINE
  5
2B5
100
AcDbEntity
  8
BEZUGSACHSEN
100
AcDbLine
 62
7
  6
CONTINUOUS
 10
109.9479666453
 20
145.2011925576
 11
111.0229313901
 21
145.3221969054
  0
LINE
  5
2B6
100
AcDbEntity
  8
BEZUGSACHSEN
100
AcDbLine
 62
7
  6
CONTINUOUS
 10
67.2501608508
 20
145.1973974529
 11
67.647694935
 21
145.1893621579
  0
LINE
  5
2B7
100
AcDbEntity
  8
BEZUGSACHSEN
100
AcDbLine
 62
7
  6
CONTINUOUS
 10
62.0689588754
 20
145.8854612575
 11
62.3947974083
 21
145.8678407392
  0
LINE
  5
2B8
100
AcDbEntity
  8
BEZUGSACHSEN
100
AcDbLine
 62
7
  6
CONTINUOUS
 10
111.8656278883
 20
140.1423115717
 11
112.190885051
 21
140.1160513168
  0
LINE
  5
2B9
100
AcDbEntity
  8
BEZUGSACHSEN
100
AcDbLine
 62
7
  6
CONTINUOUS
 10
62.2154299345
 20
146.4348405051
 11
62.7996340911
 21
146.3236338115
  0
LINE
  5
2BA
100
AcDbEntity
  8
BEZUGSACHSEN
100
AcDbLine
 62
7
  6
CONTINUOUS
 10
111.5551348068
 20
139.6888367366
 11
112.099688164
 21
139.5651176572
  0
LINE
  5
2BB
100
AcDbEntity
  8
BEZUGSACHSEN
100
AcDbLine
 62
7
  6
CONTINUOUS
 10
109.4433491072
 20
138.0249204166
 11
109.8252752172
 21
137.9143295593
  0
LINE
  5
2BC
100
AcDbEntity
  8
BEZUGSACHSEN
100
AcDbLine
 62
7
  6
CONTINUOUS
 10
70.9914493879
 20
153.0311451784
 11
71.5943983995
 21
152.7813914088
  0
LINE
  5
2BD
100
AcDbEntity
  8
BEZUGSACHSEN
100
AcDbLine
 62
7
  6
CONTINUOUS
 10
108.2187558193
 20
139.1606263003
 11
108.6721148836
 21
138.4859697009
  0
LINE
  5
2BE
100
AcDbEntity
  8
BEZUGSACHSEN
100
AcDbLine
 62
7
  6
CONTINUOUS
 10
104.2198870502
 20
151.1963432158
 11
104.4300293519
 21
150.7648296614
  0
LINE
  5
2BF
100
AcDbEntity
  8
BEZUGSACHSEN
100
AcDbLine
 62
7
  6
CONTINUOUS
 10
110.8898589944
 20
140.221088476
 11
111.1239192701
 21
139.6438945615
  0
LINE
  5
2C0
100
AcDbEntity
  8
BEZUGSACHSEN
100
AcDbLine
 62
7
  6
CONTINUOUS
 10
108.6278279025
 20
139.9251672999
 11
108.805219268
 21
139.4323040127
  0
LINE
  5
2C1
100
AcDbEntity
  8
0
100
AcDbLine
 62
7
  6
CONTINUOUS
 10
123.2862356621
 20
111.412165985
 11
123.2862356621
 21
135.7811432025
  0
LINE
  5
2C2
100
AcDbEntity
  8
RUNDUNGEN
100
AcDbLine
 62
7
  6
CONTINUOUS
 10
119.3594338367
 20
83.4715191701
 11
123.2862356621
 21
111.412165985
  0
LINE
  5
2C3
100
AcDbEntity
  8
BEZUGSACHSEN
100
AcDbLine
 62
7
  6
CONTINUOUS
 10
98.0457804623
 20
151.2545989066
 11
98.5182190102
 21
151.3392373307
  0
LINE
  5
2C4
100
AcDbEntity
  8
BEZUGSACHSEN
100
AcDbLine
 62
7
  6
CONTINUOUS
 10
101.8687563054
 20
151.4566903822
 11
102.26244977
 21
151.5123978709
  0
LINE
  5
2C5
100
AcDbEntity
  8
BEZUGSACHSEN
100
AcDbLine
 62
7
  6
CONTINUOUS
 10
67.5716514438
 20
144.4730852463
 11
68.048377578
 21
144.528705224
  0
LINE
  5
2C6
100
AcDbEntity
  8
BEZUGSACHSEN
100
AcDbLine
 62
7
  6
CONTINUOUS
 10
61.6591995157
 20
146.3853059517
 11
62.2154299345
 21
146.4348405051
  0
LINE
  5
2C7
100
AcDbEntity
  8
BEZUGSACHSEN
100
AcDbLine
 62
7
  6
CONTINUOUS
 10
101.1844603708
 20
146.3190957159
 11
101.664418362
 21
146.3211152479
  0
LINE
  5
2C8
100
AcDbEntity
  8
BEZUGSACHSEN
100
AcDbLine
 62
7
  6
CONTINUOUS
 10
111.7770540744
 20
143.0207068693
 11
112.4275683998
 21
142.9681863595
  0
LINE
  5
2C9
100
AcDbEntity
  8
BEZUGSACHSEN
100
AcDbLine
 62
7
  6
CONTINUOUS
 10
70.7944887006
 20
152.3382947843
 11
71.1848422314
 21
152.2626509516
  0
LINE
  5
2CA
100
AcDbEntity
  8
BEZUGSACHSEN
100
AcDbLine
 62
7
  6
CONTINUOUS
 10
112.0111143501
 20
142.4435129548
 11
112.3930404231
 21
142.3329220726
  0
LINE
  5
2CB
100
AcDbEntity
  8
BEZUGSACHSEN
100
AcDbLine
 62
7
  6
CONTINUOUS
 10
109.0047515021
 20
138.2198457677
 11
109.4433491072
 21
138.0249204166
  0
LINE
  5
2CC
100
AcDbEntity
  8
BEZUGSACHSEN
100
AcDbLine
 62
7
  6
CONTINUOUS
 10
109.5345434371
 20
138.5758579615
 11
109.7538422258
 21
138.4783952766
  0
LINE
  5
2CD
100
AcDbEntity
  8
BEZUGSACHSEN
100
AcDbLine
 62
7
  6
CONTINUOUS
 10
99.9093428119
 20
146.9623196584
 11
100.6856996982
 21
146.4791425374
  0
LINE
  5
2CE
100
AcDbEntity
  8
BEZUGSACHSEN
100
AcDbLine
 62
7
  6
CONTINUOUS
 10
108.6721148836
 20
138.4859697009
 11
109.0047515021
 21
138.2198457677
  0
LINE
  5
2CF
100
AcDbEntity
  8
BEZUGSACHSEN
100
AcDbLine
 62
7
  6
CONTINUOUS
 10
109.1452379177
 20
138.9263125282
 11
109.5345434371
 21
138.5758579615
  0
LINE
  5
2D0
100
AcDbEntity
  8
BEZUGSACHSEN
100
AcDbLine
 62
7
  6
CONTINUOUS
 10
99.5454860383
 20
147.3391354854
 11
99.9093428119
 21
146.9623196584
  0
LINE
  5
2D1
100
AcDbEntity
  8
BEZUGSACHSEN
100
AcDbLine
 62
7
  6
CONTINUOUS
 10
106.4757790067
 20
141.4076847771
 11
106.8735083709
 21
140.9456767498
  0
LINE
  5
2D2
100
AcDbEntity
  8
BEZUGSACHSEN
100
AcDbLine
 62
7
  6
CONTINUOUS
 10
100.0364701472
 20
147.9357496112
 11
100.3140663668
 21
147.6126193213
  0
LINE
  5
2D3
100
AcDbEntity
  8
BEZUGSACHSEN
100
AcDbLine
 62
7
  6
CONTINUOUS
 10
108.805219268
 20
139.4323040127
 11
109.1452379177
 21
138.9263125282
  0
LINE
  5
2D4
100
AcDbEntity
  8
BEZUGSACHSEN
100
AcDbLine
 62
7
  6
CONTINUOUS
 10
108.590922962
 20
141.1244973538
 11
108.8742701073
 21
140.702840357
  0
LINE
  5
2D5
100
AcDbEntity
  8
BEZUGSACHSEN
100
AcDbLine
 62
7
  6
CONTINUOUS
 10
110.6631807593
 20
140.5584148455
 11
110.8898589944
 21
140.221088476
  0
LINE
  5
2D6
100
AcDbEntity
  8
BEZUGSACHSEN
100
AcDbLine
 62
7
  6
CONTINUOUS
 10
111.0870142554
 20
140.8432245656
 11
111.3136924905
 21
140.5058981961
  0
LINE
  5
2D7
100
AcDbEntity
  8
BEZUGSACHSEN
100
AcDbLine
 62
7
  6
CONTINUOUS
 10
111.2965516681
 20
142.8202277764
 11
111.5799014076
 21
142.3985669193
  0
LINE
  5
2D8
100
AcDbEntity
  8
BEZUGSACHSEN
100
AcDbLine
 62
7
  6
CONTINUOUS
 10
113.4821497316
 20
142.0854800534
 11
113.7728789176
 21
141.4239555117
  0
LINE
  5
2D9
100
AcDbEntity
  8
BEZUGSACHSEN
100
AcDbLine
 62
7
  6
CONTINUOUS
 10
113.0090267717
 20
141.645137276
 11
113.1864181372
 21
141.1522739888
  0
LINE
  5
2DA
100
AcDbEntity
  8
RUNDUNGEN
100
AcDbLine
 62
7
  6
CONTINUOUS
 10
119.3594338367
 20
83.4715191701
 11
118.4881023328
 21
82.43310672
  0
LINE
  5
2DB
100
AcDbEntity
  8
BEZUGSACHSEN
100
AcDbLine
 62
7
  6
CONTINUOUS
 10
97.8600410534
 20
151.8802380861
 11
98.19047801
 21
151.8845272489
  0
LINE
  5
2DC
100
AcDbEntity
  8
BEZUGSACHSEN
100
AcDbLine
 62
7
  6
CONTINUOUS
 10
102.1009567186
 20
152.2143622531
 11
102.5809127176
 21
152.2163829854
  0
LINE
  5
2DD
100
AcDbEntity
  8
BEZUGSACHSEN
100
AcDbLine
 62
7
  6
CONTINUOUS
 10
70.5122173408
 20
153.0575562406
 11
70.9914493879
 21
153.0311451784
  0
LINE
  5
2DE
100
AcDbEntity
  8
BEZUGSACHSEN
100
AcDbLine
 62
7
  6
CONTINUOUS
 10
101.0904232531
 20
147.1294422003
 11
101.5029233598
 21
147.0230808968
  0
LINE
  5
2DF
100
AcDbEntity
  8
BEZUGSACHSEN
100
AcDbLine
 62
7
  6
CONTINUOUS
 10
100.6856996982
 20
146.4791425374
 11
101.1844603708
 21
146.3190957159
  0
LINE
  5
2E0
100
AcDbEntity
  8
BEZUGSACHSEN
100
AcDbLine
 62
7
  6
CONTINUOUS
 10
94.2144527279
 20
149.6347397687
 11
94.7797609802
 21
149.406558603
  0
LINE
  5
2E1
100
AcDbEntity
  8
BEZUGSACHSEN
100
AcDbLine
 62
7
  6
CONTINUOUS
 10
97.1352127503
 20
148.4558034558
 11
97.794737607
 21
148.1895926761
  0
LINE
  5
2E2
100
AcDbEntity
  8
BEZUGSACHSEN
100
AcDbLine
 62
7
  6
CONTINUOUS
 10
95.7832005531
 20
151.8925335936
 11
97.3849065491
 21
151.246020581
  0
LINE
  5
2E3
100
AcDbEntity
  8
BEZUGSACHSEN
100
AcDbLine
 62
7
  6
CONTINUOUS
 10
96.0698975356
 20
152.6028120676
 11
97.8600410534
 21
151.8802380861
  0
LINE
  5
2E4
100
AcDbEntity
  8
BEZUGSACHSEN
100
AcDbLine
 62
7
  6
CONTINUOUS
 10
112.4275683998
 20
142.9681863595
 11
112.866163383
 21
142.77326485
  0
LINE
  5
2E5
100
AcDbEntity
  8
BEZUGSACHSEN
100
AcDbLine
 62
7
  6
CONTINUOUS
 10
100.3140663668
 20
147.6126193213
 11
101.0904232531
 21
147.1294422003
  0
LINE
  5
2E6
100
AcDbEntity
  8
BEZUGSACHSEN
100
AcDbLine
 62
7
  6
CONTINUOUS
 10
101.9485137373
 20
148.7004961161
 11
102.7248706236
 21
148.2173189951
  0
LINE
  5
2E7
100
AcDbEntity
  8
BEZUGSACHSEN
100
AcDbLine
 62
7
  6
CONTINUOUS
 10
102.3532372449
 20
149.350795703
 11
103.6471653887
 21
148.5455005014
  0
LINE
  5
2E8
100
AcDbEntity
  8
BEZUGSACHSEN
100
AcDbLine
 62
7
  6
CONTINUOUS
 10
103.7366793927
 20
149.8430679625
 11
104.2542506502
 21
149.5209498818
  0
LINE
  5
2E9
100
AcDbEntity
  8
BEZUGSACHSEN
100
AcDbLine
 62
7
  6
CONTINUOUS
 10
111.3136924905
 20
140.5058981961
 11
111.8656278883
 21
140.1423115717
  0
LINE
  5
2EA
100
AcDbEntity
  8
BEZUGSACHSEN
100
AcDbLine
 62
7
  6
CONTINUOUS
 10
98.721479035
 20
154.2858638155
 11
99.144785696
 21
153.9773333886
  0
LINE
  5
2EB
100
AcDbEntity
  8
BEZUGSACHSEN
100
AcDbLine
 62
7
  6
CONTINUOUS
 10
112.3930404231
 20
142.3329220726
 11
112.7823485366
 21
141.9824636455
  0
LINE
  5
2EC
100
AcDbEntity
  8
BEZUGSACHSEN
100
AcDbLine
 62
7
  6
CONTINUOUS
 10
98.5767836437
 20
153.6559346028
 11
98.8116549395
 21
153.4234642742
  0
LINE
  5
2ED
100
AcDbEntity
  8
BEZUGSACHSEN
100
AcDbLine
 62
7
  6
CONTINUOUS
 10
112.866163383
 20
142.77326485
 11
113.368809317
 21
142.2541451684
  0
LINE
  5
2EE
100
AcDbEntity
  8
BEZUGSACHSEN
100
AcDbLine
 62
7
  6
CONTINUOUS
 10
103.8560342194
 20
151.5731565758
 11
104.2198870502
 21
151.1963432158
  0
LINE
  5
2EF
100
AcDbEntity
  8
BEZUGSACHSEN
100
AcDbLine
 62
7
  6
CONTINUOUS
 10
111.0229313901
 20
145.3221969054
 11
111.4206607544
 21
144.860188878
  0
LINE
  5
2F0
100
AcDbEntity
  8
BEZUGSACHSEN
100
AcDbLine
 62
7
  6
CONTINUOUS
 10
103.4513107118
 20
150.9228569889
 11
103.7289029826
 21
150.5997291565
  0
LINE
  5
2F1
100
AcDbEntity
  8
BEZUGSACHSEN
100
AcDbLine
 62
7
  6
CONTINUOUS
 10
112.7823485366
 20
141.9824636455
 11
113.0090267717
 21
141.645137276
  0
LINE
  5
2F2
100
AcDbEntity
  8
BEZUGSACHSEN
100
AcDbLine
 62
7
  6
CONTINUOUS
 10
113.368809317
 20
142.2541451684
 11
113.4821497316
 21
142.0854800534
  0
LINE
  5
2F3
100
AcDbEntity
  8
BEZUGSACHSEN
100
AcDbLine
 62
7
  6
CONTINUOUS
 10
70.0059642423
 20
152.9230626151
 11
70.5122173408
 21
153.0575562406
  0
LINE
  5
2F4
100
AcDbEntity
  8
BEZUGSACHSEN
100
AcDbLine
 62
7
  6
CONTINUOUS
 10
70.3771151356
 20
152.2530344927
 11
70.7944887006
 21
152.3382947843
  0
LINE
  5
2F5
100
AcDbEntity
  8
BEZUGSACHSEN
100
AcDbLine
 62
7
  6
CONTINUOUS
 10
102.26244977
 20
151.5123978709
 11
102.6749538255
 21
151.4060341099
  0
LINE
  5
2F6
100
AcDbEntity
  8
BEZUGSACHSEN
100
AcDbLine
 62
7
  6
CONTINUOUS
 10
102.5809127176
 20
152.2163829854
 11
103.0796773331
 21
152.0563336968
  0
LINE
  5
2F7
100
AcDbEntity
  8
BEZUGSACHSEN
100
AcDbLine
 62
7
  6
CONTINUOUS
 10
96.7866401259
 20
154.3785085843
 11
98.5767836437
 21
153.6559346028
  0
LINE
  5
2F8
100
AcDbEntity
  8
BEZUGSACHSEN
100
AcDbLine
 62
7
  6
CONTINUOUS
 10
96.4602460258
 20
155.1985884783
 11
98.721479035
 21
154.2858638155
  0
LINE
  5
2F9
100
AcDbEntity
  8
BEZUGSACHSEN
100
AcDbLine
 62
7
  6
CONTINUOUS
 10
102.6749538255
 20
151.4060341099
 11
103.4513107118
 21
150.9228569889
  0
LINE
  5
2FA
100
AcDbEntity
  8
BEZUGSACHSEN
100
AcDbLine
 62
7
  6
CONTINUOUS
 10
103.0796773331
 20
152.0563336968
 11
103.8560342194
 21
151.5731565758
  0
LINE
  5
2FB
100
AcDbEntity
  8
0
100
AcDbLine
 62
7
  6
CONTINUOUS
 10
123.2862356621
 20
135.7811432025
 11
108.9625102403
 21
155.496059907
  0
LINE
  5
2FC
100
AcDbEntity
  8
0
100
AcDbLine
 62
7
  6
CONTINUOUS
 10
110.4142627359
 20
56.3110793744
 11
116.9154816548
 21
64.0589303773
  0
LINE
  5
2FD
100
AcDbEntity
  8
RUNDUNGEN
100
AcDbLine
 62
7
  6
CONTINUOUS
 10
116.9154816548
 20
64.0589303773
 11
117.3183245484
 21
64.5390198429
  0
LINE
  5
2FE
100
AcDbEntity
  8
0
100
AcDbLine
 62
7
  6
CONTINUOUS
 10
108.9625102403
 20
155.496059907
 11
85.7862356621
 21
163.0264880027
  0
LINE
  5
2FF
100
AcDbEntity
  8
0
100
AcDbLine
 62
7
  6
CONTINUOUS
 10
179.8528124636
 20
64.312986972
 11
177.9903482802
 21
67.406746921
  0
LINE
  5
300
100
AcDbEntity
  8
0
100
AcDbLine
 62
7
  6
CONTINUOUS
 10
190.8420839789
 20
83.4715191701
 11
199.705947825
 21
83.4715191701
  0
LINE
  5
301
100
AcDbEntity
  8
0
100
AcDbLine
 62
7
  6
CONTINUOUS
 10
177.274015902
 20
69.9855434826
 11
177.274015902
 21
80.9171626694
  0
LINE
  5
302
100
AcDbEntity
  8
0
100
AcDbLine
 62
7
  6
CONTINUOUS
 10
187.2022415443
 20
147.4318263807
 11
191.0904273815
 21
163.0264880027
  0
LINE
  5
303
100
AcDbEntity
  8
0
100
AcDbLine
 62
7
  6
CONTINUOUS
 10
182.274015902
 20
93.5966545938
 11
182.274015902
 21
101.2672534422
  0
LINE
  5
304
100
AcDbEntity
  8
0
100
AcDbLine
 62
7
  6
CONTINUOUS
 10
187.024015902
 20
145.9802950071
 11
187.024015902
 21
108.0356778138
  0
LINE
  5
305
100
AcDbEntity
  8
0
100
AcDbLine
 62
7
  6
CONTINUOUS
 10
190.7011517105
 20
118.3263732924
 11
190.9410729845
 21
111.412165985
  0
LINE
  5
306
100
AcDbEntity
  8
0
100
AcDbLine
 62
7
  6
CONTINUOUS
 10
190.9410729845
 20
111.412165985
 11
190.9410729845
 21
88.5099070662
  0
LINE
  5
307
100
AcDbEntity
  8
0
100
AcDbLine
 62
7
  6
CONTINUOUS
 10
178.6137618641
 20
85.9171626694
 11
187.470272073
 21
101.257088329
  0
LINE
  5
308
100
AcDbEntity
  8
0
100
AcDbLine
 62
7
  6
CONTINUOUS
 10
199.8468800935
 20
118.3263732924
 11
199.6069588194
 21
111.412165985
  0
LINE
  5
309
100
AcDbEntity
  8
0
100
AcDbLine
 62
7
  6
CONTINUOUS
 10
190.9410729845
 20
111.412165985
 11
199.6069588194
 21
111.412165985
  0
LINE
  5
30A
100
AcDbEntity
  8
RUNDUNGEN
100
AcDbLine
 62
7
  6
CONTINUOUS
 10
211.9342699398
 20
85.9171626694
 11
203.077759731
 21
101.257088329
  0
LINE
  5
30B
100
AcDbEntity
  8
RUNDUNGEN
100
AcDbLine
 62
7
  6
CONTINUOUS
 10
199.6069588194
 20
111.412165985
 11
199.6069588194
 21
88.5099070662
  0
LINE
  5
30C
100
AcDbEntity
  8
BEZUGSACHSEN
100
AcDbLine
 62
7
  6
CONTINUOUS
 10
203.524015902
 20
145.9802950071
 11
203.524015902
 21
120.4814539467
  0
LINE
  5
30D
100
AcDbEntity
  8
KONSTRUKTIONSELEMENTE
100
AcDbLine
 62
7
  6
CONTINUOUS
 10
203.524015902
 20
120.4814539467
 11
203.524015902
 21
108.0356700393
  0
LINE
  5
30E
100
AcDbEntity
  8
RUNDUNGEN
100
AcDbLine
 62
7
  6
CONTINUOUS
 10
203.524015902
 20
120.4814539227
 11
203.524015902
 21
108.0356778138
  0
LINE
  5
30F
100
AcDbEntity
  8
KONSTRUKTIONSELEMENTE
100
AcDbLine
 62
7
  6
CONTINUOUS
 10
208.274015902
 20
93.5966545938
 11
208.274015902
 21
101.2672534422
  0
LINE
  5
310
100
AcDbEntity
  8
RUNDUNGEN
100
AcDbLine
 62
7
  6
CONTINUOUS
 10
213.274015902
 20
69.9855434826
 11
213.274015902
 21
80.9171626694
  0
LINE
  5
311
100
AcDbEntity
  8
KONSTRUKTIONSELEMENTE
100
AcDbLine
 62
7
  6
CONTINUOUS
 10
199.4576044224
 20
163.0264880027
 11
203.3457902596
 21
147.4318263807
  0
LINE
  5
312
100
AcDbEntity
  8
0
100
AcDbLine
 62
7
  6
CONTINUOUS
 10
191.0904273815
 20
135.7811432025
 11
199.4576044224
 21
135.7811432025
  0
LINE
  5
313
100
AcDbEntity
  8
BEZUGSACHSEN
100
AcDbLine
 62
7
  6
CONTINUOUS
 10
202.4649148938
 20
140.2826184122
 11
203.0152449539
 21
140.2826184122
  0
LINE
  5
314
100
AcDbEntity
  8
BEZUGSACHSEN
100
AcDbLine
 62
7
  6
CONTINUOUS
 10
202.4751266458
 20
142.6375492134
 11
203.0176262471
 21
142.6375492134
  0
LINE
  5
315
100
AcDbEntity
  8
RUNDUNGEN
100
AcDbLine
 62
7
  6
CONTINUOUS
 10
210.6952193404
 20
64.312986972
 11
212.5576835238
 21
67.406746921
  0
LINE
  5
316
100
AcDbEntity
  8
BEZUGSACHSEN
100
AcDbLine
 62
7
  6
CONTINUOUS
 10
200.9720036444
 20
144.2670818372
 11
201.521499098
 21
144.2670818372
  0
LINE
  5
317
100
AcDbEntity
  8
BEZUGSACHSEN
100
AcDbLine
 62
7
  6
CONTINUOUS
 10
201.6880995693
 20
144.4707031796
 11
202.1651724105
 21
144.4707031796
  0
LINE
  5
318
100
AcDbEntity
  8
BEZUGSACHSEN
100
AcDbLine
 62
7
  6
CONTINUOUS
 10
202.380801385
 20
144.4730852463
 11
202.9182082119
 21
144.4730852463
  0
LINE
  5
319
100
AcDbEntity
  8
BEZUGSACHSEN
100
AcDbLine
 62
7
  6
CONTINUOUS
 10
202.2627762235
 20
144.6164661896
 11
202.7870688873
 21
144.6164661896
  0
LINE
  5
31A
100
AcDbEntity
  8
BEZUGSACHSEN
100
AcDbLine
 62
7
  6
CONTINUOUS
 10
201.6900539456
 20
144.7833755232
 11
202.1308321222
 21
144.7833755232
  0
LINE
  5
31B
100
AcDbEntity
  8
BEZUGSACHSEN
100
AcDbLine
 62
7
  6
CONTINUOUS
 10
202.2203194451
 20
144.8871570794
 11
202.6574416143
 21
144.8871570794
  0
LINE
  5
31C
100
AcDbEntity
  8
BEZUGSACHSEN
100
AcDbLine
 62
7
  6
CONTINUOUS
 10
201.6907006908
 20
145.1048582347
 11
202.0651413756
 21
145.1048582347
  0
LINE
  5
31D
100
AcDbEntity
  8
BEZUGSACHSEN
100
AcDbLine
 62
7
  6
CONTINUOUS
 10
202.1247153273
 20
145.3210032204
 11
202.4971802791
 21
145.3210032204
  0
LINE
  5
31E
100
AcDbEntity
  8
BEZUGSACHSEN
100
AcDbLine
 62
7
  6
CONTINUOUS
 10
202.6455372991
 20
145.3444820715
 11
202.8262462313
 21
145.3444820715
  0
LINE
  5
31F
100
AcDbEntity
  8
BEZUGSACHSEN
100
AcDbLine
 62
7
  6
CONTINUOUS
 10
201.6899106127
 20
145.4351510966
 11
201.9685985479
 21
145.4351510966
  0
LINE
  5
320
100
AcDbEntity
  8
BEZUGSACHSEN
100
AcDbLine
 62
7
  6
CONTINUOUS
 10
202.543599465
 20
145.5991026233
 11
202.8254317201
 21
145.5991026233
  0
LINE
  5
321
100
AcDbEntity
  8
BEZUGSACHSEN
100
AcDbLine
 62
7
  6
CONTINUOUS
 10
201.6879176334
 20
145.6894787565
 11
201.8732150154
 21
145.6894787565
  0
LINE
  5
322
100
AcDbEntity
  8
BEZUGSACHSEN
100
AcDbLine
 62
7
  6
CONTINUOUS
 10
202.4238018255
 20
145.9532234491
 11
202.7913498339
 21
145.9532234491
  0
LINE
  5
323
100
AcDbEntity
  8
BEZUGSACHSEN
100
AcDbLine
 62
7
  6
CONTINUOUS
 10
200.984977423
 20
146.0902541264
 11
201.5294553915
 21
146.0902541264
  0
LINE
  5
324
100
AcDbEntity
  8
BEZUGSACHSEN
100
AcDbLine
 62
7
  6
CONTINUOUS
 10
202.2991231831
 20
146.3431893895
 11
202.7251021029
 21
146.3431893895
  0
LINE
  5
325
100
AcDbEntity
  8
BEZUGSACHSEN
100
AcDbLine
 62
7
  6
CONTINUOUS
 10
201.0138939737
 20
146.3853059517
 11
201.5573582549
 21
146.3853059517
  0
LINE
  5
326
100
AcDbEntity
  8
BEZUGSACHSEN
100
AcDbLine
 62
7
  6
CONTINUOUS
 10
201.1055707767
 20
146.4348405051
 11
201.6482039641
 21
146.4348405051
  0
LINE
  5
327
100
AcDbEntity
  8
BEZUGSACHSEN
100
AcDbLine
 62
7
  6
CONTINUOUS
 10
202.7809959651
 20
146.4929173652
 11
202.9930484448
 21
146.4929173652
  0
LINE
  5
328
100
AcDbEntity
  8
BEZUGSACHSEN
100
AcDbLine
 62
7
  6
CONTINUOUS
 10
202.1629812632
 20
146.7690003053
 11
202.6275265397
 21
146.7690003053
  0
LINE
  5
329
100
AcDbEntity
  8
BEZUGSACHSEN
100
AcDbLine
 62
7
  6
CONTINUOUS
 10
202.0153773771
 20
147.2306566303
 11
202.4991508748
 21
147.2306566303
  0
LINE
  5
32A
100
AcDbEntity
  8
BEZUGSACHSEN
100
AcDbLine
 62
7
  6
CONTINUOUS
 10
202.5584310131
 20
148.3445365645
 11
202.8161112481
 21
148.3445365645
  0
LINE
  5
32B
100
AcDbEntity
  8
BEZUGSACHSEN
100
AcDbLine
 62
7
  6
CONTINUOUS
 10
200.9734313113
 20
148.4055121324
 11
201.5117464361
 21
148.4055121324
  0
LINE
  5
32C
100
AcDbEntity
  8
BEZUGSACHSEN
100
AcDbLine
 62
7
  6
CONTINUOUS
 10
202.4705487057
 20
148.6531395636
 11
202.78149694
 21
148.6531395636
  0
LINE
  5
32D
100
AcDbEntity
  8
BEZUGSACHSEN
100
AcDbLine
 62
7
  6
CONTINUOUS
 10
200.9803802276
 20
148.7874429601
 11
201.5176081714
 21
148.7874429601
  0
LINE
  5
32E
100
AcDbEntity
  8
BEZUGSACHSEN
100
AcDbLine
 62
7
  6
CONTINUOUS
 10
202.3648838151
 20
149.0241812241
 11
202.7148634158
 21
149.0241812241
  0
LINE
  5
32F
100
AcDbEntity
  8
BEZUGSACHSEN
100
AcDbLine
 62
7
  6
CONTINUOUS
 10
202.8534342185
 20
149.406558603
 11
202.9942420982
 21
149.406558603
  0
LINE
  5
330
100
AcDbEntity
  8
BEZUGSACHSEN
100
AcDbLine
 62
7
  6
CONTINUOUS
 10
202.2414366523
 20
149.4576613896
 11
202.6170485647
 21
149.4576613896
  0
LINE
  5
331
100
AcDbEntity
  8
BEZUGSACHSEN
100
AcDbLine
 62
7
  6
CONTINUOUS
 10
202.7965422642
 20
149.6347397687
 11
202.9845729267
 21
149.6347397687
  0
LINE
  5
332
100
AcDbEntity
  8
BEZUGSACHSEN
100
AcDbLine
 62
7
  6
CONTINUOUS
 10
202.1002009718
 20
149.953579575
 11
202.488576617
 21
149.953579575
  0
LINE
  5
333
100
AcDbEntity
  8
BEZUGSACHSEN
100
AcDbLine
 62
7
  6
CONTINUOUS
 10
200.9803802249
 20
150.3151655423
 11
201.5134853293
 21
150.3151655423
  0
LINE
  5
334
100
AcDbEntity
  8
BEZUGSACHSEN
100
AcDbLine
 62
7
  6
CONTINUOUS
 10
200.9734313113
 20
150.6970961879
 11
201.5055672573
 21
150.6970961879
  0
LINE
  5
335
100
AcDbEntity
  8
BEZUGSACHSEN
100
AcDbLine
 62
7
  6
CONTINUOUS
 10
201.7015753961
 20
151.6286500375
 11
202.0117901617
 21
151.6286500375
  0
LINE
  5
336
100
AcDbEntity
  8
BEZUGSACHSEN
100
AcDbLine
 62
7
  6
CONTINUOUS
 10
200.9704990738
 20
151.7414716165
 11
201.4998471896
 21
151.7414716165
  0
LINE
  5
337
100
AcDbEntity
  8
BEZUGSACHSEN
100
AcDbLine
 62
7
  6
CONTINUOUS
 10
201.7035147587
 20
152.026102682
 11
201.8858547141
 21
152.026102682
  0
LINE
  5
338
100
AcDbEntity
  8
BEZUGSACHSEN
100
AcDbLine
 62
7
  6
CONTINUOUS
 10
201.702295235
 20
152.2626509516
 11
201.7926454079
 21
152.2626509516
  0
LINE
  5
339
100
AcDbEntity
  8
BEZUGSACHSEN
100
AcDbLine
 62
7
  6
CONTINUOUS
 10
200.9853252129
 20
152.9230626151
 11
201.5113499638
 21
152.9230626151
  0
LINE
  5
33A
100
AcDbEntity
  8
BEZUGSACHSEN
100
AcDbLine
 62
7
  6
CONTINUOUS
 10
201.014630778
 20
153.0575562406
 11
201.540010954
 21
153.0575562406
  0
LINE
  5
33B
100
AcDbEntity
  8
BEZUGSACHSEN
100
AcDbLine
 62
7
  6
CONTINUOUS
 10
201.4093189773
 20
155.1985884783
 11
201.492029318
 21
155.1985884783
  0
LINE
  5
33C
100
AcDbEntity
  8
0
100
AcDbLine
 62
7
  6
CONTINUOUS
 10
191.0904273815
 20
155.496059907
 11
199.4576044224
 21
155.496059907
  0
LINE
  5
33D
100
AcDbEntity
  8
0
100
AcDbLine
 62
7
  6
CONTINUOUS
 10
199.4576044224
 20
163.0264880027
 11
191.0904273815
 21
163.0264880027
  0
ARC
  5
33E
100
AcDbEntity
  8
KONSTRUKTIONSELEMENTE
100
AcDbCircle
 62
7
  6
CONTINUOUS
 10
85.7862356621
 20
14.1370295938
 40
45.0
100
AcDbArc
 50
99.0779339621
 51
112.8843724077
  0
ARC
  5
33F
100
AcDbEntity
  8
KONSTRUKTIONSELEMENTE
100
AcDbCircle
 62
7
  6
CONTINUOUS
 10
85.7862356621
 20
14.1370295938
 40
45.0
100
AcDbArc
 50
67.1156275923
 51
80.9220660379
  0
CIRCLE
  5
340
100
AcDbEntity
  8
BEZUGSACHSEN
100
AcDbCircle
 62
7
  6
CONTINUOUS
 10
85.7862356621
 20
123.5966545938
 40
16.0
  0
ARC
  5
341
100
AcDbEntity
  8
KONSTRUKTIONSELEMENTE
100
AcDbCircle
 62
7
  6
CONTINUOUS
 10
85.7862356621
 20
90.9966545938
 40
7.1
100
AcDbArc
 50
0.0
 51
180.0
  0
CIRCLE
  5
342
100
AcDbEntity
  8
BEZUGSACHSEN
100
AcDbCircle
 62
7
  6
CONTINUOUS
 10
108.7862356621
 20
73.5966545938
 40
3.0
  0
ARC
  5
343
100
AcDbEntity
  8
RUNDUNGEN
100
AcDbCircle
 62
7
  6
CONTINUOUS
 10
50.7862356621
 20
80.504743891
 40
3.0
100
AcDbArc
 50
7.0803074625
 51
40.0
  0
ARC
  5
344
100
AcDbEntity
  8
RUNDUNGEN
100
AcDbCircle
 62
7
  6
CONTINUOUS
 10
120.7862356621
 20
80.504743891
 40
3.0
100
AcDbArc
 50
140.0
 51
175.2760379204
  0
ARC
  5
345
100
AcDbEntity
  8
0
100
AcDbCircle
 62
7
  6
CONTINUOUS
 10
62.6902971096
 20
57.5966550289
 40
2.0
100
AcDbArc
 50
220.0000162712
 51
270.0000104589
  0
ARC
  5
346
100
AcDbEntity
  8
RUNDUNGEN
100
AcDbCircle
 62
7
  6
CONTINUOUS
 10
55.7862356621
 20
65.8245950623
 40
2.0
100
AcDbArc
 50
180.0
 51
220.0
  0
ARC
  5
347
100
AcDbEntity
  8
0
100
AcDbCircle
 62
7
  6
CONTINUOUS
 10
108.8821757767
 20
57.5966568903
 40
2.0
100
AcDbArc
 50
269.9999447949
 51
319.999914116
  0
ARC
  5
348
100
AcDbEntity
  8
RUNDUNGEN
100
AcDbCircle
 62
7
  6
CONTINUOUS
 10
115.7862356621
 20
65.8245950623
 40
2.0
100
AcDbArc
 50
320.0
 51
360.0
  0
ARC
  5
349
100
AcDbEntity
  8
0
100
AcDbCircle
 62
7
  6
CONTINUOUS
 10
55.7862356621
 20
65.8245950623
 40
2.0
100
AcDbArc
 50
180.0
 51
220.0
  0
ARC
  5
34A
100
AcDbEntity
  8
BEZUGSACHSEN
100
AcDbCircle
 62
7
  6
CONTINUOUS
 10
-61.4428801432
 20
-5.5208438203
 40
303.1341461468
100
AcDbArc
 50
29.3475079187
 51
29.513153647
  0
ARC
  5
34B
100
AcDbEntity
  8
BEZUGSACHSEN
100
AcDbCircle
 62
7
  6
CONTINUOUS
 10
7.3297356615
 20
33.1854820099
 40
224.4672573443
100
AcDbArc
 50
29.3390794032
 51
29.5630019154
  0
ARC
  5
34C
100
AcDbEntity
  8
BEZUGSACHSEN
100
AcDbCircle
 62
7
  6
CONTINUOUS
 10
20.6577004891
 20
118.3913506653
 40
183.4888654331
100
AcDbArc
 50
8.1600272413
 51
8.3093942681
  0
ARC
  5
34D
100
AcDbEntity
  8
BEZUGSACHSEN
100
AcDbCircle
 62
7
  6
CONTINUOUS
 10
52.7443898068
 20
123.2108234338
 40
151.8697128772
100
AcDbArc
 50
8.4089489429
 51
8.5819849586
  0
ARC
  5
34E
100
AcDbEntity
  8
BEZUGSACHSEN
100
AcDbCircle
 62
7
  6
CONTINUOUS
 10
65.511722753
 20
129.6205019452
 40
137.4579709584
100
AcDbArc
 50
6.2020246618
 51
6.3331377008
  0
ARC
  5
34F
100
AcDbEntity
  8
BEZUGSACHSEN
100
AcDbCircle
 62
7
  6
CONTINUOUS
 10
72.3315579214
 20
127.0214796751
 40
132.3186534316
100
AcDbArc
 50
9.1366643626
 51
9.3210355417
  0
ARC
  5
350
100
AcDbEntity
  8
0
100
AcDbCircle
 62
7
  6
CONTINUOUS
 10
195.274015902
 20
73.5966545938
 40
18.0
100
AcDbArc
 50
211.0482219935
 51
328.9517780065
  0
CIRCLE
  5
351
100
AcDbEntity
  8
0
100
AcDbCircle
 62
7
  6
CONTINUOUS
 10
195.274015902
 20
73.5966545938
 40
7.5
  0
ARC
  5
352
100
AcDbEntity
  8
RUNDUNGEN
100
AcDbCircle
 62
7
  6
CONTINUOUS
 10
208.274015902
 20
69.9855434826
 40
5.0
100
AcDbArc
 50
328.9517780065
 51
360.0
  0
ARC
  5
353
100
AcDbEntity
  8
0
100
AcDbCircle
 62
7
  6
CONTINUOUS
 10
182.274015902
 20
69.9855434826
 40
5.0
100
AcDbArc
 50
180.0
 51
211.0482219935
  0
ARC
  5
354
100
AcDbEntity
  8
BEZUGSACHSEN
100
AcDbCircle
 62
7
  6
CONTINUOUS
 10
114.1825844336
 20
137.2464906
 40
89.0355013613
100
AcDbArc
 50
5.3829558254
 51
5.611891421
  0
ARC
  5
355
100
AcDbEntity
  8
BEZUGSACHSEN
100
AcDbCircle
 62
7
  6
CONTINUOUS
 10
126.4609047854
 20
138.8069858578
 40
76.8057341469
100
AcDbArc
 50
4.6264770113
 51
4.9392200225
  0
ARC
  5
356
100
AcDbEntity
  8
BEZUGSACHSEN
100
AcDbCircle
 62
7
  6
CONTINUOUS
 10
126.2510569325
 20
145.5071642961
 40
75.2806566676
100
AcDbArc
 50
359.0561359582
 51
0.4437915647
  0
ARC
  5
357
100
AcDbEntity
  8
KONSTRUKTIONSELEMENTE
100
AcDbCircle
 62
7
  6
CONTINUOUS
 10
126.211246243
 20
145.7107151633
 40
74.774694412
100
AcDbArc
 50
358.8937536058
 51
0.2908213039
  0
ARC
  5
358
100
AcDbEntity
  8
BEZUGSACHSEN
100
AcDbCircle
 62
7
  6
CONTINUOUS
 10
127.8908805023
 20
145.0832116271
 40
73.7999806249
100
AcDbArc
 50
359.5240370018
 51
0.5117319273
  0
ARC
  5
359
100
AcDbEntity
  8
BEZUGSACHSEN
100
AcDbCircle
 62
7
  6
CONTINUOUS
 10
132.6512226495
 20
143.8115756392
 40
69.5170745967
100
AcDbArc
 50
359.3536367245
 51
0.5432592253
  0
ARC
  5
35A
100
AcDbEntity
  8
BEZUGSACHSEN
100
AcDbCircle
 62
7
  6
CONTINUOUS
 10
134.9341177324
 20
140.8868279016
 40
68.2904273099
100
AcDbArc
 50
6.2695336968
 51
6.5300759592
  0
ARC
  5
35B
100
AcDbEntity
  8
BEZUGSACHSEN
100
AcDbCircle
 62
7
  6
CONTINUOUS
 10
134.5118315598
 20
143.303436189
 40
67.8474430559
100
AcDbArc
 50
359.337294651
 51
359.6099354056
  0
ARC
  5
35C
100
AcDbEntity
  8
BEZUGSACHSEN
100
AcDbCircle
 62
7
  6
CONTINUOUS
 10
134.5813848832
 20
143.3029212738
 40
67.7778878389
100
AcDbArc
 50
359.6099703979
 51
0.4287602718
  0
ARC
  5
35D
100
AcDbEntity
  8
BEZUGSACHSEN
100
AcDbCircle
 62
7
  6
CONTINUOUS
 10
140.809424828
 20
141.5157232812
 40
62.2183157697
100
AcDbArc
 50
1.0331262368
 51
1.5229370663
  0
ARC
  5
35E
100
AcDbEntity
  8
BEZUGSACHSEN
100
AcDbCircle
 62
7
  6
CONTINUOUS
 10
141.0254621334
 20
141.5253461388
 40
62.0022382365
100
AcDbArc
 50
358.8515282007
 51
359.2727803651
  0
ARC
  5
35F
100
AcDbEntity
  8
BEZUGSACHSEN
100
AcDbCircle
 62
7
  6
CONTINUOUS
 10
147.2366724432
 20
126.3365320474
 40
60.5635219962
100
AcDbArc
 50
25.8901195318
 51
26.0867752776
  0
ARC
  5
360
100
AcDbEntity
  8
BEZUGSACHSEN
100
AcDbCircle
 62
7
  6
CONTINUOUS
 10
146.4237495689
 20
142.2196267174
 40
56.8456243201
100
AcDbArc
 50
5.5065514389
 51
5.8690065191
  0
ARC
  5
361
100
AcDbEntity
  8
BEZUGSACHSEN
100
AcDbCircle
 62
7
  6
CONTINUOUS
 10
148.3993717233
 20
149.4050670252
 40
53.1219102015
100
AcDbArc
 50
0.9816543679
 51
1.3936832903
  0
ARC
  5
362
100
AcDbEntity
  8
BEZUGSACHSEN
100
AcDbCircle
 62
7
  6
CONTINUOUS
 10
148.512631777
 20
149.4099336448
 40
53.0086315351
100
AcDbArc
 50
358.914279503
 51
359.3271490363
  0
ARC
  5
363
100
AcDbEntity
  8
KONSTRUKTIONSELEMENTE
100
AcDbCircle
 62
7
  6
CONTINUOUS
 10
148.36961989
 20
149.5489846219
 40
52.6163390614
100
AcDbArc
 50
0.8343508008
 51
1.2503182391
  0
ARC
  5
364
100
AcDbEntity
  8
KONSTRUKTIONSELEMENTE
100
AcDbCircle
 62
7
  6
CONTINUOUS
 10
148.3696199242
 20
149.5536236977
 40
52.6163390272
100
AcDbArc
 50
358.7496817608
 51
359.1656493977
  0
ARC
  5
365
100
AcDbEntity
  8
BEZUGSACHSEN
100
AcDbCircle
 62
7
  6
CONTINUOUS
 10
156.4819908848
 20
150.4992094766
 40
45.2627103227
100
AcDbArc
 50
354.4100622929
 51
354.7852205869
  0
ARC
  5
366
100
AcDbEntity
  8
KONSTRUKTIONSELEMENTE
100
AcDbCircle
 62
7
  6
CONTINUOUS
 10
156.0844784448
 20
150.6396698996
 40
45.1303887904
100
AcDbArc
 50
354.2144122837
 51
354.590793885
  0
ARC
  5
367
100
AcDbEntity
  8
BEZUGSACHSEN
100
AcDbCircle
 62
7
  6
CONTINUOUS
 10
158.1904870993
 20
145.3290073431
 40
44.6357618145
100
AcDbArc
 50
0.0198638179
 51
0.3467043786
  0
ARC
  5
368
100
AcDbEntity
  8
BEZUGSACHSEN
100
AcDbCircle
 62
7
  6
CONTINUOUS
 10
159.5870965258
 20
144.7320050114
 40
43.4301270283
100
AcDbArc
 50
0.0204160594
 51
0.3563299453
  0
ARC
  5
369
100
AcDbEntity
  8
0
100
AcDbCircle
 62
7
  6
CONTINUOUS
 10
187.274015902
 20
80.9171626694
 40
10.0
100
AcDbArc
 50
150.0
 51
180.0
  0
ARC
  5
36A
100
AcDbEntity
  8
0
100
AcDbCircle
 62
7
  6
CONTINUOUS
 10
177.274015902
 20
93.5966545938
 40
5.0
100
AcDbArc
 50
330.0
 51
360.0
  0
ARC
  5
36B
100
AcDbEntity
  8
BEZUGSACHSEN
100
AcDbCircle
 62
7
  6
CONTINUOUS
 10
169.1249413614
 20
110.3865594473
 40
48.5514281721
100
AcDbArc
 50
47.7472394248
 51
47.9427812479
  0
ARC
  5
36C
100
AcDbEntity
  8
BEZUGSACHSEN
100
AcDbCircle
 62
7
  6
CONTINUOUS
 10
174.2059246791
 20
118.3438690838
 40
38.8217872198
100
AcDbArc
 50
42.3033275659
 51
42.5901006248
  0
ARC
  5
36D
100
AcDbEntity
  8
0
100
AcDbCircle
 62
7
  6
CONTINUOUS
 10
187.274015902
 20
101.2672534422
 40
5.0
100
AcDbArc
 50
113.9694823178
 51
180.0
  0
ARC
  5
36E
100
AcDbEntity
  8
0
100
AcDbCircle
 62
7
  6
CONTINUOUS
 10
184.024015902
 20
108.5773492008
 40
3.0
100
AcDbArc
 50
293.9694823178
 51
353.3969482318
  0
ARC
  5
36F
100
AcDbEntity
  8
RUNDUNGEN
100
AcDbCircle
 62
7
  6
CONTINUOUS
 10
203.274015902
 20
80.9171626694
 40
10.0
100
AcDbArc
 50
0.0
 51
30.0
  0
ARC
  5
370
100
AcDbEntity
  8
KONSTRUKTIONSELEMENTE
100
AcDbCircle
 62
7
  6
CONTINUOUS
 10
213.274015902
 20
93.5966545938
 40
5.0
100
AcDbArc
 50
180.0
 51
210.0
  0
ARC
  5
371
100
AcDbEntity
  8
KONSTRUKTIONSELEMENTE
100
AcDbCircle
 62
7
  6
CONTINUOUS
 10
203.274015902
 20
101.2672534422
 40
5.0
100
AcDbArc
 50
0.0
 51
66.0305176822
  0
ARC
  5
372
100
AcDbEntity
  8
RUNDUNGEN
100
AcDbCircle
 62
7
  6
CONTINUOUS
 10
203.274015902
 20
101.2672534422
 40
5.0
100
AcDbArc
 50
0.0
 51
66.0305176822
  0
ARC
  5
373
100
AcDbEntity
  8
RUNDUNGEN
100
AcDbCircle
 62
7
  6
CONTINUOUS
 10
206.524015902
 20
108.5773492008
 40
3.0
100
AcDbArc
 50
186.6030517682
 51
246.0305176822
  0
ARC
  5
374
100
AcDbEntity
  8
BEZUGSACHSEN
100
AcDbCircle
 62
7
  6
CONTINUOUS
 10
169.8031907029
 20
152.6408896777
 40
31.7094147736
100
AcDbArc
 50
358.3746224325
 51
0.5098653478
  0
ARC
  5
375
100
AcDbEntity
  8
KONSTRUKTIONSELEMENTE
100
AcDbCircle
 62
7
  6
CONTINUOUS
 10
169.5620143832
 20
152.7264614453
 40
31.4239258452
100
AcDbArc
 50
358.2037570356
 51
0.3584686019
  0
ARC
  5
376
100
AcDbEntity
  8
BEZUGSACHSEN
100
AcDbCircle
 62
7
  6
CONTINUOUS
 10
170.7433292329
 20
151.9707242298
 40
30.9602531483
100
AcDbArc
 50
358.8823689344
 51
0.5224573152
  0
ARC
  5
377
100
AcDbEntity
  8
BEZUGSACHSEN
100
AcDbCircle
 62
7
  6
CONTINUOUS
 10
172.1762050001
 20
151.8836425886
 40
30.1439342744
100
AcDbArc
 50
348.24468337
 51
348.5224074134
  0
ARC
  5
378
100
AcDbEntity
  8
BEZUGSACHSEN
100
AcDbCircle
 62
7
  6
CONTINUOUS
 10
176.0614516218
 20
148.0622361076
 40
26.7561489244
100
AcDbArc
 50
358.7067104944
 51
0.6045311263
  0
ARC
  5
379
100
AcDbEntity
  8
BEZUGSACHSEN
100
AcDbCircle
 62
7
  6
CONTINUOUS
 10
176.9385136963
 20
147.3924151766
 40
26.0700571015
100
AcDbArc
 50
358.022725492
 51
0.6199857721
  0
ARC
  5
37A
100
AcDbEntity
  8
BEZUGSACHSEN
100
AcDbCircle
 62
7
  6
CONTINUOUS
 10
181.9312747292
 20
147.8044998372
 40
21.306395511
100
AcDbArc
 50
351.3046476556
 51
351.7507909314
  0
ARC
  5
37B
100
AcDbEntity
  8
BEZUGSACHSEN
100
AcDbCircle
 62
7
  6
CONTINUOUS
 10
185.3694647994
 20
148.9170535936
 40
17.8186001305
100
AcDbArc
 50
347.9243931904
 51
348.3066742044
  0
ARC
  5
37C
100
AcDbEntity
  8
KONSTRUKTIONSELEMENTE
100
AcDbCircle
 62
7
  6
CONTINUOUS
 10
192.9239145297
 20
161.4675577097
 40
17.1149667104
100
AcDbArc
 50
298.2086946707
 51
298.5575363161
  0
ARC
  5
37D
100
AcDbEntity
  8
BEZUGSACHSEN
100
AcDbCircle
 62
7
  6
CONTINUOUS
 10
193.6293912196
 20
161.0331637621
 40
16.6557017189
100
AcDbArc
 50
298.4239049831
 51
298.7798529253
  0
ARC
  5
37E
100
AcDbEntity
  8
BEZUGSACHSEN
100
AcDbCircle
 62
7
  6
CONTINUOUS
 10
189.1466702164
 20
142.1339520769
 40
16.2021988516
100
AcDbArc
 50
38.7782359713
 51
39.0362692796
  0
ARC
  5
37F
100
AcDbEntity
  8
BEZUGSACHSEN
100
AcDbCircle
 62
7
  6
CONTINUOUS
 10
187.3358111609
 20
148.8573284089
 40
15.6680602891
100
AcDbArc
 50
2.0088651567
 51
2.8440461574
  0
ARC
  5
380
100
AcDbEntity
  8
BEZUGSACHSEN
100
AcDbCircle
 62
7
  6
CONTINUOUS
 10
191.7780296459
 20
155.0675627027
 40
9.9667650236
100
AcDbArc
 50
347.5747859075
 51
348.365314314
  0
ARC
  5
381
100
AcDbEntity
  8
KONSTRUKTIONSELEMENTE
100
AcDbCircle
 62
7
  6
CONTINUOUS
 10
191.3044697594
 20
155.1029177154
 40
9.9232419385
100
AcDbArc
 50
347.3102508344
 51
348.1050305776
  0
ARC
  5
382
100
AcDbEntity
  8
BEZUGSACHSEN
100
AcDbCircle
 62
7
  6
CONTINUOUS
 10
198.274364275
 20
145.5973828659
 40
8.1436254219
100
AcDbArc
 50
65.8997019312
 51
66.3588856307
  0
ARC
  5
383
100
AcDbEntity
  8
BEZUGSACHSEN
100
AcDbCircle
 62
7
  6
CONTINUOUS
 10
197.7390642966
 20
150.6985149226
 40
8.0981174572
100
AcDbArc
 50
309.7582069273
 51
310.3696095304
  0
ARC
  5
384
100
AcDbEntity
  8
BEZUGSACHSEN
100
AcDbCircle
 62
7
  6
CONTINUOUS
 10
195.3323893838
 20
154.4965977043
 40
6.7534640324
100
AcDbArc
 50
340.5970771391
 51
341.3621965039
  0
ARC
  5
385
100
AcDbEntity
  8
0
100
AcDbCircle
 62
7
  6
CONTINUOUS
 10
193.024015902
 20
145.9802950071
 40
6.0
100
AcDbArc
 50
166.0
 51
180.0
  0
ARC
  5
386
100
AcDbEntity
  8
BEZUGSACHSEN
100
AcDbCircle
 62
7
  6
CONTINUOUS
 10
197.524015902
 20
145.9802950071
 40
6.0
100
AcDbArc
 50
0.0
 51
14.0
  0
SPLINE
  5
387
100
AcDbEntity
  8
KONSTRUKTIONSELEMENTE
100
AcDbSpline
 62
7
  6
CONTINUOUS
 70
0
 71
3
 72
10
 73
6
 74
0
 42
0.0000001
 43
0.0000001
 44
0.0000000001
 40
0.0
 40
0.0
 40
0.0
 40
0.0
 40
0.2471626608
 40
0.4959894518
 40
1.0
 40
1.0
 40
1.0
 40
1.0
 10
67.7507046981
 20
64.312986972
 30
0.0
 10
67.7344547191
 20
64.5818568565
 30
0.0
 10
67.6634054121
 20
65.1197858624
 30
0.0
 10
67.3804800971
 20
66.1745683243
 30
0.0
 10
67.0348092394
 20
66.9258386837
 30
0.0
 10
66.7694199955
 20
67.406746921
 30
0.0
  0
SPLINE
  5
388
100
AcDbEntity
  8
KONSTRUKTIONSELEMENTE
100
AcDbSpline
 62
7
  6
CONTINUOUS
 70
0
 71
3
 72
10
 73
6
 74
0
 42
0.0000001
 43
0.0000001
 44
0.0000000001
 40
0.0
 40
0.0
 40
0.0
 40
0.0
 40
0.5040105482
 40
0.7528373392
 40
1.0
 40
1.0
 40
1.0
 40
1.0
 10
104.8030513288
 20
67.406746921
 30
0.0
 10
104.5376620849
 20
66.9258386837
 30
0.0
 10
104.1919912272
 20
66.1745683243
 30
0.0
 10
103.9090659122
 20
65.1197858624
 30
0.0
 10
103.8380166052
 20
64.5818568565
 30
0.0
 10
103.8217666262
 20
64.312986972
 30
0.0
  0
LINE
  5
389
100
AcDbEntity
  8
0
100
AcDbLine
 62
7
  6
CONTINUOUS
 10
68.2905338063
 20
55.5966849255
 11
67.7507046981
 21
64.312986972
  0
SPLINE
  5
38A
100
AcDbEntity
  8
KONSTRUKTIONSELEMENTE
100
AcDbSpline
 62
7
  6
CONTINUOUS
 70
0
 71
3
 72
13
 73
9
 74
0
 42
0.0000001
 43
0.0000001
 44
0.0000000001
 40
0.0
 40
0.0
 40
0.0
 40
0.0
 40
0.1282677925
 40
0.2557917396
 40
0.3821540585
 40
0.507289245
 40
0.7544200142
 40
1.0
 40
1.0
 40
1.0
 40
1.0
 10
67.2169088031
 20
80.9171626694
 30
0.0
 10
67.2169088031
 20
81.1844729628
 30
0.0
 10
67.2645284389
 20
81.7187216186
 30
0.0
 10
67.4719865128
 20
82.4913174755
 30
0.0
 10
67.7974993916
 20
83.214467412
 30
0.0
 10
68.3570478398
 20
84.09358785
 30
0.0
 10
69.2469623345
 20
85.039922439
 30
0.0
 10
70.0815638921
 20
85.6459633429
 30
0.0
 10
70.5155903981
 20
85.9171626694
 30
0.0
  0
SPLINE
  5
38B
100
AcDbEntity
  8
KONSTRUKTIONSELEMENTE
100
AcDbSpline
 62
7
  6
CONTINUOUS
 70
0
 71
3
 72
13
 73
9
 74
0
 42
0.0000001
 43
0.0000001
 44
0.0000000001
 40
0.0
 40
0.0
 40
0.0
 40
0.0
 40
0.2455818466
 40
0.4927145711
 40
0.6178500491
 40
0.7442114128
 40
0.8717334988
 40
1.0
 40
1.0
 40
1.0
 40
1.0
 10
101.0568809262
 20
85.9171626694
 30
0.0
 10
101.4909107073
 20
85.6459612965
 30
0.0
 10
102.3255185358
 20
85.0399153585
 30
0.0
 10
103.2154367348
 20
84.0935720568
 30
0.0
 10
103.7749826696
 20
83.2144468033
 30
0.0
 10
104.1004900204
 20
82.4913002489
 30
0.0
 10
104.3079438747
 20
81.7187123073
 30
0.0
 10
104.3555625212
 20
81.1844702633
 30
0.0
 10
104.3555625212
 20
80.9171626694
 30
0.0
  0
LINE
  5
38C
100
AcDbEntity
  8
0
100
AcDbLine
 62
7
  6
CONTINUOUS
 10
103.8217666262
 20
64.312986972
 11
103.281937518
 21
55.5966849255
  0
SPLINE
  5
38D
100
AcDbEntity
  8
KONSTRUKTIONSELEMENTE
100
AcDbSpline
 62
7
  6
CONTINUOUS
 70
0
 71
3
 72
11
 73
7
 74
0
 42
0.0000001
 43
0.0000001
 44
0.0000000001
 40
0.0
 40
0.0
 40
0.0
 40
0.0
 40
0.2361228539
 40
0.4828985925
 40
0.7390213431
 40
1.0
 40
1.0
 40
1.0
 40
1.0
 10
66.7694199955
 20
67.406746921
 30
0.0
 10
66.6682693294
 20
67.5900406665
 30
0.0
 10
66.5019138479
 20
67.9890253613
 30
0.0
 10
66.3918826491
 20
68.6405518677
 30
0.0
 10
66.4295133405
 20
69.3219373323
 30
0.0
 10
66.54824496
 20
69.7682088666
 30
0.0
 10
66.6276591997
 20
69.9855434826
 30
0.0
  0
SPLINE
  5
38E
100
AcDbEntity
  8
KONSTRUKTIONSELEMENTE
100
AcDbSpline
 62
7
  6
CONTINUOUS
 70
0
 71
3
 72
11
 73
7
 74
0
 42
0.0000001
 43
0.0000001
 44
0.0000000001
 40
0.0
 40
0.0
 40
0.0
 40
0.0
 40
0.2609786569
 40
0.5171014075
 40
0.7638771461
 40
1.0
 40
1.0
 40
1.0
 40
1.0
 10
104.9448121246
 20
69.9855434826
 30
0.0
 10
105.0242263643
 20
69.7682088666
 30
0.0
 10
105.1429579838
 20
69.3219373323
 30
0.0
 10
105.1805886752
 20
68.6405518677
 30
0.0
 10
105.0705574764
 20
67.9890253613
 30
0.0
 10
104.9042019949
 20
67.5900406665
 30
0.0
 10
104.8030513288
 20
67.406746921
 30
0.0
  0
SPLINE
  5
38F
100
AcDbEntity
  8
KONSTRUKTIONSELEMENTE
100
AcDbSpline
 62
7
  6
CONTINUOUS
 70
0
 71
3
 72
9
 73
5
 74
0
 42
0.0000001
 43
0.0000001
 44
0.0000000001
 40
0.0
 40
0.0
 40
0.0
 40
0.0
 40
0.5000928141
 40
1.0
 40
1.0
 40
1.0
 40
1.0
 10
66.6276591997
 20
69.9855434826
 30
0.0
 10
66.8112413001
 20
70.4879564684
 30
0.0
 10
67.1091992925
 20
71.5203588782
 30
0.0
 10
67.2169088031
 20
72.5923251652
 30
0.0
 10
67.2169088031
 20
73.1270295938
 30
0.0
  0
SPLINE
  5
390
100
AcDbEntity
  8
KONSTRUKTIONSELEMENTE
100
AcDbSpline
 62
7
  6
CONTINUOUS
 70
0
 71
3
 72
9
 73
5
 74
0
 42
0.0000001
 43
0.0000001
 44
0.0000000001
 40
0.0
 40
0.0
 40
0.0
 40
0.0
 40
0.4999071859
 40
1.0
 40
1.0
 40
1.0
 40
1.0
 10
104.3555625212
 20
73.1270295938
 30
0.0
 10
104.3555625212
 20
72.5923251652
 30
0.0
 10
104.4632720318
 20
71.5203588782
 30
0.0
 10
104.7612300242
 20
70.4879564684
 30
0.0
 10
104.9448121246
 20
69.9855434826
 30
0.0
  0
LINE
  5
391
100
AcDbEntity
  8
BEZUGSACHSEN
100
AcDbLine
 62
7
  6
CONTINUOUS
 10
202.9845729267
 20
149.6347397687
 11
202.4978606767
 21
151.4496544427
  0
LINE
  5
392
100
AcDbEntity
  8
BEZUGSACHSEN
100
AcDbLine
 62
7
  6
CONTINUOUS
 10
202.4978606767
 20
151.4496544427
 11
202.3755505636
 21
151.9056435898
  0
LINE
  5
393
100
AcDbEntity
  8
BEZUGSACHSEN
100
AcDbLine
 62
7
  6
CONTINUOUS
 10
202.3755505636
 20
151.9056435898
 11
201.492029318
 21
155.1985884783
  0
LINE
  5
394
100
AcDbEntity
  8
BEZUGSACHSEN
100
AcDbLine
 62
7
  6
CONTINUOUS
 10
202.8107846745
 20
147.4583433155
 11
202.7461106229
 21
147.6854667014
  0
LINE
  5
395
100
AcDbEntity
  8
BEZUGSACHSEN
100
AcDbLine
 62
7
  6
CONTINUOUS
 10
202.7461106229
 20
147.6854667014
 11
201.6976924204
 21
151.3668412437
  0
LINE
  5
396
100
AcDbEntity
  8
BEZUGSACHSEN
100
AcDbLine
 62
7
  6
CONTINUOUS
 10
201.5996932652
 20
153.0311451784
 11
201.6305337269
 21
152.9682434312
  0
LINE
  5
397
100
AcDbEntity
  8
BEZUGSACHSEN
100
AcDbLine
 62
7
  6
CONTINUOUS
 10
201.7216209147
 20
152.7813914088
 11
201.8455715694
 21
152.4331720982
  0
LINE
  5
398
100
AcDbEntity
  8
BEZUGSACHSEN
100
AcDbLine
 62
7
  6
CONTINUOUS
 10
201.8455715694
 20
152.4331720982
 11
201.8624037439
 21
152.3786384836
  0
LINE
  5
399
100
AcDbEntity
  8
BEZUGSACHSEN
100
AcDbLine
 62
7
  6
CONTINUOUS
 10
201.8624037439
 20
152.3786384836
 11
201.9637615232
 21
152.0501287337
  0
LINE
  5
39A
100
AcDbEntity
  8
BEZUGSACHSEN
100
AcDbLine
 62
7
  6
CONTINUOUS
 10
201.9637615232
 20
152.0501287337
 11
202.0026441786
 21
151.9240477871
  0
LINE
  5
39B
100
AcDbEntity
  8
BEZUGSACHSEN
100
AcDbLine
 62
7
  6
CONTINUOUS
 10
202.0026441786
 20
151.9240477871
 11
202.0810349867
 21
151.6483376587
  0
LINE
  5
39C
100
AcDbEntity
  8
BEZUGSACHSEN
100
AcDbLine
 62
7
  6
CONTINUOUS
 10
202.0810349867
 20
151.6483376587
 11
202.1226015107
 21
151.5021374984
  0
LINE
  5
39D
100
AcDbEntity
  8
BEZUGSACHSEN
100
AcDbLine
 62
7
  6
CONTINUOUS
 10
202.1226015107
 20
151.5021374984
 11
202.4788425789
 21
150.2489773247
  0
LINE
  5
39E
100
AcDbEntity
  8
BEZUGSACHSEN
100
AcDbLine
 62
7
  6
CONTINUOUS
 10
202.6394172485
 20
149.6413877856
 11
202.4788425789
 21
150.2489773247
  0
LINE
  5
39F
100
AcDbEntity
  8
BEZUGSACHSEN
100
AcDbLine
 62
7
  6
CONTINUOUS
 10
202.7699479172
 20
149.096236188
 11
202.6394172485
 21
149.6413877856
  0
SPLINE
  5
3A0
100
AcDbEntity
  8
BEZUGSACHSEN
100
AcDbSpline
 62
7
  6
CONTINUOUS
 70
0
 71
3
 72
8
 73
4
 74
0
 42
0.0000001
 43
0.0000001
 44
0.0000000001
 40
0.0
 40
0.0
 40
0.0
 40
0.0
 40
1.0
 40
1.0
 40
1.0
 40
1.0
 10
202.9031180307
 20
148.4526190887
 30
0.0
 10
202.8589279174
 20
148.6671993908
 30
0.0
 10
202.8145340303
 20
148.8817378181
 30
0.0
 10
202.7699479172
 20
149.096236188
 30
0.0
  0
LINE
  5
3A1
100
AcDbEntity
  8
BEZUGSACHSEN
100
AcDbLine
 62
7
  6
CONTINUOUS
 10
202.6506825203
 20
147.0514306768
 11
202.5705906965
 21
147.3314616313
  0
LINE
  5
3A2
100
AcDbEntity
  8
BEZUGSACHSEN
100
AcDbLine
 62
7
  6
CONTINUOUS
 10
202.5705906965
 20
147.3314616313
 11
202.4901786811
 21
147.6125872758
  0
LINE
  5
3A3
100
AcDbEntity
  8
BEZUGSACHSEN
100
AcDbLine
 62
7
  6
CONTINUOUS
 10
202.7809959651
 20
146.5261194174
 11
202.6506825203
 21
147.0514306768
  0
SPLINE
  5
3A4
100
AcDbEntity
  8
BEZUGSACHSEN
100
AcDbSpline
 62
7
  6
CONTINUOUS
 70
0
 71
3
 72
8
 73
4
 74
0
 42
0.0000001
 43
0.0000001
 44
0.0000000001
 40
0.0
 40
0.0
 40
0.0
 40
0.0
 40
1.0
 40
1.0
 40
1.0
 40
1.0
 10
202.9136705633
 20
145.8734977348
 30
0.0
 10
202.8746015239
 20
146.0666021411
 30
0.0
 10
202.8353690831
 20
146.2596735529
 30
0.0
 10
202.7959814652
 20
146.4527132306
 30
0.0
  0
LINE
  5
3A5
100
AcDbEntity
  8
BEZUGSACHSEN
100
AcDbLine
 62
7
  6
CONTINUOUS
 10
202.7959814652
 20
146.4527132306
 11
202.7809959651
 21
146.5261194174
  0
LINE
  5
3A6
100
AcDbEntity
  8
BEZUGSACHSEN
100
AcDbLine
 62
7
  6
CONTINUOUS
 10
202.9843435678
 20
144.528705224
 11
202.9927777978
 21
144.5833854088
  0
LINE
  5
3A7
100
AcDbEntity
  8
BEZUGSACHSEN
100
AcDbLine
 62
7
  6
CONTINUOUS
 10
202.2888321688
 20
144.4354621429
 11
202.57443252
 21
143.9332041912
  0
LINE
  5
3A8
100
AcDbEntity
  8
BEZUGSACHSEN
100
AcDbLine
 62
7
  6
CONTINUOUS
 10
202.2203194451
 20
144.9088757336
 11
202.0887085646
 21
145.4758754995
  0
LINE
  5
3A9
100
AcDbEntity
  8
BEZUGSACHSEN
100
AcDbLine
 62
7
  6
CONTINUOUS
 10
202.0887085646
 20
145.4758754995
 11
201.9917751777
 21
145.8061683615
  0
LINE
  5
3AA
100
AcDbEntity
  8
BEZUGSACHSEN
100
AcDbLine
 62
7
  6
CONTINUOUS
 10
201.8647342027
 20
146.1452718288
 11
201.9917751777
 21
145.8061683615
  0
LINE
  5
3AB
100
AcDbEntity
  8
BEZUGSACHSEN
100
AcDbLine
 62
7
  6
CONTINUOUS
 10
201.7710416444
 20
146.3236338115
 11
201.8647342027
 21
146.1452718288
  0
LINE
  5
3AC
100
AcDbEntity
  8
BEZUGSACHSEN
100
AcDbLine
 62
7
  6
CONTINUOUS
 10
202.503823539
 20
145.7029340481
 11
202.014233127
 21
147.2342354676
  0
LINE
  5
3AD
100
AcDbEntity
  8
BEZUGSACHSEN
100
AcDbLine
 62
7
  6
CONTINUOUS
 10
202.014233127
 20
147.2342354676
 11
202.0108285913
 21
147.2448835503
  0
LINE
  5
3AE
100
AcDbEntity
  8
BEZUGSACHSEN
100
AcDbLine
 62
7
  6
CONTINUOUS
 10
202.0108285913
 20
147.2448835503
 11
201.6278588455
 21
148.4426385722
  0
LINE
  5
3AF
100
AcDbEntity
  8
BEZUGSACHSEN
100
AcDbLine
 62
7
  6
CONTINUOUS
 10
201.6278588455
 20
148.4426385722
 11
201.5176081714
 21
148.7874429601
  0
LINE
  5
3B0
100
AcDbEntity
  8
BEZUGSACHSEN
100
AcDbLine
 62
7
  6
CONTINUOUS
 10
202.503823539
 20
145.7029340481
 11
202.6318854062
 21
145.3685878168
  0
LINE
  5
3B1
100
AcDbEntity
  8
BEZUGSACHSEN
100
AcDbLine
 62
7
  6
CONTINUOUS
 10
202.6318854062
 20
145.3685878168
 11
202.7287168172
 21
145.1973974529
  0
LINE
  5
3B2
100
AcDbEntity
  8
BEZUGSACHSEN
100
AcDbLine
 62
7
  6
CONTINUOUS
 10
202.7287168172
 20
145.1973974529
 11
202.7937819216
 21
145.1893621579
  0
LINE
  5
3B3
100
AcDbEntity
  8
BEZUGSACHSEN
100
AcDbLine
 62
7
  6
CONTINUOUS
 10
203.0227062672
 20
140.7384114845
 11
202.3547363039
 21
142.5187036784
  0
LINE
  5
3B4
100
AcDbEntity
  8
BEZUGSACHSEN
100
AcDbLine
 62
7
  6
CONTINUOUS
 10
202.163873757
 20
143.0273585231
 11
201.6866944911
 21
144.2989958723
  0
LINE
  5
3B5
100
AcDbEntity
  8
BEZUGSACHSEN
100
AcDbLine
 62
7
  6
CONTINUOUS
 10
201.6866944911
 20
144.2989958723
 11
201.6883147375
 21
144.4701532772
  0
LINE
  5
3B6
100
AcDbEntity
  8
BEZUGSACHSEN
100
AcDbLine
 62
7
  6
CONTINUOUS
 10
201.5055672573
 20
150.6970961879
 11
201.616963054
 21
150.3482029491
  0
LINE
  5
3B7
100
AcDbEntity
  8
BEZUGSACHSEN
100
AcDbLine
 62
7
  6
CONTINUOUS
 10
201.616963054
 20
150.3482029491
 11
202.4901786811
 21
147.6125872758
  0
SPLINE
  5
3B8
100
AcDbEntity
  8
0
100
AcDbSpline
 62
7
  6
CONTINUOUS
 70
0
 71
3
 72
11
 73
7
 74
0
 42
0.0000001
 43
0.0000001
 44
0.0000000001
 40
0.0
 40
0.0
 40
0.0
 40
0.0
 40
0.2517733154
 40
0.5000000002
 40
0.7482266851
 40
1.0
 40
1.0
 40
1.0
 40
1.0
 10
191.0904273815
 20
163.0264880027
 30
0.0
 10
190.9359997577
 20
162.4071126333
 30
0.0
 10
190.6937653869
 20
161.1594202471
 30
0.0
 10
190.5673158038
 20
159.261273953
 30
0.0
 10
190.6937653833
 20
157.3631276596
 30
0.0
 10
190.935999758
 20
156.1154352751
 30
0.0
 10
191.0904273815
 20
155.496059907
 30
0.0
  0
SPLINE
  5
3B9
100
AcDbEntity
  8
0
100
AcDbSpline
 62
7
  6
CONTINUOUS
 70
0
 71
3
 72
11
 73
7
 74
0
 42
0.0000001
 43
0.0000001
 44
0.0000000001
 40
0.0
 40
0.0
 40
0.0
 40
0.0
 40
0.2501013609
 40
0.5000000002
 40
0.7498986396
 40
1.0
 40
1.0
 40
1.0
 40
1.0
 10
191.0904273815
 20
155.496059907
 30
0.0
 10
190.9343767536
 20
153.8574720097
 30
0.0
 10
190.6923950493
 20
150.5743755367
 30
0.0
 10
190.5677181361
 20
145.6386015496
 30
0.0
 10
190.6923950456
 20
140.7028275659
 30
0.0
 10
190.934376754
 20
137.4197310961
 30
0.0
 10
191.0904273815
 20
135.7811432025
 30
0.0
  0
SPLINE
  5
3BA
100
AcDbEntity
  8
0
100
AcDbSpline
 62
7
  6
CONTINUOUS
 70
0
 71
3
 72
9
 73
5
 74
0
 42
0.0000001
 43
0.0000001
 44
0.0000000001
 40
0.0
 40
0.0
 40
0.0
 40
0.0
 40
0.5000031771
 40
1.0
 40
1.0
 40
1.0
 40
1.0
 10
191.0904273815
 20
135.7811432025
 30
0.0
 10
190.8668049658
 20
132.8787121458
 30
0.0
 10
190.5645745513
 20
127.0613202671
 30
0.0
 10
190.6002016309
 20
121.2356183362
 30
0.0
 10
190.7011517105
 20
118.3263732924
 30
0.0
  0
SPLINE
  5
3BB
100
AcDbEntity
  8
0
100
AcDbSpline
 62
7
  6
CONTINUOUS
 70
0
 71
3
 72
11
 73
7
 74
0
 42
0.0000001
 43
0.0000001
 44
0.0000000001
 40
0.0
 40
0.0
 40
0.0
 40
0.0
 40
0.2517733154
 40
0.5000000002
 40
0.7482266851
 40
1.0
 40
1.0
 40
1.0
 40
1.0
 10
199.4576044224
 20
163.0264880027
 30
0.0
 10
199.6120320463
 20
162.4071126333
 30
0.0
 10
199.854266417
 20
161.1594202471
 30
0.0
 10
199.9807160002
 20
159.261273953
 30
0.0
 10
199.8542664207
 20
157.3631276596
 30
0.0
 10
199.612032046
 20
156.1154352751
 30
0.0
 10
199.4576044224
 20
155.496059907
 30
0.0
  0
LINE
  5
3BC
100
AcDbEntity
  8
BEZUGSACHSEN
100
AcDbLine
 62
7
  6
CONTINUOUS
 10
202.78149694
 20
148.6531395636
 11
202.7148634158
 21
149.0241812241
  0
LINE
  5
3BD
100
AcDbEntity
  8
BEZUGSACHSEN
100
AcDbLine
 62
7
  6
CONTINUOUS
 10
202.7148634158
 20
149.0241812241
 11
202.6170485647
 21
149.4576613896
  0
LINE
  5
3BE
100
AcDbEntity
  8
BEZUGSACHSEN
100
AcDbLine
 62
7
  6
CONTINUOUS
 10
202.6170485647
 20
149.4576613896
 11
202.488576617
 21
149.953579575
  0
LINE
  5
3BF
100
AcDbEntity
  8
BEZUGSACHSEN
100
AcDbLine
 62
7
  6
CONTINUOUS
 10
202.0117901617
 20
151.6286500375
 11
202.3701525812
 21
150.3696599716
  0
LINE
  5
3C0
100
AcDbEntity
  8
BEZUGSACHSEN
100
AcDbLine
 62
7
  6
CONTINUOUS
 10
202.3701525812
 20
150.3696599716
 11
202.4100725558
 21
150.2294040716
  0
LINE
  5
3C1
100
AcDbEntity
  8
BEZUGSACHSEN
100
AcDbLine
 62
7
  6
CONTINUOUS
 10
202.4100725558
 20
150.2294040716
 11
202.488576617
 21
149.953579575
  0
LINE
  5
3C2
100
AcDbEntity
  8
BEZUGSACHSEN
100
AcDbLine
 62
7
  6
CONTINUOUS
 10
201.8858547141
 20
152.026102682
 11
201.9489893332
 21
151.8268988641
  0
LINE
  5
3C3
100
AcDbEntity
  8
BEZUGSACHSEN
100
AcDbLine
 62
7
  6
CONTINUOUS
 10
201.9489893332
 20
151.8268988641
 11
202.0117901617
 21
151.6286500375
  0
LINE
  5
3C4
100
AcDbEntity
  8
BEZUGSACHSEN
100
AcDbLine
 62
7
  6
CONTINUOUS
 10
201.7926454079
 20
152.2626509516
 11
201.8160901235
 21
152.2032410585
  0
LINE
  5
3C5
100
AcDbEntity
  8
BEZUGSACHSEN
100
AcDbLine
 62
7
  6
CONTINUOUS
 10
201.8160901235
 20
152.2032410585
 11
201.839439905
 21
152.1440130482
  0
LINE
  5
3C6
100
AcDbEntity
  8
BEZUGSACHSEN
100
AcDbLine
 62
7
  6
CONTINUOUS
 10
201.839439905
 20
152.1440130482
 11
201.8858547141
 21
152.026102682
  0
LINE
  5
3C7
100
AcDbEntity
  8
BEZUGSACHSEN
100
AcDbLine
 62
7
  6
CONTINUOUS
 10
201.7775143997
 20
152.2815144858
 11
201.7926454079
 21
152.2626509516
  0
LINE
  5
3C8
100
AcDbEntity
  8
0
100
AcDbLine
 62
7
  6
CONTINUOUS
 10
190.167067771
 20
82.43310672
 11
188.3044580572
 21
80.504743891
  0
LINE
  5
3C9
100
AcDbEntity
  8
RUNDUNGEN
100
AcDbLine
 62
7
  6
CONTINUOUS
 10
200.380964033
 20
82.43310672
 11
202.2435737468
 21
80.504743891
  0
LINE
  5
3CA
100
AcDbEntity
  8
KONSTRUKTIONSELEMENTE
100
AcDbLine
 62
7
  6
CONTINUOUS
 10
200.9704990738
 20
151.7414716165
 11
201.2675986916
 21
150.6970964638
  0
LINE
  5
3CB
100
AcDbEntity
  8
BEZUGSACHSEN
100
AcDbLine
 62
7
  6
CONTINUOUS
 10
202.9930484448
 20
146.4929173652
 11
202.9684451727
 21
146.5794310971
  0
LINE
  5
3CC
100
AcDbEntity
  8
BEZUGSACHSEN
100
AcDbLine
 62
7
  6
CONTINUOUS
 10
202.9684451727
 20
146.5794310971
 11
202.8204742398
 21
147.0997202775
  0
LINE
  5
3CD
100
AcDbEntity
  8
BEZUGSACHSEN
100
AcDbLine
 62
7
  6
CONTINUOUS
 10
202.8204742398
 20
147.0997202775
 11
202.75060415
 21
147.3453780992
  0
LINE
  5
3CE
100
AcDbEntity
  8
BEZUGSACHSEN
100
AcDbLine
 62
7
  6
CONTINUOUS
 10
202.75060415
 20
147.3453780992
 11
202.7253830305
 21
147.4340510933
  0
LINE
  5
3CF
100
AcDbEntity
  8
BEZUGSACHSEN
100
AcDbLine
 62
7
  6
CONTINUOUS
 10
202.7253830305
 20
147.4340510933
 11
202.6607969308
 21
147.661118463
  0
LINE
  5
3D0
100
AcDbEntity
  8
BEZUGSACHSEN
100
AcDbLine
 62
7
  6
CONTINUOUS
 10
202.6607969308
 20
147.661118463
 11
201.6132965986
 21
151.3428238078
  0
LINE
  5
3D1
100
AcDbEntity
  8
BEZUGSACHSEN
100
AcDbLine
 62
7
  6
CONTINUOUS
 10
201.6132965986
 20
151.3428238078
 11
201.4998471896
 21
151.7414716165
  0
LINE
  5
3D2
100
AcDbEntity
  8
KONSTRUKTIONSELEMENTE
100
AcDbLine
 62
7
  6
CONTINUOUS
 10
202.380801385
 20
144.4730852463
 11
202.3153522337
 21
144.5443773107
  0
LINE
  5
3D3
100
AcDbEntity
  8
KONSTRUKTIONSELEMENTE
100
AcDbLine
 62
7
  6
CONTINUOUS
 10
202.3153522337
 20
144.5443773107
 11
202.282230892
 21
144.5803221526
  0
LINE
  5
3D4
100
AcDbEntity
  8
KONSTRUKTIONSELEMENTE
100
AcDbLine
 62
7
  6
CONTINUOUS
 10
202.282230892
 20
144.5803221526
 11
202.2653671583
 21
144.5985898912
  0
LINE
  5
3D5
100
AcDbEntity
  8
BEZUGSACHSEN
100
AcDbLine
 62
7
  6
CONTINUOUS
 10
202.7879971828
 20
143.0468310881
 11
203.0176262471
 21
142.6375492134
  0
LINE
  5
3D6
100
AcDbEntity
  8
KONSTRUKTIONSELEMENTE
100
AcDbLine
 62
7
  6
CONTINUOUS
 10
202.4751266458
 20
142.6375492134
 11
202.3577683443
 21
142.8462411899
  0
LINE
  5
3D7
100
AcDbEntity
  8
BEZUGSACHSEN
100
AcDbLine
 62
7
  6
CONTINUOUS
 10
202.6574416143
 20
144.8871570794
 11
202.7870688873
 21
144.6164661896
  0
LINE
  5
3D8
100
AcDbEntity
  8
BEZUGSACHSEN
100
AcDbLine
 62
7
  6
CONTINUOUS
 10
202.4971802791
 20
145.3210032204
 11
202.6574416143
 21
144.8871570794
  0
LINE
  5
3D9
100
AcDbEntity
  8
KONSTRUKTIONSELEMENTE
100
AcDbLine
 62
7
  6
CONTINUOUS
 10
200.9734313113
 20
148.4055121324
 11
201.6028021142
 21
146.4348412215
  0
LINE
  5
3DA
100
AcDbEntity
  8
BEZUGSACHSEN
100
AcDbLine
 62
7
  6
CONTINUOUS
 10
202.4971802791
 20
145.3210032204
 11
202.3870912878
 21
145.6656448209
  0
LINE
  5
3DB
100
AcDbEntity
  8
BEZUGSACHSEN
100
AcDbLine
 62
7
  6
CONTINUOUS
 10
202.3870912878
 20
145.6656448209
 11
201.5117464361
 21
148.4055121324
  0
SPLINE
  5
3DC
100
AcDbEntity
  8
0
100
AcDbSpline
 62
7
  6
CONTINUOUS
 70
0
 71
3
 72
9
 73
5
 74
0
 42
0.0000001
 43
0.0000001
 44
0.0000000001
 40
0.0
 40
0.0
 40
0.0
 40
0.0
 40
0.5000031771
 40
1.0
 40
1.0
 40
1.0
 40
1.0
 10
199.4576044224
 20
135.7811432025
 30
0.0
 10
199.6812268382
 20
132.8787121458
 30
0.0
 10
199.9834572526
 20
127.0613202671
 30
0.0
 10
199.947830173
 20
121.2356183362
 30
0.0
 10
199.8468800935
 20
118.3263732924
 30
0.0
  0
SPLINE
  5
3DD
100
AcDbEntity
  8
0
100
AcDbSpline
 62
7
  6
CONTINUOUS
 70
0
 71
3
 72
11
 73
7
 74
0
 42
0.0000001
 43
0.0000001
 44
0.0000000001
 40
0.0
 40
0.0
 40
0.0
 40
0.0
 40
0.2501013609
 40
0.5000000002
 40
0.7498986396
 40
1.0
 40
1.0
 40
1.0
 40
1.0
 10
199.4576044224
 20
155.496059907
 30
0.0
 10
199.6136550504
 20
153.8574720097
 30
0.0
 10
199.8556367546
 20
150.5743755367
 30
0.0
 10
199.9803136678
 20
145.6386015496
 30
0.0
 10
199.8556367584
 20
140.7028275659
 30
0.0
 10
199.61365505
 20
137.4197310961
 30
0.0
 10
199.4576044224
 20
135.7811432025
 30
0.0
  0
LINE
  5
3DE
100
AcDbEntity
  8
BEZUGSACHSEN
100
AcDbLine
 62
7
  6
CONTINUOUS
 10
203.0152449539
 20
140.2826184122
 11
202.8663794483
 21
140.6798200046
  0
LINE
  5
3DF
100
AcDbEntity
  8
BEZUGSACHSEN
100
AcDbLine
 62
7
  6
CONTINUOUS
 10
202.8663794483
 20
140.6798200046
 11
202.1989556677
 21
142.4602988249
  0
LINE
  5
3E0
100
AcDbEntity
  8
BEZUGSACHSEN
100
AcDbLine
 62
7
  6
CONTINUOUS
 10
202.1989556677
 20
142.4602988249
 11
202.0290691969
 21
142.9134265121
  0
LINE
  5
3E1
100
AcDbEntity
  8
BEZUGSACHSEN
100
AcDbLine
 62
7
  6
CONTINUOUS
 10
202.0290691969
 20
142.9134265121
 11
202.008232423
 21
142.9690012516
  0
LINE
  5
3E2
100
AcDbEntity
  8
BEZUGSACHSEN
100
AcDbLine
 62
7
  6
CONTINUOUS
 10
202.008232423
 20
142.9690012516
 11
201.5313721165
 21
144.2407532002
  0
LINE
  5
3E3
100
AcDbEntity
  8
BEZUGSACHSEN
100
AcDbLine
 62
7
  6
CONTINUOUS
 10
201.5313721165
 20
144.2407532002
 11
201.521499098
 21
144.2670818372
  0
SPLINE
  5
3E4
100
AcDbEntity
  8
KONSTRUKTIONSELEMENTE
100
AcDbSpline
 62
7
  6
CONTINUOUS
 70
0
 71
3
 72
8
 73
4
 74
0
 42
0.0000001
 43
0.0000001
 44
0.0000000001
 40
0.0
 40
0.0
 40
0.0
 40
0.0
 40
1.0
 40
1.0
 40
1.0
 40
1.0
 10
200.9720036444
 20
144.2670818372
 30
0.0
 10
201.4698012714
 20
142.9389875264
 30
0.0
 10
201.9674735086
 20
141.6108461955
 30
0.0
 10
202.4649148938
 20
140.2826184122
 30
0.0
  0
LINE
  5
3E5
100
AcDbEntity
  8
BEZUGSACHSEN
100
AcDbLine
 62
7
  6
CONTINUOUS
 10
202.8182652941
 20
145.3057003973
 11
202.8262462313
 21
145.3444820715
  0
LINE
  5
3E6
100
AcDbEntity
  8
BEZUGSACHSEN
100
AcDbLine
 62
7
  6
CONTINUOUS
 10
201.7173389367
 20
145.8854612575
 11
201.7789500771
 21
145.8678407392
  0
LINE
  5
3E7
100
AcDbEntity
  8
BEZUGSACHSEN
100
AcDbLine
 62
7
  6
CONTINUOUS
 10
201.7789500771
 20
145.8678407392
 11
201.8109264083
 21
145.8073601214
  0
LINE
  5
3E8
100
AcDbEntity
  8
BEZUGSACHSEN
100
AcDbLine
 62
7
  6
CONTINUOUS
 10
201.8109264083
 20
145.8073601214
 11
201.8261929634
 21
145.778476435
  0
LINE
  5
3E9
100
AcDbEntity
  8
BEZUGSACHSEN
100
AcDbLine
 62
7
  6
CONTINUOUS
 10
201.8261929634
 20
145.778476435
 11
201.8732150154
 21
145.6894787565
  0
LINE
  5
3EA
100
AcDbEntity
  8
BEZUGSACHSEN
100
AcDbLine
 62
7
  6
CONTINUOUS
 10
201.8732150154
 20
145.6894787565
 11
201.9685985479
 21
145.4351510966
  0
LINE
  5
3EB
100
AcDbEntity
  8
BEZUGSACHSEN
100
AcDbLine
 62
7
  6
CONTINUOUS
 10
202.0651413756
 20
145.1048582347
 11
201.9685985479
 21
145.4351510966
  0
LINE
  5
3EC
100
AcDbEntity
  8
BEZUGSACHSEN
100
AcDbLine
 62
7
  6
CONTINUOUS
 10
202.1308321222
 20
144.7833755232
 11
202.0651413756
 21
145.1048582347
  0
LINE
  5
3ED
100
AcDbEntity
  8
BEZUGSACHSEN
100
AcDbLine
 62
7
  6
CONTINUOUS
 10
201.5134853293
 20
150.3151655423
 11
202.3875919229
 21
147.5798082969
  0
LINE
  5
3EE
100
AcDbEntity
  8
BEZUGSACHSEN
100
AcDbLine
 62
7
  6
CONTINUOUS
 10
202.3875919229
 20
147.5798082969
 11
202.4991508748
 21
147.2306566303
  0
LINE
  5
3EF
100
AcDbEntity
  8
KONSTRUKTIONSELEMENTE
100
AcDbLine
 62
7
  6
CONTINUOUS
 10
201.4687350928
 20
148.7874429926
 11
200.9803802249
 21
150.3151655423
  0
LINE
  5
3F0
100
AcDbEntity
  8
BEZUGSACHSEN
100
AcDbLine
 62
7
  6
CONTINUOUS
 10
202.6275265397
 20
146.7690003053
 11
202.5313458954
 21
147.1148959808
  0
LINE
  5
3F1
100
AcDbEntity
  8
BEZUGSACHSEN
100
AcDbLine
 62
7
  6
CONTINUOUS
 10
202.5313458954
 20
147.1148959808
 11
202.4991508748
 21
147.2306566303
  0
LINE
  5
3F2
100
AcDbEntity
  8
BEZUGSACHSEN
100
AcDbLine
 62
7
  6
CONTINUOUS
 10
202.7251021029
 20
146.3431893895
 11
202.6275265397
 21
146.7690003053
  0
LINE
  5
3F3
100
AcDbEntity
  8
BEZUGSACHSEN
100
AcDbLine
 62
7
  6
CONTINUOUS
 10
202.7913498339
 20
145.9532234491
 11
202.7251021029
 21
146.3431893895
  0
ELLIPSE
  5
3F4
100
AcDbEntity
  8
KONSTRUKTIONSELEMENTE
100
AcDbEllipse
 62
7
  6
CONTINUOUS
 10
85.7862356621
 20
12.5998919915
 30
0.0
 11
-0.0
 21
77.9422863406
 31
0.0
 40
0.5773502692
 41
-0.346223333
 42
-0.1584398369
  0
ELLIPSE
  5
3F5
100
AcDbEntity
  8
KONSTRUKTIONSELEMENTE
100
AcDbEllipse
 62
7
  6
CONTINUOUS
 10
85.7862356621
 20
12.5998919915
 30
0.0
 11
-0.0
 21
77.9422863406
 31
0.0
 40
0.5773502692
 41
0.1584398369
 42
0.346223333
  0
ELLIPSE
  5
3F6
100
AcDbEntity
  8
0
100
AcDbEllipse
 62
7
  6
CONTINUOUS
 10
187.8492320965
 20
93.6237416791
 30
0.0
 11
-0.7556199617
 21
21.3458453383
 31
0.0
 40
0.1404528969
 41
-2.0714148455
 42
-1.8176885507
  0
ELLIPSE
  5
3F7
100
AcDbEntity
  8
0
100
AcDbEllipse
 62
7
  6
CONTINUOUS
 10
188.1425083675
 20
85.1719153715
 30
0.0
 11
-0.4144865791
 21
3.5584203432
 31
0.0
 40
0.8362247574
 41
-2.5405585317
 42
-2.1635405839
  0
ELLIPSE
  5
3F8
100
AcDbEntity
  8
RUNDUNGEN
100
AcDbEllipse
 62
7
  6
CONTINUOUS
 10
202.4055234365
 20
85.1719153715
 30
0.0
 11
0.4144865791
 21
3.5584203432
 31
0.0
 40
0.8362247574
 41
-4.1196447232
 42
-3.7426267755
  0
ELLIPSE
  5
3F9
100
AcDbEntity
  8
RUNDUNGEN
100
AcDbEllipse
 62
7
  6
CONTINUOUS
 10
202.6987997075
 20
93.6237416791
 30
0.0
 11
0.7556199617
 21
21.3458453383
 31
0.0
 40
0.1404528969
 41
-4.4654967564
 42
-4.2117704617
  0
ENDSEC
  0
SECTION
  2
OBJECTS
  0
DICTIONARY
  5
C
100
AcDbDictionary
280
0
281
1
  3
ACAD_GROUP
350
D
  3
ACAD_MLINESTYLE
350
17
  3
ACAD_LAYOUT
350
1A
  3
ACAD_PLOTSETTINGS
350
19
  3
ACAD_PLOTSTYLENAME
350
E
  0
DICTIONARY
  5
D
102
{ACAD_REACTORS
330
C
102
}
100
AcDbDictionary
280
0
281
1
  0
ACDBDICTIONARYWDFLT
  5
E
102
{ACAD_REACTORS
330
C
102
}
100
AcDbDictionary
281
1
  3
Normal
350
F
100
AcDbDictionaryWithDefault
340
F
  0
DICTIONARY
  5
17
102
{ACAD_REACTORS
330
C
102
}
100
AcDbDictionary
280
0
281
1
  3
Standard
350
18
  0
DICTIONARY
  5
19
102
{ACAD_REACTORS
330
C
102
}
100
AcDbDictionary
281
1
  0
DICTIONARY
  5
1A
102
{ACAD_REACTORS
330
C
102
}
100
AcDbDictionary
281
1
  3
Model
350
3FA
  3
Layout1
350
3FB
  0
ACDBPLACEHOLDER
  5
F
102
{ACAD_REACTORS
330
E
102
}
  0
MLINESTYLE
  5
18
102
{ACAD_REACTORS
330
17
102
}
100
AcDbMlineStyle
  2
STANDARD
 70
0
  3

 62
256
 51
90.0
 52
90.0
 71
2
 49
0.5
 62
256
  6
BYLAYER
 49
-0.5
 62
256
  6
BYLAYER
  0
LAYOUT
  5
3FA
102
{ACAD_REACTORS
330
1A
102
}
100
AcDbPlotSettings
  1

  2
none_device
  4
ISO_A4_(297.00_x_210.00_MM)
  6

 40
0.0
 41
0.0
 42
0.0
 43
0.0
 44
297.0
 45
210.0
 46
0.0
 47
0.0
 48
0.0
 49
0.0
140
0.0
141
0.0
142
1.0
143
1.0
 70
1024
 72
1
 73
0
 74
0
  7

 75
0
147
1.0
148
0.0
149
0.0
100
AcDbLayout
  1
Model
 70
0
 71
0
 10
0.0
 20
0.0
 11
297.0
 21
210.0
 12
0.0
 22
0.0
 32
0.0
 14
0.0
 24
0.0
 34
0.0
 15
0.0
 25
0.0
 35
0.0
146
0.0
 13
0.0
 23
0.0
 33
0.0
 16
1.0
 26
0.0
 36
0.0
 17
0.0
 27
1.0
 37
0.0
 76
0
330
208
345
0
346
0
  0
LAYOUT
  5
3FB
102
{ACAD_REACTORS
330
1A
102
}
100
AcDbPlotSettings
  1

  2
none_device
  4
ISO_A4_(297.00_x_210.00_MM)
  6

 40
0.0
 41
0.0
 42
0.0
 43
0.0
 44
297.0
 45
210.0
 46
0.0
 47
0.0
 48
0.0
 49
0.0
140
0.0
141
0.0
142
1.0
143
1.0
 70
0
 72
1
 73
0
 74
0
  7

 75
0
147
1.0
148
0.0
149
0.0
100
AcDbLayout
  1
Layout1
 70
0
 71
1
 10
0.0
 20
0.0
 11
297.0
 21
210.0
 12
0.0
 22
0.0
 32
0.0
 14
0.0
 24
0.0
 34
0.0
 15
0.0
 25
0.0
 35
0.0
146
0.0
 13
0.0
 23
0.0
 33
0.0
 16
1.0
 26
0.0
 36
0.0
 17
0.0
 27
1.0
 37
0.0
 76
0
330
209
345
0
346
0
  0
ENDSEC
  0
EOF
