999
DXF file: VRG-10_7100471_M31127-P-3.dxf
999
Pro/ENGINEER 2010140 by Parametric Technology Corporation
  0
SECTION
  2
HEADER
  9
$ACADVER
  1
AC1015
  9
$DWGCODEPAGE
  3
ANSI_1252
  9
$EXTMAX
 10
297.0
 20
210.0
 30
0.0
  9
$EXTMIN
 10
0.0
 20
0.0
 30
0.0
  9
$LIMMIN
 10
0.0
 20
0.0
  9
$LIMMAX
 10
297.0
 20
210.0
  9
$VIEWCTR
 10
148.5
 20
105.0
  9
$VIEWSIZE
 40
210.0
  9
$CLAYER
  8
0
  9
$LTSCALE
 40
16.335
  9
$CELTYPE
  6
BYLAYER
  9
$DIMSCALE
 40
1.0
  9
$DIMASZ
 40
3.5
  9
$DIMEXO
 40
1.85625
  9
$DIMDLI
 40
11.286
  9
$DIMEXE
 40
5.346
  9
$DIMCEN
 40
2.673
  9
$DIMLFAC
 40
1.0
  9
$DIMBLK
  1
_FILLED
  9
$DIMTXT
 40
3.5
  9
$DIMTOL
 70
1
  9
$DIMLIM
 70
0
  9
$DIMTFAC
 40
1.0
  9
$DIMTP
 40
0.005
  9
$DIMTM
 40
0.005
  9
$PDMODE
 70
3
  9
$PDSIZE
 40
0.3125
  9
$HANDSEED
  5
3F0
  9
$TILEMODE
 70
1
  9
$MEASUREMENT
 70
1
  9
$INSUNITS
 70
4
  0
ENDSEC
  0
SECTION
  2
CLASSES
  0
CLASS
  1
ACDBDICTIONARYWDFLT
  2
AcDbDictionaryWithDefault
  3
AutoCAD 2000
 90
0
280
0
281
0
  0
CLASS
  1
ACDBPLACEHOLDER
  2
AcDbPlaceHolder
  3
AutoCAD 2000
 90
0
280
0
281
0
  0
CLASS
  1
LAYOUT
  2
AcDbLayout
  3
AutoCAD 2000
 90
0
280
0
281
0
  0
ENDSEC
  0
SECTION
  2
TABLES
  0
TABLE
  2
VPORT
  5
8
100
AcDbSymbolTable
 70
2
  0
VPORT
  5
1F4
100
AcDbSymbolTableRecord
100
AcDbViewportTableRecord
  2
*ACTIVE
 70
0
 10
0.0
 20
0.0
 11
1.0
 21
1.0
 12
148.5
 22
105.0
 13
0.0
 23
0.0
 14
1.0
 24
1.0
 15
0.0
 25
0.0
 16
0.0
 26
0.0
 36
1.0
 17
0.0
 27
0.0
 37
0.0
 40
210.0
 41
1.4142857143
 42
50.0
 43
0.0
 44
0.0
 50
0.0
 51
0.0
 71
0
 72
100
 73
1
 74
1
 75
0
 76
0
 77
0
 78
0
  0
ENDTAB
  0
TABLE
  2
LTYPE
  5
5
100
AcDbSymbolTable
 70
6
  0
LTYPE
  5
14
100
AcDbSymbolTableRecord
100
AcDbLinetypeTableRecord
  2
BYBLOCK
 70
0
  3

 72
65
 73
0
 40
0.0
  0
LTYPE
  5
15
100
AcDbSymbolTableRecord
100
AcDbLinetypeTableRecord
  2
BYLAYER
 70
0
  3

 72
65
 73
0
 40
0.0
  0
LTYPE
  5
16
100
AcDbSymbolTableRecord
100
AcDbLinetypeTableRecord
  2
CONTINUOUS
 70
64
  3
Solid line
 72
65
 73
0
 40
0.0
  0
LTYPE
  5
1F5
100
AcDbSymbolTableRecord
100
AcDbLinetypeTableRecord
  2
CENTER
 70
64
  3
____ _ ____ _ ____ _ ____ _ ____ _ ____ _ ____
 72
65
 73
4
 40
0.6
 49
0.375
 74
0
 49
-0.075
 74
0
 49
0.075
 74
0
 49
-0.075
 74
0
  0
LTYPE
  5
1F6
100
AcDbSymbolTableRecord
100
AcDbLinetypeTableRecord
  2
HIDDEN
 70
64
  3
- - - - - - - - - - - - - - - - - - - -
 72
65
 73
2
 40
0.2
 49
0.1
 74
0
 49
-0.1
 74
0
  0
LTYPE
  5
1F7
100
AcDbSymbolTableRecord
100
AcDbLinetypeTableRecord
  2
PHANTOM
 70
64
  3
_____ _ _ _____ _ _ _____ _ _ _____
 72
65
 73
6
 40
0.8
 49
0.45
 74
0
 49
-0.05
 74
0
 49
0.1
 74
0
 49
-0.05
 74
0
 49
0.1
 74
0
 49
-0.05
 74
0
  0
LTYPE
  5
1F8
100
AcDbSymbolTableRecord
100
AcDbLinetypeTableRecord
  2
DOT
 70
64
  3
. . . . . . . . . . . . . . . . . . . .
 72
65
 73
2
 40
0.2
 49
0.1
 74
0
 49
-0.1
 74
0
  0
LTYPE
  5
1F9
100
AcDbSymbolTableRecord
100
AcDbLinetypeTableRecord
  2
DASHED
 70
64
  3
- - - - - - - - - - - - - - - - - - - -
 72
65
 73
2
 40
0.2
 49
0.1
 74
0
 49
-0.1
 74
0
  0
ENDTAB
  0
TABLE
  2
LAYER
  5
2
100
AcDbSymbolTable
 70
36
  0
LAYER
  5
10
100
AcDbSymbolTableRecord
100
AcDbLayerTableRecord
  2
0
 70
0
 62
7
  6
CONTINUOUS
370
-3
390
F
  0
LAYER
  5
1FA
100
AcDbSymbolTableRecord
100
AcDbLayerTableRecord
  2
DEFAULT_1
 70
0
 62
7
  6
CENTER
370
-3
390
F
  0
LAYER
  5
1FB
100
AcDbSymbolTableRecord
100
AcDbLayerTableRecord
  2
DEFAULT_2
 70
0
 62
8
  6
HIDDEN
370
-3
390
F
  0
LAYER
  5
1FC
100
AcDbSymbolTableRecord
100
AcDbLayerTableRecord
  2
DEFAULT_3
 70
0
 62
7
  6
PHANTOM
370
-3
390
F
  0
LAYER
  5
1FD
100
AcDbSymbolTableRecord
100
AcDbLayerTableRecord
  2
AUSFORMSCHRAEGEN
 70
0
 62
7
  6
CONTINUOUS
370
-3
390
F
  0
LAYER
  5
1FE
100
AcDbSymbolTableRecord
100
AcDbLayerTableRecord
  2
BEZUGSACHSEN
 70
0
 62
7
  6
CONTINUOUS
370
-3
390
F
  0
LAYER
  5
1FF
100
AcDbSymbolTableRecord
100
AcDbLayerTableRecord
  2
BEZUGSEBENEN
 70
0
 62
7
  6
CONTINUOUS
370
-3
390
F
  0
LAYER
  5
200
100
AcDbSymbolTableRecord
100
AcDbLayerTableRecord
  2
FASEN
 70
0
 62
7
  6
CONTINUOUS
370
-3
390
F
  0
LAYER
  5
201
100
AcDbSymbolTableRecord
100
AcDbLayerTableRecord
  2
FLAECHEN
 70
0
 62
7
  6
CONTINUOUS
370
-3
390
F
  0
LAYER
  5
202
100
AcDbSymbolTableRecord
100
AcDbLayerTableRecord
  2
HILFEN
 70
0
 62
7
  6
CONTINUOUS
370
-3
390
F
  0
LAYER
  5
203
100
AcDbSymbolTableRecord
100
AcDbLayerTableRecord
  2
KONSTRUKTIONSELEMENTE
 70
0
 62
7
  6
CONTINUOUS
370
-3
390
F
  0
LAYER
  5
204
100
AcDbSymbolTableRecord
100
AcDbLayerTableRecord
  2
PLAZIERUNG
 70
0
 62
7
  6
CONTINUOUS
370
-3
390
F
  0
LAYER
  5
205
100
AcDbSymbolTableRecord
100
AcDbLayerTableRecord
  2
RUNDUNGEN
 70
0
 62
7
  6
CONTINUOUS
370
-3
390
F
  0
LAYER
  5
206
100
AcDbSymbolTableRecord
100
AcDbLayerTableRecord
  2
TEIL_STARTBEZUEGE
 70
0
 62
7
  6
CONTINUOUS
370
-3
390
F
  0
ENDTAB
  0
TABLE
  2
STYLE
  5
3
100
AcDbSymbolTable
 70
1
  0
STYLE
  5
11
100
AcDbSymbolTableRecord
100
AcDbTextStyleTableRecord
  2
STANDARD
 70
0
 40
0.0
 41
0.7
 50
0.0
 71
0
 42
0.2
  3
txt
  4

  0
STYLE
  5
207
100
AcDbSymbolTableRecord
100
AcDbTextStyleTableRecord
  2
TEXTSTYLE_1
 70
0
 40
0.0
 41
0.8
 50
0.0
 71
0
 42
0.2
  3
gdt
  4

  0
ENDTAB
  0
TABLE
  2
VIEW
  5
6
100
AcDbSymbolTable
 70
0
  0
ENDTAB
  0
TABLE
  2
UCS
  5
7
100
AcDbSymbolTable
 70
0
  0
ENDTAB
  0
TABLE
  2
APPID
  5
9
100
AcDbSymbolTable
 70
1
  0
APPID
  5
208
100
AcDbSymbolTableRecord
100
AcDbRegAppTableRecord
  2
ACAD
 70
0
  0
ENDTAB
  0
TABLE
  2
BLOCK_RECORD
  5
1
100
AcDbSymbolTable
 70
0
  0
BLOCK_RECORD
  5
209
100
AcDbSymbolTableRecord
100
AcDbBlockTableRecord
  2
*Model_Space
  0
BLOCK_RECORD
  5
20A
100
AcDbSymbolTableRecord
100
AcDbBlockTableRecord
  2
*Paper_Space
  0
ENDTAB
  0
TABLE
  2
DIMSTYLE
  5
A
100
AcDbSymbolTable
 70
1
100
AcDbDimStyleTable
 71
0
  0
DIMSTYLE
105
20B
100
AcDbSymbolTableRecord
100
AcDbDimStyleTableRecord
  2
STANDARD
 70
0
  3

  4

 40
1.0
 41
3.5
 42
0.0625
 43
0.38
 44
0.18
 45
0.0
 46
0.0
 47
0.005
 48
0.005
140
3.5
141
0.09
142
0.0
143
25.4
144
1.0
145
0.0
146
1.0
147
0.09
 71
1.0
 72
0.0
 73
0
 74
0
 75
0
 76
0
 77
1
 78
8
170
0
171
2
172
0
173
0
174
0
175
0
176
0
177
0
178
5
270
2
271
3
272
3
273
2
274
2
275
0
280
0
281
0
282
0
283
1
284
8
285
0
286
0
287
3
288
0
340
11
  0
ENDTAB
  0
ENDSEC
  0
SECTION
  2
BLOCKS
  0
BLOCK
  5
20
100
AcDbEntity
  8
0
100
AcDbBlockBegin
  2
*Model_Space
 70
0
 10
0.0
 20
0.0
 30
0.0
  3
*Model_Space
  1

  0
ENDBLK
  5
21
100
AcDbEntity
  8
0
100
AcDbBlockEnd
  0
BLOCK
  5
1C
100
AcDbEntity
  8
0
100
AcDbBlockBegin
  2
*Paper_Space
 70
0
 10
0.0
 20
0.0
 30
0.0
  3
*Paper_Space
  1

  0
ENDBLK
  5
1D
100
AcDbEntity
  8
0
100
AcDbBlockEnd
  0
ENDSEC
  0
SECTION
  2
ENTITIES
  0
MTEXT
  5
20C
100
AcDbEntity
  8
0
100
AcDbMText
 62
5
  6
CONTINUOUS
  7
STANDARD
 71
1
 72
1
 10
181.0990548694
 20
79.2837167144
 30
0.0
 11
0.0
 21
1.0
 31
0.0
 44
0.9
  1
RUD
 40
3.5
 41
9.3333333333
  0
MTEXT
  5
20D
100
AcDbEntity
  8
0
100
AcDbMText
 62
5
  6
CONTINUOUS
  7
STANDARD
 71
1
 72
1
 10
201.4516461281
 20
75.8057919599
 30
0.0
 11
0.0
 21
1.0
 31
0.0
 44
0.9
  1
VRG 10
 40
3.5
 41
16.5833333333
  0
LINE
  5
20E
100
AcDbEntity
  8
0
100
AcDbLine
 62
7
  6
CONTINUOUS
 10
0.0
 20
0.0
 11
0.0
 21
210.0
  0
LINE
  5
20F
100
AcDbEntity
  8
0
100
AcDbLine
 62
7
  6
CONTINUOUS
 10
0.0
 20
0.0
 11
297.0
 21
0.0
  0
LINE
  5
210
100
AcDbEntity
  8
0
100
AcDbLine
 62
7
  6
CONTINUOUS
 10
0.0
 20
210.0
 11
297.0
 21
210.0
  0
LINE
  5
211
100
AcDbEntity
  8
0
100
AcDbLine
 62
7
  6
CONTINUOUS
 10
297.0
 20
0.0
 11
297.0
 21
210.0
  0
LINE
  5
212
100
AcDbEntity
  8
KONSTRUKTIONSELEMENTE
100
AcDbLine
 62
7
  6
CONTINUOUS
 10
132.8267964697
 20
68.0799927669
 11
129.3061643094
 21
68.0799927669
  0
LINE
  5
213
100
AcDbEntity
  8
KONSTRUKTIONSELEMENTE
100
AcDbLine
 62
7
  6
CONTINUOUS
 10
100.7991537302
 20
68.0799927669
 11
97.27852157
 21
68.0799927669
  0
LINE
  5
214
100
AcDbEntity
  8
BEZUGSACHSEN
100
AcDbLine
 62
7
  6
CONTINUOUS
 10
95.7464326837
 20
68.7944175475
 11
90.9968121299
 21
74.454794906
  0
LINE
  5
215
100
AcDbEntity
  8
RUNDUNGEN
100
AcDbLine
 62
7
  6
CONTINUOUS
 10
90.9968121299
 20
74.454794906
 11
90.5205701336
 21
75.0223580161
  0
LINE
  5
216
100
AcDbEntity
  8
0
100
AcDbLine
 62
7
  6
CONTINUOUS
 10
115.0526590198
 20
152.110993938
 11
96.6661478545
 21
146.1368543154
  0
LINE
  5
217
100
AcDbEntity
  8
0
100
AcDbLine
 62
7
  6
CONTINUOUS
 10
96.6661478545
 20
146.1368543154
 11
85.3026590198
 21
130.4963537298
  0
LINE
  5
218
100
AcDbEntity
  8
KONSTRUKTIONSELEMENTE
100
AcDbLine
 62
7
  6
CONTINUOUS
 10
95.0127001637
 20
138.2340167098
 11
95.3613636195
 21
138.5923936525
  0
LINE
  5
219
100
AcDbEntity
  8
KONSTRUKTIONSELEMENTE
100
AcDbLine
 62
7
  6
CONTINUOUS
 10
96.7560167775
 20
140.0259007396
 11
97.104680067
 21
140.3842775114
  0
LINE
  5
21A
100
AcDbEntity
  8
KONSTRUKTIONSELEMENTE
100
AcDbLine
 62
7
  6
CONTINUOUS
 10
98.2814457718
 20
141.4152832297
 11
99.908224844
 21
142.5787220335
  0
LINE
  5
21B
100
AcDbEntity
  8
KONSTRUKTIONSELEMENTE
100
AcDbLine
 62
7
  6
CONTINUOUS
 10
99.0594507521
 20
141.1869581822
 11
100.2795350562
 21
142.0595372851
  0
LINE
  5
21C
100
AcDbEntity
  8
KONSTRUKTIONSELEMENTE
100
AcDbLine
 62
7
  6
CONTINUOUS
 10
99.908224844
 20
142.5787220335
 11
100.3090224446
 21
142.7345745111
  0
LINE
  5
21D
100
AcDbEntity
  8
KONSTRUKTIONSELEMENTE
100
AcDbLine
 62
7
  6
CONTINUOUS
 10
100.2795350562
 20
142.0595372851
 11
100.6125496784
 21
142.1669127761
  0
LINE
  5
21E
100
AcDbEntity
  8
0
100
AcDbLine
 62
7
  6
CONTINUOUS
 10
109.4526590198
 20
76.0299927669
 11
120.6526590198
 21
76.0299927669
  0
LINE
  5
21F
100
AcDbEntity
  8
KONSTRUKTIONSELEMENTE
100
AcDbLine
 62
7
  6
CONTINUOUS
 10
92.249673222
 20
134.42340232
 11
93.3744016398
 21
136.077181624
  0
LINE
  5
220
100
AcDbEntity
  8
KONSTRUKTIONSELEMENTE
100
AcDbLine
 62
7
  6
CONTINUOUS
 10
92.9706901953
 20
134.5377172833
 11
93.861100148
 21
135.8469591666
  0
LINE
  5
221
100
AcDbEntity
  8
KONSTRUKTIONSELEMENTE
100
AcDbLine
 62
7
  6
CONTINUOUS
 10
93.3744016398
 20
136.077181624
 11
93.6966870786
 21
136.3618930721
  0
LINE
  5
222
100
AcDbEntity
  8
KONSTRUKTIONSELEMENTE
100
AcDbLine
 62
7
  6
CONTINUOUS
 10
101.2254272937
 20
138.1583800591
 11
102.4455115979
 21
139.0309591619
  0
LINE
  5
223
100
AcDbEntity
  8
KONSTRUKTIONSELEMENTE
100
AcDbLine
 62
7
  6
CONTINUOUS
 10
93.861100148
 20
135.8469591666
 11
94.089658174
 21
135.993855607
  0
LINE
  5
224
100
AcDbEntity
  8
KONSTRUKTIONSELEMENTE
100
AcDbLine
 62
7
  6
CONTINUOUS
 10
98.7600419982
 20
135.9834232696
 11
99.0687343374
 21
136.1481572198
  0
LINE
  5
225
100
AcDbEntity
  8
0
100
AcDbLine
 62
7
  6
CONTINUOUS
 10
85.3026590198
 20
130.4963537298
 11
85.3026590198
 21
111.163631804
  0
LINE
  5
226
100
AcDbEntity
  8
KONSTRUKTIONSELEMENTE
100
AcDbLine
 62
7
  6
CONTINUOUS
 10
94.2901950483
 20
133.6403275277
 11
95.180605001
 21
134.949569411
  0
LINE
  5
227
100
AcDbEntity
  8
KONSTRUKTIONSELEMENTE
100
AcDbLine
 62
7
  6
CONTINUOUS
 10
94.8179968909
 20
133.2813716925
 11
95.6146794978
 21
134.4527986666
  0
LINE
  5
228
100
AcDbEntity
  8
KONSTRUKTIONSELEMENTE
100
AcDbLine
 62
7
  6
CONTINUOUS
 10
96.384121482
 20
131.6115812756
 11
96.6653035865
 21
132.0250261016
  0
LINE
  5
229
100
AcDbEntity
  8
KONSTRUKTIONSELEMENTE
100
AcDbLine
 62
7
  6
CONTINUOUS
 10
97.8368956436
 20
133.7477128109
 11
98.1649415215
 21
134.2300652394
  0
LINE
  5
22A
100
AcDbEntity
  8
KONSTRUKTIONSELEMENTE
100
AcDbLine
 62
7
  6
CONTINUOUS
 10
102.4455115979
 20
139.0309591619
 11
102.6547561493
 21
139.3113962357
  0
LINE
  5
22B
100
AcDbEntity
  8
KONSTRUKTIONSELEMENTE
100
AcDbLine
 62
7
  6
CONTINUOUS
 10
102.8168218535
 20
138.5117743529
 11
103.093849378
 21
138.840688421
  0
LINE
  5
22C
100
AcDbEntity
  8
KONSTRUKTIONSELEMENTE
100
AcDbLine
 62
7
  6
CONTINUOUS
 10
99.0687343374
 20
136.1481572198
 11
99.3011766413
 21
136.3870751816
  0
LINE
  5
22D
100
AcDbEntity
  8
KONSTRUKTIONSELEMENTE
100
AcDbLine
 62
7
  6
CONTINUOUS
 10
99.5262365982
 20
135.7030551492
 11
99.758678902
 21
135.941973111
  0
LINE
  5
22E
100
AcDbEntity
  8
KONSTRUKTIONSELEMENTE
100
AcDbLine
 62
7
  6
CONTINUOUS
 10
101.1900427813
 20
137.3483355491
 11
102.8168218535
 21
138.5117743529
  0
LINE
  5
22F
100
AcDbEntity
  8
KONSTRUKTIONSELEMENTE
100
AcDbLine
 62
7
  6
CONTINUOUS
 10
99.1594335932
 20
135.4785916296
 11
99.5262365982
 21
135.7030551492
  0
LINE
  5
230
100
AcDbEntity
  8
RUNDUNGEN
100
AcDbLine
 62
7
  6
CONTINUOUS
 10
89.9635461986
 20
92.4698343738
 11
85.3026590198
 21
111.163631804
  0
LINE
  5
231
100
AcDbEntity
  8
RUNDUNGEN
100
AcDbLine
 62
7
  6
CONTINUOUS
 10
90.0526590198
 20
76.3079332354
 11
90.0526590198
 21
103.8263028993
  0
LINE
  5
232
100
AcDbEntity
  8
KONSTRUKTIONSELEMENTE
100
AcDbLine
 62
7
  6
CONTINUOUS
 10
95.180605001
 20
134.949569411
 11
95.2332290794
 21
135.2161177965
  0
LINE
  5
233
100
AcDbEntity
  8
KONSTRUKTIONSELEMENTE
100
AcDbLine
 62
7
  6
CONTINUOUS
 10
99.3011766413
 20
136.3870751816
 11
99.4573685772
 21
136.7001768132
  0
LINE
  5
234
100
AcDbEntity
  8
KONSTRUKTIONSELEMENTE
100
AcDbLine
 62
7
  6
CONTINUOUS
 10
99.758678902
 20
135.941973111
 11
99.9729811578
 21
136.3148039832
  0
LINE
  5
235
100
AcDbEntity
  8
KONSTRUKTIONSELEMENTE
100
AcDbLine
 62
7
  6
CONTINUOUS
 10
127.2679019309
 20
142.0563498371
 11
127.515262116
 21
142.1652556785
  0
LINE
  5
236
100
AcDbEntity
  8
KONSTRUKTIONSELEMENTE
100
AcDbLine
 62
7
  6
CONTINUOUS
 10
103.093849378
 20
138.840688421
 11
103.2412088778
 21
139.2076563089
  0
LINE
  5
237
100
AcDbEntity
  8
KONSTRUKTIONSELEMENTE
100
AcDbLine
 62
7
  6
CONTINUOUS
 10
127.4845955126
 20
141.578320464
 11
127.9058472588
 21
141.835466986
  0
LINE
  5
238
100
AcDbEntity
  8
KONSTRUKTIONSELEMENTE
100
AcDbLine
 62
7
  6
CONTINUOUS
 10
129.9361787127
 20
141.2208245442
 11
130.2652635141
 21
141.366894161
  0
LINE
  5
239
100
AcDbEntity
  8
0
100
AcDbLine
 62
7
  6
CONTINUOUS
 10
109.4526590198
 20
88.1299927669
 11
120.6526590198
 21
88.1299927669
  0
LINE
  5
23A
100
AcDbEntity
  8
KONSTRUKTIONSELEMENTE
100
AcDbLine
 62
7
  6
CONTINUOUS
 10
95.7199277217
 20
134.9858955362
 11
95.7314484658
 21
135.3811772996
  0
LINE
  5
23B
100
AcDbEntity
  8
KONSTRUKTIONSELEMENTE
100
AcDbLine
 62
7
  6
CONTINUOUS
 10
99.4573685772
 20
136.7001768132
 11
99.4791994328
 21
137.0277325905
  0
LINE
  5
23C
100
AcDbEntity
  8
KONSTRUKTIONSELEMENTE
100
AcDbLine
 62
7
  6
CONTINUOUS
 10
99.9729811578
 20
136.3148039832
 11
100.0529227059
 21
136.702089304
  0
LINE
  5
23D
100
AcDbEntity
  8
KONSTRUKTIONSELEMENTE
100
AcDbLine
 62
7
  6
CONTINUOUS
 10
102.6547561493
 20
139.3113962357
 11
102.7343334192
 21
139.6298877296
  0
LINE
  5
23E
100
AcDbEntity
  8
KONSTRUKTIONSELEMENTE
100
AcDbLine
 62
7
  6
CONTINUOUS
 10
129.6110377895
 20
141.61528719
 11
130.0063342765
 21
141.8446231551
  0
LINE
  5
23F
100
AcDbEntity
  8
KONSTRUKTIONSELEMENTE
100
AcDbLine
 62
7
  6
CONTINUOUS
 10
100.7991537302
 20
88.7402468048
 11
100.7991537302
 21
82.0799927669
  0
LINE
  5
240
100
AcDbEntity
  8
BEZUGSACHSEN
100
AcDbLine
 62
7
  6
CONTINUOUS
 10
100.7991537302
 20
68.0799927669
 11
100.7991537302
 21
74.6837663518
  0
LINE
  5
241
100
AcDbEntity
  8
KONSTRUKTIONSELEMENTE
100
AcDbLine
 62
7
  6
CONTINUOUS
 10
129.2147507616
 20
141.250821604
 11
129.6110377895
 21
141.61528719
  0
LINE
  5
242
100
AcDbEntity
  8
KONSTRUKTIONSELEMENTE
100
AcDbLine
 62
7
  6
CONTINUOUS
 10
129.6061037413
 20
140.9396257729
 11
129.9361787127
 21
141.2208245442
  0
LINE
  5
243
100
AcDbEntity
  8
KONSTRUKTIONSELEMENTE
100
AcDbLine
 62
7
  6
CONTINUOUS
 10
136.4214597646
 20
132.6010992146
 11
137.0305968373
 21
132.8092361207
  0
LINE
  5
244
100
AcDbEntity
  8
KONSTRUKTIONSELEMENTE
100
AcDbLine
 62
7
  6
CONTINUOUS
 10
136.3321945937
 20
133.0217630431
 11
136.8459618008
 21
133.182762658
  0
LINE
  5
245
100
AcDbEntity
  8
KONSTRUKTIONSELEMENTE
100
AcDbLine
 62
7
  6
CONTINUOUS
 10
103.2412088778
 20
139.2076563089
 11
103.2647983014
 21
139.7476857871
  0
LINE
  5
246
100
AcDbEntity
  8
KONSTRUKTIONSELEMENTE
100
AcDbLine
 62
7
  6
CONTINUOUS
 10
127.515262116
 20
142.1652556785
 11
127.739366827
 21
142.4072832187
  0
LINE
  5
247
100
AcDbEntity
  8
KONSTRUKTIONSELEMENTE
100
AcDbLine
 62
7
  6
CONTINUOUS
 10
127.9058472588
 20
141.835466986
 11
128.1299519698
 21
142.0774945262
  0
LINE
  5
248
100
AcDbEntity
  8
KONSTRUKTIONSELEMENTE
100
AcDbLine
 62
7
  6
CONTINUOUS
 10
130.1042355835
 20
137.2815157514
 11
130.4343076155
 21
137.5627169553
  0
LINE
  5
249
100
AcDbEntity
  8
KONSTRUKTIONSELEMENTE
100
AcDbLine
 62
7
  6
CONTINUOUS
 10
129.8453063923
 20
137.7592448038
 11
130.1091665069
 21
137.9571793679
  0
LINE
  5
24A
100
AcDbEntity
  8
KONSTRUKTIONSELEMENTE
100
AcDbLine
 62
7
  6
CONTINUOUS
 10
135.473881017
 20
132.597496645
 11
136.3321945937
 21
133.0217630431
  0
LINE
  5
24B
100
AcDbEntity
  8
KONSTRUKTIONSELEMENTE
100
AcDbLine
 62
7
  6
CONTINUOUS
 10
135.7538825383
 20
132.2711142383
 11
136.4214597646
 21
132.6010992146
  0
LINE
  5
24C
100
AcDbEntity
  8
KONSTRUKTIONSELEMENTE
100
AcDbLine
 62
7
  6
CONTINUOUS
 10
136.1048468456
 20
130.1206406403
 11
136.7139823615
 21
130.3287810321
  0
LINE
  5
24D
100
AcDbEntity
  8
KONSTRUKTIONSELEMENTE
100
AcDbLine
 62
7
  6
CONTINUOUS
 10
136.2894801917
 20
129.7471175227
 11
136.8032492228
 21
129.9081137839
  0
LINE
  5
24E
100
AcDbEntity
  8
KONSTRUKTIONSELEMENTE
100
AcDbLine
 62
7
  6
CONTINUOUS
 10
95.2332290794
 20
135.2161177965
 11
95.1510225447
 21
135.4735847493
  0
LINE
  5
24F
100
AcDbEntity
  8
KONSTRUKTIONSELEMENTE
100
AcDbLine
 62
7
  6
CONTINUOUS
 10
100.0529227059
 20
136.702089304
 11
99.9803635115
 21
137.2377419708
  0
LINE
  5
250
100
AcDbEntity
  8
KONSTRUKTIONSELEMENTE
100
AcDbLine
 62
7
  6
CONTINUOUS
 10
123.8048760133
 20
140.5316587918
 11
126.1648943422
 21
144.9396417191
  0
LINE
  5
251
100
AcDbEntity
  8
KONSTRUKTIONSELEMENTE
100
AcDbLine
 62
7
  6
CONTINUOUS
 10
128.2215726029
 20
140.0018227649
 11
129.2147507616
 21
141.250821604
  0
LINE
  5
252
100
AcDbEntity
  8
KONSTRUKTIONSELEMENTE
100
AcDbLine
 62
7
  6
CONTINUOUS
 10
128.6129255826
 20
139.6906269338
 11
129.6061037413
 21
140.9396257729
  0
LINE
  5
253
100
AcDbEntity
  8
KONSTRUKTIONSELEMENTE
100
AcDbLine
 62
7
  6
CONTINUOUS
 10
135.473881017
 20
132.597496645
 11
135.0339663386
 21
132.2870890849
  0
LINE
  5
254
100
AcDbEntity
  8
KONSTRUKTIONSELEMENTE
100
AcDbLine
 62
7
  6
CONTINUOUS
 10
135.7538825383
 20
132.2711142383
 11
135.2186013751
 21
131.9135625476
  0
LINE
  5
255
100
AcDbEntity
  8
KONSTRUKTIONSELEMENTE
100
AcDbLine
 62
7
  6
CONTINUOUS
 10
135.5662784166
 20
134.9602208924
 11
136.2767076586
 21
135.42883616
  0
LINE
  5
256
100
AcDbEntity
  8
KONSTRUKTIONSELEMENTE
100
AcDbLine
 62
7
  6
CONTINUOUS
 10
132.999873601
 20
132.6683832309
 11
136.4632154406
 21
134.9528821888
  0
LINE
  5
257
100
AcDbEntity
  8
KONSTRUKTIONSELEMENTE
100
AcDbLine
 62
7
  6
CONTINUOUS
 10
137.4489558399
 20
135.004120209
 11
133.2751850071
 21
132.2510061476
  0
LINE
  5
258
100
AcDbEntity
  8
KONSTRUKTIONSELEMENTE
100
AcDbLine
 62
7
  6
CONTINUOUS
 10
137.3815595879
 20
130.6587660084
 11
136.7139823615
 21
130.3287810321
  0
LINE
  5
259
100
AcDbEntity
  8
KONSTRUKTIONSELEMENTE
100
AcDbLine
 62
7
  6
CONTINUOUS
 10
137.6615627995
 20
130.332380182
 11
136.8032492228
 21
129.9081137839
  0
LINE
  5
25A
100
AcDbEntity
  8
KONSTRUKTIONSELEMENTE
100
AcDbLine
 62
7
  6
CONTINUOUS
 10
95.7314484658
 20
135.3811772996
 11
95.5201716229
 21
135.8272036027
  0
LINE
  5
25B
100
AcDbEntity
  8
KONSTRUKTIONSELEMENTE
100
AcDbLine
 62
7
  6
CONTINUOUS
 10
102.7343334192
 20
139.6298877296
 11
102.6842434943
 21
139.9864335224
  0
LINE
  5
25C
100
AcDbEntity
  8
BEZUGSACHSEN
100
AcDbLine
 62
7
  6
CONTINUOUS
 10
109.4526590198
 20
82.0799927669
 11
109.4526590198
 21
70.5836758786
  0
LINE
  5
25D
100
AcDbEntity
  8
KONSTRUKTIONSELEMENTE
100
AcDbLine
 62
7
  6
CONTINUOUS
 10
109.4526590198
 20
82.0799927669
 11
109.4526590198
 21
95.4799927669
  0
LINE
  5
25E
100
AcDbEntity
  8
KONSTRUKTIONSELEMENTE
100
AcDbLine
 62
7
  6
CONTINUOUS
 10
124.245674306
 20
140.2956569589
 11
125.3001505956
 21
142.2651812735
  0
LINE
  5
25F
100
AcDbEntity
  8
KONSTRUKTIONSELEMENTE
100
AcDbLine
 62
7
  6
CONTINUOUS
 10
125.6014294953
 20
142.8279024312
 11
126.3546268851
 21
144.2347055882
  0
LINE
  5
260
100
AcDbEntity
  8
KONSTRUKTIONSELEMENTE
100
AcDbLine
 62
7
  6
CONTINUOUS
 10
127.8900064175
 20
142.6886440603
 11
127.739366827
 21
142.4072832187
  0
LINE
  5
261
100
AcDbEntity
  8
KONSTRUKTIONSELEMENTE
100
AcDbLine
 62
7
  6
CONTINUOUS
 10
128.3308047102
 20
142.4526422274
 11
128.1299519698
 21
142.0774945262
  0
LINE
  5
262
100
AcDbEntity
  8
KONSTRUKTIONSELEMENTE
100
AcDbLine
 62
7
  6
CONTINUOUS
 10
128.2215726029
 20
140.0018227649
 11
127.9557407347
 21
139.5336223027
  0
LINE
  5
263
100
AcDbEntity
  8
KONSTRUKTIONSELEMENTE
100
AcDbLine
 62
7
  6
CONTINUOUS
 10
130.449103325
 20
139.5897053721
 11
130.0518320986
 21
139.0901058831
  0
LINE
  5
264
100
AcDbEntity
  8
KONSTRUKTIONSELEMENTE
100
AcDbLine
 62
7
  6
CONTINUOUS
 10
130.6388615681
 20
138.6233121365
 11
130.1091665069
 21
137.9571793679
  0
LINE
  5
265
100
AcDbEntity
  8
KONSTRUKTIONSELEMENTE
100
AcDbLine
 62
7
  6
CONTINUOUS
 10
131.4274857742
 20
138.8117157943
 11
130.4343076155
 21
137.5627169553
  0
LINE
  5
266
100
AcDbEntity
  8
KONSTRUKTIONSELEMENTE
100
AcDbLine
 62
7
  6
CONTINUOUS
 10
135.0339663386
 20
132.2870890849
 11
134.7847881441
 21
132.0709630126
  0
LINE
  5
267
100
AcDbEntity
  8
KONSTRUKTIONSELEMENTE
100
AcDbLine
 62
7
  6
CONTINUOUS
 10
138.101475654
 20
130.6427910958
 11
137.6615627995
 21
130.332380182
  0
LINE
  5
268
100
AcDbEntity
  8
KONSTRUKTIONSELEMENTE
100
AcDbLine
 62
7
  6
CONTINUOUS
 10
137.9168423079
 20
131.0163142134
 11
137.3815595879
 21
130.6587660084
  0
LINE
  5
269
100
AcDbEntity
  8
KONSTRUKTIONSELEMENTE
100
AcDbLine
 62
7
  6
CONTINUOUS
 10
99.4791994328
 20
137.0277325905
 11
99.3666693148
 21
137.3697424099
  0
LINE
  5
26A
100
AcDbEntity
  8
KONSTRUKTIONSELEMENTE
100
AcDbLine
 62
7
  6
CONTINUOUS
 10
103.2647983014
 20
139.7476857871
 11
103.1528232978
 21
140.1907624319
  0
LINE
  5
26B
100
AcDbEntity
  8
KONSTRUKTIONSELEMENTE
100
AcDbLine
 62
7
  6
CONTINUOUS
 10
128.6129255826
 20
139.6906269338
 11
128.4133055855
 21
139.3056930531
  0
LINE
  5
26C
100
AcDbEntity
  8
KONSTRUKTIONSELEMENTE
100
AcDbLine
 62
7
  6
CONTINUOUS
 10
132.2892276532
 20
140.029313349
 11
132.0233926138
 21
139.5611150278
  0
LINE
  5
26D
100
AcDbEntity
  8
KONSTRUKTIONSELEMENTE
100
AcDbLine
 62
7
  6
CONTINUOUS
 10
134.7847881441
 20
132.0709630126
 11
134.4771697292
 21
131.7329888372
  0
LINE
  5
26E
100
AcDbEntity
  8
KONSTRUKTIONSELEMENTE
100
AcDbLine
 62
7
  6
CONTINUOUS
 10
138.3506541156
 20
130.8589173001
 11
138.101475654
 21
130.6427910958
  0
LINE
  5
26F
100
AcDbEntity
  8
KONSTRUKTIONSELEMENTE
100
AcDbLine
 62
7
  6
CONTINUOUS
 10
99.9803635115
 20
137.2377419708
 11
99.7915829722
 21
137.6539355119
  0
LINE
  5
270
100
AcDbEntity
  8
KONSTRUKTIONSELEMENTE
100
AcDbLine
 62
7
  6
CONTINUOUS
 10
127.9557407347
 20
139.5336223027
 11
127.8213422068
 21
139.0968255576
  0
LINE
  5
271
100
AcDbEntity
  8
KONSTRUKTIONSELEMENTE
100
AcDbLine
 62
7
  6
CONTINUOUS
 10
131.7654509314
 20
140.1739760171
 11
131.6320396341
 21
139.8723108589
  0
LINE
  5
272
100
AcDbEntity
  8
KONSTRUKTIONSELEMENTE
100
AcDbLine
 62
7
  6
CONTINUOUS
 10
135.2186013751
 20
131.9135625476
 11
134.7940992721
 21
131.3318990712
  0
LINE
  5
273
100
AcDbEntity
  8
KONSTRUKTIONSELEMENTE
100
AcDbLine
 62
7
  6
CONTINUOUS
 10
138.6582724637
 20
131.1968914426
 11
138.3506541156
 21
130.8589173001
  0
LINE
  5
274
100
AcDbEntity
  8
KONSTRUKTIONSELEMENTE
100
AcDbLine
 62
7
  6
CONTINUOUS
 10
95.1510225447
 20
135.4735847493
 11
94.9339852628
 21
135.7219700722
  0
LINE
  5
275
100
AcDbEntity
  8
KONSTRUKTIONSELEMENTE
100
AcDbLine
 62
7
  6
CONTINUOUS
 10
95.5201716229
 20
135.8272036027
 11
95.303134341
 21
136.0755889256
  0
LINE
  5
276
100
AcDbEntity
  8
KONSTRUKTIONSELEMENTE
100
AcDbLine
 62
7
  6
CONTINUOUS
 10
99.3666693148
 20
137.3697424099
 11
99.1197785024
 21
137.7262066649
  0
LINE
  5
277
100
AcDbEntity
  8
KONSTRUKTIONSELEMENTE
100
AcDbLine
 62
7
  6
CONTINUOUS
 10
103.1528232978
 20
140.1907624319
 11
102.9111803237
 21
140.6718928208
  0
LINE
  5
278
100
AcDbEntity
  8
KONSTRUKTIONSELEMENTE
100
AcDbLine
 62
7
  6
CONTINUOUS
 10
102.6842434943
 20
139.9864335224
 11
102.5044855556
 21
140.3810331199
  0
LINE
  5
279
100
AcDbEntity
  8
BEZUGSACHSEN
100
AcDbLine
 62
7
  6
CONTINUOUS
 10
120.6526590198
 20
70.5836758786
 11
120.6526590198
 21
82.0799927669
  0
LINE
  5
27A
100
AcDbEntity
  8
KONSTRUKTIONSELEMENTE
100
AcDbLine
 62
7
  6
CONTINUOUS
 10
120.6526590198
 20
82.0799927669
 11
120.6526590198
 21
95.4799927669
  0
LINE
  5
27B
100
AcDbEntity
  8
KONSTRUKTIONSELEMENTE
100
AcDbLine
 62
7
  6
CONTINUOUS
 10
127.0903048053
 20
141.5480806998
 11
126.5965996549
 21
139.0369799167
  0
LINE
  5
27C
100
AcDbEntity
  8
KONSTRUKTIONSELEMENTE
100
AcDbLine
 62
7
  6
CONTINUOUS
 10
126.5490802126
 20
141.5965088135
 11
126.082332738
 21
139.3123165887
  0
LINE
  5
27D
100
AcDbEntity
  8
KONSTRUKTIONSELEMENTE
100
AcDbLine
 62
7
  6
CONTINUOUS
 10
127.9671806062
 20
143.0093376778
 11
127.8900064175
 21
142.6886440603
  0
LINE
  5
27E
100
AcDbEntity
  8
KONSTRUKTIONSELEMENTE
100
AcDbLine
 62
7
  6
CONTINUOUS
 10
128.4079788989
 20
142.7733358449
 11
128.3308047102
 21
142.4526422274
  0
LINE
  5
27F
100
AcDbEntity
  8
KONSTRUKTIONSELEMENTE
100
AcDbLine
 62
7
  6
CONTINUOUS
 10
138.3413429209
 20
131.5979812085
 11
137.9168423079
 21
131.0163142134
  0
LINE
  5
280
100
AcDbEntity
  8
KONSTRUKTIONSELEMENTE
100
AcDbLine
 62
7
  6
CONTINUOUS
 10
96.384121482
 20
131.6115812756
 11
92.249673222
 21
134.42340232
  0
LINE
  5
281
100
AcDbEntity
  8
KONSTRUKTIONSELEMENTE
100
AcDbLine
 62
7
  6
CONTINUOUS
 10
97.3764618886
 20
135.9343226351
 11
95.0127001637
 21
138.2340167098
  0
LINE
  5
282
100
AcDbEntity
  8
KONSTRUKTIONSELEMENTE
100
AcDbLine
 62
7
  6
CONTINUOUS
 10
97.7251253444
 20
136.2926995777
 11
95.3613636195
 21
138.5923936525
  0
LINE
  5
283
100
AcDbEntity
  8
KONSTRUKTIONSELEMENTE
100
AcDbLine
 62
7
  6
CONTINUOUS
 10
99.7915829722
 20
137.6539355119
 11
99.4684417919
 21
138.0845834366
  0
LINE
  5
284
100
AcDbEntity
  8
KONSTRUKTIONSELEMENTE
100
AcDbLine
 62
7
  6
CONTINUOUS
 10
101.1900427813
 20
137.3483355491
 11
98.2814457718
 21
141.4152832297
  0
LINE
  5
285
100
AcDbEntity
  8
KONSTRUKTIONSELEMENTE
100
AcDbLine
 62
7
  6
CONTINUOUS
 10
101.2254272937
 20
138.1583800591
 11
99.0594507521
 21
141.1869581822
  0
LINE
  5
286
100
AcDbEntity
  8
KONSTRUKTIONSELEMENTE
100
AcDbLine
 62
7
  6
CONTINUOUS
 10
128.4133055855
 20
139.3056930531
 11
128.345118975
 21
138.9521629478
  0
LINE
  5
287
100
AcDbEntity
  8
KONSTRUKTIONSELEMENTE
100
AcDbLine
 62
7
  6
CONTINUOUS
 10
134.4771697292
 20
131.7329888372
 11
134.3018458541
 21
131.3674514496
  0
LINE
  5
288
100
AcDbEntity
  8
KONSTRUKTIONSELEMENTE
100
AcDbLine
 62
7
  6
CONTINUOUS
 10
96.6653035865
 20
132.0250261016
 11
94.8179968909
 21
133.2813716925
  0
LINE
  5
289
100
AcDbEntity
  8
KONSTRUKTIONSELEMENTE
100
AcDbLine
 62
7
  6
CONTINUOUS
 10
94.2901950483
 20
133.6403275277
 11
92.9706901953
 21
134.5377172833
  0
LINE
  5
28A
100
AcDbEntity
  8
KONSTRUKTIONSELEMENTE
100
AcDbLine
 62
7
  6
CONTINUOUS
 10
94.670084095
 20
135.9014481574
 11
94.9339852628
 21
135.7219700722
  0
LINE
  5
28B
100
AcDbEntity
  8
KONSTRUKTIONSELEMENTE
100
AcDbLine
 62
7
  6
CONTINUOUS
 10
94.9512661995
 20
136.3148929834
 11
95.303134341
 21
136.0755889256
  0
LINE
  5
28C
100
AcDbEntity
  8
KONSTRUKTIONSELEMENTE
100
AcDbLine
 62
7
  6
CONTINUOUS
 10
96.7560167775
 20
140.0259007396
 11
99.1197785024
 21
137.7262066649
  0
LINE
  5
28D
100
AcDbEntity
  8
KONSTRUKTIONSELEMENTE
100
AcDbLine
 62
7
  6
CONTINUOUS
 10
97.104680067
 20
140.3842775114
 11
99.4684417919
 21
138.0845834366
  0
LINE
  5
28E
100
AcDbEntity
  8
KONSTRUKTIONSELEMENTE
100
AcDbLine
 62
7
  6
CONTINUOUS
 10
101.5762099382
 20
141.678995112
 11
102.5044855556
 21
140.3810331199
  0
LINE
  5
28F
100
AcDbEntity
  8
KONSTRUKTIONSELEMENTE
100
AcDbLine
 62
7
  6
CONTINUOUS
 10
101.9829047063
 20
141.969854813
 11
102.9111803237
 21
140.6718928208
  0
LINE
  5
290
100
AcDbEntity
  8
KONSTRUKTIONSELEMENTE
100
AcDbLine
 62
7
  6
CONTINUOUS
 10
127.8213422068
 20
139.0968255576
 11
127.8173986763
 21
138.5562937322
  0
LINE
  5
291
100
AcDbEntity
  8
KONSTRUKTIONSELEMENTE
100
AcDbLine
 62
7
  6
CONTINUOUS
 10
134.7940992721
 20
131.3318990712
 11
134.7141436055
 21
131.013502411
  0
LINE
  5
292
100
AcDbEntity
  8
KONSTRUKTIONSELEMENTE
100
AcDbLine
 62
7
  6
CONTINUOUS
 10
138.8335963054
 20
131.5624288137
 11
138.6582724637
 21
131.1968914426
  0
LINE
  5
293
100
AcDbEntity
  8
KONSTRUKTIONSELEMENTE
100
AcDbLine
 62
7
  6
CONTINUOUS
 10
97.7251253444
 20
136.2926995777
 11
98.0882371425
 21
136.0556941328
  0
LINE
  5
294
100
AcDbEntity
  8
KONSTRUKTIONSELEMENTE
100
AcDbLine
 62
7
  6
CONTINUOUS
 10
97.3764618886
 20
135.9343226351
 11
97.8158243871
 21
135.6231338621
  0
LINE
  5
295
100
AcDbEntity
  8
KONSTRUKTIONSELEMENTE
100
AcDbLine
 62
7
  6
CONTINUOUS
 10
101.260887594
 20
141.9766418457
 11
101.5762099382
 21
141.678995112
  0
LINE
  5
296
100
AcDbEntity
  8
KONSTRUKTIONSELEMENTE
100
AcDbLine
 62
7
  6
CONTINUOUS
 10
101.6056971533
 20
142.3540325805
 11
101.9829047063
 21
141.969854813
  0
LINE
  5
297
100
AcDbEntity
  8
KONSTRUKTIONSELEMENTE
100
AcDbLine
 62
7
  6
CONTINUOUS
 10
128.3884323524
 20
143.2664841998
 11
128.4079788989
 21
142.7733358449
  0
LINE
  5
298
100
AcDbEntity
  8
KONSTRUKTIONSELEMENTE
100
AcDbLine
 62
7
  6
CONTINUOUS
 10
129.3061643094
 20
88.7402468048
 11
129.3061643094
 21
82.0799927669
  0
LINE
  5
299
100
AcDbEntity
  8
BEZUGSACHSEN
100
AcDbLine
 62
7
  6
CONTINUOUS
 10
129.3061643094
 20
74.6837663518
 11
129.3061643094
 21
68.0799927669
  0
LINE
  5
29A
100
AcDbEntity
  8
KONSTRUKTIONSELEMENTE
100
AcDbLine
 62
7
  6
CONTINUOUS
 10
132.2931741463
 20
140.5698427709
 11
132.2892276532
 21
140.029313349
  0
LINE
  5
29B
100
AcDbEntity
  8
KONSTRUKTIONSELEMENTE
100
AcDbLine
 62
7
  6
CONTINUOUS
 10
134.3018458541
 20
131.3674514496
 11
134.2003763399
 21
130.8525027672
  0
LINE
  5
29C
100
AcDbEntity
  8
KONSTRUKTIONSELEMENTE
100
AcDbLine
 62
7
  6
CONTINUOUS
 10
138.4212985874
 20
131.9163778688
 11
138.3413429209
 21
131.5979812085
  0
LINE
  5
29D
100
AcDbEntity
  8
KONSTRUKTIONSELEMENTE
100
AcDbLine
 62
7
  6
CONTINUOUS
 10
135.966449335
 20
129.6803993296
 11
136.2894801917
 21
129.7471175227
  0
LINE
  5
29E
100
AcDbEntity
  8
KONSTRUKTIONSELEMENTE
100
AcDbLine
 62
7
  6
CONTINUOUS
 10
95.6146794978
 20
134.4527986666
 11
97.8368956436
 21
133.7477128109
  0
LINE
  5
29F
100
AcDbEntity
  8
KONSTRUKTIONSELEMENTE
100
AcDbLine
 62
7
  6
CONTINUOUS
 10
94.3593195344
 20
136.0120186697
 11
94.670084095
 21
135.9014481574
  0
LINE
  5
2A0
100
AcDbEntity
  8
KONSTRUKTIONSELEMENTE
100
AcDbLine
 62
7
  6
CONTINUOUS
 10
97.8158243871
 20
135.6231338621
 11
98.237047064
 21
135.4458581119
  0
LINE
  5
2A1
100
AcDbEntity
  8
KONSTRUKTIONSELEMENTE
100
AcDbLine
 62
7
  6
CONTINUOUS
 10
138.9350674849
 20
132.077374064
 11
138.8335963054
 21
131.5624288137
  0
LINE
  5
2A2
100
AcDbEntity
  8
KONSTRUKTIONSELEMENTE
100
AcDbLine
 62
7
  6
CONTINUOUS
 10
136.8459618008
 20
133.182762658
 11
137.1689929247
 21
133.2494809832
  0
LINE
  5
2A3
100
AcDbEntity
  8
KONSTRUKTIONSELEMENTE
100
AcDbLine
 62
7
  6
CONTINUOUS
 10
135.5111222148
 20
129.6412477518
 11
135.966449335
 21
129.6803993296
  0
LINE
  5
2A4
100
AcDbEntity
  8
KONSTRUKTIONSELEMENTE
100
AcDbLine
 62
7
  6
CONTINUOUS
 10
135.3849290223
 20
130.1366189396
 11
136.1048468456
 21
130.1206406403
  0
LINE
  5
2A5
100
AcDbEntity
  8
KONSTRUKTIONSELEMENTE
100
AcDbLine
 62
7
  6
CONTINUOUS
 10
98.0882371425
 20
136.0556941328
 11
98.4332095643
 21
135.9526022752
  0
LINE
  5
2A6
100
AcDbEntity
  8
KONSTRUKTIONSELEMENTE
100
AcDbLine
 62
7
  6
CONTINUOUS
 10
95.7199277217
 20
134.9858955362
 11
98.1649415215
 21
134.2300652394
  0
LINE
  5
2A7
100
AcDbEntity
  8
KONSTRUKTIONSELEMENTE
100
AcDbLine
 62
7
  6
CONTINUOUS
 10
94.6405016388
 20
136.4254634957
 11
94.9512661995
 21
136.3148929834
  0
LINE
  5
2A8
100
AcDbEntity
  8
KONSTRUKTIONSELEMENTE
100
AcDbLine
 62
7
  6
CONTINUOUS
 10
101.2225918305
 20
142.6032023275
 11
101.6056971533
 21
142.3540325805
  0
LINE
  5
2A9
100
AcDbEntity
  8
KONSTRUKTIONSELEMENTE
100
AcDbLine
 62
7
  6
CONTINUOUS
 10
128.345118975
 20
138.9521629478
 11
128.4083716763
 21
138.6300318109
  0
LINE
  5
2AA
100
AcDbEntity
  8
KONSTRUKTIONSELEMENTE
100
AcDbLine
 62
7
  6
CONTINUOUS
 10
127.9206730209
 20
143.2755792748
 11
127.9671806062
 21
143.0093376778
  0
LINE
  5
2AB
100
AcDbEntity
  8
KONSTRUKTIONSELEMENTE
100
AcDbLine
 62
7
  6
CONTINUOUS
 10
129.5784870849
 20
137.1559124922
 11
130.1042355835
 21
137.2815157514
  0
LINE
  5
2AC
100
AcDbEntity
  8
KONSTRUKTIONSELEMENTE
100
AcDbLine
 62
7
  6
CONTINUOUS
 10
137.1689929247
 20
133.2494809832
 11
137.6243199782
 21
133.288632528
  0
LINE
  5
2AD
100
AcDbEntity
  8
KONSTRUKTIONSELEMENTE
100
AcDbLine
 62
7
  6
CONTINUOUS
 10
137.0305968373
 20
132.8092361207
 11
137.7505131706
 21
132.7932613402
  0
LINE
  5
2AE
100
AcDbEntity
  8
KONSTRUKTIONSELEMENTE
100
AcDbLine
 62
7
  6
CONTINUOUS
 10
98.237047064
 20
135.4458581119
 11
98.7744905335
 21
135.3880410268
  0
LINE
  5
2AF
100
AcDbEntity
  8
KONSTRUKTIONSELEMENTE
100
AcDbLine
 62
7
  6
CONTINUOUS
 10
135.114236972
 20
129.723940841
 11
135.5111222148
 21
129.6412477518
  0
LINE
  5
2B0
100
AcDbEntity
  8
KONSTRUKTIONSELEMENTE
100
AcDbLine
 62
7
  6
CONTINUOUS
 10
100.9396671332
 20
142.1392810437
 11
101.260887594
 21
141.9766418457
  0
LINE
  5
2B1
100
AcDbEntity
  8
KONSTRUKTIONSELEMENTE
100
AcDbLine
 62
7
  6
CONTINUOUS
 10
127.8173986763
 20
138.5562937322
 11
127.945875908
 21
138.1822974513
  0
LINE
  5
2B2
100
AcDbEntity
  8
KONSTRUKTIONSELEMENTE
100
AcDbLine
 62
7
  6
CONTINUOUS
 10
128.2452073947
 20
143.7051787337
 11
128.3884323524
 21
143.2664841998
  0
LINE
  5
2B3
100
AcDbEntity
  8
KONSTRUKTIONSELEMENTE
100
AcDbLine
 62
7
  6
CONTINUOUS
 10
134.2003763399
 20
130.8525027672
 11
134.326569524
 21
130.3571315753
  0
LINE
  5
2B4
100
AcDbEntity
  8
KONSTRUKTIONSELEMENTE
100
AcDbLine
 62
7
  6
CONTINUOUS
 10
134.7141436055
 20
131.013502411
 11
134.8034104668
 21
130.5928351628
  0
LINE
  5
2B5
100
AcDbEntity
  8
KONSTRUKTIONSELEMENTE
100
AcDbLine
 62
7
  6
CONTINUOUS
 10
131.7021981837
 20
140.4961070956
 11
131.7654509314
 21
140.1739760171
  0
LINE
  5
2B6
100
AcDbEntity
  8
RUNDUNGEN
100
AcDbLine
 62
7
  6
CONTINUOUS
 10
140.0526590198
 20
76.3079332354
 11
140.0526590198
 21
103.8263028993
  0
LINE
  5
2B7
100
AcDbEntity
  8
KONSTRUKTIONSELEMENTE
100
AcDbLine
 62
7
  6
CONTINUOUS
 10
130.0063342765
 20
141.8446231551
 11
130.5320857377
 21
141.9702240109
  0
LINE
  5
2B8
100
AcDbEntity
  8
KONSTRUKTIONSELEMENTE
100
AcDbLine
 62
7
  6
CONTINUOUS
 10
98.4332095643
 20
135.9526022752
 11
98.7600419982
 21
135.9834232696
  0
LINE
  5
2B9
100
AcDbEntity
  8
KONSTRUKTIONSELEMENTE
100
AcDbLine
 62
7
  6
CONTINUOUS
 10
94.089658174
 20
135.993855607
 11
94.3593195344
 21
136.0120186697
  0
LINE
  5
2BA
100
AcDbEntity
  8
KONSTRUKTIONSELEMENTE
100
AcDbLine
 62
7
  6
CONTINUOUS
 10
129.517206114
 20
137.7483094981
 11
129.8453063923
 21
137.7592448038
  0
LINE
  5
2BB
100
AcDbEntity
  8
KONSTRUKTIONSELEMENTE
100
AcDbLine
 62
7
  6
CONTINUOUS
 10
135.5662784166
 20
134.9602208924
 11
136.4632154406
 21
134.9528821888
  0
LINE
  5
2BC
100
AcDbEntity
  8
KONSTRUKTIONSELEMENTE
100
AcDbLine
 62
7
  6
CONTINUOUS
 10
136.2767076586
 20
135.42883616
 11
137.1736444338
 21
135.4214972923
  0
LINE
  5
2BD
100
AcDbEntity
  8
KONSTRUKTIONSELEMENTE
100
AcDbLine
 62
7
  6
CONTINUOUS
 10
94.1480426915
 20
136.4580449728
 11
94.6405016388
 21
136.4254634957
  0
LINE
  5
2BE
100
AcDbEntity
  8
KONSTRUKTIONSELEMENTE
100
AcDbLine
 62
7
  6
CONTINUOUS
 10
137.6243199782
 20
133.288632528
 11
138.0212051876
 21
133.2059394222
  0
LINE
  5
2BF
100
AcDbEntity
  8
KONSTRUKTIONSELEMENTE
100
AcDbLine
 62
7
  6
CONTINUOUS
 10
100.7039221022
 20
142.7554192107
 11
101.2225918305
 21
142.6032023275
  0
LINE
  5
2C0
100
AcDbEntity
  8
KONSTRUKTIONSELEMENTE
100
AcDbLine
 62
7
  6
CONTINUOUS
 10
135.0834119881
 20
130.2664527562
 11
135.3849290223
 21
130.1366189396
  0
LINE
  5
2C1
100
AcDbEntity
  8
KONSTRUKTIONSELEMENTE
100
AcDbLine
 62
7
  6
CONTINUOUS
 10
134.6434990752
 20
129.9560418135
 11
135.114236972
 21
129.723940841
  0
LINE
  5
2C2
100
AcDbEntity
  8
KONSTRUKTIONSELEMENTE
100
AcDbLine
 62
7
  6
CONTINUOUS
 10
134.326569524
 20
130.3571315753
 11
134.6434990752
 21
129.9560418135
  0
LINE
  5
2C3
100
AcDbEntity
  8
KONSTRUKTIONSELEMENTE
100
AcDbLine
 62
7
  6
CONTINUOUS
 10
127.945875908
 20
138.1822974513
 11
128.2057925095
 21
137.8397002119
  0
LINE
  5
2C4
100
AcDbEntity
  8
KONSTRUKTIONSELEMENTE
100
AcDbLine
 62
7
  6
CONTINUOUS
 10
128.4083716763
 20
138.6300318109
 11
128.6030637822
 21
138.3392997592
  0
LINE
  5
2C5
100
AcDbEntity
  8
KONSTRUKTIONSELEMENTE
100
AcDbLine
 62
7
  6
CONTINUOUS
 10
132.999873601
 20
132.6683832309
 11
133.2751850071
 21
132.2510061476
  0
LINE
  5
2C6
100
AcDbEntity
  8
KONSTRUKTIONSELEMENTE
100
AcDbLine
 62
7
  6
CONTINUOUS
 10
132.1646939115
 20
140.9438414042
 11
132.2931741463
 21
140.5698427709
  0
LINE
  5
2C7
100
AcDbEntity
  8
KONSTRUKTIONSELEMENTE
100
AcDbLine
 62
7
  6
CONTINUOUS
 10
138.3320334165
 20
132.3370416972
 11
138.4212985874
 21
131.9163778688
  0
LINE
  5
2C8
100
AcDbEntity
  8
0
100
AcDbLine
 62
7
  6
CONTINUOUS
 10
144.8026590198
 20
111.163631804
 11
144.8026590198
 21
130.4963537298
  0
LINE
  5
2C9
100
AcDbEntity
  8
RUNDUNGEN
100
AcDbLine
 62
7
  6
CONTINUOUS
 10
140.141771841
 20
92.4698343738
 11
144.8026590198
 21
111.163631804
  0
LINE
  5
2CA
100
AcDbEntity
  8
KONSTRUKTIONSELEMENTE
100
AcDbLine
 62
7
  6
CONTINUOUS
 10
98.7744905335
 20
135.3880410268
 11
99.1594335932
 21
135.4785916296
  0
LINE
  5
2CB
100
AcDbEntity
  8
KONSTRUKTIONSELEMENTE
100
AcDbLine
 62
7
  6
CONTINUOUS
 10
93.6966870786
 20
136.3618930721
 11
94.1480426915
 21
136.4580449728
  0
LINE
  5
2CC
100
AcDbEntity
  8
KONSTRUKTIONSELEMENTE
100
AcDbLine
 62
7
  6
CONTINUOUS
 10
127.0903048053
 20
141.5480806998
 11
127.4845955126
 21
141.578320464
  0
LINE
  5
2CD
100
AcDbEntity
  8
KONSTRUKTIONSELEMENTE
100
AcDbLine
 62
7
  6
CONTINUOUS
 10
130.2652635141
 20
141.366894161
 11
130.593363746
 21
141.3778294085
  0
LINE
  5
2CE
100
AcDbEntity
  8
KONSTRUKTIONSELEMENTE
100
AcDbLine
 62
7
  6
CONTINUOUS
 10
100.6125496784
 20
142.1669127761
 11
100.9396671332
 21
142.1392810437
  0
LINE
  5
2CF
100
AcDbEntity
  8
KONSTRUKTIONSELEMENTE
100
AcDbLine
 62
7
  6
CONTINUOUS
 10
129.1851593484
 20
137.1968447776
 11
129.5784870849
 21
137.1559124922
  0
LINE
  5
2D0
100
AcDbEntity
  8
KONSTRUKTIONSELEMENTE
100
AcDbLine
 62
7
  6
CONTINUOUS
 10
129.1900932517
 20
137.8725060125
 11
129.517206114
 21
137.7483094981
  0
LINE
  5
2D1
100
AcDbEntity
  8
KONSTRUKTIONSELEMENTE
100
AcDbLine
 62
7
  6
CONTINUOUS
 10
137.7505131706
 20
132.7932613402
 11
138.0520302048
 21
132.6634275236
  0
LINE
  5
2D2
100
AcDbEntity
  8
KONSTRUKTIONSELEMENTE
100
AcDbLine
 62
7
  6
CONTINUOUS
 10
128.792821979
 20
137.3729064653
 11
129.1851593484
 21
137.1968447776
  0
LINE
  5
2D3
100
AcDbEntity
  8
KONSTRUKTIONSELEMENTE
100
AcDbLine
 62
7
  6
CONTINUOUS
 10
138.0212051876
 20
133.2059394222
 11
138.4919447496
 21
132.9738350176
  0
LINE
  5
2D4
100
AcDbEntity
  8
KONSTRUKTIONSELEMENTE
100
AcDbLine
 62
7
  6
CONTINUOUS
 10
123.8048760133
 20
140.5316587918
 11
124.245674306
 21
140.2956569589
  0
LINE
  5
2D5
100
AcDbEntity
  8
KONSTRUKTIONSELEMENTE
100
AcDbLine
 62
7
  6
CONTINUOUS
 10
126.082332738
 20
139.3123165887
 11
126.5965996549
 21
139.0369799167
  0
LINE
  5
2D6
100
AcDbEntity
  8
KONSTRUKTIONSELEMENTE
100
AcDbLine
 62
7
  6
CONTINUOUS
 10
128.2057925095
 20
137.8397002119
 11
128.792821979
 21
137.3729064653
  0
LINE
  5
2D7
100
AcDbEntity
  8
KONSTRUKTIONSELEMENTE
100
AcDbLine
 62
7
  6
CONTINUOUS
 10
128.6030637822
 20
138.3392997592
 11
129.1900932517
 21
137.8725060125
  0
LINE
  5
2D8
100
AcDbEntity
  8
KONSTRUKTIONSELEMENTE
100
AcDbLine
 62
7
  6
CONTINUOUS
 10
134.8034104668
 20
130.5928351628
 11
135.0834119881
 21
130.2664527562
  0
LINE
  5
2D9
100
AcDbEntity
  8
KONSTRUKTIONSELEMENTE
100
AcDbLine
 62
7
  6
CONTINUOUS
 10
127.7504870244
 20
143.4873670509
 11
127.9206730209
 21
143.2755792748
  0
LINE
  5
2DA
100
AcDbEntity
  8
KONSTRUKTIONSELEMENTE
100
AcDbLine
 62
7
  6
CONTINUOUS
 10
131.5075090636
 20
140.7868367731
 11
131.7021981837
 21
140.4961070956
  0
LINE
  5
2DB
100
AcDbEntity
  8
KONSTRUKTIONSELEMENTE
100
AcDbLine
 62
7
  6
CONTINUOUS
 10
138.8088742925
 20
132.5727452517
 11
138.9350674849
 21
132.077374064
  0
LINE
  5
2DC
100
AcDbEntity
  8
KONSTRUKTIONSELEMENTE
100
AcDbLine
 62
7
  6
CONTINUOUS
 10
100.3090224446
 20
142.7345745111
 11
100.7039221022
 21
142.7554192107
  0
LINE
  5
2DD
100
AcDbEntity
  8
KONSTRUKTIONSELEMENTE
100
AcDbLine
 62
7
  6
CONTINUOUS
 10
126.9972896346
 20
142.0805638939
 11
127.2679019309
 21
142.0563498371
  0
LINE
  5
2DE
100
AcDbEntity
  8
KONSTRUKTIONSELEMENTE
100
AcDbLine
 62
7
  6
CONTINUOUS
 10
130.5320857377
 20
141.9702240109
 11
130.9254104711
 21
141.9292940779
  0
LINE
  5
2DF
100
AcDbEntity
  8
KONSTRUKTIONSELEMENTE
100
AcDbLine
 62
7
  6
CONTINUOUS
 10
130.593363746
 20
141.3778294085
 11
130.9204795941
 21
141.2536305198
  0
LINE
  5
2E0
100
AcDbEntity
  8
KONSTRUKTIONSELEMENTE
100
AcDbLine
 62
7
  6
CONTINUOUS
 10
125.3001505956
 20
142.2651812735
 11
126.5490802126
 21
141.5965088135
  0
LINE
  5
2E1
100
AcDbEntity
  8
KONSTRUKTIONSELEMENTE
100
AcDbLine
 62
7
  6
CONTINUOUS
 10
125.6014294953
 20
142.8279024312
 11
126.9972896346
 21
142.0805638939
  0
LINE
  5
2E2
100
AcDbEntity
  8
KONSTRUKTIONSELEMENTE
100
AcDbLine
 62
7
  6
CONTINUOUS
 10
130.0518320986
 20
139.0901058831
 11
130.6388615681
 21
138.6233121365
  0
LINE
  5
2E3
100
AcDbEntity
  8
KONSTRUKTIONSELEMENTE
100
AcDbLine
 62
7
  6
CONTINUOUS
 10
130.449103325
 20
139.5897053721
 11
131.4274857742
 21
138.8117157943
  0
LINE
  5
2E4
100
AcDbEntity
  8
KONSTRUKTIONSELEMENTE
100
AcDbLine
 62
7
  6
CONTINUOUS
 10
131.6320396341
 20
139.8723108589
 11
132.0233926138
 21
139.5611150278
  0
LINE
  5
2E5
100
AcDbEntity
  8
KONSTRUKTIONSELEMENTE
100
AcDbLine
 62
7
  6
CONTINUOUS
 10
130.9204795941
 20
141.2536305198
 11
131.5075090636
 21
140.7868367731
  0
LINE
  5
2E6
100
AcDbEntity
  8
KONSTRUKTIONSELEMENTE
100
AcDbLine
 62
7
  6
CONTINUOUS
 10
127.9280875131
 20
143.9956343876
 11
128.2452073947
 21
143.7051787337
  0
LINE
  5
2E7
100
AcDbEntity
  8
KONSTRUKTIONSELEMENTE
100
AcDbLine
 62
7
  6
CONTINUOUS
 10
138.0520302048
 20
132.6634275236
 11
138.3320334165
 21
132.3370416972
  0
LINE
  5
2E8
100
AcDbEntity
  8
KONSTRUKTIONSELEMENTE
100
AcDbLine
 62
7
  6
CONTINUOUS
 10
138.4919447496
 20
132.9738350176
 11
138.8088742925
 21
132.5727452517
  0
LINE
  5
2E9
100
AcDbEntity
  8
KONSTRUKTIONSELEMENTE
100
AcDbLine
 62
7
  6
CONTINUOUS
 10
131.90478029
 20
141.2864362621
 11
132.1646939115
 21
140.9438414042
  0
LINE
  5
2EA
100
AcDbEntity
  8
KONSTRUKTIONSELEMENTE
100
AcDbLine
 62
7
  6
CONTINUOUS
 10
137.1736444338
 20
135.4214972923
 11
137.4489558399
 21
135.004120209
  0
LINE
  5
2EB
100
AcDbEntity
  8
KONSTRUKTIONSELEMENTE
100
AcDbLine
 62
7
  6
CONTINUOUS
 10
130.9254104711
 20
141.9292940779
 11
131.3177508205
 21
141.7532300087
  0
LINE
  5
2EC
100
AcDbEntity
  8
KONSTRUKTIONSELEMENTE
100
AcDbLine
 62
7
  6
CONTINUOUS
 10
126.3546268851
 20
144.2347055882
 11
127.7504870244
 21
143.4873670509
  0
LINE
  5
2ED
100
AcDbEntity
  8
KONSTRUKTIONSELEMENTE
100
AcDbLine
 62
7
  6
CONTINUOUS
 10
126.1648943422
 20
144.9396417191
 11
127.9280875131
 21
143.9956343876
  0
LINE
  5
2EE
100
AcDbEntity
  8
KONSTRUKTIONSELEMENTE
100
AcDbLine
 62
7
  6
CONTINUOUS
 10
131.3177508205
 20
141.7532300087
 11
131.90478029
 21
141.2864362621
  0
LINE
  5
2EF
100
AcDbEntity
  8
0
100
AcDbLine
 62
7
  6
CONTINUOUS
 10
144.8026590198
 20
130.4963537298
 11
133.4391701851
 21
146.1368543154
  0
LINE
  5
2F0
100
AcDbEntity
  8
RUNDUNGEN
100
AcDbLine
 62
7
  6
CONTINUOUS
 10
139.5847479061
 20
75.0223580161
 11
139.1085059097
 21
74.454794906
  0
LINE
  5
2F1
100
AcDbEntity
  8
BEZUGSACHSEN
100
AcDbLine
 62
7
  6
CONTINUOUS
 10
139.1085059097
 20
74.454794906
 11
134.3588853559
 21
68.7944175475
  0
LINE
  5
2F2
100
AcDbEntity
  8
0
100
AcDbLine
 62
7
  6
CONTINUOUS
 10
133.4391701851
 20
146.1368543154
 11
115.0526590198
 21
152.110993938
  0
LINE
  5
2F3
100
AcDbEntity
  8
BEZUGSACHSEN
100
AcDbLine
 62
7
  6
CONTINUOUS
 10
181.5580719893
 20
74.6837663518
 11
180.1995814233
 21
76.8670547615
  0
LINE
  5
2F4
100
AcDbEntity
  8
BEZUGSACHSEN
100
AcDbLine
 62
7
  6
CONTINUOUS
 10
187.4477372761
 20
140.7122813476
 11
191.2175028289
 21
152.110993938
  0
LINE
  5
2F5
100
AcDbEntity
  8
BEZUGSACHSEN
100
AcDbLine
 62
7
  6
CONTINUOUS
 10
179.4448644421
 20
79.5085641955
 11
179.4448644421
 21
88.7402468048
  0
LINE
  5
2F6
100
AcDbEntity
  8
BEZUGSACHSEN
100
AcDbLine
 62
7
  6
CONTINUOUS
 10
183.4448644421
 20
98.3479419593
 11
183.4448644421
 21
104.4859675431
  0
LINE
  5
2F7
100
AcDbEntity
  8
BEZUGSACHSEN
100
AcDbLine
 62
7
  6
CONTINUOUS
 10
187.1948644421
 20
139.1423183958
 11
187.1948644421
 21
107.9859057962
  0
LWPOLYLINE
  5
2F8
100
AcDbEntity
  8
BEZUGSACHSEN
100
AcDbPolyline
 62
7
  6
CONTINUOUS
 90
9
 70
0
 10
187.164122541
 20
108.1238431642
 10
187.1012776659
 20
107.8707842248
 10
187.0049257076
 20
107.6268794817
 10
186.8767183701
 20
107.3973698326
 10
186.7190247907
 20
107.1868011546
 10
186.5348863674
 20
106.9992280289
 10
186.3284489268
 20
106.8384999535
 10
186.1041176116
 20
106.707354583
 10
185.8678701495
 20
106.6081442331
  0
LINE
  5
2F9
100
AcDbEntity
  8
BEZUGSACHSEN
100
AcDbLine
 62
7
  6
CONTINUOUS
 10
190.8629528901
 20
115.5842650908
 11
191.116823986
 21
111.163631804
  0
LINE
  5
2FA
100
AcDbEntity
  8
BEZUGSACHSEN
100
AcDbLine
 62
7
  6
CONTINUOUS
 10
191.116823986
 20
111.163631804
 11
190.7956078907
 21
97.6535381268
  0
LINE
  5
2FB
100
AcDbEntity
  8
BEZUGSACHSEN
100
AcDbLine
 62
7
  6
CONTINUOUS
 10
180.1147374232
 20
91.2402468048
 11
188.641016175
 21
106.0081948023
  0
LINE
  5
2FC
100
AcDbEntity
  8
BEZUGSACHSEN
100
AcDbLine
 62
7
  6
CONTINUOUS
 10
185.8678701495
 20
106.6081442331
 11
185.626501721
 21
106.5418309755
  0
LINE
  5
2FD
100
AcDbEntity
  8
BEZUGSACHSEN
100
AcDbLine
 62
7
  6
CONTINUOUS
 10
185.626501721
 20
106.5418309755
 11
185.5408222477
 21
106.526100231
  0
LINE
  5
2FE
100
AcDbEntity
  8
BEZUGSACHSEN
100
AcDbLine
 62
7
  6
CONTINUOUS
 10
185.5408222904
 20
106.5260999656
 11
185.131995512
 21
106.4613442243
  0
LINE
  5
2FF
100
AcDbEntity
  8
KONSTRUKTIONSELEMENTE
100
AcDbLine
 62
7
  6
CONTINUOUS
 10
201.3529481498
 20
106.5254559052
 11
201.7577333722
 21
106.4613442243
  0
LINE
  5
300
100
AcDbEntity
  8
RUNDUNGEN
100
AcDbLine
 62
7
  6
CONTINUOUS
 10
201.623758776
 20
106.4825637158
 11
201.3487916261
 21
106.5261184205
  0
LINE
  5
301
100
AcDbEntity
  8
RUNDUNGEN
100
AcDbLine
 62
7
  6
CONTINUOUS
 10
201.3487916687
 20
106.5261186858
 11
201.277368571
 21
106.5389606842
  0
LINE
  5
302
100
AcDbEntity
  8
RUNDUNGEN
100
AcDbLine
 62
7
  6
CONTINUOUS
 10
201.277368571
 20
106.5389606842
 11
201.0358664295
 21
106.6033712126
  0
LWPOLYLINE
  5
303
100
AcDbEntity
  8
RUNDUNGEN
100
AcDbPolyline
 62
7
  6
CONTINUOUS
 90
8
 70
0
 10
201.0358664295
 20
106.6033712126
 10
200.799042405
 20
106.7007154021
 10
200.5737701824
 20
106.8301139429
 10
200.3661037848
 20
106.9892682194
 10
200.1804975697
 20
107.1754826228
 10
200.0211638135
 20
107.3849215445
 10
199.891177198
 20
107.6135655966
 10
199.7929566681
 20
107.8568804617
  0
LINE
  5
304
100
AcDbEntity
  8
RUNDUNGEN
100
AcDbLine
 62
7
  6
CONTINUOUS
 10
195.7729048982
 20
111.163631804
 11
196.0941209936
 21
97.6535381268
  0
LINE
  5
305
100
AcDbEntity
  8
0
100
AcDbLine
 62
7
  6
CONTINUOUS
 10
196.0267759941
 20
115.5842650908
 11
195.7729048982
 21
111.163631804
  0
LINE
  5
306
100
AcDbEntity
  8
BEZUGSACHSEN
100
AcDbLine
 62
7
  6
CONTINUOUS
 10
191.116823986
 20
111.163631804
 11
195.7729048982
 21
111.163631804
  0
LINE
  5
307
100
AcDbEntity
  8
RUNDUNGEN
100
AcDbLine
 62
7
  6
CONTINUOUS
 10
206.774991461
 20
91.2402468048
 11
198.2487127093
 21
106.0081948023
  0
LINE
  5
308
100
AcDbEntity
  8
BEZUGSACHSEN
100
AcDbLine
 62
7
  6
CONTINUOUS
 10
199.6948644421
 20
139.1423183958
 11
199.6948644421
 21
117.6500907926
  0
LINE
  5
309
100
AcDbEntity
  8
KONSTRUKTIONSELEMENTE
100
AcDbLine
 62
7
  6
CONTINUOUS
 10
199.6948644421
 20
117.6500907926
 11
199.6948644421
 21
107.9859014024
  0
LINE
  5
30A
100
AcDbEntity
  8
RUNDUNGEN
100
AcDbLine
 62
7
  6
CONTINUOUS
 10
199.6948644421
 20
117.6500907778
 11
199.6948644421
 21
107.9859057962
  0
LINE
  5
30B
100
AcDbEntity
  8
RUNDUNGEN
100
AcDbLine
 62
7
  6
CONTINUOUS
 10
199.7929566681
 20
107.8568804617
 11
199.7281983905
 21
108.1096629754
  0
LINE
  5
30C
100
AcDbEntity
  8
KONSTRUKTIONSELEMENTE
100
AcDbLine
 62
7
  6
CONTINUOUS
 10
203.4448644421
 20
98.3479419593
 11
203.4448644421
 21
104.4859675431
  0
LINE
  5
30D
100
AcDbEntity
  8
RUNDUNGEN
100
AcDbLine
 62
7
  6
CONTINUOUS
 10
207.4448644421
 20
79.5085641955
 11
207.4448644421
 21
88.7402468048
  0
LINE
  5
30E
100
AcDbEntity
  8
KONSTRUKTIONSELEMENTE
100
AcDbLine
 62
7
  6
CONTINUOUS
 10
195.6722260554
 20
152.110993938
 11
199.4419916081
 21
140.7122813476
  0
LINE
  5
30F
100
AcDbEntity
  8
BEZUGSACHSEN
100
AcDbLine
 62
7
  6
CONTINUOUS
 10
191.2175028289
 20
130.4963537298
 11
195.6722260554
 21
130.4963537298
  0
LINE
  5
310
100
AcDbEntity
  8
KONSTRUKTIONSELEMENTE
100
AcDbLine
 62
7
  6
CONTINUOUS
 10
198.8877292921
 20
131.6115812756
 11
199.4143635938
 21
131.6115812756
  0
LINE
  5
311
100
AcDbEntity
  8
KONSTRUKTIONSELEMENTE
100
AcDbLine
 62
7
  6
CONTINUOUS
 10
198.8992974823
 20
133.7477128109
 11
199.4259317839
 21
133.7477128109
  0
LINE
  5
312
100
AcDbEntity
  8
KONSTRUKTIONSELEMENTE
100
AcDbLine
 62
7
  6
CONTINUOUS
 10
197.2377624399
 20
134.42340232
 11
197.7643967416
 21
134.42340232
  0
LINE
  5
313
100
AcDbEntity
  8
KONSTRUKTIONSELEMENTE
100
AcDbLine
 62
7
  6
CONTINUOUS
 10
197.9553522468
 20
134.949569411
 11
198.4819865485
 21
134.949569411
  0
LINE
  5
314
100
AcDbEntity
  8
KONSTRUKTIONSELEMENTE
100
AcDbLine
 62
7
  6
CONTINUOUS
 10
197.9554326746
 20
135.2161177965
 11
198.4447008068
 21
135.2161177965
  0
LINE
  5
315
100
AcDbEntity
  8
KONSTRUKTIONSELEMENTE
100
AcDbLine
 62
7
  6
CONTINUOUS
 10
198.7950706349
 20
135.3880410268
 11
199.3217049366
 21
135.3880410268
  0
LINE
  5
316
100
AcDbEntity
  8
KONSTRUKTIONSELEMENTE
100
AcDbLine
 62
7
  6
CONTINUOUS
 10
198.6490987691
 20
135.4458581119
 11
199.1757330708
 21
135.4458581119
  0
LINE
  5
317
100
AcDbEntity
  8
KONSTRUKTIONSELEMENTE
100
AcDbLine
 62
7
  6
CONTINUOUS
 10
197.9558041792
 20
135.4735847493
 11
198.3725086756
 21
135.4735847493
  0
LINE
  5
318
100
AcDbEntity
  8
KONSTRUKTIONSELEMENTE
100
AcDbLine
 62
7
  6
CONTINUOUS
 10
198.5053487661
 20
135.6231338621
 11
199.0319830678
 21
135.6231338621
  0
LINE
  5
319
100
AcDbEntity
  8
KONSTRUKTIONSELEMENTE
100
AcDbLine
 62
7
  6
CONTINUOUS
 10
197.9549296089
 20
135.7219700722
 11
198.2659767179
 21
135.7219700722
  0
LINE
  5
31A
100
AcDbEntity
  8
KONSTRUKTIONSELEMENTE
100
AcDbLine
 62
7
  6
CONTINUOUS
 10
197.9667440591
 20
135.9014481574
 11
198.1605113681
 21
135.9014481574
  0
LINE
  5
31B
100
AcDbEntity
  8
KONSTRUKTIONSELEMENTE
100
AcDbLine
 62
7
  6
CONTINUOUS
 10
198.3536964867
 20
135.9343226351
 11
198.8546747943
 21
135.9343226351
  0
LINE
  5
31C
100
AcDbEntity
  8
KONSTRUKTIONSELEMENTE
100
AcDbLine
 62
7
  6
CONTINUOUS
 10
199.0807270944
 20
135.9834232696
 11
199.1854808208
 21
135.9834232696
  0
LINE
  5
31D
100
AcDbEntity
  8
KONSTRUKTIONSELEMENTE
100
AcDbLine
 62
7
  6
CONTINUOUS
 10
197.2523085072
 20
136.077181624
 11
197.7789428088
 21
136.077181624
  0
LINE
  5
31E
100
AcDbEntity
  8
KONSTRUKTIONSELEMENTE
100
AcDbLine
 62
7
  6
CONTINUOUS
 10
198.9500300613
 20
136.1481572198
 11
199.2223143375
 21
136.1481572198
  0
LINE
  5
31F
100
AcDbEntity
  8
KONSTRUKTIONSELEMENTE
100
AcDbLine
 62
7
  6
CONTINUOUS
 10
197.2842248906
 20
136.3618930721
 11
197.8108591923
 21
136.3618930721
  0
LINE
  5
320
100
AcDbEntity
  8
KONSTRUKTIONSELEMENTE
100
AcDbLine
 62
7
  6
CONTINUOUS
 10
198.8188508522
 20
136.3870751816
 11
199.2223143381
 21
136.3870751816
  0
LINE
  5
321
100
AcDbEntity
  8
KONSTRUKTIONSELEMENTE
100
AcDbLine
 62
7
  6
CONTINUOUS
 10
197.3854954555
 20
136.4580449728
 11
197.9121297571
 21
136.4580449728
  0
LINE
  5
322
100
AcDbEntity
  8
KONSTRUKTIONSELEMENTE
100
AcDbLine
 62
7
  6
CONTINUOUS
 10
198.6704900358
 20
136.7001768132
 11
199.185480819
 21
136.7001768132
  0
LINE
  5
323
100
AcDbEntity
  8
KONSTRUKTIONSELEMENTE
100
AcDbLine
 62
7
  6
CONTINUOUS
 10
198.5861983727
 20
137.0277325905
 11
199.1128326743
 21
137.0277325905
  0
LINE
  5
324
100
AcDbEntity
  8
RUNDUNGEN
100
AcDbLine
 62
7
  6
CONTINUOUS
 10
205.331656895
 20
74.6837663518
 11
206.690147461
 21
76.8670547615
  0
LINE
  5
325
100
AcDbEntity
  8
KONSTRUKTIONSELEMENTE
100
AcDbLine
 62
7
  6
CONTINUOUS
 10
199.1375629936
 20
137.3483355491
 11
199.4122865129
 21
137.3483355491
  0
LINE
  5
326
100
AcDbEntity
  8
KONSTRUKTIONSELEMENTE
100
AcDbLine
 62
7
  6
CONTINUOUS
 10
198.4786925865
 20
137.3697424099
 11
199.0053268881
 21
137.3697424099
  0
LINE
  5
327
100
AcDbEntity
  8
KONSTRUKTIONSELEMENTE
100
AcDbLine
 62
7
  6
CONTINUOUS
 10
198.3369357062
 20
137.7262066649
 11
198.8635700078
 21
137.7262066649
  0
LINE
  5
328
100
AcDbEntity
  8
KONSTRUKTIONSELEMENTE
100
AcDbLine
 62
7
  6
CONTINUOUS
 10
197.2393630564
 20
138.2340167098
 11
197.7659973581
 21
138.2340167098
  0
LINE
  5
329
100
AcDbEntity
  8
KONSTRUKTIONSELEMENTE
100
AcDbLine
 62
7
  6
CONTINUOUS
 10
197.2471540175
 20
138.5923936525
 11
197.7737883191
 21
138.5923936525
  0
LINE
  5
32A
100
AcDbEntity
  8
KONSTRUKTIONSELEMENTE
100
AcDbLine
 62
7
  6
CONTINUOUS
 10
198.8580434352
 20
139.0309591619
 11
199.2216919333
 21
139.0309591619
  0
LINE
  5
32B
100
AcDbEntity
  8
KONSTRUKTIONSELEMENTE
100
AcDbLine
 62
7
  6
CONTINUOUS
 10
198.7441602321
 20
139.3113962357
 11
199.1840358955
 21
139.3113962357
  0
LINE
  5
32C
100
AcDbEntity
  8
KONSTRUKTIONSELEMENTE
100
AcDbLine
 62
7
  6
CONTINUOUS
 10
198.6148234402
 20
139.6298877296
 11
199.1107887578
 21
139.6298877296
  0
LINE
  5
32D
100
AcDbEntity
  8
KONSTRUKTIONSELEMENTE
100
AcDbLine
 62
7
  6
CONTINUOUS
 10
198.4762749113
 20
139.9864335224
 11
199.002909213
 21
139.9864335224
  0
LINE
  5
32E
100
AcDbEntity
  8
KONSTRUKTIONSELEMENTE
100
AcDbLine
 62
7
  6
CONTINUOUS
 10
197.2471540145
 20
140.0259007396
 11
197.7737883162
 21
140.0259007396
  0
LINE
  5
32F
100
AcDbEntity
  8
KONSTRUKTIONSELEMENTE
100
AcDbLine
 62
7
  6
CONTINUOUS
 10
198.3343649246
 20
140.3810331199
 11
198.8609992262
 21
140.3810331199
  0
LINE
  5
330
100
AcDbEntity
  8
KONSTRUKTIONSELEMENTE
100
AcDbLine
 62
7
  6
CONTINUOUS
 10
197.2393630564
 20
140.3842775114
 11
197.7659973581
 21
140.3842775114
  0
LINE
  5
331
100
AcDbEntity
  8
KONSTRUKTIONSELEMENTE
100
AcDbLine
 62
7
  6
CONTINUOUS
 10
197.236075622
 20
141.4152832297
 11
197.7627099236
 21
141.4152832297
  0
LINE
  5
332
100
AcDbEntity
  8
KONSTRUKTIONSELEMENTE
100
AcDbLine
 62
7
  6
CONTINUOUS
 10
197.9902935579
 20
141.678995112
 11
198.3338800143
 21
141.678995112
  0
LINE
  5
333
100
AcDbEntity
  8
KONSTRUKTIONSELEMENTE
100
AcDbLine
 62
7
  6
CONTINUOUS
 10
197.99041257
 20
141.9766418457
 11
198.1945295936
 21
141.9766418457
  0
LINE
  5
334
100
AcDbEntity
  8
KONSTRUKTIONSELEMENTE
100
AcDbLine
 62
7
  6
CONTINUOUS
 10
198.0234527738
 20
142.1392810437
 11
198.0912333403
 21
142.1392810437
  0
LINE
  5
335
100
AcDbEntity
  8
KONSTRUKTIONSELEMENTE
100
AcDbLine
 62
7
  6
CONTINUOUS
 10
197.252698465
 20
142.5787220335
 11
197.7793327667
 21
142.5787220335
  0
LINE
  5
336
100
AcDbEntity
  8
KONSTRUKTIONSELEMENTE
100
AcDbLine
 62
7
  6
CONTINUOUS
 10
197.2850511622
 20
142.7345745111
 11
197.8116854638
 21
142.7345745111
  0
LINE
  5
337
100
AcDbEntity
  8
KONSTRUKTIONSELEMENTE
100
AcDbLine
 62
7
  6
CONTINUOUS
 10
197.3515308201
 20
142.7554192107
 11
197.8781651218
 21
142.7554192107
  0
LINE
  5
338
100
AcDbEntity
  8
BEZUGSACHSEN
100
AcDbLine
 62
7
  6
CONTINUOUS
 10
191.2175028289
 20
146.1368543154
 11
195.6722260554
 21
146.1368543154
  0
LINE
  5
339
100
AcDbEntity
  8
BEZUGSACHSEN
100
AcDbLine
 62
7
  6
CONTINUOUS
 10
195.6722260554
 20
152.110993938
 11
191.2175028289
 21
152.110993938
  0
ARC
  5
33A
100
AcDbEntity
  8
KONSTRUKTIONSELEMENTE
100
AcDbCircle
 62
7
  6
CONTINUOUS
 10
115.0526590198
 20
35.0218986452
 40
36.0
100
AcDbArc
 50
98.9490180653
 51
113.3240322405
  0
ARC
  5
33B
100
AcDbEntity
  8
KONSTRUKTIONSELEMENTE
100
AcDbCircle
 62
7
  6
CONTINUOUS
 10
115.0526590198
 20
35.0218986452
 40
36.0
100
AcDbArc
 50
66.6759677595
 51
81.0509819347
  0
CIRCLE
  5
33C
100
AcDbEntity
  8
BEZUGSACHSEN
100
AcDbCircle
 62
7
  6
CONTINUOUS
 10
115.0526590198
 20
120.8299927669
 40
13.25
  0
ARC
  5
33D
100
AcDbEntity
  8
KONSTRUKTIONSELEMENTE
100
AcDbCircle
 62
7
  6
CONTINUOUS
 10
115.0526590198
 20
95.4799927669
 40
5.6
100
AcDbArc
 50
0.0
 51
180.0
  0
ARC
  5
33E
100
AcDbEntity
  8
RUNDUNGEN
100
AcDbCircle
 62
7
  6
CONTINUOUS
 10
143.0526590198
 20
91.744068687
 40
3.0
100
AcDbArc
 50
166.0
 51
180.0
  0
ARC
  5
33F
100
AcDbEntity
  8
RUNDUNGEN
100
AcDbCircle
 62
7
  6
CONTINUOUS
 10
87.0526590198
 20
91.744068687
 40
3.0
100
AcDbArc
 50
0.0
 51
14.0
  0
CIRCLE
  5
340
100
AcDbEntity
  8
BEZUGSACHSEN
100
AcDbCircle
 62
7
  6
CONTINUOUS
 10
132.7526590198
 20
82.0799927669
 40
2.5
  0
ARC
  5
341
100
AcDbEntity
  8
BEZUGSACHSEN
100
AcDbCircle
 62
7
  6
CONTINUOUS
 10
97.2785210076
 20
70.0799934371
 40
2.0
100
AcDbArc
 50
220.0000250634
 51
270.0000161105
  0
ARC
  5
342
100
AcDbEntity
  8
RUNDUNGEN
100
AcDbCircle
 62
7
  6
CONTINUOUS
 10
92.0526590198
 20
76.3079332354
 40
2.0
100
AcDbArc
 50
180.0
 51
220.0
  0
ARC
  5
343
100
AcDbEntity
  8
BEZUGSACHSEN
100
AcDbCircle
 62
7
  6
CONTINUOUS
 10
132.8267988771
 20
70.079995636
 40
2.0
100
AcDbArc
 50
269.9999310313
 51
319.9998927033
  0
ARC
  5
344
100
AcDbEntity
  8
RUNDUNGEN
100
AcDbCircle
 62
7
  6
CONTINUOUS
 10
138.0526590198
 20
76.3079332354
 40
2.0
100
AcDbArc
 50
320.0
 51
359.9755144818
  0
ARC
  5
345
100
AcDbEntity
  8
KONSTRUKTIONSELEMENTE
100
AcDbCircle
 62
7
  6
CONTINUOUS
 10
64.1795219977
 20
-5.914695693
 40
194.4149678116
100
AcDbArc
 50
45.9202917942
 51
46.2198040864
  0
ARC
  5
346
100
AcDbEntity
  8
KONSTRUKTIONSELEMENTE
100
AcDbCircle
 62
7
  6
CONTINUOUS
 10
89.151802788
 20
19.086464975
 40
159.4235898395
100
AcDbArc
 50
46.2405129432
 51
46.6346843422
  0
ARC
  5
347
100
AcDbEntity
  8
KONSTRUKTIONSELEMENTE
100
AcDbCircle
 62
7
  6
CONTINUOUS
 10
-19.9999515599
 20
79.9003901651
 40
227.1964654149
100
AcDbArc
 50
15.1317550947
 51
15.2728816291
  0
ARC
  5
348
100
AcDbEntity
  8
KONSTRUKTIONSELEMENTE
100
AcDbCircle
 62
7
  6
CONTINUOUS
 10
-11.8648795672
 20
79.4388896147
 40
218.8123568595
100
AcDbArc
 50
15.1709596689
 51
15.3163345801
  0
ARC
  5
349
100
AcDbEntity
  8
0
100
AcDbCircle
 62
7
  6
CONTINUOUS
 10
70.4622341111
 20
108.4393175961
 40
131.2747031609
100
AcDbArc
 50
12.452538124
 51
12.5784113137
  0
ARC
  5
34A
100
AcDbEntity
  8
KONSTRUKTIONSELEMENTE
100
AcDbCircle
 62
7
  6
CONTINUOUS
 10
71.2702837585
 20
108.501875615
 40
130.9864184924
100
AcDbArc
 50
12.4317510099
 51
12.5785114004
  0
ARC
  5
34B
100
AcDbEntity
  8
KONSTRUKTIONSELEMENTE
100
AcDbCircle
 62
7
  6
CONTINUOUS
 10
76.141653365
 20
111.1815983597
 40
126.2169300345
100
AcDbArc
 50
12.8775791987
 51
13.0259316691
  0
ARC
  5
34C
100
AcDbEntity
  8
KONSTRUKTIONSELEMENTE
100
AcDbCircle
 62
7
  6
CONTINUOUS
 10
86.4942756719
 20
113.9495392103
 40
114.081642325
100
AcDbArc
 50
10.6260005665
 51
10.8280558523
  0
ARC
  5
34D
100
AcDbEntity
  8
KONSTRUKTIONSELEMENTE
100
AcDbCircle
 62
7
  6
CONTINUOUS
 10
103.1275418457
 20
118.0895847945
 40
97.9782748241
100
AcDbArc
 50
10.7201901068
 51
10.950778297
  0
ARC
  5
34E
100
AcDbEntity
  8
KONSTRUKTIONSELEMENTE
100
AcDbCircle
 62
7
  6
CONTINUOUS
 10
111.5798601685
 20
121.0963164629
 40
89.589112732
100
AcDbArc
 50
11.4237658477
 51
11.6633015948
  0
ARC
  5
34F
100
AcDbEntity
  8
KONSTRUKTIONSELEMENTE
100
AcDbCircle
 62
7
  6
CONTINUOUS
 10
110.8822918907
 20
122.8316927639
 40
88.4338704263
100
AcDbArc
 50
7.875879699
 51
8.0502562956
  0
ARC
  5
350
100
AcDbEntity
  8
KONSTRUKTIONSELEMENTE
100
AcDbCircle
 62
7
  6
CONTINUOUS
 10
138.5809059091
 20
129.4118901797
 40
61.0412452532
100
AcDbArc
 50
6.5615233707
 51
6.8574401784
  0
ARC
  5
351
100
AcDbEntity
  8
0
100
AcDbCircle
 62
7
  6
CONTINUOUS
 10
142.3713306705
 20
135.7329419844
 40
54.8820574435
100
AcDbArc
 50
358.6327368
 51
0.359381713
  0
ARC
  5
352
100
AcDbEntity
  8
KONSTRUKTIONSELEMENTE
100
AcDbCircle
 62
7
  6
CONTINUOUS
 10
142.897964972
 20
135.7329419844
 40
54.8820574437
100
AcDbArc
 50
358.6327368
 51
0.359381713
  0
ARC
  5
353
100
AcDbEntity
  8
KONSTRUKTIONSELEMENTE
100
AcDbCircle
 62
7
  6
CONTINUOUS
 10
144.2253351727
 20
135.4335586134
 40
53.7306035583
100
AcDbArc
 50
359.0446728256
 51
0.4408351866
  0
ARC
  5
354
100
AcDbEntity
  8
KONSTRUKTIONSELEMENTE
100
AcDbCircle
 62
7
  6
CONTINUOUS
 10
146.2078505907
 20
130.7663466495
 40
53.4766001524
100
AcDbArc
 50
5.553951868
 51
5.9554336497
  0
ARC
  5
355
100
AcDbEntity
  8
KONSTRUKTIONSELEMENTE
100
AcDbCircle
 62
7
  6
CONTINUOUS
 10
148.0494202549
 20
134.5361748191
 40
50.4342605582
100
AcDbArc
 50
358.9822202641
 51
0.4696416752
  0
ARC
  5
356
100
AcDbEntity
  8
0
100
AcDbCircle
 62
7
  6
CONTINUOUS
 10
147.5527510382
 20
134.5360921552
 40
50.4042971584
100
AcDbArc
 50
0.0979117009
 51
0.4700148345
  0
ARC
  5
357
100
AcDbEntity
  8
KONSTRUKTIONSELEMENTE
100
AcDbCircle
 62
7
  6
CONTINUOUS
 10
150.1111630176
 20
132.579328348
 40
49.5324902517
100
AcDbArc
 50
7.4840670455
 51
7.8113691507
  0
ARC
  5
358
100
AcDbEntity
  8
KONSTRUKTIONSELEMENTE
100
AcDbCircle
 62
7
  6
CONTINUOUS
 10
149.5772826596
 20
134.1772694983
 40
49.1174955178
100
AcDbArc
 50
358.954873222
 51
0.3214077002
  0
ARC
  5
359
100
AcDbEntity
  8
KONSTRUKTIONSELEMENTE
100
AcDbCircle
 62
7
  6
CONTINUOUS
 10
154.6818900587
 20
132.9257462239
 40
44.7517733513
100
AcDbArc
 50
358.3172302345
 51
358.8467284615
  0
ARC
  5
35A
100
AcDbEntity
  8
KONSTRUKTIONSELEMENTE
100
AcDbCircle
 62
7
  6
CONTINUOUS
 10
154.698897099
 20
132.9163455934
 40
44.7347605689
100
AcDbArc
 50
1.0648671092
 51
1.6828393283
  0
ARC
  5
35B
100
AcDbEntity
  8
0
100
AcDbCircle
 62
7
  6
CONTINUOUS
 10
155.9193731875
 20
139.3067254891
 40
41.3340378033
100
AcDbArc
 50
0.9969455703
 51
1.4938336929
  0
ARC
  5
35C
100
AcDbEntity
  8
KONSTRUKTIONSELEMENTE
100
AcDbCircle
 62
7
  6
CONTINUOUS
 10
156.4460074909
 20
139.3067254892
 40
41.3340378015
100
AcDbArc
 50
0.9969455703
 51
1.4938336929
  0
ARC
  5
35D
100
AcDbEntity
  8
0
100
AcDbCircle
 62
7
  6
CONTINUOUS
 10
155.9193732183
 20
139.3115687313
 40
41.3340377725
100
AcDbArc
 50
358.506166307
 51
359.0030546668
  0
ARC
  5
35E
100
AcDbEntity
  8
KONSTRUKTIONSELEMENTE
100
AcDbCircle
 62
7
  6
CONTINUOUS
 10
156.4460075217
 20
139.3115687313
 40
41.3340377708
100
AcDbArc
 50
358.506166307
 51
359.0030546668
  0
ARC
  5
35F
100
AcDbEntity
  8
KONSTRUKTIONSELEMENTE
100
AcDbCircle
 62
7
  6
CONTINUOUS
 10
182.3666586287
 20
92.7944989767
 40
45.8441208846
100
AcDbArc
 50
68.2941737996
 51
68.4903981731
  0
ARC
  5
360
100
AcDbEntity
  8
0
100
AcDbCircle
 62
7
  6
CONTINUOUS
 10
181.8400243286
 20
92.7944989806
 40
45.8441208804
100
AcDbArc
 50
68.2941737996
 51
68.4903981731
  0
ARC
  5
361
100
AcDbEntity
  8
BEZUGSACHSEN
100
AcDbCircle
 62
7
  6
CONTINUOUS
 10
193.4448644421
 20
82.0799927669
 40
14.0
100
AcDbArc
 50
211.8907918018
 51
328.1092081982
  0
CIRCLE
  5
362
100
AcDbEntity
  8
0
100
AcDbCircle
 62
7
  6
CONTINUOUS
 10
193.4448644421
 20
82.0799927669
 40
5.75
  0
ARC
  5
363
100
AcDbEntity
  8
BEZUGSACHSEN
100
AcDbCircle
 62
7
  6
CONTINUOUS
 10
184.4448644421
 20
88.7402468048
 40
5.0
100
AcDbArc
 50
150.0
 51
180.0
  0
ARC
  5
364
100
AcDbEntity
  8
BEZUGSACHSEN
100
AcDbCircle
 62
7
  6
CONTINUOUS
 10
184.4448644421
 20
79.5085641955
 40
5.0
100
AcDbArc
 50
180.0
 51
211.8907918018
  0
ARC
  5
365
100
AcDbEntity
  8
BEZUGSACHSEN
100
AcDbCircle
 62
7
  6
CONTINUOUS
 10
178.4448644421
 20
98.3479419593
 40
5.0
100
AcDbArc
 50
330.0
 51
360.0
  0
ARC
  5
366
100
AcDbEntity
  8
BEZUGSACHSEN
100
AcDbCircle
 62
7
  6
CONTINUOUS
 10
185.4448644421
 20
104.4859675431
 40
2.0
100
AcDbArc
 50
99.0
 51
180.0
  0
ARC
  5
367
100
AcDbEntity
  8
RUNDUNGEN
100
AcDbCircle
 62
7
  6
CONTINUOUS
 10
202.4448644421
 20
88.7402468048
 40
5.0
100
AcDbArc
 50
0.0
 51
30.0
  0
ARC
  5
368
100
AcDbEntity
  8
RUNDUNGEN
100
AcDbCircle
 62
7
  6
CONTINUOUS
 10
202.4448644421
 20
79.5085641955
 40
5.0
100
AcDbArc
 50
328.1092081982
 51
360.0
  0
ARC
  5
369
100
AcDbEntity
  8
RUNDUNGEN
100
AcDbCircle
 62
7
  6
CONTINUOUS
 10
210.7856412506
 20
113.2464647455
 40
14.476433574
100
AcDbArc
 50
208.8852859717
 51
210.0002435559
  0
ARC
  5
36A
100
AcDbEntity
  8
KONSTRUKTIONSELEMENTE
100
AcDbCircle
 62
7
  6
CONTINUOUS
 10
208.4448644421
 20
98.3479419593
 40
5.0
100
AcDbArc
 50
180.0
 51
210.0
  0
ARC
  5
36B
100
AcDbEntity
  8
KONSTRUKTIONSELEMENTE
100
AcDbCircle
 62
7
  6
CONTINUOUS
 10
201.4448644421
 20
104.4859675431
 40
2.0
100
AcDbArc
 50
0.0
 51
81.0
  0
ARC
  5
36C
100
AcDbEntity
  8
KONSTRUKTIONSELEMENTE
100
AcDbCircle
 62
7
  6
CONTINUOUS
 10
157.6682244477
 20
133.7731262029
 40
42.032506112
100
AcDbArc
 50
6.4731562984
 51
6.9245921445
  0
ARC
  5
36D
100
AcDbEntity
  8
KONSTRUKTIONSELEMENTE
100
AcDbCircle
 62
7
  6
CONTINUOUS
 10
160.4078987679
 20
140.4106505174
 40
37.6214551201
100
AcDbArc
 50
353.3856405663
 51
353.8219602644
  0
ARC
  5
36E
100
AcDbEntity
  8
0
100
AcDbCircle
 62
7
  6
CONTINUOUS
 10
159.8812644686
 20
140.4106505171
 40
37.6214551178
100
AcDbArc
 50
353.3856405663
 51
353.8219602644
  0
ARC
  5
36F
100
AcDbEntity
  8
KONSTRUKTIONSELEMENTE
100
AcDbCircle
 62
7
  6
CONTINUOUS
 10
171.8501399176
 20
119.4898314027
 40
34.9105381237
100
AcDbArc
 50
41.4582650473
 51
41.7924723833
  0
ARC
  5
370
100
AcDbEntity
  8
KONSTRUKTIONSELEMENTE
100
AcDbCircle
 62
7
  6
CONTINUOUS
 10
164.8317737258
 20
136.2676162862
 40
34.3907480877
100
AcDbArc
 50
359.80097804
 51
0.1990216753
  0
ARC
  5
371
100
AcDbEntity
  8
KONSTRUKTIONSELEMENTE
100
AcDbCircle
 62
7
  6
CONTINUOUS
 10
166.0343595229
 20
135.8225142156
 40
33.3992592283
100
AcDbArc
 50
359.7950698585
 51
0.2049298483
  0
ARC
  5
372
100
AcDbEntity
  8
KONSTRUKTIONSELEMENTE
100
AcDbCircle
 62
7
  6
CONTINUOUS
 10
170.0870086994
 20
142.2184100923
 40
28.5864304695
100
AcDbArc
 50
347.121533598
 51
347.4233750847
  0
ARC
  5
373
100
AcDbEntity
  8
KONSTRUKTIONSELEMENTE
100
AcDbCircle
 62
7
  6
CONTINUOUS
 10
170.6020900458
 20
142.3851836688
 40
27.1779318384
100
AcDbArc
 50
357.954847911
 51
0.4080157851
  0
ARC
  5
374
100
AcDbEntity
  8
0
100
AcDbCircle
 62
7
  6
CONTINUOUS
 10
170.0754557439
 20
142.3851836688
 40
27.1779318385
100
AcDbArc
 50
357.954847911
 51
0.4080157851
  0
ARC
  5
375
100
AcDbEntity
  8
KONSTRUKTIONSELEMENTE
100
AcDbCircle
 62
7
  6
CONTINUOUS
 10
171.4988074152
 20
141.8657302631
 40
26.492314071
100
AcDbArc
 50
358.531837133
 51
0.4191564172
  0
ARC
  5
376
100
AcDbEntity
  8
KONSTRUKTIONSELEMENTE
100
AcDbCircle
 62
7
  6
CONTINUOUS
 10
176.5350059904
 20
138.8371883454
 40
22.6875134424
100
AcDbArc
 50
358.2854597459
 51
0.4893610307
  0
ARC
  5
377
100
AcDbEntity
  8
KONSTRUKTIONSELEMENTE
100
AcDbCircle
 62
7
  6
CONTINUOUS
 10
177.3572700274
 20
138.3184262137
 40
22.0763409123
100
AcDbArc
 50
357.4814665034
 51
0.5018120544
  0
ARC
  5
378
100
AcDbEntity
  8
KONSTRUKTIONSELEMENTE
100
AcDbCircle
 62
7
  6
CONTINUOUS
 10
179.7878862606
 20
138.8761415962
 40
19.9001228312
100
AcDbArc
 50
350.1697286685
 51
350.8249916996
  0
ARC
  5
379
100
AcDbEntity
  8
0
100
AcDbCircle
 62
7
  6
CONTINUOUS
 10
184.3490310465
 20
150.0871011547
 40
18.8600258933
100
AcDbArc
 50
313.3026797558
 51
313.7269170438
  0
ARC
  5
37A
100
AcDbEntity
  8
KONSTRUKTIONSELEMENTE
100
AcDbCircle
 62
7
  6
CONTINUOUS
 10
184.8756653493
 20
150.0871011535
 40
18.8600258916
100
AcDbArc
 50
313.3026797558
 51
313.7269170439
  0
ARC
  5
37B
100
AcDbEntity
  8
KONSTRUKTIONSELEMENTE
100
AcDbCircle
 62
7
  6
CONTINUOUS
 10
192.0750923175
 20
152.642284978
 40
18.1128489776
100
AcDbArc
 50
292.8642818006
 51
293.1139134123
  0
ARC
  5
37C
100
AcDbEntity
  8
KONSTRUKTIONSELEMENTE
100
AcDbCircle
 62
7
  6
CONTINUOUS
 10
191.6920132393
 20
126.5386771619
 40
16.8620542933
100
AcDbArc
 50
67.7587730103
 51
67.945740744
  0
ARC
  5
37D
100
AcDbEntity
  8
0
100
AcDbCircle
 62
7
  6
CONTINUOUS
 10
185.7119606925
 20
145.0556947794
 40
11.8035597308
100
AcDbArc
 50
347.8864591578
 51
348.6591181717
  0
ARC
  5
37E
100
AcDbEntity
  8
KONSTRUKTIONSELEMENTE
100
AcDbCircle
 62
7
  6
CONTINUOUS
 10
186.2385949956
 20
145.0556947791
 40
11.8035597293
100
AcDbArc
 50
347.8864591577
 51
348.6591181717
  0
ARC
  5
37F
100
AcDbEntity
  8
KONSTRUKTIONSELEMENTE
100
AcDbCircle
 62
7
  6
CONTINUOUS
 10
194.5166050924
 20
153.3599538065
 40
11.1245781864
100
AcDbArc
 50
287.2294024151
 51
287.5882348998
  0
ARC
  5
380
100
AcDbEntity
  8
0
100
AcDbCircle
 62
7
  6
CONTINUOUS
 10
193.9899707907
 20
153.3599538065
 40
11.1245781864
100
AcDbArc
 50
287.2294024151
 51
287.5882348998
  0
ARC
  5
381
100
AcDbEntity
  8
KONSTRUKTIONSELEMENTE
100
AcDbCircle
 62
7
  6
CONTINUOUS
 10
190.8836990532
 20
142.3712434667
 40
10.9528562304
100
AcDbArc
 50
320.3892103768
 51
321.001372674
  0
ARC
  5
382
100
AcDbEntity
  8
KONSTRUKTIONSELEMENTE
100
AcDbCircle
 62
7
  6
CONTINUOUS
 10
189.2461587414
 20
144.8089776025
 40
9.1663186219
100
AcDbArc
 50
342.5453800025
 51
343.2476108205
  0
ARC
  5
383
100
AcDbEntity
  8
BEZUGSACHSEN
100
AcDbCircle
 62
7
  6
CONTINUOUS
 10
192.1948644421
 20
139.1423183958
 40
5.0
100
AcDbArc
 50
161.6999918899
 51
180.0
  0
ARC
  5
384
100
AcDbEntity
  8
BEZUGSACHSEN
100
AcDbCircle
 62
7
  6
CONTINUOUS
 10
194.6948644421
 20
139.1423183958
 40
5.0
100
AcDbArc
 50
0.0
 51
18.3000081101
  0
SPLINE
  5
385
100
AcDbEntity
  8
KONSTRUKTIONSELEMENTE
100
AcDbSpline
 62
7
  6
CONTINUOUS
 70
0
 71
3
 72
10
 73
6
 74
0
 42
0.0000001
 43
0.0000001
 44
0.0000000001
 40
0.0
 40
0.0
 40
0.0
 40
0.0
 40
0.5032549073
 40
0.7521805001
 40
1.0
 40
1.0
 40
1.0
 40
1.0
 10
129.837499315
 20
76.8670547615
 30
0.0
 10
129.6753400943
 20
76.5237632132
 30
0.0
 10
129.4733929174
 20
75.9882168379
 30
0.0
 10
129.3305843369
 20
75.2459436296
 30
0.0
 10
129.3061643094
 20
74.8707255329
 30
0.0
 10
129.3061643094
 20
74.6837663518
 30
0.0
  0
SPLINE
  5
386
100
AcDbEntity
  8
KONSTRUKTIONSELEMENTE
100
AcDbSpline
 62
7
  6
CONTINUOUS
 70
0
 71
3
 72
9
 73
5
 74
0
 42
0.0000001
 43
0.0000001
 44
0.0000000001
 40
0.0
 40
0.0
 40
0.0
 40
0.0
 40
0.500127309
 40
1.0
 40
1.0
 40
1.0
 40
1.0
 10
100.2678187246
 20
79.5085641955
 30
0.0
 10
100.4315231872
 20
79.9167381953
 30
0.0
 10
100.700352648
 20
80.7588068444
 30
0.0
 10
100.7991537302
 20
81.6404381199
 30
0.0
 10
100.7991537302
 20
82.0799927669
 30
0.0
  0
SPLINE
  5
387
100
AcDbEntity
  8
KONSTRUKTIONSELEMENTE
100
AcDbSpline
 62
7
  6
CONTINUOUS
 70
0
 71
3
 72
9
 73
5
 74
0
 42
0.0000001
 43
0.0000001
 44
0.0000000001
 40
0.0
 40
0.0
 40
0.0
 40
0.0
 40
0.499872691
 40
1.0
 40
1.0
 40
1.0
 40
1.0
 10
129.3061643094
 20
82.0799927669
 30
0.0
 10
129.3061643094
 20
81.6404381199
 30
0.0
 10
129.4049653916
 20
80.7588068444
 30
0.0
 10
129.6737948524
 20
79.9167381953
 30
0.0
 10
129.837499315
 20
79.5085641955
 30
0.0
  0
SPLINE
  5
388
100
AcDbEntity
  8
KONSTRUKTIONSELEMENTE
100
AcDbSpline
 62
7
  6
CONTINUOUS
 70
0
 71
3
 72
10
 73
6
 74
0
 42
0.0000001
 43
0.0000001
 44
0.0000000001
 40
0.0
 40
0.0
 40
0.0
 40
0.0
 40
0.2478194999
 40
0.4967450927
 40
1.0
 40
1.0
 40
1.0
 40
1.0
 10
100.7991537302
 20
74.6837663518
 30
0.0
 10
100.7991537302
 20
74.8707255329
 30
0.0
 10
100.7747337028
 20
75.2459436296
 30
0.0
 10
100.6319251222
 20
75.9882168379
 30
0.0
 10
100.4299779453
 20
76.5237632132
 30
0.0
 10
100.2678187246
 20
76.8670547615
 30
0.0
  0
SPLINE
  5
389
100
AcDbEntity
  8
KONSTRUKTIONSELEMENTE
100
AcDbSpline
 62
7
  6
CONTINUOUS
 70
0
 71
3
 72
12
 73
8
 74
0
 42
0.0000001
 43
0.0000001
 44
0.0000000001
 40
0.0
 40
0.0
 40
0.0
 40
0.0
 40
0.128332905
 40
0.2559283412
 40
0.5070254104
 40
0.7544688563
 40
1.0
 40
1.0
 40
1.0
 40
1.0
 10
100.7991537302
 20
88.7402468048
 30
0.0
 10
100.7991537302
 20
88.8740975124
 30
0.0
 10
100.8243317169
 20
89.1416914506
 30
0.0
 10
100.9683069165
 20
89.652998736
 30
0.0
 10
101.297204979
 20
90.2288428178
 30
0.0
 10
101.8359594504
 20
90.7939889428
 30
0.0
 10
102.2509186985
 20
91.1012310932
 30
0.0
 10
102.4659900755
 20
91.2402468048
 30
0.0
  0
SPLINE
  5
38A
100
AcDbEntity
  8
KONSTRUKTIONSELEMENTE
100
AcDbSpline
 62
7
  6
CONTINUOUS
 70
0
 71
3
 72
12
 73
8
 74
0
 42
0.0000001
 43
0.0000001
 44
0.0000000001
 40
0.0
 40
0.0
 40
0.0
 40
0.0
 40
0.2455337194
 40
0.4929798549
 40
0.7440762807
 40
0.8716691016
 40
1.0
 40
1.0
 40
1.0
 40
1.0
 10
127.6393279642
 20
91.2402468048
 30
0.0
 10
127.8544015844
 20
91.1012296432
 30
0.0
 10
128.269365108
 20
90.793983986
 30
0.0
 10
128.8081212029
 20
90.2288324496
 30
0.0
 10
129.1370153947
 20
89.6529868842
 30
0.0
 10
129.280987058
 20
89.1416844868
 30
0.0
 10
129.3061643094
 20
88.8740954116
 30
0.0
 10
129.3061643094
 20
88.7402468048
 30
0.0
  0
SPLINE
  5
38B
100
AcDbEntity
  8
KONSTRUKTIONSELEMENTE
100
AcDbSpline
 62
7
  6
CONTINUOUS
 70
0
 71
3
 72
11
 73
7
 74
0
 42
0.0000001
 43
0.0000001
 44
0.0000000001
 40
0.0
 40
0.0
 40
0.0
 40
0.0
 40
0.2344948827
 40
0.4812375711
 40
0.7380847624
 40
1.0
 40
1.0
 40
1.0
 40
1.0
 10
100.2678187246
 20
76.8670547615
 30
0.0
 10
100.1772368466
 20
77.0588168641
 30
0.0
 10
100.0362052071
 20
77.4751633177
 30
0.0
 10
99.9674255135
 20
78.1442926994
 30
0.0
 10
100.0416101017
 20
78.8372139404
 30
0.0
 10
100.1796422176
 20
79.2887085057
 30
0.0
 10
100.2678187246
 20
79.5085641955
 30
0.0
  0
SPLINE
  5
38C
100
AcDbEntity
  8
KONSTRUKTIONSELEMENTE
100
AcDbSpline
 62
7
  6
CONTINUOUS
 70
0
 71
3
 72
11
 73
7
 74
0
 42
0.0000001
 43
0.0000001
 44
0.0000000001
 40
0.0
 40
0.0
 40
0.0
 40
0.0
 40
0.2619152376
 40
0.5187624289
 40
0.7655051173
 40
1.0
 40
1.0
 40
1.0
 40
1.0
 10
129.837499315
 20
79.5085641955
 30
0.0
 10
129.9256758221
 20
79.2887085057
 30
0.0
 10
130.063707938
 20
78.8372139404
 30
0.0
 10
130.1378925262
 20
78.1442926994
 30
0.0
 10
130.0691128325
 20
77.4751633177
 30
0.0
 10
129.928081193
 20
77.0588168641
 30
0.0
 10
129.837499315
 20
76.8670547615
 30
0.0
  0
LINE
  5
38D
100
AcDbEntity
  8
KONSTRUKTIONSELEMENTE
100
AcDbLine
 62
7
  6
CONTINUOUS
 10
199.2123622188
 20
138.1583800591
 11
197.9824244888
 21
141.1869581822
  0
LINE
  5
38E
100
AcDbEntity
  8
KONSTRUKTIONSELEMENTE
100
AcDbLine
 62
7
  6
CONTINUOUS
 10
198.0134301651
 20
142.6032023275
 11
198.1506870622
 21
142.3540325805
  0
LINE
  5
38F
100
AcDbEntity
  8
KONSTRUKTIONSELEMENTE
100
AcDbLine
 62
7
  6
CONTINUOUS
 10
198.1506870622
 20
142.3540325805
 11
198.2998529831
 21
142.024260108
  0
LINE
  5
390
100
AcDbEntity
  8
KONSTRUKTIONSELEMENTE
100
AcDbLine
 62
7
  6
CONTINUOUS
 10
198.2998529831
 20
142.024260108
 11
198.324449133
 21
141.969854813
  0
LINE
  5
391
100
AcDbEntity
  8
KONSTRUKTIONSELEMENTE
100
AcDbLine
 62
7
  6
CONTINUOUS
 10
198.324449133
 20
141.969854813
 11
198.4271004168
 21
141.7168111208
  0
LINE
  5
392
100
AcDbEntity
  8
KONSTRUKTIONSELEMENTE
100
AcDbLine
 62
7
  6
CONTINUOUS
 10
198.4271004168
 20
141.7168111208
 11
198.4570980708
 21
141.6428617098
  0
LINE
  5
393
100
AcDbEntity
  8
KONSTRUKTIONSELEMENTE
100
AcDbLine
 62
7
  6
CONTINUOUS
 10
198.4570980708
 20
141.6428617098
 11
198.8509221322
 21
140.6718928208
  0
LINE
  5
394
100
AcDbEntity
  8
KONSTRUKTIONSELEMENTE
100
AcDbLine
 62
7
  6
CONTINUOUS
 10
199.0283439846
 20
140.1907624319
 11
198.8509221322
 21
140.6718928208
  0
LINE
  5
395
100
AcDbEntity
  8
KONSTRUKTIONSELEMENTE
100
AcDbLine
 62
7
  6
CONTINUOUS
 10
199.1724351675
 20
139.7476857871
 11
199.0283439846
 21
140.1907624319
  0
LINE
  5
396
100
AcDbEntity
  8
KONSTRUKTIONSELEMENTE
100
AcDbLine
 62
7
  6
CONTINUOUS
 10
199.0319830678
 20
137.6539355119
 11
198.9821329141
 21
137.7750206818
  0
LINE
  5
397
100
AcDbEntity
  8
KONSTRUKTIONSELEMENTE
100
AcDbLine
 62
7
  6
CONTINUOUS
 10
198.9821329141
 20
137.7750206818
 11
198.8546747943
 21
138.0845834366
  0
LINE
  5
398
100
AcDbEntity
  8
KONSTRUKTIONSELEMENTE
100
AcDbLine
 62
7
  6
CONTINUOUS
 10
199.1757330664
 20
137.2377419708
 11
199.0319830678
 21
137.6539355119
  0
LINE
  5
399
100
AcDbEntity
  8
KONSTRUKTIONSELEMENTE
100
AcDbLine
 62
7
  6
CONTINUOUS
 10
198.8635700112
 20
136.2926995777
 11
198.2122799151
 21
137.6671327229
  0
LINE
  5
39A
100
AcDbEntity
  8
KONSTRUKTIONSELEMENTE
100
AcDbLine
 62
7
  6
CONTINUOUS
 10
198.2122799151
 20
137.6671327229
 11
197.9110522468
 21
138.3027606783
  0
LINE
  5
39B
100
AcDbEntity
  8
KONSTRUKTIONSELEMENTE
100
AcDbLine
 62
7
  6
CONTINUOUS
 10
197.9110522468
 20
138.3027606783
 11
197.7737883191
 21
138.5923936525
  0
LINE
  5
39C
100
AcDbEntity
  8
KONSTRUKTIONSELEMENTE
100
AcDbLine
 62
7
  6
CONTINUOUS
 10
198.8635700112
 20
136.2926995777
 11
199.005326885
 21
136.0556941328
  0
LINE
  5
39D
100
AcDbEntity
  8
KONSTRUKTIONSELEMENTE
100
AcDbLine
 62
7
  6
CONTINUOUS
 10
199.005326885
 20
136.0556941328
 11
199.112832677
 21
135.9526022752
  0
LINE
  5
39E
100
AcDbEntity
  8
KONSTRUKTIONSELEMENTE
100
AcDbLine
 62
7
  6
CONTINUOUS
 10
197.7659973581
 20
140.3842775114
 11
197.9060381295
 21
140.0885184534
  0
LINE
  5
39F
100
AcDbEntity
  8
KONSTRUKTIONSELEMENTE
100
AcDbLine
 62
7
  6
CONTINUOUS
 10
197.9060381295
 20
140.0885184534
 11
198.8546747943
 21
138.0845834366
  0
LINE
  5
3A0
100
AcDbEntity
  8
KONSTRUKTIONSELEMENTE
100
AcDbLine
 62
7
  6
CONTINUOUS
 10
197.9875271256
 20
135.993855607
 11
198.0560730609
 21
136.0120186697
  0
LINE
  5
3A1
100
AcDbEntity
  8
KONSTRUKTIONSELEMENTE
100
AcDbLine
 62
7
  6
CONTINUOUS
 10
198.475723864
 20
133.6403275277
 11
197.9484701059
 21
134.5377172833
  0
LINE
  5
3A2
100
AcDbEntity
  8
KONSTRUKTIONSELEMENTE
100
AcDbLine
 62
7
  6
CONTINUOUS
 10
199.4245980829
 20
132.0250261016
 11
198.6866069582
 21
133.2813716925
  0
LINE
  5
3A3
100
AcDbEntity
  8
KONSTRUKTIONSELEMENTE
100
AcDbLine
 62
7
  6
CONTINUOUS
 10
197.9121297571
 20
136.4580449728
 11
198.0485596592
 21
136.4254634957
  0
LINE
  5
3A4
100
AcDbEntity
  8
KONSTRUKTIONSELEMENTE
100
AcDbLine
 62
7
  6
CONTINUOUS
 10
198.0485596592
 20
136.4254634957
 11
198.1523613657
 21
136.3148929834
  0
LINE
  5
3A5
100
AcDbEntity
  8
KONSTRUKTIONSELEMENTE
100
AcDbLine
 62
7
  6
CONTINUOUS
 10
198.1523613657
 20
136.3148929834
 11
198.2928424298
 21
136.0755889256
  0
LINE
  5
3A6
100
AcDbEntity
  8
KONSTRUKTIONSELEMENTE
100
AcDbLine
 62
7
  6
CONTINUOUS
 10
198.3998294009
 20
135.8272036027
 11
198.319664114
 21
136.0133306385
  0
LINE
  5
3A7
100
AcDbEntity
  8
KONSTRUKTIONSELEMENTE
100
AcDbLine
 62
7
  6
CONTINUOUS
 10
198.319664114
 20
136.0133306385
 11
198.2928424298
 21
136.0755889256
  0
LINE
  5
3A8
100
AcDbEntity
  8
KONSTRUKTIONSELEMENTE
100
AcDbLine
 62
7
  6
CONTINUOUS
 10
198.5447375379
 20
135.3811772996
 11
198.3998294009
 21
135.8272036027
  0
SPLINE
  5
3A9
100
AcDbEntity
  8
0
100
AcDbSpline
 62
7
  6
CONTINUOUS
 70
0
 71
3
 72
11
 73
7
 74
0
 42
0.0000001
 43
0.0000001
 44
0.0000000001
 40
0.0
 40
0.0
 40
0.0
 40
0.0
 40
0.2500000139
 40
0.4999999847
 40
0.7500000079
 40
1.0
 40
1.0
 40
1.0
 40
1.0
 10
195.6722260554
 20
130.4963537298
 30
0.0
 10
195.7987307967
 20
129.2585097733
 30
0.0
 10
196.0081581783
 20
126.778085808
 30
0.0
 10
196.1769527772
 20
123.0480357289
 30
0.0
 10
196.1916203634
 20
119.3141417641
 30
0.0
 10
196.0981164448
 20
116.8265095841
 30
0.0
 10
196.0267759941
 20
115.5842650908
 30
0.0
  0
SPLINE
  5
3AA
100
AcDbEntity
  8
0
100
AcDbSpline
 62
7
  6
CONTINUOUS
 70
0
 71
3
 72
11
 73
7
 74
0
 42
0.0000001
 43
0.0000001
 44
0.0000000001
 40
0.0
 40
0.0
 40
0.0
 40
0.0
 40
0.2501778167
 40
0.5000000005
 40
0.7498221845
 40
1.0
 40
1.0
 40
1.0
 40
1.0
 10
195.6722260554
 20
146.1368543154
 30
0.0
 10
195.8361147733
 20
144.8394784933
 30
0.0
 10
196.0908404723
 20
142.236554735
 30
0.0
 10
196.2223833526
 20
138.3166040138
 30
0.0
 10
196.0908404766
 20
134.3966532982
 30
0.0
 10
195.8361147725
 20
131.7937295459
 30
0.0
 10
195.6722260554
 20
130.4963537298
 30
0.0
  0
LINE
  5
3AB
100
AcDbEntity
  8
0
100
AcDbLine
 62
7
  6
CONTINUOUS
 10
198.8992974823
 20
133.7477128109
 11
198.6940971551
 21
133.946170172
  0
SPLINE
  5
3AC
100
AcDbEntity
  8
BEZUGSACHSEN
100
AcDbSpline
 62
7
  6
CONTINUOUS
 70
0
 71
3
 72
11
 73
7
 74
0
 42
0.0000001
 43
0.0000001
 44
0.0000000001
 40
0.0
 40
0.0
 40
0.0
 40
0.0
 40
0.2530704919
 40
0.5000000005
 40
0.7469295092
 40
1.0
 40
1.0
 40
1.0
 40
1.0
 10
191.2175028289
 20
152.110993938
 30
0.0
 10
191.0564828176
 20
151.6241146336
 30
0.0
 10
190.8014391973
 20
150.6390072437
 30
0.0
 10
190.6665932714
 20
149.1239241235
 30
0.0
 10
190.8014391932
 20
147.6088410045
 30
0.0
 10
191.0564828183
 20
146.6237336178
 30
0.0
 10
191.2175028289
 20
146.1368543154
 30
0.0
  0
LINE
  5
3AD
100
AcDbEntity
  8
KONSTRUKTIONSELEMENTE
100
AcDbLine
 62
7
  6
CONTINUOUS
 10
199.1107887578
 20
139.6298877296
 11
199.002909213
 21
139.9864335224
  0
LINE
  5
3AE
100
AcDbEntity
  8
KONSTRUKTIONSELEMENTE
100
AcDbLine
 62
7
  6
CONTINUOUS
 10
199.002909213
 20
139.9864335224
 11
198.8609992262
 21
140.3810331199
  0
LINE
  5
3AF
100
AcDbEntity
  8
KONSTRUKTIONSELEMENTE
100
AcDbLine
 62
7
  6
CONTINUOUS
 10
198.3338800143
 20
141.678995112
 11
198.7300822828
 21
140.7034182757
  0
LINE
  5
3B0
100
AcDbEntity
  8
KONSTRUKTIONSELEMENTE
100
AcDbLine
 62
7
  6
CONTINUOUS
 10
198.7300822828
 20
140.7034182757
 11
198.7581789936
 21
140.6342307929
  0
LINE
  5
3B1
100
AcDbEntity
  8
KONSTRUKTIONSELEMENTE
100
AcDbLine
 62
7
  6
CONTINUOUS
 10
198.7581789936
 20
140.6342307929
 11
198.8609992262
 21
140.3810331199
  0
LINE
  5
3B2
100
AcDbEntity
  8
KONSTRUKTIONSELEMENTE
100
AcDbLine
 62
7
  6
CONTINUOUS
 10
198.1945295936
 20
141.9766418457
 11
198.2295082465
 21
141.901956565
  0
LINE
  5
3B3
100
AcDbEntity
  8
KONSTRUKTIONSELEMENTE
100
AcDbLine
 62
7
  6
CONTINUOUS
 10
198.2295082465
 20
141.901956565
 11
198.3338800143
 21
141.678995112
  0
LINE
  5
3B4
100
AcDbEntity
  8
KONSTRUKTIONSELEMENTE
100
AcDbLine
 62
7
  6
CONTINUOUS
 10
198.0912333403
 20
142.1392810437
 11
198.1172176159
 21
142.0984306408
  0
LINE
  5
3B5
100
AcDbEntity
  8
KONSTRUKTIONSELEMENTE
100
AcDbLine
 62
7
  6
CONTINUOUS
 10
198.1172176159
 20
142.0984306408
 11
198.1945295936
 21
141.9766418457
  0
LINE
  5
3B6
100
AcDbEntity
  8
KONSTRUKTIONSELEMENTE
100
AcDbLine
 62
7
  6
CONTINUOUS
 10
198.0744170714
 20
142.1461688346
 11
198.0912333403
 21
142.1392810437
  0
SPLINE
  5
3B7
100
AcDbEntity
  8
0
100
AcDbSpline
 62
7
  6
CONTINUOUS
 70
0
 71
3
 72
8
 73
4
 74
0
 42
0.0000001
 43
0.0000001
 44
0.0000000001
 40
0.0
 40
0.0
 40
0.0
 40
0.0
 40
1.0
 40
1.0
 40
1.0
 40
1.0
 10
197.2377624399
 20
134.42340232
 30
0.0
 10
197.787920507
 20
133.4862278959
 30
0.0
 10
198.3379486687
 20
132.5489771717
 30
0.0
 10
198.8877292921
 20
131.6115812756
 30
0.0
  0
LINE
  5
3B8
100
AcDbEntity
  8
0
100
AcDbLine
 62
7
  6
CONTINUOUS
 10
197.9569745994
 20
134.6222270871
 11
197.957048149
 21
134.5377044147
  0
LINE
  5
3B9
100
AcDbEntity
  8
0
100
AcDbLine
 62
7
  6
CONTINUOUS
 10
197.957048149
 20
134.5377044147
 11
197.9570465965
 21
134.52350237
  0
LINE
  5
3BA
100
AcDbEntity
  8
KONSTRUKTIONSELEMENTE
100
AcDbLine
 62
7
  6
CONTINUOUS
 10
199.4122865129
 20
137.3483355491
 11
199.252200609
 21
137.7432159254
  0
LINE
  5
3BB
100
AcDbEntity
  8
KONSTRUKTIONSELEMENTE
100
AcDbLine
 62
7
  6
CONTINUOUS
 10
199.252200609
 20
137.7432159254
 11
199.1020137658
 21
138.1136330955
  0
LINE
  5
3BC
100
AcDbEntity
  8
KONSTRUKTIONSELEMENTE
100
AcDbLine
 62
7
  6
CONTINUOUS
 10
199.1020137658
 20
138.1136330955
 11
199.0772043311
 21
138.1748184334
  0
LINE
  5
3BD
100
AcDbEntity
  8
KONSTRUKTIONSELEMENTE
100
AcDbLine
 62
7
  6
CONTINUOUS
 10
199.0772043311
 20
138.1748184334
 11
197.8733237974
 21
141.1426882763
  0
LINE
  5
3BE
100
AcDbEntity
  8
KONSTRUKTIONSELEMENTE
100
AcDbLine
 62
7
  6
CONTINUOUS
 10
197.8733237974
 20
141.1426882763
 11
197.7627099236
 21
141.4152832297
  0
LINE
  5
3BF
100
AcDbEntity
  8
0
100
AcDbLine
 62
7
  6
CONTINUOUS
 10
198.3369357062
 20
137.7262066649
 11
197.8984917633
 21
138.6514862277
  0
LINE
  5
3C0
100
AcDbEntity
  8
0
100
AcDbLine
 62
7
  6
CONTINUOUS
 10
197.8984917633
 20
138.6514862277
 11
197.2471540145
 21
140.0259007396
  0
LINE
  5
3C1
100
AcDbEntity
  8
0
100
AcDbLine
 62
7
  6
CONTINUOUS
 10
198.3369357062
 20
137.7262066649
 11
198.4786925865
 21
137.3697424099
  0
LINE
  5
3C2
100
AcDbEntity
  8
0
100
AcDbLine
 62
7
  6
CONTINUOUS
 10
198.4786925865
 20
137.3697424099
 11
198.5861983727
 21
137.0277325905
  0
LINE
  5
3C3
100
AcDbEntity
  8
KONSTRUKTIONSELEMENTE
100
AcDbLine
 62
7
  6
CONTINUOUS
 10
199.0319830678
 20
135.6231338621
 11
199.1757330708
 21
135.4458581119
  0
LINE
  5
3C4
100
AcDbEntity
  8
KONSTRUKTIONSELEMENTE
100
AcDbLine
 62
7
  6
CONTINUOUS
 10
198.8546747943
 20
135.9343226351
 11
199.0319830678
 21
135.6231338621
  0
LINE
  5
3C5
100
AcDbEntity
  8
KONSTRUKTIONSELEMENTE
100
AcDbLine
 62
7
  6
CONTINUOUS
 10
198.8546747943
 20
135.9343226351
 11
198.7177281937
 21
136.2236694981
  0
LINE
  5
3C6
100
AcDbEntity
  8
KONSTRUKTIONSELEMENTE
100
AcDbLine
 62
7
  6
CONTINUOUS
 10
198.7177281937
 20
136.2236694981
 11
197.7659973581
 21
138.2340167098
  0
LINE
  5
3C7
100
AcDbEntity
  8
0
100
AcDbLine
 62
7
  6
CONTINUOUS
 10
197.2393630564
 20
138.2340167098
 11
198.0494002545
 21
136.5230246133
  0
LINE
  5
3C8
100
AcDbEntity
  8
0
100
AcDbLine
 62
7
  6
CONTINUOUS
 10
198.0494002545
 20
136.5230246133
 11
198.0599419429
 21
136.5007539936
  0
LINE
  5
3C9
100
AcDbEntity
  8
0
100
AcDbLine
 62
7
  6
CONTINUOUS
 10
198.0599419429
 20
136.5007539936
 11
198.0869739897
 21
136.4436449255
  0
LINE
  5
3CA
100
AcDbEntity
  8
0
100
AcDbLine
 62
7
  6
CONTINUOUS
 10
198.0869739897
 20
136.4436449255
 11
198.1433861626
 21
136.3244636579
  0
LINE
  5
3CB
100
AcDbEntity
  8
0
100
AcDbLine
 62
7
  6
CONTINUOUS
 10
198.5053487661
 20
135.6231338621
 11
198.4611625851
 21
135.7006895918
  0
LINE
  5
3CC
100
AcDbEntity
  8
0
100
AcDbLine
 62
7
  6
CONTINUOUS
 10
198.4611625851
 20
135.7006895918
 11
198.4141516781
 21
135.7831990114
  0
LINE
  5
3CD
100
AcDbEntity
  8
KONSTRUKTIONSELEMENTE
100
AcDbLine
 62
7
  6
CONTINUOUS
 10
199.1854808208
 20
135.9834232696
 11
199.2041039878
 21
136.065796839
  0
LINE
  5
3CE
100
AcDbEntity
  8
KONSTRUKTIONSELEMENTE
100
AcDbLine
 62
7
  6
CONTINUOUS
 10
199.2041039878
 20
136.065796839
 11
199.2223143375
 21
136.1481572198
  0
LINE
  5
3CF
100
AcDbEntity
  8
0
100
AcDbLine
 62
7
  6
CONTINUOUS
 10
198.6490987691
 20
135.4458581119
 11
198.6393769618
 21
135.4578587598
  0
LINE
  5
3D0
100
AcDbEntity
  8
0
100
AcDbLine
 62
7
  6
CONTINUOUS
 10
198.6393769618
 20
135.4578587598
 11
198.5414952783
 21
135.578590985
  0
LINE
  5
3D1
100
AcDbEntity
  8
0
100
AcDbLine
 62
7
  6
CONTINUOUS
 10
198.5414952783
 20
135.578590985
 11
198.5053487661
 21
135.6231338621
  0
LINE
  5
3D2
100
AcDbEntity
  8
KONSTRUKTIONSELEMENTE
100
AcDbLine
 62
7
  6
CONTINUOUS
 10
199.1128326743
 20
137.0277325905
 11
199.0053268881
 21
137.3697424099
  0
LINE
  5
3D3
100
AcDbEntity
  8
KONSTRUKTIONSELEMENTE
100
AcDbLine
 62
7
  6
CONTINUOUS
 10
199.0053268881
 20
137.3697424099
 11
198.8991272716
 21
137.636808285
  0
LINE
  5
3D4
100
AcDbEntity
  8
KONSTRUKTIONSELEMENTE
100
AcDbLine
 62
7
  6
CONTINUOUS
 10
198.8991272716
 20
137.636808285
 11
198.8635700078
 21
137.7262066649
  0
LINE
  5
3D5
100
AcDbEntity
  8
KONSTRUKTIONSELEMENTE
100
AcDbLine
 62
7
  6
CONTINUOUS
 10
197.7737883162
 20
140.0259007396
 11
198.7232637938
 21
138.0223148142
  0
LINE
  5
3D6
100
AcDbEntity
  8
KONSTRUKTIONSELEMENTE
100
AcDbLine
 62
7
  6
CONTINUOUS
 10
198.7232637938
 20
138.0223148142
 11
198.8635700078
 21
137.7262066649
  0
LINE
  5
3D7
100
AcDbEntity
  8
KONSTRUKTIONSELEMENTE
100
AcDbLine
 62
7
  6
CONTINUOUS
 10
198.4447008068
 20
135.2161177965
 11
198.3725086756
 21
135.4735847493
  0
LINE
  5
3D8
100
AcDbEntity
  8
KONSTRUKTIONSELEMENTE
100
AcDbLine
 62
7
  6
CONTINUOUS
 10
198.3725086756
 20
135.4735847493
 11
198.2659767179
 21
135.7219700722
  0
LINE
  5
3D9
100
AcDbEntity
  8
KONSTRUKTIONSELEMENTE
100
AcDbLine
 62
7
  6
CONTINUOUS
 10
198.1605113681
 20
135.9014481574
 11
198.2659767179
 21
135.7219700722
  0
LINE
  5
3DA
100
AcDbEntity
  8
KONSTRUKTIONSELEMENTE
100
AcDbLine
 62
7
  6
CONTINUOUS
 10
198.0560730609
 20
136.0120186697
 11
198.0822746473
 21
135.9842902973
  0
LINE
  5
3DB
100
AcDbEntity
  8
KONSTRUKTIONSELEMENTE
100
AcDbLine
 62
7
  6
CONTINUOUS
 10
198.0822746473
 20
135.9842902973
 11
198.1605113681
 21
135.9014481574
  0
LINE
  5
3DC
100
AcDbEntity
  8
0
100
AcDbLine
 62
7
  6
CONTINUOUS
 10
197.236075622
 20
141.4152832297
 11
197.6544069443
 21
140.3842785726
  0
LINE
  5
3DD
100
AcDbEntity
  8
KONSTRUKTIONSELEMENTE
100
AcDbLine
 62
7
  6
CONTINUOUS
 10
199.4143635938
 20
131.6115812756
 11
199.2365576835
 21
131.914726846
  0
LINE
  5
3DE
100
AcDbEntity
  8
KONSTRUKTIONSELEMENTE
100
AcDbLine
 62
7
  6
CONTINUOUS
 10
199.2365576835
 20
131.914726846
 11
198.4992423488
 21
133.1714152018
  0
LINE
  5
3DF
100
AcDbEntity
  8
KONSTRUKTIONSELEMENTE
100
AcDbLine
 62
7
  6
CONTINUOUS
 10
198.4992423488
 20
133.1714152018
 11
198.2885306297
 21
133.5304579434
  0
LINE
  5
3E0
100
AcDbEntity
  8
KONSTRUKTIONSELEMENTE
100
AcDbLine
 62
7
  6
CONTINUOUS
 10
198.2885306297
 20
133.5304579434
 11
197.7643967416
 21
134.42340232
  0
SPLINE
  5
3E1
100
AcDbEntity
  8
BEZUGSACHSEN
100
AcDbSpline
 62
7
  6
CONTINUOUS
 70
0
 71
3
 72
9
 73
5
 74
0
 42
0.0000001
 43
0.0000001
 44
0.0000000001
 40
0.0
 40
0.0
 40
0.0
 40
0.0
 40
0.2478797211
 40
1.0
 40
1.0
 40
1.0
 40
1.0
 10
189.779507947
 20
92.4698343738
 30
0.0
 10
189.7343371641
 20
92.4096826319
 30
0.0
 10
189.5517230758
 20
92.1673069123
 30
0.0
 10
189.368022543
 20
91.9257528628
 30
0.0
 10
189.2298674928
 20
91.744068687
 30
0.0
  0
SPLINE
  5
3E2
100
AcDbEntity
  8
RUNDUNGEN
100
AcDbSpline
 62
7
  6
CONTINUOUS
 70
0
 71
3
 72
9
 73
5
 74
0
 42
0.0000001
 43
0.0000001
 44
0.0000000001
 40
0.0
 40
0.0
 40
0.0
 40
0.0
 40
0.2478797211
 40
1.0
 40
1.0
 40
1.0
 40
1.0
 10
197.1102209372
 20
92.4698343738
 30
0.0
 10
197.1553917201
 20
92.4096826319
 30
0.0
 10
197.3380058085
 20
92.1673069123
 30
0.0
 10
197.5217063413
 20
91.9257528628
 30
0.0
 10
197.6598613914
 20
91.744068687
 30
0.0
  0
SPLINE
  5
3E3
100
AcDbEntity
  8
0
100
AcDbSpline
 62
7
  6
CONTINUOUS
 70
0
 71
3
 72
11
 73
7
 74
0
 42
0.0000001
 43
0.0000001
 44
0.0000000001
 40
0.0
 40
0.0
 40
0.0
 40
0.0
 40
0.2530704919
 40
0.5000000005
 40
0.7469295092
 40
1.0
 40
1.0
 40
1.0
 40
1.0
 10
195.6722260554
 20
152.110993938
 30
0.0
 10
195.8332460667
 20
151.6241146336
 30
0.0
 10
196.0882896869
 20
150.6390072437
 30
0.0
 10
196.2231356129
 20
149.1239241235
 30
0.0
 10
196.0882896911
 20
147.6088410045
 30
0.0
 10
195.833246066
 20
146.6237336178
 30
0.0
 10
195.6722260554
 20
146.1368543154
 30
0.0
  0
LINE
  5
3E4
100
AcDbEntity
  8
0
100
AcDbLine
 62
7
  6
CONTINUOUS
 10
198.3343649246
 20
140.3810331199
 11
198.071987254
 21
141.0271292176
  0
LINE
  5
3E5
100
AcDbEntity
  8
0
100
AcDbLine
 62
7
  6
CONTINUOUS
 10
198.071987254
 20
141.0271292176
 11
197.9836652097
 21
141.2446076474
  0
LINE
  5
3E6
100
AcDbEntity
  8
0
100
AcDbLine
 62
7
  6
CONTINUOUS
 10
198.3343649246
 20
140.3810331199
 11
198.4762749113
 21
139.9864335224
  0
LINE
  5
3E7
100
AcDbEntity
  8
0
100
AcDbLine
 62
7
  6
CONTINUOUS
 10
198.4762749113
 20
139.9864335224
 11
198.4946338739
 21
139.9258352219
  0
SPLINE
  5
3E8
100
AcDbEntity
  8
BEZUGSACHSEN
100
AcDbSpline
 62
7
  6
CONTINUOUS
 70
0
 71
3
 72
11
 73
7
 74
0
 42
0.0000001
 43
0.0000001
 44
0.0000000001
 40
0.0
 40
0.0
 40
0.0
 40
0.0
 40
0.2500000139
 40
0.4999999847
 40
0.7500000079
 40
1.0
 40
1.0
 40
1.0
 40
1.0
 10
191.2175028289
 20
130.4963537298
 30
0.0
 10
191.0909980876
 20
129.2585097733
 30
0.0
 10
190.8815707059
 20
126.778085808
 30
0.0
 10
190.712776107
 20
123.0480357289
 30
0.0
 10
190.6981085209
 20
119.3141417641
 30
0.0
 10
190.7916124395
 20
116.8265095841
 30
0.0
 10
190.8629528901
 20
115.5842650908
 30
0.0
  0
SPLINE
  5
3E9
100
AcDbEntity
  8
BEZUGSACHSEN
100
AcDbSpline
 62
7
  6
CONTINUOUS
 70
0
 71
3
 72
11
 73
7
 74
0
 42
0.0000001
 43
0.0000001
 44
0.0000000001
 40
0.0
 40
0.0
 40
0.0
 40
0.0
 40
0.2501778167
 40
0.5000000005
 40
0.7498221845
 40
1.0
 40
1.0
 40
1.0
 40
1.0
 10
191.2175028289
 20
146.1368543154
 30
0.0
 10
191.053614111
 20
144.8394784933
 30
0.0
 10
190.798888412
 20
142.236554735
 30
0.0
 10
190.6673455317
 20
138.3166040138
 30
0.0
 10
190.7988884077
 20
134.3966532982
 30
0.0
 10
191.0536141117
 20
131.7937295459
 30
0.0
 10
191.2175028289
 20
130.4963537298
 30
0.0
  0
ELLIPSE
  5
3EA
100
AcDbEntity
  8
KONSTRUKTIONSELEMENTE
100
AcDbEllipse
 62
7
  6
CONTINUOUS
 10
115.0526590198
 20
32.8216941467
 30
0.0
 11
0.0
 21
62.3538290725
 31
0.0
 40
0.5773502692
 41
-0.3571758222
 42
-0.1561898301
  0
ELLIPSE
  5
3EB
100
AcDbEntity
  8
KONSTRUKTIONSELEMENTE
100
AcDbEllipse
 62
7
  6
CONTINUOUS
 10
115.0526590198
 20
32.8216941467
 30
0.0
 11
0.0
 21
62.3538290725
 31
0.0
 40
0.5773502692
 41
0.1561898301
 42
0.3571758222
  0
ELLIPSE
  5
3EC
100
AcDbEntity
  8
RUNDUNGEN
100
AcDbEllipse
 62
7
  6
CONTINUOUS
 10
198.1416830937
 20
100.1339842368
 30
0.0
 11
0.4911388899
 21
8.0206306137
 31
0.0
 40
0.2488636556
 41
-4.3827759479
 42
-3.4259921791
  0
ELLIPSE
  5
3ED
100
AcDbEntity
  8
BEZUGSACHSEN
100
AcDbEllipse
 62
7
  6
CONTINUOUS
 10
188.7480457906
 20
100.1339842368
 30
0.0
 11
-0.4911388899
 21
8.0206306137
 31
0.0
 40
0.2488636556
 41
-2.857193128
 42
-1.9004093593
  0
ENDSEC
  0
SECTION
  2
OBJECTS
  0
DICTIONARY
  5
C
100
AcDbDictionary
280
0
281
1
  3
ACAD_GROUP
350
D
  3
ACAD_MLINESTYLE
350
17
  3
ACAD_LAYOUT
350
1A
  3
ACAD_PLOTSETTINGS
350
19
  3
ACAD_PLOTSTYLENAME
350
E
  0
DICTIONARY
  5
D
102
{ACAD_REACTORS
330
C
102
}
100
AcDbDictionary
280
0
281
1
  0
ACDBDICTIONARYWDFLT
  5
E
102
{ACAD_REACTORS
330
C
102
}
100
AcDbDictionary
281
1
  3
Normal
350
F
100
AcDbDictionaryWithDefault
340
F
  0
DICTIONARY
  5
17
102
{ACAD_REACTORS
330
C
102
}
100
AcDbDictionary
280
0
281
1
  3
Standard
350
18
  0
DICTIONARY
  5
19
102
{ACAD_REACTORS
330
C
102
}
100
AcDbDictionary
281
1
  0
DICTIONARY
  5
1A
102
{ACAD_REACTORS
330
C
102
}
100
AcDbDictionary
281
1
  3
Model
350
3EE
  3
Layout1
350
3EF
  0
ACDBPLACEHOLDER
  5
F
102
{ACAD_REACTORS
330
E
102
}
  0
MLINESTYLE
  5
18
102
{ACAD_REACTORS
330
17
102
}
100
AcDbMlineStyle
  2
STANDARD
 70
0
  3

 62
256
 51
90.0
 52
90.0
 71
2
 49
0.5
 62
256
  6
BYLAYER
 49
-0.5
 62
256
  6
BYLAYER
  0
LAYOUT
  5
3EE
102
{ACAD_REACTORS
330
1A
102
}
100
AcDbPlotSettings
  1

  2
none_device
  4
ISO_A4_(297.00_x_210.00_MM)
  6

 40
0.0
 41
0.0
 42
0.0
 43
0.0
 44
297.0
 45
210.0
 46
0.0
 47
0.0
 48
0.0
 49
0.0
140
0.0
141
0.0
142
1.0
143
1.0
 70
1024
 72
1
 73
0
 74
0
  7

 75
0
147
1.0
148
0.0
149
0.0
100
AcDbLayout
  1
Model
 70
0
 71
0
 10
0.0
 20
0.0
 11
297.0
 21
210.0
 12
0.0
 22
0.0
 32
0.0
 14
0.0
 24
0.0
 34
0.0
 15
0.0
 25
0.0
 35
0.0
146
0.0
 13
0.0
 23
0.0
 33
0.0
 16
1.0
 26
0.0
 36
0.0
 17
0.0
 27
1.0
 37
0.0
 76
0
330
209
345
0
346
0
  0
LAYOUT
  5
3EF
102
{ACAD_REACTORS
330
1A
102
}
100
AcDbPlotSettings
  1

  2
none_device
  4
ISO_A4_(297.00_x_210.00_MM)
  6

 40
0.0
 41
0.0
 42
0.0
 43
0.0
 44
297.0
 45
210.0
 46
0.0
 47
0.0
 48
0.0
 49
0.0
140
0.0
141
0.0
142
1.0
143
1.0
 70
0
 72
1
 73
0
 74
0
  7

 75
0
147
1.0
148
0.0
149
0.0
100
AcDbLayout
  1
Layout1
 70
0
 71
1
 10
0.0
 20
0.0
 11
297.0
 21
210.0
 12
0.0
 22
0.0
 32
0.0
 14
0.0
 24
0.0
 34
0.0
 15
0.0
 25
0.0
 35
0.0
146
0.0
 13
0.0
 23
0.0
 33
0.0
 16
1.0
 26
0.0
 36
0.0
 17
0.0
 27
1.0
 37
0.0
 76
0
330
20A
345
0
346
0
  0
ENDSEC
  0
EOF
