999
DXF file: vvs28-dxf.dxf
999
Pro/ENGINEER 2010140 by Parametric Technology Corporation
  0
SECTION
  2
HEADER
  9
$ACADVER
  1
AC1021
  9
$DWGCODEPAGE
  3
ANSI_1252
  9
$EXTMAX
 10
420.0
 20
297.0
 30
0.0
  9
$EXTMIN
 10
0.0
 20
0.0
 30
0.0
  9
$LIMMIN
 10
0.0
 20
0.0
  9
$LIMMAX
 10
420.0
 20
297.0
  9
$VIEWCTR
 10
210.0
 20
148.5
  9
$VIEWSIZE
 40
297.0
  9
$CLAYER
  8
0
  9
$LTSCALE
 40
23.1
  9
$CELTYPE
  6
BYLAYER
  9
$DIMSCALE
 40
1.0
  9
$DIMASZ
 40
3.5
  9
$DIMEXO
 40
2.625
  9
$DIMDLI
 40
15.96
  9
$DIMEXE
 40
7.56
  9
$DIMCEN
 40
3.78
  9
$DIMLFAC
 40
1.0
  9
$DIMBLK
  1
_FILLED
  9
$DIMTXT
 40
3.5
  9
$DIMTOL
 70
1
  9
$DIMLIM
 70
0
  9
$DIMTFAC
 40
1.0
  9
$DIMTP
 40
0.005
  9
$DIMTM
 40
0.005
  9
$PDMODE
 70
3
  9
$PDSIZE
 40
0.3125
  9
$HANDSEED
  5
3EC
  9
$TILEMODE
 70
1
  9
$MEASUREMENT
 70
1
  9
$INSUNITS
 70
4
  0
ENDSEC
  0
SECTION
  2
CLASSES
  0
CLASS
  1
ACDBDICTIONARYWDFLT
  2
AcDbDictionaryWithDefault
  3
AutoCAD 2000
 90
0
 91
1
280
0
281
0
  0
CLASS
  1
ACDBPLACEHOLDER
  2
AcDbPlaceHolder
  3
AutoCAD 2000
 90
0
 91
1
280
0
281
0
  0
CLASS
  1
LAYOUT
  2
AcDbLayout
  3
AutoCAD 2000
 90
0
 91
0
280
0
281
0
  0
ENDSEC
  0
SECTION
  2
TABLES
  0
TABLE
  2
VPORT
  5
8
100
AcDbSymbolTable
 70
2
  0
VPORT
  5
1F4
100
AcDbSymbolTableRecord
100
AcDbViewportTableRecord
  2
*ACTIVE
 70
0
 10
0.0
 20
0.0
 11
1.0
 21
1.0
 12
210.0
 22
148.5
 13
0.0
 23
0.0
 14
1.0
 24
1.0
 15
0.0
 25
0.0
 16
0.0
 26
0.0
 36
1.0
 17
0.0
 27
0.0
 37
0.0
 40
297.0
 41
1.4141414141
 42
50.0
 43
0.0
 44
0.0
 50
0.0
 51
0.0
 71
0
 72
100
 73
1
 74
1
 75
0
 76
0
 77
0
 78
0
  0
ENDTAB
  0
TABLE
  2
LTYPE
  5
5
100
AcDbSymbolTable
 70
6
  0
LTYPE
  5
14
100
AcDbSymbolTableRecord
100
AcDbLinetypeTableRecord
  2
BYBLOCK
 70
0
  3

 72
65
 73
0
 40
0.0
  0
LTYPE
  5
15
100
AcDbSymbolTableRecord
100
AcDbLinetypeTableRecord
  2
BYLAYER
 70
0
  3

 72
65
 73
0
 40
0.0
  0
LTYPE
  5
16
100
AcDbSymbolTableRecord
100
AcDbLinetypeTableRecord
  2
CONTINUOUS
 70
64
  3
Solid line
 72
65
 73
0
 40
0.0
  0
LTYPE
  5
1F5
100
AcDbSymbolTableRecord
100
AcDbLinetypeTableRecord
  2
CENTER
 70
64
  3
____ _ ____ _ ____ _ ____ _ ____ _ ____ _ ____
 72
65
 73
4
 40
0.6
 49
0.375
 74
0
 49
-0.075
 74
0
 49
0.075
 74
0
 49
-0.075
 74
0
  0
LTYPE
  5
1F6
100
AcDbSymbolTableRecord
100
AcDbLinetypeTableRecord
  2
HIDDEN
 70
64
  3
- - - - - - - - - - - - - - - - - - - -
 72
65
 73
2
 40
0.2
 49
0.1
 74
0
 49
-0.1
 74
0
  0
LTYPE
  5
1F7
100
AcDbSymbolTableRecord
100
AcDbLinetypeTableRecord
  2
PHANTOM
 70
64
  3
_____ _ _ _____ _ _ _____ _ _ _____
 72
65
 73
6
 40
0.8
 49
0.45
 74
0
 49
-0.05
 74
0
 49
0.1
 74
0
 49
-0.05
 74
0
 49
0.1
 74
0
 49
-0.05
 74
0
  0
LTYPE
  5
1F8
100
AcDbSymbolTableRecord
100
AcDbLinetypeTableRecord
  2
DOT
 70
64
  3
. . . . . . . . . . . . . . . . . . . .
 72
65
 73
2
 40
0.2
 49
0.1
 74
0
 49
-0.1
 74
0
  0
LTYPE
  5
1F9
100
AcDbSymbolTableRecord
100
AcDbLinetypeTableRecord
  2
DASHED
 70
64
  3
- - - - - - - - - - - - - - - - - - - -
 72
65
 73
2
 40
0.2
 49
0.1
 74
0
 49
-0.1
 74
0
  0
ENDTAB
  0
TABLE
  2
LAYER
  5
2
100
AcDbSymbolTable
 70
36
  0
LAYER
  5
10
100
AcDbSymbolTableRecord
100
AcDbLayerTableRecord
  2
0
 70
0
 62
7
  6
CONTINUOUS
370
-3
390
F
  0
LAYER
  5
1FA
100
AcDbSymbolTableRecord
100
AcDbLayerTableRecord
  2
DEFAULT_1
 70
0
 62
7
  6
CENTER
370
-3
390
F
  0
LAYER
  5
1FB
100
AcDbSymbolTableRecord
100
AcDbLayerTableRecord
  2
DEFAULT_2
 70
0
 62
8
  6
HIDDEN
370
-3
390
F
  0
LAYER
  5
1FC
100
AcDbSymbolTableRecord
100
AcDbLayerTableRecord
  2
DEFAULT_3
 70
0
 62
7
  6
PHANTOM
370
-3
390
F
  0
LAYER
  5
1FD
100
AcDbSymbolTableRecord
100
AcDbLayerTableRecord
  2
AUSFORMSCHRAEGEN
 70
0
 62
7
  6
CONTINUOUS
370
-3
390
F
  0
LAYER
  5
1FE
100
AcDbSymbolTableRecord
100
AcDbLayerTableRecord
  2
BEZUGSACHSEN
 70
0
 62
7
  6
CONTINUOUS
370
-3
390
F
  0
LAYER
  5
1FF
100
AcDbSymbolTableRecord
100
AcDbLayerTableRecord
  2
BEZUGSEBENEN
 70
0
 62
7
  6
CONTINUOUS
370
-3
390
F
  0
LAYER
  5
200
100
AcDbSymbolTableRecord
100
AcDbLayerTableRecord
  2
BG_STARTBEZUEGE
 70
0
 62
7
  6
CONTINUOUS
370
-3
390
F
  0
LAYER
  5
201
100
AcDbSymbolTableRecord
100
AcDbLayerTableRecord
  2
HILFEN
 70
0
 62
7
  6
CONTINUOUS
370
-3
390
F
  0
LAYER
  5
202
100
AcDbSymbolTableRecord
100
AcDbLayerTableRecord
  2
NORM
 70
0
 62
7
  6
CONTINUOUS
370
-3
390
F
  0
LAYER
  5
203
100
AcDbSymbolTableRecord
100
AcDbLayerTableRecord
  2
PLATZIERUNG
 70
0
 62
7
  6
CONTINUOUS
370
-3
390
F
  0
LAYER
  5
204
100
AcDbSymbolTableRecord
100
AcDbLayerTableRecord
  2
RUNDUNGEN
 70
0
 62
7
  6
CONTINUOUS
370
-3
390
F
  0
LAYER
  5
205
100
AcDbSymbolTableRecord
100
AcDbLayerTableRecord
  2
T_STARTBEZUEGE
 70
0
 62
7
  6
CONTINUOUS
370
-3
390
F
  0
LAYER
  5
206
100
AcDbSymbolTableRecord
100
AcDbLayerTableRecord
  2
ZEICHNUNGSBEMASSUNGEN
 70
0
 62
7
  6
CONTINUOUS
370
-3
390
F
  0
ENDTAB
  0
TABLE
  2
STYLE
  5
3
100
AcDbSymbolTable
 70
1
  0
STYLE
  5
11
100
AcDbSymbolTableRecord
100
AcDbTextStyleTableRecord
  2
STANDARD
 70
0
 40
0.0
 41
0.7
 50
0.0
 71
0
 42
0.2
  3
txt
  4

  0
STYLE
  5
207
100
AcDbSymbolTableRecord
100
AcDbTextStyleTableRecord
  2
TEXTSTYLE_1
 70
0
 40
0.0
 41
0.8
 50
0.0
 71
0
 42
0.2
  3
gdt
  4

  0
ENDTAB
  0
TABLE
  2
VIEW
  5
6
100
AcDbSymbolTable
 70
0
  0
ENDTAB
  0
TABLE
  2
UCS
  5
7
100
AcDbSymbolTable
 70
0
  0
ENDTAB
  0
TABLE
  2
APPID
  5
9
100
AcDbSymbolTable
 70
1
  0
APPID
  5
208
100
AcDbSymbolTableRecord
100
AcDbRegAppTableRecord
  2
ACAD
 70
0
  0
ENDTAB
  0
TABLE
  2
BLOCK_RECORD
  5
1
100
AcDbSymbolTable
 70
0
  0
BLOCK_RECORD
  5
209
100
AcDbSymbolTableRecord
100
AcDbBlockTableRecord
  2
*Model_Space
  0
BLOCK_RECORD
  5
20A
100
AcDbSymbolTableRecord
100
AcDbBlockTableRecord
  2
*Paper_Space
  0
ENDTAB
  0
TABLE
  2
DIMSTYLE
  5
A
100
AcDbSymbolTable
 70
1
100
AcDbDimStyleTable
 71
0
  0
DIMSTYLE
105
20B
100
AcDbSymbolTableRecord
100
AcDbDimStyleTableRecord
  2
STANDARD
 70
0
  3

  4

 40
1.0
 41
3.5
 42
0.0625
 43
0.38
 44
0.18
 45
0.0
 46
0.0
 47
0.005
 48
0.005
140
3.5
141
0.09
142
0.0
143
25.4
144
1.0
145
0.0
146
1.0
147
0.09
 71
1.0
 72
0.0
 73
0
 74
0
 75
0
 76
0
 77
1
 78
8
170
0
171
2
172
0
173
0
174
0
175
0
176
0
177
0
178
5
270
2
271
3
272
3
273
2
274
2
275
0
280
0
281
0
282
0
283
1
284
8
285
0
286
0
287
3
288
0
340
11
  0
ENDTAB
  0
ENDSEC
  0
SECTION
  2
BLOCKS
  0
BLOCK
  5
20
100
AcDbEntity
  8
0
100
AcDbBlockBegin
  2
*Model_Space
 70
0
 10
0.0
 20
0.0
 30
0.0
  3
*Model_Space
  1

  0
ENDBLK
  5
21
100
AcDbEntity
  8
0
100
AcDbBlockEnd
  0
BLOCK
  5
1C
100
AcDbEntity
  8
0
100
AcDbBlockBegin
  2
*Paper_Space
 70
0
 10
0.0
 20
0.0
 30
0.0
  3
*Paper_Space
  1

  0
ENDBLK
  5
1D
100
AcDbEntity
  8
0
100
AcDbBlockEnd
  0
ENDSEC
  0
SECTION
  2
ENTITIES
  0
LINE
  5
20C
100
AcDbEntity
  8
0
100
AcDbLine
 62
7
  6
CONTINUOUS
 10
0.0
 20
0.0
 11
0.0
 21
297.0
  0
LINE
  5
20D
100
AcDbEntity
  8
0
100
AcDbLine
 62
7
  6
CONTINUOUS
 10
0.0
 20
0.0
 11
420.0
 21
0.0
  0
LINE
  5
20E
100
AcDbEntity
  8
0
100
AcDbLine
 62
7
  6
CONTINUOUS
 10
0.0
 20
297.0
 11
420.0
 21
297.0
  0
LINE
  5
20F
100
AcDbEntity
  8
0
100
AcDbLine
 62
7
  6
CONTINUOUS
 10
420.0
 20
0.0
 11
420.0
 21
297.0
  0
LINE
  5
210
100
AcDbEntity
  8
0
100
AcDbLine
 62
7
  6
CONTINUOUS
 10
95.3628386814
 20
269.1241366769
 11
93.4536485036
 21
268.1067896124
  0
LINE
  5
211
100
AcDbEntity
  8
0
100
AcDbLine
 62
7
  6
CONTINUOUS
 10
94.2328938049
 20
266.6444297873
 11
96.1420839827
 21
267.6617768518
  0
LINE
  5
212
100
AcDbEntity
  8
0
100
AcDbLine
 62
7
  6
CONTINUOUS
 10
98.9603963946
 20
266.9730389376
 11
100.3922903935
 21
267.7360499636
  0
LINE
  5
213
100
AcDbEntity
  8
0
100
AcDbLine
 62
7
  6
CONTINUOUS
 10
109.1658083793
 20
274.6487326017
 11
107.09971465
 21
274.0074326863
  0
LINE
  5
214
100
AcDbEntity
  8
0
100
AcDbLine
 62
7
  6
CONTINUOUS
 10
96.685958804
 20
269.5162530533
 11
95.3628386814
 21
269.1241366769
  0
LINE
  5
215
100
AcDbEntity
  8
0
100
AcDbLine
 62
7
  6
CONTINUOUS
 10
167.3411218335
 20
30.8718698034
 11
166.2566498117
 21
30.6069214249
  0
LINE
  5
216
100
AcDbEntity
  8
0
100
AcDbLine
 62
7
  6
CONTINUOUS
 10
164.7858354231
 20
34.5171585667
 11
165.8703047137
 21
34.7821054899
  0
LINE
  5
217
100
AcDbEntity
  8
0
100
AcDbLine
 62
7
  6
CONTINUOUS
 10
139.1117602079
 20
20.9601820904
 11
141.2628945377
 21
21.1895979749
  0
LINE
  5
218
100
AcDbEntity
  8
0
100
AcDbLine
 62
7
  6
CONTINUOUS
 10
17.7416029081
 20
124.9817256118
 11
17.7416029081
 21
137.2668233276
  0
LINE
  5
219
100
AcDbEntity
  8
0
100
AcDbLine
 62
7
  6
CONTINUOUS
 10
74.2938568222
 20
253.6395746285
 11
67.9780870052
 21
246.2313847943
  0
LINE
  5
21A
100
AcDbEntity
  8
0
100
AcDbLine
 62
7
  6
CONTINUOUS
 10
69.0288940958
 20
245.3355309009
 11
73.9411608475
 21
251.0974578975
  0
LINE
  5
21B
100
AcDbEntity
  8
0
100
AcDbLine
 62
7
  6
CONTINUOUS
 10
64.2529231381
 20
240.0847379171
 11
63.3337142927
 21
239.0554426041
  0
LINE
  5
21C
100
AcDbEntity
  8
0
100
AcDbLine
 62
7
  6
CONTINUOUS
 10
64.3907640689
 20
238.1267220863
 11
65.173859637
 21
238.9223592778
  0
LINE
  5
21D
100
AcDbEntity
  8
0
100
AcDbLine
 62
7
  6
CONTINUOUS
 10
93.4081701866
 20
265.8920281907
 11
94.2328938049
 21
266.6444297873
  0
LINE
  5
21E
100
AcDbEntity
  8
0
100
AcDbLine
 62
7
  6
CONTINUOUS
 10
93.4536485036
 20
268.1067896124
 11
92.3902768072
 21
267.2272199752
  0
LINE
  5
21F
100
AcDbEntity
  8
0
100
AcDbLine
 62
7
  6
CONTINUOUS
 10
70.524582866
 20
237.6831128137
 11
70.0137169262
 21
237.3547972378
  0
LINE
  5
220
100
AcDbEntity
  8
0
100
AcDbLine
 62
7
  6
CONTINUOUS
 10
65.173859637
 20
238.9223592778
 11
66.1955852859
 21
239.5789797334
  0
LINE
  5
221
100
AcDbEntity
  8
0
100
AcDbLine
 62
7
  6
CONTINUOUS
 10
65.6493984177
 20
240.8360104303
 11
64.2529231381
 21
240.0847379171
  0
LINE
  5
222
100
AcDbEntity
  8
0
100
AcDbLine
 62
7
  6
CONTINUOUS
 10
97.6129011024
 20
263.7515411654
 11
96.1810071035
 21
262.9885301394
  0
LINE
  5
223
100
AcDbEntity
  8
0
100
AcDbLine
 62
7
  6
CONTINUOUS
 10
96.9602523138
 20
261.526170485
 11
98.3921463127
 21
262.289181511
  0
LINE
  5
224
100
AcDbEntity
  8
0
100
AcDbLine
 62
7
  6
CONTINUOUS
 10
96.6972264942
 20
258.5696192946
 11
95.2653324952
 21
257.8066082686
  0
LINE
  5
225
100
AcDbEntity
  8
0
100
AcDbLine
 62
7
  6
CONTINUOUS
 10
100.2103855006
 20
258.8770083014
 11
98.7784915017
 21
258.1139972754
  0
LINE
  5
226
100
AcDbEntity
  8
0
100
AcDbLine
 62
7
  6
CONTINUOUS
 10
99.7963848014
 20
256.7788056403
 11
100.9896307109
 21
257.4146486471
  0
LINE
  5
227
100
AcDbEntity
  8
0
100
AcDbLine
 62
7
  6
CONTINUOUS
 10
106.815326123
 20
260.3282670658
 11
108.3648967894
 21
260.809242117
  0
LINE
  5
228
100
AcDbEntity
  8
0
100
AcDbLine
 62
7
  6
CONTINUOUS
 10
115.5962270585
 20
263.0537925086
 11
117.1457977249
 21
263.5347675598
  0
LINE
  5
229
100
AcDbEntity
  8
0
100
AcDbLine
 62
7
  6
CONTINUOUS
 10
95.6371322026
 20
261.1340540872
 11
96.9602523138
 21
261.526170485
  0
LINE
  5
22A
100
AcDbEntity
  8
0
100
AcDbLine
 62
7
  6
CONTINUOUS
 10
98.4732646902
 20
256.3866892425
 11
99.7963848014
 21
256.7788056403
  0
LINE
  5
22B
100
AcDbEntity
  8
0
100
AcDbLine
 62
7
  6
CONTINUOUS
 10
167.3021987127
 20
35.5451165159
 11
168.3866707344
 21
35.8100648944
  0
LINE
  5
22C
100
AcDbEntity
  8
0
100
AcDbLine
 62
7
  6
CONTINUOUS
 10
165.0910595034
 20
36.2444651442
 11
164.2452383023
 21
36.1066862403
  0
LINE
  5
22D
100
AcDbEntity
  8
0
100
AcDbLine
 62
7
  6
CONTINUOUS
 10
164.7047143145
 20
40.4196493799
 11
165.5505355157
 21
40.5574282838
  0
LINE
  5
22E
100
AcDbEntity
  8
0
100
AcDbLine
 62
7
  6
CONTINUOUS
 10
144.1886678087
 20
34.5552364923
 11
142.5753169652
 21
34.3831745687
  0
LINE
  5
22F
100
AcDbEntity
  8
0
100
AcDbLine
 62
7
  6
CONTINUOUS
 10
135.0463466183
 20
33.5802189526
 11
133.4329957747
 21
33.408157029
  0
LINE
  5
230
100
AcDbEntity
  8
0
100
AcDbLine
 62
7
  6
CONTINUOUS
 10
163.5714919308
 20
34.4959382525
 11
164.7858354231
 21
34.5171585667
  0
LINE
  5
231
100
AcDbEntity
  8
0
100
AcDbLine
 62
7
  6
CONTINUOUS
 10
169.0604171059
 20
37.4208128821
 11
167.8460736136
 21
37.399592568
  0
LINE
  5
232
100
AcDbEntity
  8
0
100
AcDbLine
 62
7
  6
CONTINUOUS
 10
165.2143784634
 20
29.1127304863
 11
166.7972470122
 21
29.017393602
  0
LINE
  5
233
100
AcDbEntity
  8
0
100
AcDbLine
 62
7
  6
CONTINUOUS
 10
164.2452383023
 20
36.1066862403
 11
163.2695428994
 21
36.2126339454
  0
LINE
  5
234
100
AcDbEntity
  8
0
100
AcDbLine
 62
7
  6
CONTINUOUS
 10
168.3866707344
 20
35.8100648944
 11
169.3623661373
 21
35.7041171893
  0
LINE
  5
235
100
AcDbEntity
  8
BEZUGSACHSEN
100
AcDbLine
 62
7
  6
CONTINUOUS
 10
62.9375692945
 20
46.5233447783
 11
20.7529526331
 21
114.427780291
  0
LINE
  5
236
100
AcDbEntity
  8
0
100
AcDbLine
 62
7
  6
CONTINUOUS
 10
63.3337142927
 20
239.0554426041
 11
62.5170222925
 21
237.6534724094
  0
LINE
  5
237
100
AcDbEntity
  8
0
100
AcDbLine
 62
7
  6
CONTINUOUS
 10
63.8463016969
 20
237.1920735072
 11
64.3907640689
 21
238.1267220863
  0
LINE
  5
238
100
AcDbEntity
  8
0
100
AcDbLine
 62
7
  6
CONTINUOUS
 10
68.4475289053
 20
235.763528203
 11
67.9030665334
 21
234.8288796239
  0
LINE
  5
239
100
AcDbEntity
  8
0
100
AcDbLine
 62
7
  6
CONTINUOUS
 10
68.8575993181
 20
234.272834073
 11
69.4020616901
 21
235.2074826522
  0
LINE
  5
23A
100
AcDbEntity
  8
0
100
AcDbLine
 62
7
  6
CONTINUOUS
 10
92.3902768072
 20
267.2272199752
 11
91.6954301559
 21
266.2310931608
  0
LINE
  5
23B
100
AcDbEntity
  8
RUNDUNGEN
100
AcDbLine
 62
7
  6
CONTINUOUS
 10
29.1400874776
 20
180.5455463454
 11
19.5401754249
 21
166.8354510826
  0
LINE
  5
23C
100
AcDbEntity
  8
0
100
AcDbLine
 62
7
  6
CONTINUOUS
 10
81.684230611
 20
246.9836442295
 11
80.8070396894
 21
245.9547281897
  0
LINE
  5
23D
100
AcDbEntity
  8
0
100
AcDbLine
 62
7
  6
CONTINUOUS
 10
80.3136261783
 20
242.8218715887
 11
79.6118766534
 21
241.9987425249
  0
LINE
  5
23E
100
AcDbEntity
  8
0
100
AcDbLine
 62
7
  6
CONTINUOUS
 10
80.4872442079
 20
240.897104136
 11
81.1889977483
 21
241.7202379098
  0
LINE
  5
23F
100
AcDbEntity
  8
0
100
AcDbLine
 62
7
  6
CONTINUOUS
 10
72.9496882819
 20
230.3242992163
 11
73.8688971064
 21
231.3535945415
  0
LINE
  5
240
100
AcDbEntity
  8
0
100
AcDbLine
 62
7
  6
CONTINUOUS
 10
100.7964582983
 20
259.5022404235
 11
100.2103855006
 21
258.8770083014
  0
LINE
  5
241
100
AcDbEntity
  8
0
100
AcDbLine
 62
7
  6
CONTINUOUS
 10
67.9030665334
 20
234.8288796239
 11
67.1199740807
 21
234.0332477805
  0
LINE
  5
242
100
AcDbEntity
  8
0
100
AcDbLine
 62
7
  6
CONTINUOUS
 10
69.4020616901
 20
235.2074826522
 11
70.1851572582
 21
236.0031198436
  0
LINE
  5
243
100
AcDbEntity
  8
0
100
AcDbLine
 62
7
  6
CONTINUOUS
 10
72.6757311255
 20
232.0486514801
 11
71.8926386728
 21
231.2530196367
  0
LINE
  5
244
100
AcDbEntity
  8
0
100
AcDbLine
 62
7
  6
CONTINUOUS
 10
100.9896307109
 20
257.4146486471
 11
101.8143515981
 21
258.1670487884
  0
LINE
  5
245
100
AcDbEntity
  8
0
100
AcDbLine
 62
7
  6
CONTINUOUS
 10
79.2244545164
 20
239.8415765839
 11
80.4872442079
 21
240.897104136
  0
LINE
  5
246
100
AcDbEntity
  8
0
100
AcDbLine
 62
7
  6
CONTINUOUS
 10
79.6118766534
 20
241.9987425249
 11
78.5245223354
 21
241.1489948837
  0
LINE
  5
247
100
AcDbEntity
  8
0
100
AcDbLine
 62
7
  6
CONTINUOUS
 10
67.1199740807
 20
234.0332477805
 11
66.0982453164
 21
233.3766219768
  0
LINE
  5
248
100
AcDbEntity
  8
0
100
AcDbLine
 62
7
  6
CONTINUOUS
 10
66.7805484728
 20
232.3532548104
 11
67.2914112973
 21
232.6815650382
  0
LINE
  5
249
100
AcDbEntity
  8
0
100
AcDbLine
 62
7
  6
CONTINUOUS
 10
71.553213065
 20
229.5730266666
 11
72.9496882819
 21
230.3242992163
  0
LINE
  5
24A
100
AcDbEntity
  8
0
100
AcDbLine
 62
7
  6
CONTINUOUS
 10
78.1023781987
 20
239.3767843173
 11
79.2244545164
 21
239.8415765839
  0
LINE
  5
24B
100
AcDbEntity
  8
0
100
AcDbLine
 62
7
  6
CONTINUOUS
 10
70.1851572582
 20
236.0031198436
 11
71.4455161032
 21
236.5207289115
  0
LINE
  5
24C
100
AcDbEntity
  8
0
100
AcDbLine
 62
7
  6
CONTINUOUS
 10
65.5201865124
 20
231.8356403944
 11
66.7805484728
 21
232.3532548104
  0
LINE
  5
24D
100
AcDbEntity
  8
0
100
AcDbLine
 62
7
  6
CONTINUOUS
 10
71.8926386728
 20
231.2530196367
 11
70.6322767123
 21
230.7354052207
  0
LINE
  5
24E
100
AcDbEntity
  8
0
100
AcDbLine
 62
7
  6
CONTINUOUS
 10
184.9586834807
 20
57.3846517715
 11
185.9053204095
 21
57.6436594172
  0
LINE
  5
24F
100
AcDbEntity
  8
0
100
AcDbLine
 62
7
  6
CONTINUOUS
 10
196.7095617262
 20
57.4136853395
 11
197.8338073985
 21
57.697636225
  0
LINE
  5
250
100
AcDbEntity
  8
0
100
AcDbLine
 62
7
  6
CONTINUOUS
 10
191.8343773615
 20
60.5665829074
 11
192.9586229501
 21
60.8505338415
  0
LINE
  5
251
100
AcDbEntity
  8
0
100
AcDbLine
 62
7
  6
CONTINUOUS
 10
197.2876205303
 20
58.9546669219
 11
195.9247415783
 21
58.8097274728
  0
LINE
  5
252
100
AcDbEntity
  8
0
100
AcDbLine
 62
7
  6
CONTINUOUS
 10
166.35415882
 20
41.9244511178
 11
165.0099411259
 21
42.1469574128
  0
LINE
  5
253
100
AcDbEntity
  8
0
100
AcDbLine
 62
7
  6
CONTINUOUS
 10
166.2566498117
 20
30.6069214249
 11
165.1510801162
 21
30.9565959098
  0
LINE
  5
254
100
AcDbEntity
  8
0
100
AcDbLine
 62
7
  6
CONTINUOUS
 10
162.0973973039
 20
34.9621697012
 11
163.5714919308
 21
34.4959382525
  0
LINE
  5
255
100
AcDbEntity
  8
0
100
AcDbLine
 62
7
  6
CONTINUOUS
 10
170.5345117328
 20
36.9545814335
 11
169.0604171059
 21
37.4208128821
  0
LINE
  5
256
100
AcDbEntity
  8
0
100
AcDbLine
 62
7
  6
CONTINUOUS
 10
63.5404756366
 20
236.1184188884
 11
63.8463016969
 21
237.1920735072
  0
LINE
  5
257
100
AcDbEntity
  8
0
100
AcDbLine
 62
7
  6
CONTINUOUS
 10
68.7533580811
 20
236.8371881699
 11
68.4475289053
 21
235.763528203
  0
LINE
  5
258
100
AcDbEntity
  8
0
100
AcDbLine
 62
7
  6
CONTINUOUS
 10
68.5517732578
 20
233.1991794542
 11
68.8575993181
 21
234.272834073
  0
LINE
  5
259
100
AcDbEntity
  8
0
100
AcDbLine
 62
7
  6
CONTINUOUS
 10
62.5170222925
 20
237.6534724094
 11
62.0750767658
 21
236.3461489485
  0
LINE
  5
25A
100
AcDbEntity
  8
0
100
AcDbLine
 62
7
  6
CONTINUOUS
 10
92.9519716815
 20
265.0230692889
 11
93.4081701866
 21
265.8920281907
  0
LINE
  5
25B
100
AcDbEntity
  8
0
100
AcDbLine
 62
7
  6
CONTINUOUS
 10
80.980657719
 20
244.029960737
 11
80.3136261783
 21
242.8218715887
  0
LINE
  5
25C
100
AcDbEntity
  8
0
100
AcDbLine
 62
7
  6
CONTINUOUS
 10
73.2201934975
 20
232.9833000592
 11
72.6757311255
 21
232.0486514801
  0
LINE
  5
25D
100
AcDbEntity
  8
0
100
AcDbLine
 62
7
  6
CONTINUOUS
 10
73.8688971064
 20
231.3535945415
 11
74.4133594784
 21
232.2882431206
  0
LINE
  5
25E
100
AcDbEntity
  8
0
100
AcDbLine
 62
7
  6
CONTINUOUS
 10
81.1889977483
 20
241.7202379098
 11
82.2069000359
 21
243.33988688
  0
LINE
  5
25F
100
AcDbEntity
  8
0
100
AcDbLine
 62
7
  6
CONTINUOUS
 10
101.8143515981
 20
258.1670487884
 11
102.5091982835
 21
259.1631755388
  0
LINE
  5
260
100
AcDbEntity
  8
0
100
AcDbLine
 62
7
  6
CONTINUOUS
 10
193.0542383398
 20
69.2445709229
 11
191.9299927512
 21
68.9606199887
  0
LINE
  5
261
100
AcDbEntity
  8
0
100
AcDbLine
 62
7
  6
CONTINUOUS
 10
197.3849604998
 20
65.1570246785
 11
198.7478396189
 21
65.3019640302
  0
LINE
  5
262
100
AcDbEntity
  8
0
100
AcDbLine
 62
7
  6
CONTINUOUS
 10
186.9232226971
 20
59.2633083874
 11
185.3808276175
 21
59.156862338
  0
LINE
  5
263
100
AcDbEntity
  8
0
100
AcDbLine
 62
7
  6
CONTINUOUS
 10
192.0376897129
 20
62.0129177438
 11
191.0495573807
 21
61.9626249433
  0
LINE
  5
264
100
AcDbEntity
  8
0
100
AcDbLine
 62
7
  6
CONTINUOUS
 10
192.8509291038
 20
67.7982414345
 11
193.8390589891
 21
67.8485284975
  0
LINE
  5
265
100
AcDbEntity
  8
0
100
AcDbLine
 62
7
  6
CONTINUOUS
 10
190.6076149485
 20
60.6553068427
 11
191.8343773615
 21
60.5665829074
  0
LINE
  5
266
100
AcDbEntity
  8
0
100
AcDbLine
 62
7
  6
CONTINUOUS
 10
185.9053204095
 20
57.6436594172
 11
186.886679338
 21
57.5177116883
  0
LINE
  5
267
100
AcDbEntity
  8
0
100
AcDbLine
 62
7
  6
CONTINUOUS
 10
165.5505355157
 20
40.5574282838
 11
166.2875828291
 21
40.3243125595
  0
LINE
  5
268
100
AcDbEntity
  8
0
100
AcDbLine
 62
7
  6
CONTINUOUS
 10
163.849060319
 20
29.9498582747
 11
165.2143784634
 21
29.1127304863
  0
LINE
  5
269
100
AcDbEntity
  8
RUNDUNGEN
100
AcDbLine
 62
7
  6
CONTINUOUS
 10
51.2416029081
 20
122.2668233276
 11
51.2416029081
 21
178.2667196564
  0
LINE
  5
26A
100
AcDbEntity
  8
RUNDUNGEN
100
AcDbLine
 62
7
  6
CONTINUOUS
 10
53.2416029081
 20
123.7668795129
 11
53.2416029081
 21
164.5795555742
  0
LINE
  5
26B
100
AcDbEntity
  8
BEZUGSACHSEN
100
AcDbLine
 62
7
  6
CONTINUOUS
 10
53.2416029081
 20
164.5795555742
 11
53.2416029081
 21
175.5740046379
  0
LINE
  5
26C
100
AcDbEntity
  8
0
100
AcDbLine
 62
7
  6
CONTINUOUS
 10
63.473279657
 20
234.9057475338
 11
63.5404756366
 21
236.1184188884
  0
LINE
  5
26D
100
AcDbEntity
  8
0
100
AcDbLine
 62
7
  6
CONTINUOUS
 10
73.5260226732
 20
234.0569600261
 11
73.2201934975
 21
232.9833000592
  0
LINE
  5
26E
100
AcDbEntity
  8
0
100
AcDbLine
 62
7
  6
CONTINUOUS
 10
91.6954301559
 20
266.2310931608
 11
91.2603291882
 21
264.7475116516
  0
LINE
  5
26F
100
AcDbEntity
  8
0
100
AcDbLine
 62
7
  6
CONTINUOUS
 10
74.4133594784
 20
232.2882431206
 11
74.8553019105
 21
233.5955612212
  0
LINE
  5
270
100
AcDbEntity
  8
0
100
AcDbLine
 62
7
  6
CONTINUOUS
 10
101.2526568943
 20
260.3711991546
 11
100.7964582983
 21
259.5022404235
  0
LINE
  5
271
100
AcDbEntity
  8
0
100
AcDbLine
 62
7
  6
CONTINUOUS
 10
195.2441628345
 20
57.6414154118
 11
196.7095617262
 21
57.4136853395
  0
LINE
  5
272
100
AcDbEntity
  8
0
100
AcDbLine
 62
7
  6
CONTINUOUS
 10
199.4284152472
 20
66.4702707431
 11
197.9630193038
 21
66.6980062609
  0
LINE
  5
273
100
AcDbEntity
  8
0
100
AcDbLine
 62
7
  6
CONTINUOUS
 10
167.5896026263
 20
41.3310501946
 11
166.35415882
 21
41.9244511178
  0
LINE
  5
274
100
AcDbEntity
  8
0
100
AcDbLine
 62
7
  6
CONTINUOUS
 10
169.3623661373
 20
35.7041171893
 11
170.2292851033
 21
35.2272730592
  0
LINE
  5
275
100
AcDbEntity
  8
0
100
AcDbLine
 62
7
  6
CONTINUOUS
 10
62.0750767658
 20
236.3461489485
 11
62.1104007886
 21
234.760808036
  0
LINE
  5
276
100
AcDbEntity
  8
0
100
AcDbLine
 62
7
  6
CONTINUOUS
 10
67.2914112973
 20
232.6815650382
 11
67.2578148652
 21
232.075232035
  0
LINE
  5
277
100
AcDbEntity
  8
0
100
AcDbLine
 62
7
  6
CONTINUOUS
 10
68.8205509453
 20
238.0498541764
 11
68.7533580811
 21
236.8371881699
  0
LINE
  5
278
100
AcDbEntity
  8
0
100
AcDbLine
 62
7
  6
CONTINUOUS
 10
70.0137169262
 20
237.3547972378
 11
70.0473164737
 21
237.9611355892
  0
LINE
  5
279
100
AcDbEntity
  8
0
100
AcDbLine
 62
7
  6
CONTINUOUS
 10
81.086649093
 20
245.0056513971
 11
80.980657719
 21
244.029960737
  0
LINE
  5
27A
100
AcDbEntity
  8
0
100
AcDbLine
 62
7
  6
CONTINUOUS
 10
82.2069000359
 20
243.33988688
 11
82.4883307989
 21
244.521362161
  0
LINE
  5
27B
100
AcDbEntity
  8
0
100
AcDbLine
 62
7
  6
CONTINUOUS
 10
102.5091982835
 20
259.1631755388
 11
102.9442992967
 21
260.6467569626
  0
LINE
  5
27C
100
AcDbEntity
  8
0
100
AcDbLine
 62
7
  6
CONTINUOUS
 10
194.5196377329
 20
69.0168405585
 11
193.0542383398
 21
69.2445709229
  0
LINE
  5
27D
100
AcDbEntity
  8
0
100
AcDbLine
 62
7
  6
CONTINUOUS
 10
171.5313049005
 20
36.2340106943
 11
170.5345117328
 21
36.9545814335
  0
LINE
  5
27E
100
AcDbEntity
  8
0
100
AcDbLine
 62
7
  6
CONTINUOUS
 10
166.2875828291
 20
40.3243125595
 11
166.785979322
 21
39.9640273606
  0
LINE
  5
27F
100
AcDbEntity
  8
0
100
AcDbLine
 62
7
  6
CONTINUOUS
 10
165.1510801162
 20
30.9565959098
 11
164.5228094216
 21
31.5606077177
  0
LINE
  5
280
100
AcDbEntity
  8
0
100
AcDbLine
 62
7
  6
CONTINUOUS
 10
163.2695428994
 20
36.2126339454
 11
162.6412722048
 21
36.8166457533
  0
LINE
  5
281
100
AcDbEntity
  8
0
100
AcDbLine
 62
7
  6
CONTINUOUS
 10
75.6864323198
 20
242.5025245223
 11
75.3446639128
 21
252.7437207351
  0
LINE
  5
282
100
AcDbEntity
  8
0
100
AcDbLine
 62
7
  6
CONTINUOUS
 10
73.9411608475
 20
251.0974578975
 11
74.1787592398
 21
242.0111230983
  0
LINE
  5
283
100
AcDbEntity
  8
0
100
AcDbLine
 62
7
  6
CONTINUOUS
 10
74.8553019105
 20
233.5955612212
 11
74.8199810658
 21
235.1809074453
  0
LINE
  5
284
100
AcDbEntity
  8
0
100
AcDbLine
 62
7
  6
CONTINUOUS
 10
92.8642981078
 20
264.0375534232
 11
92.9519716815
 21
265.0230692889
  0
LINE
  5
285
100
AcDbEntity
  8
BEZUGSACHSEN
100
AcDbLine
 62
7
  6
CONTINUOUS
 10
177.7393371876
 20
99.8102697661
 11
178.2693734058
 21
99.8076469101
  0
LINE
  5
286
100
AcDbEntity
  8
0
100
AcDbLine
 62
7
  6
CONTINUOUS
 10
187.9393076408
 20
58.752409994
 11
186.9232226971
 21
59.2633083874
  0
LINE
  5
287
100
AcDbEntity
  8
0
100
AcDbLine
 62
7
  6
CONTINUOUS
 10
194.528263246
 20
58.0584495749
 11
195.2441628345
 21
57.6414154118
  0
LINE
  5
288
100
AcDbEntity
  8
0
100
AcDbLine
 62
7
  6
CONTINUOUS
 10
189.89171536
 20
61.0723410059
 11
190.6076149485
 21
60.6553068427
  0
LINE
  5
289
100
AcDbEntity
  8
0
100
AcDbLine
 62
7
  6
CONTINUOUS
 10
168.2178733209
 20
40.7270383867
 11
167.5896026263
 21
41.3310501946
  0
LINE
  5
28A
100
AcDbEntity
  8
0
100
AcDbLine
 62
7
  6
CONTINUOUS
 10
163.0909154226
 20
30.7975966917
 11
163.849060319
 21
29.9498582747
  0
LINE
  5
28B
100
AcDbEntity
  8
0
100
AcDbLine
 62
7
  6
CONTINUOUS
 10
161.3392524076
 20
35.8099081182
 11
162.0973973039
 21
34.9621697012
  0
LINE
  5
28C
100
AcDbEntity
  8
0
100
AcDbLine
 62
7
  6
CONTINUOUS
 10
154.859235001
 20
25.788104033
 11
147.8869787577
 21
35.4798541466
  0
LINE
  5
28D
100
AcDbEntity
  8
0
100
AcDbLine
 62
7
  6
CONTINUOUS
 10
146.3374080913
 20
34.9988790955
 11
154.3173974369
 21
23.8849140536
  0
LINE
  5
28E
100
AcDbEntity
  8
0
100
AcDbLine
 62
7
  6
CONTINUOUS
 10
68.7232104744
 20
231.8474967119
 11
68.5517732578
 21
233.1991794542
  0
LINE
  5
28F
100
AcDbEntity
  8
0
100
AcDbLine
 62
7
  6
CONTINUOUS
 10
70.0473164737
 20
237.9611355892
 11
69.8758761416
 21
239.3128129834
  0
LINE
  5
290
100
AcDbEntity
  8
0
100
AcDbLine
 62
7
  6
CONTINUOUS
 10
73.3545823412
 20
235.4086374203
 11
73.5260226732
 21
234.0569600261
  0
LINE
  5
291
100
AcDbEntity
  8
0
100
AcDbLine
 62
7
  6
CONTINUOUS
 10
82.4883307989
 20
244.521362161
 11
82.3494367768
 21
246.0611765942
  0
LINE
  5
292
100
AcDbEntity
  8
0
100
AcDbLine
 62
7
  6
CONTINUOUS
 10
91.2603291882
 20
264.7475116516
 11
91.3025299071
 21
263.5182690062
  0
LINE
  5
293
100
AcDbEntity
  8
BEZUGSACHSEN
100
AcDbLine
 62
7
  6
CONTINUOUS
 10
85.7438686286
 20
179.9443744808
 11
85.7438686286
 21
198.7233768892
  0
LINE
  5
294
100
AcDbEntity
  8
BEZUGSACHSEN
100
AcDbLine
 62
7
  6
CONTINUOUS
 10
86.2416029081
 20
175.5740046379
 11
86.2416029081
 21
164.5795555742
  0
LINE
  5
295
100
AcDbEntity
  8
0
100
AcDbLine
 62
7
  6
CONTINUOUS
 10
86.2416029081
 20
164.5795555742
 11
86.2416029081
 21
132.2594719759
  0
LINE
  5
296
100
AcDbEntity
  8
RUNDUNGEN
100
AcDbLine
 62
7
  6
CONTINUOUS
 10
86.2416029081
 20
164.5795555742
 11
86.2416029081
 21
123.7668795337
  0
LINE
  5
297
100
AcDbEntity
  8
RUNDUNGEN
100
AcDbLine
 62
7
  6
CONTINUOUS
 10
87.2416029081
 20
122.2668233276
 11
87.2416029081
 21
178.2668233276
  0
LINE
  5
298
100
AcDbEntity
  8
0
100
AcDbLine
 62
7
  6
CONTINUOUS
 10
122.2203112784
 20
277.3440486804
 11
119.2945380074
 21
263.9784101629
  0
LINE
  5
299
100
AcDbEntity
  8
0
100
AcDbLine
 62
7
  6
CONTINUOUS
 10
120.907888851
 20
264.1504720865
 11
123.4716014508
 21
275.81107919
  0
LINE
  5
29A
100
AcDbEntity
  8
0
100
AcDbLine
 62
7
  6
CONTINUOUS
 10
195.9247415783
 20
58.8097274728
 11
195.2088419898
 21
59.2267616359
  0
LINE
  5
29B
100
AcDbEntity
  8
0
100
AcDbLine
 62
7
  6
CONTINUOUS
 10
191.0495573807
 20
61.9626249433
 11
190.5722909883
 21
62.2406477187
  0
LINE
  5
29C
100
AcDbEntity
  8
0
100
AcDbLine
 62
7
  6
CONTINUOUS
 10
193.8390589891
 20
67.8485284975
 11
194.3163253815
 21
67.5705057221
  0
LINE
  5
29D
100
AcDbEntity
  8
0
100
AcDbLine
 62
7
  6
CONTINUOUS
 10
198.7478396189
 20
65.3019640302
 11
199.4637392074
 21
64.8849298671
  0
LINE
  5
29E
100
AcDbEntity
  8
0
100
AcDbLine
 62
7
  6
CONTINUOUS
 10
195.2355373215
 20
68.5998063953
 11
194.5196377329
 21
69.0168405585
  0
LINE
  5
29F
100
AcDbEntity
  8
0
100
AcDbLine
 62
7
  6
CONTINUOUS
 10
200.1443148358
 20
66.0532365799
 11
199.4284152472
 21
66.4702707431
  0
LINE
  5
2A0
100
AcDbEntity
  8
0
100
AcDbLine
 62
7
  6
CONTINUOUS
 10
188.1385419034
 20
45.7899259202
 11
189.189348994
 21
44.8940720267
  0
LINE
  5
2A1
100
AcDbEntity
  8
0
100
AcDbLine
 62
7
  6
CONTINUOUS
 10
140.0116043653
 20
22.7225674653
 11
135.0463466183
 21
33.5802189526
  0
LINE
  5
2A2
100
AcDbEntity
  8
0
100
AcDbLine
 62
7
  6
CONTINUOUS
 10
133.4329957747
 20
33.408157029
 11
139.1117602079
 21
20.9601820904
  0
LINE
  5
2A3
100
AcDbEntity
  8
0
100
AcDbLine
 62
7
  6
CONTINUOUS
 10
62.1104007886
 20
234.760808036
 11
62.4179544606
 21
233.6427887268
  0
LINE
  5
2A4
100
AcDbEntity
  8
0
100
AcDbLine
 62
7
  6
CONTINUOUS
 10
67.2578148652
 20
232.075232035
 11
67.5653684536
 21
230.9572127745
  0
LINE
  5
2A5
100
AcDbEntity
  8
0
100
AcDbLine
 62
7
  6
CONTINUOUS
 10
108.7416029081
 20
178.2600717164
 11
108.7416029081
 21
161.0168233276
  0
LINE
  5
2A6
100
AcDbEntity
  8
0
100
AcDbLine
 62
7
  6
CONTINUOUS
 10
108.7416029081
 20
137.5168233276
 11
108.7416029081
 21
123.5596797266
  0
LINE
  5
2A7
100
AcDbEntity
  8
0
100
AcDbLine
 62
7
  6
CONTINUOUS
 10
107.09971465
 20
274.0074326863
 11
106.815326123
 21
260.3282670658
  0
LINE
  5
2A8
100
AcDbEntity
  8
0
100
AcDbLine
 62
7
  6
CONTINUOUS
 10
108.3648967894
 20
260.809242117
 11
108.6239708152
 21
272.7455426222
  0
LINE
  5
2A9
100
AcDbEntity
  8
BEZUGSACHSEN
100
AcDbLine
 62
7
  6
CONTINUOUS
 10
158.7914634112
 20
116.2668233276
 11
172.2416029081
 21
116.2668233276
  0
LINE
  5
2AA
100
AcDbEntity
  8
BEZUGSACHSEN
100
AcDbLine
 62
7
  6
CONTINUOUS
 10
216.2416029081
 20
116.2668233276
 11
231.0287015472
 21
116.2668233276
  0
LINE
  5
2AB
100
AcDbEntity
  8
RUNDUNGEN
100
AcDbLine
 62
7
  6
CONTINUOUS
 10
83.2415793582
 20
118.2668233276
 11
55.2415848724
 21
118.2668233276
  0
LINE
  5
2AC
100
AcDbEntity
  8
0
100
AcDbLine
 62
7
  6
CONTINUOUS
 10
57.2416029081
 20
119.7668233276
 11
82.2416029081
 21
119.7668233276
  0
LINE
  5
2AD
100
AcDbEntity
  8
0
100
AcDbLine
 62
7
  6
CONTINUOUS
 10
186.886679338
 20
57.5177116883
 11
187.3070027041
 21
57.1593696792
  0
LINE
  5
2AE
100
AcDbEntity
  8
0
100
AcDbLine
 62
7
  6
CONTINUOUS
 10
195.5051188109
 20
52.302261861
 11
194.4543117203
 21
53.1981157544
  0
LINE
  5
2AF
100
AcDbEntity
  8
0
100
AcDbLine
 62
7
  6
CONTINUOUS
 10
188.3596310069
 20
58.3940679849
 11
187.9393076408
 21
58.752409994
  0
LINE
  5
2B0
100
AcDbEntity
  8
0
100
AcDbLine
 62
7
  6
CONTINUOUS
 10
160.8197552369
 20
36.7848152372
 11
161.3392524076
 21
35.8099081182
  0
LINE
  5
2B1
100
AcDbEntity
  8
0
100
AcDbLine
 62
7
  6
CONTINUOUS
 10
162.6412722048
 20
36.8166457533
 11
162.3815238013
 21
37.3040989714
  0
LINE
  5
2B2
100
AcDbEntity
  8
0
100
AcDbLine
 62
7
  6
CONTINUOUS
 10
64.0194666088
 20
233.6487167882
 11
63.473279657
 21
234.9057475338
  0
LINE
  5
2B3
100
AcDbEntity
  8
0
100
AcDbLine
 62
7
  6
CONTINUOUS
 10
74.1787592398
 20
242.0111230983
 11
74.4583686434
 21
241.0620463056
  0
LINE
  5
2B4
100
AcDbEntity
  8
0
100
AcDbLine
 62
7
  6
CONTINUOUS
 10
74.8199810658
 20
235.1809074453
 11
74.5124274774
 21
236.2989267058
  0
LINE
  5
2B5
100
AcDbEntity
  8
0
100
AcDbLine
 62
7
  6
CONTINUOUS
 10
212.2416029081
 20
137.5168233276
 11
210.2416029081
 21
137.5168233276
  0
LINE
  5
2B6
100
AcDbEntity
  8
0
100
AcDbLine
 62
7
  6
CONTINUOUS
 10
177.2416029081
 20
137.5168233276
 11
176.2416029081
 21
137.5168233276
  0
LINE
  5
2B7
100
AcDbEntity
  8
0
100
AcDbLine
 62
7
  6
CONTINUOUS
 10
51.2416029081
 20
137.5168233276
 11
53.2416029081
 21
137.5168233276
  0
LINE
  5
2B8
100
AcDbEntity
  8
0
100
AcDbLine
 62
7
  6
CONTINUOUS
 10
86.2416029081
 20
137.5168233276
 11
87.2416029081
 21
137.5168233276
  0
LINE
  5
2B9
100
AcDbEntity
  8
0
100
AcDbLine
 62
7
  6
CONTINUOUS
 10
108.7416029081
 20
137.5168233276
 11
154.7416029081
 21
137.5168233276
  0
LINE
  5
2BA
100
AcDbEntity
  8
0
100
AcDbLine
 62
7
  6
CONTINUOUS
 10
181.1337690393
 20
52.4724700611
 11
181.7989752051
 21
51.5500024258
  0
LINE
  5
2BB
100
AcDbEntity
  8
0
100
AcDbLine
 62
7
  6
CONTINUOUS
 10
170.2292851033
 20
35.2272730592
 11
170.6189077084
 21
34.496093232
  0
LINE
  5
2BC
100
AcDbEntity
  8
0
100
AcDbLine
 62
7
  6
CONTINUOUS
 10
172.180675909
 20
35.015377649
 11
171.5313049005
 21
36.2340106943
  0
LINE
  5
2BD
100
AcDbEntity
  8
0
100
AcDbLine
 62
7
  6
CONTINUOUS
 10
69.1668804347
 20
230.9631409332
 11
68.7232104744
 21
231.8474967119
  0
LINE
  5
2BE
100
AcDbEntity
  8
0
100
AcDbLine
 62
7
  6
CONTINUOUS
 10
72.9109148278
 20
236.2929989365
 11
73.3545823412
 21
235.4086374203
  0
LINE
  5
2BF
100
AcDbEntity
  8
0
100
AcDbLine
 62
7
  6
CONTINUOUS
 10
68.2743638264
 20
239.3068850193
 11
68.8205509453
 21
238.0498541764
  0
LINE
  5
2C0
100
AcDbEntity
  8
0
100
AcDbLine
 62
7
  6
CONTINUOUS
 10
76.176203112
 20
241.374276976
 11
75.6864323198
 21
242.5025245223
  0
LINE
  5
2C1
100
AcDbEntity
  8
0
100
AcDbLine
 62
7
  6
CONTINUOUS
 10
80.8070396894
 20
245.9547281897
 11
81.086649093
 21
245.0056513971
  0
LINE
  5
2C2
100
AcDbEntity
  8
0
100
AcDbLine
 62
7
  6
CONTINUOUS
 10
101.1016820148
 20
261.2295476838
 11
101.2526568943
 21
260.3711991546
  0
LINE
  5
2C3
100
AcDbEntity
  8
BG_STARTBEZUEGE
100
AcDbLine
 62
7
  6
CENTER
 10
131.7416029081
 20
5.2668233276
 11
131.7416029081
 21
293.2668233276
  0
LINE
  5
2C4
100
AcDbEntity
  8
BG_STARTBEZUEGE
100
AcDbLine
 62
7
  6
CENTER
 10
14.7362862293
 20
149.2668233276
 11
248.7469195869
 21
149.2668233276
  0
LINE
  5
2C5
100
AcDbEntity
  8
0
100
AcDbLine
 62
7
  6
CONTINUOUS
 10
188.9707783388
 20
62.2347199494
 11
189.89171536
 21
61.0723410059
  0
LINE
  5
2C6
100
AcDbEntity
  8
0
100
AcDbLine
 62
7
  6
CONTINUOUS
 10
193.6073296745
 20
59.2208336719
 11
194.528263246
 21
58.0584495749
  0
LINE
  5
2C7
100
AcDbEntity
  8
0
100
AcDbLine
 62
7
  6
CONTINUOUS
 10
62.4179544606
 20
233.6427887268
 11
63.3388909804
 21
232.4804100753
  0
LINE
  5
2C8
100
AcDbEntity
  8
0
100
AcDbLine
 62
7
  6
CONTINUOUS
 10
189.0248371727
 20
57.4716003496
 11
188.3596310069
 21
58.3940679849
  0
LINE
  5
2C9
100
AcDbEntity
  8
0
100
AcDbLine
 62
7
  6
CONTINUOUS
 10
67.5653684536
 20
230.9572127745
 11
68.2476684947
 21
229.93384026
  0
LINE
  5
2CA
100
AcDbEntity
  8
0
100
AcDbLine
 62
7
  6
CONTINUOUS
 10
102.9442992967
 20
260.6467569626
 11
102.6634505793
 21
261.748831418
  0
LINE
  5
2CB
100
AcDbEntity
  8
0
100
AcDbLine
 62
7
  6
CONTINUOUS
 10
160.5389065195
 20
37.8868896927
 11
160.8197552369
 21
36.7848152372
  0
LINE
  5
2CC
100
AcDbEntity
  8
0
100
AcDbLine
 62
7
  6
CONTINUOUS
 10
212.2416029081
 20
161.0168233276
 11
210.2416029081
 21
161.0168233276
  0
LINE
  5
2CD
100
AcDbEntity
  8
0
100
AcDbLine
 62
7
  6
CONTINUOUS
 10
177.2416029081
 20
161.0168233276
 11
176.2416029081
 21
161.0168233276
  0
LINE
  5
2CE
100
AcDbEntity
  8
0
100
AcDbLine
 62
7
  6
CONTINUOUS
 10
51.2416029081
 20
161.0168233276
 11
53.2416029081
 21
161.0168233276
  0
LINE
  5
2CF
100
AcDbEntity
  8
0
100
AcDbLine
 62
7
  6
CONTINUOUS
 10
86.2416029081
 20
161.0168233276
 11
87.2416029081
 21
161.0168233276
  0
LINE
  5
2D0
100
AcDbEntity
  8
0
100
AcDbLine
 62
7
  6
CONTINUOUS
 10
108.7416029081
 20
161.0168233276
 11
154.7416029081
 21
161.0168233276
  0
LINE
  5
2D1
100
AcDbEntity
  8
0
100
AcDbLine
 62
7
  6
CONTINUOUS
 10
201.0652513555
 20
64.8908579284
 11
200.1443148358
 21
66.0532365799
  0
LINE
  5
2D2
100
AcDbEntity
  8
0
100
AcDbLine
 62
7
  6
CONTINUOUS
 10
69.8758761416
 20
239.3128129834
 11
68.9549425702
 21
240.4751970803
  0
LINE
  5
2D3
100
AcDbEntity
  8
0
100
AcDbLine
 62
7
  6
CONTINUOUS
 10
74.5124274774
 20
236.2989267058
 11
73.5914904562
 21
237.4613056494
  0
LINE
  5
2D4
100
AcDbEntity
  8
0
100
AcDbLine
 62
7
  6
CONTINUOUS
 10
74.4583686434
 20
241.0620463056
 11
75.1235748092
 21
240.1395786703
  0
LINE
  5
2D5
100
AcDbEntity
  8
0
100
AcDbLine
 62
7
  6
CONTINUOUS
 10
195.9178373625
 20
67.5764338808
 11
195.2355373215
 21
68.5998063953
  0
LINE
  5
2D6
100
AcDbEntity
  8
0
100
AcDbLine
 62
7
  6
CONTINUOUS
 10
190.5722909883
 20
62.2406477187
 11
190.128623475
 21
63.1250092349
  0
LINE
  5
2D7
100
AcDbEntity
  8
0
100
AcDbLine
 62
7
  6
CONTINUOUS
 10
162.3815238013
 20
37.3040989714
 11
162.2305489218
 21
38.1624475006
  0
LINE
  5
2D8
100
AcDbEntity
  8
0
100
AcDbLine
 62
7
  6
CONTINUOUS
 10
154.7416029081
 20
120.2735749389
 11
154.7416029081
 21
137.5168233276
  0
LINE
  5
2D9
100
AcDbEntity
  8
0
100
AcDbLine
 62
7
  6
CONTINUOUS
 10
154.7416029081
 20
161.0168233276
 11
154.7416029081
 21
174.9739669287
  0
LINE
  5
2DA
100
AcDbEntity
  8
0
100
AcDbLine
 62
7
  6
CONTINUOUS
 10
155.1183090268
 20
37.7244045383
 11
154.859235001
 21
25.788104033
  0
LINE
  5
2DB
100
AcDbEntity
  8
0
100
AcDbLine
 62
7
  6
CONTINUOUS
 10
82.3494367768
 20
246.0611765942
 11
81.684230611
 21
246.9836442295
  0
LINE
  5
2DC
100
AcDbEntity
  8
0
100
AcDbLine
 62
7
  6
CONTINUOUS
 10
91.3025299071
 20
263.5182690062
 11
91.9519009157
 21
262.2996359609
  0
LINE
  5
2DD
100
AcDbEntity
  8
0
100
AcDbLine
 62
7
  6
CONTINUOUS
 10
93.2539207129
 20
263.306373596
 11
92.8642981078
 21
264.0375534232
  0
LINE
  5
2DE
100
AcDbEntity
  8
0
100
AcDbLine
 62
7
  6
CONTINUOUS
 10
100.8419336114
 20
261.717000902
 11
101.1016820148
 21
261.2295476838
  0
LINE
  5
2DF
100
AcDbEntity
  8
0
100
AcDbLine
 62
7
  6
CONTINUOUS
 10
194.3163253815
 20
67.5705057221
 11
194.7599953418
 21
66.6861499434
  0
LINE
  5
2E0
100
AcDbEntity
  8
0
100
AcDbLine
 62
7
  6
CONTINUOUS
 10
195.2088419898
 20
59.2267616359
 11
194.6626548709
 21
60.4837924789
  0
LINE
  5
2E1
100
AcDbEntity
  8
0
100
AcDbLine
 62
7
  6
CONTINUOUS
 10
187.3070027041
 20
57.1593696792
 11
187.7967734964
 21
56.031122133
  0
LINE
  5
2E2
100
AcDbEntity
  8
0
100
AcDbLine
 62
7
  6
CONTINUOUS
 10
182.6761661267
 20
52.5789184655
 11
182.3965567231
 21
53.5279952582
  0
LINE
  5
2E3
100
AcDbEntity
  8
0
100
AcDbLine
 62
7
  6
CONTINUOUS
 10
172.222876628
 20
33.7861350036
 11
172.180675909
 21
35.015377649
  0
LINE
  5
2E4
100
AcDbEntity
  8
0
100
AcDbLine
 62
7
  6
CONTINUOUS
 10
156.3834911662
 20
24.5262139689
 11
156.6678796932
 21
38.2053795894
  0
LINE
  5
2E5
100
AcDbEntity
  8
0
100
AcDbLine
 62
7
  6
CONTINUOUS
 10
141.2628945377
 20
21.1895979749
 11
144.1886678087
 21
34.5552364923
  0
LINE
  5
2E6
100
AcDbEntity
  8
0
100
AcDbLine
 62
7
  6
CONTINUOUS
 10
142.5753169652
 20
34.3831745687
 11
140.0116043653
 21
22.7225674653
  0
LINE
  5
2E7
100
AcDbEntity
  8
0
100
AcDbLine
 62
7
  6
CONTINUOUS
 10
206.2416029081
 20
178.7668233276
 11
181.2416029081
 21
178.7668233276
  0
LINE
  5
2E8
100
AcDbEntity
  8
RUNDUNGEN
100
AcDbLine
 62
7
  6
CONTINUOUS
 10
180.241626458
 20
180.2668233276
 11
208.2416209438
 21
180.2668233276
  0
LINE
  5
2E9
100
AcDbEntity
  8
BEZUGSACHSEN
100
AcDbLine
 62
7
  6
CONTINUOUS
 10
104.6917424049
 20
182.2668233276
 11
91.2416029081
 21
182.2668233276
  0
LINE
  5
2EA
100
AcDbEntity
  8
BEZUGSACHSEN
100
AcDbLine
 62
7
  6
CONTINUOUS
 10
47.2416029081
 20
182.2668233276
 11
32.4545042689
 21
182.2668233276
  0
LINE
  5
2EB
100
AcDbEntity
  8
0
100
AcDbLine
 62
7
  6
CONTINUOUS
 10
63.3388909804
 20
232.4804100753
 11
64.0547905689
 21
232.0633759122
  0
LINE
  5
2EC
100
AcDbEntity
  8
0
100
AcDbLine
 62
7
  6
CONTINUOUS
 10
68.2476684947
 20
229.93384026
 11
68.9635680832
 21
229.5168060968
  0
LINE
  5
2ED
100
AcDbEntity
  8
0
100
AcDbLine
 62
7
  6
CONTINUOUS
 10
67.9780870052
 20
246.2313847943
 11
69.0288940958
 21
245.3355309009
  0
LINE
  5
2EE
100
AcDbEntity
  8
0
100
AcDbLine
 62
7
  6
CONTINUOUS
 10
75.1235748092
 20
240.1395786703
 11
75.5438981753
 21
239.7812366612
  0
LINE
  5
2EF
100
AcDbEntity
  8
0
100
AcDbLine
 62
7
  6
CONTINUOUS
 10
76.5965264782
 20
241.0159349669
 11
76.176203112
 21
241.374276976
  0
LINE
  5
2F0
100
AcDbEntity
  8
0
100
AcDbLine
 62
7
  6
CONTINUOUS
 10
102.6634505793
 20
261.748831418
 11
102.1439534086
 21
262.7237385371
  0
LINE
  5
2F1
100
AcDbEntity
  8
0
100
AcDbLine
 62
7
  6
CONTINUOUS
 10
199.4637392074
 20
64.8849298671
 11
200.0099261591
 21
63.6278991215
  0
LINE
  5
2F2
100
AcDbEntity
  8
0
100
AcDbLine
 62
7
  6
CONTINUOUS
 10
189.3044465763
 20
56.5225235569
 11
189.0248371727
 21
57.4716003496
  0
LINE
  5
2F3
100
AcDbEntity
  8
0
100
AcDbLine
 62
7
  6
CONTINUOUS
 10
188.6632247504
 20
63.3527392099
 11
188.9707783388
 21
62.2347199494
  0
LINE
  5
2F4
100
AcDbEntity
  8
0
100
AcDbLine
 62
7
  6
CONTINUOUS
 10
180.9948750173
 20
54.0122844942
 11
181.1337690393
 21
52.4724700611
  0
LINE
  5
2F5
100
AcDbEntity
  8
RUNDUNGEN
100
AcDbLine
 62
7
  6
CONTINUOUS
 10
176.2416029081
 20
120.2668233276
 11
176.2416029081
 21
176.2668233276
  0
LINE
  5
2F6
100
AcDbEntity
  8
BEZUGSACHSEN
100
AcDbLine
 62
7
  6
CONTINUOUS
 10
177.2416029081
 20
122.9596420173
 11
177.2416029081
 21
133.954091081
  0
LINE
  5
2F7
100
AcDbEntity
  8
0
100
AcDbLine
 62
7
  6
CONTINUOUS
 10
177.2416029081
 20
133.954091081
 11
177.2416029081
 21
166.2741746793
  0
LINE
  5
2F8
100
AcDbEntity
  8
RUNDUNGEN
100
AcDbLine
 62
7
  6
CONTINUOUS
 10
177.2416029081
 20
133.954091081
 11
177.2416029081
 21
174.7667671215
  0
LINE
  5
2F9
100
AcDbEntity
  8
BEZUGSACHSEN
100
AcDbLine
 62
7
  6
CONTINUOUS
 10
177.7393371876
 20
118.5892721745
 11
177.7393371876
 21
99.8102697661
  0
LINE
  5
2FA
100
AcDbEntity
  8
0
100
AcDbLine
 62
7
  6
CONTINUOUS
 10
170.6189077084
 20
34.496093232
 11
170.5312341347
 21
33.5105773664
  0
LINE
  5
2FB
100
AcDbEntity
  8
BEZUGSACHSEN
100
AcDbLine
 62
7
  6
CONTINUOUS
 10
85.7438686286
 20
198.7233768892
 11
85.2138324104
 21
198.7259997452
  0
LINE
  5
2FC
100
AcDbEntity
  8
0
100
AcDbLine
 62
7
  6
CONTINUOUS
 10
64.7353661973
 20
233.231682625
 11
64.0194666088
 21
233.6487167882
  0
LINE
  5
2FD
100
AcDbEntity
  8
0
100
AcDbLine
 62
7
  6
CONTINUOUS
 10
69.644146827
 20
230.6851181578
 11
69.1668804347
 21
230.9631409332
  0
LINE
  5
2FE
100
AcDbEntity
  8
0
100
AcDbLine
 62
7
  6
CONTINUOUS
 10
72.4336484355
 20
236.571021712
 11
72.9109148278
 21
236.2929989365
  0
LINE
  5
2FF
100
AcDbEntity
  8
0
100
AcDbLine
 62
7
  6
CONTINUOUS
 10
67.5584642378
 20
239.7239191825
 11
68.2743638264
 21
239.3068850193
  0
LINE
  5
300
100
AcDbEntity
  8
0
100
AcDbLine
 62
7
  6
CONTINUOUS
 10
73.5914904562
 20
237.4613056494
 11
72.8755908677
 21
237.8783398126
  0
LINE
  5
301
100
AcDbEntity
  8
0
100
AcDbLine
 62
7
  6
CONTINUOUS
 10
68.9549425702
 20
240.4751970803
 11
68.2390429816
 21
240.8922312435
  0
LINE
  5
302
100
AcDbEntity
  8
0
100
AcDbLine
 62
7
  6
CONTINUOUS
 10
75.3446639128
 20
252.7437207351
 11
74.2938568222
 21
253.6395746285
  0
LINE
  5
303
100
AcDbEntity
  8
0
100
AcDbLine
 62
7
  6
CONTINUOUS
 10
123.4716014508
 20
275.81107919
 11
128.4368591979
 21
264.9534277026
  0
LINE
  5
304
100
AcDbEntity
  8
0
100
AcDbLine
 62
7
  6
CONTINUOUS
 10
130.0502100415
 20
265.1254896262
 11
124.3714456083
 21
277.5734645648
  0
LINE
  5
305
100
AcDbEntity
  8
0
100
AcDbLine
 62
7
  6
CONTINUOUS
 10
196.2253909509
 20
66.4584146203
 11
195.9178373625
 21
67.5764338808
  0
LINE
  5
306
100
AcDbEntity
  8
0
100
AcDbLine
 62
7
  6
CONTINUOUS
 10
201.3728050275
 20
63.7728386193
 11
201.0652513555
 21
64.8908579284
  0
LINE
  5
307
100
AcDbEntity
  8
0
100
AcDbLine
 62
7
  6
CONTINUOUS
 10
190.128623475
 20
63.1250092349
 11
189.9571831429
 21
64.4766866292
  0
LINE
  5
308
100
AcDbEntity
  8
0
100
AcDbLine
 62
7
  6
CONTINUOUS
 10
187.7967734964
 20
56.031122133
 11
188.1385419034
 21
45.7899259202
  0
LINE
  5
309
100
AcDbEntity
  8
0
100
AcDbLine
 62
7
  6
CONTINUOUS
 10
189.5420449687
 20
47.4361887578
 11
189.3044465763
 21
56.5225235569
  0
LINE
  5
30A
100
AcDbEntity
  8
0
100
AcDbLine
 62
7
  6
CONTINUOUS
 10
188.6279039056
 20
64.938085434
 11
188.6632247504
 21
63.3527392099
  0
LINE
  5
30B
100
AcDbEntity
  8
0
100
AcDbLine
 62
7
  6
CONTINUOUS
 10
182.3965567231
 20
53.5279952582
 11
182.5025480972
 21
54.5036859182
  0
LINE
  5
30C
100
AcDbEntity
  8
0
100
AcDbLine
 62
7
  6
CONTINUOUS
 10
160.9740075326
 20
39.3704711165
 11
160.5389065195
 21
37.8868896927
  0
LINE
  5
30D
100
AcDbEntity
  8
0
100
AcDbLine
 62
7
  6
CONTINUOUS
 10
75.5438981753
 20
239.7812366612
 11
76.559983119
 21
239.2703382678
  0
LINE
  5
30E
100
AcDbEntity
  8
0
100
AcDbLine
 62
7
  6
CONTINUOUS
 10
95.2653324952
 20
257.8066082686
 11
95.8936031898
 21
257.2025964607
  0
LINE
  5
30F
100
AcDbEntity
  8
0
100
AcDbLine
 62
7
  6
CONTINUOUS
 10
100.2136629168
 20
262.3210127099
 11
100.8419336114
 21
261.717000902
  0
LINE
  5
310
100
AcDbEntity
  8
0
100
AcDbLine
 62
7
  6
CONTINUOUS
 10
102.1439534086
 20
262.7237385371
 11
101.3858085123
 21
263.5714769541
  0
LINE
  5
311
100
AcDbEntity
  8
0
100
AcDbLine
 62
7
  6
CONTINUOUS
 10
100.3922903935
 20
267.7360499636
 11
99.6341454972
 21
268.5837883806
  0
LINE
  5
312
100
AcDbEntity
  8
0
100
AcDbLine
 62
7
  6
CONTINUOUS
 10
108.6239708152
 20
272.7455426222
 11
115.5962270585
 21
263.0537925086
  0
LINE
  5
313
100
AcDbEntity
  8
0
100
AcDbLine
 62
7
  6
CONTINUOUS
 10
117.1457977249
 20
263.5347675598
 11
109.1658083793
 21
274.6487326017
  0
LINE
  5
314
100
AcDbEntity
  8
0
100
AcDbLine
 62
7
  6
CONTINUOUS
 10
193.4358893425
 20
60.5725110661
 11
193.6073296745
 21
59.2208336719
  0
LINE
  5
315
100
AcDbEntity
  8
0
100
AcDbLine
 62
7
  6
CONTINUOUS
 10
194.7599953418
 20
66.6861499434
 11
194.9314325584
 21
65.3344672011
  0
LINE
  5
316
100
AcDbEntity
  8
0
100
AcDbLine
 62
7
  6
CONTINUOUS
 10
201.4081290504
 20
62.1874977067
 11
201.3728050275
 21
63.7728386193
  0
LINE
  5
317
100
AcDbEntity
  8
0
100
AcDbLine
 62
7
  6
CONTINUOUS
 10
193.46948889
 20
61.1788494174
 11
193.4358893425
 21
60.5725110661
  0
LINE
  5
318
100
AcDbEntity
  8
0
100
AcDbLine
 62
7
  6
CONTINUOUS
 10
194.6626548709
 20
60.4837924789
 11
194.7298477351
 21
61.6964584854
  0
LINE
  5
319
100
AcDbEntity
  8
0
100
AcDbLine
 62
7
  6
CONTINUOUS
 10
196.1917945189
 20
65.8520816171
 11
196.2253909509
 21
66.4584146203
  0
LINE
  5
31A
100
AcDbEntity
  8
0
100
AcDbLine
 62
7
  6
CONTINUOUS
 10
200.0099261591
 20
63.6278991215
 11
199.9427301796
 21
62.4152277669
  0
LINE
  5
31B
100
AcDbEntity
  8
0
100
AcDbLine
 62
7
  6
CONTINUOUS
 10
181.2763057803
 20
55.1937597752
 11
180.9948750173
 21
54.0122844942
  0
LINE
  5
31C
100
AcDbEntity
  8
0
100
AcDbLine
 62
7
  6
CONTINUOUS
 10
171.7877756603
 20
32.3025534945
 11
172.222876628
 21
33.7861350036
  0
LINE
  5
31D
100
AcDbEntity
  8
0
100
AcDbLine
 62
7
  6
CONTINUOUS
 10
68.9635680832
 20
229.5168060968
 11
70.4289674763
 21
229.2890757324
  0
LINE
  5
31E
100
AcDbEntity
  8
0
100
AcDbLine
 62
7
  6
CONTINUOUS
 10
64.0547905689
 20
232.0633759122
 11
65.5201865124
 21
231.8356403944
  0
LINE
  5
31F
100
AcDbEntity
  8
0
100
AcDbLine
 62
7
  6
CONTINUOUS
 10
97.195622987
 20
258.2093340958
 11
96.6972264942
 21
258.5696192946
  0
LINE
  5
320
100
AcDbEntity
  8
0
100
AcDbLine
 62
7
  6
CONTINUOUS
 10
91.9519009157
 20
262.2996359609
 11
92.9486940834
 21
261.5790652218
  0
LINE
  5
321
100
AcDbEntity
  8
0
100
AcDbLine
 62
7
  6
CONTINUOUS
 10
98.3321257
 20
267.5770507455
 11
98.9603963946
 21
266.9730389376
  0
LINE
  5
322
100
AcDbEntity
  8
BEZUGSACHSEN
100
AcDbLine
 62
7
  6
CONTINUOUS
 10
210.2416029081
 20
133.954091081
 11
210.2416029081
 21
122.9596420173
  0
LINE
  5
323
100
AcDbEntity
  8
RUNDUNGEN
100
AcDbLine
 62
7
  6
CONTINUOUS
 10
210.2416029081
 20
133.954091081
 11
210.2416029081
 21
174.7667671423
  0
LINE
  5
324
100
AcDbEntity
  8
RUNDUNGEN
100
AcDbLine
 62
7
  6
CONTINUOUS
 10
212.2416029081
 20
120.2669269988
 11
212.2416029081
 21
176.2668233276
  0
LINE
  5
325
100
AcDbEntity
  8
0
100
AcDbLine
 62
7
  6
CONTINUOUS
 10
189.9571831429
 20
64.4766866292
 11
190.2630123187
 21
65.550346596
  0
LINE
  5
326
100
AcDbEntity
  8
0
100
AcDbLine
 62
7
  6
CONTINUOUS
 10
194.9314325584
 20
65.3344672011
 11
194.625606498
 21
64.2608125823
  0
LINE
  5
327
100
AcDbEntity
  8
0
100
AcDbLine
 62
7
  6
CONTINUOUS
 10
194.7298477351
 20
61.6964584854
 11
195.0356769108
 21
62.7701184522
  0
LINE
  5
328
100
AcDbEntity
  8
0
100
AcDbLine
 62
7
  6
CONTINUOUS
 10
189.0698463378
 20
66.2454035346
 11
188.6279039056
 21
64.938085434
  0
LINE
  5
329
100
AcDbEntity
  8
0
100
AcDbLine
 62
7
  6
CONTINUOUS
 10
162.2305489218
 20
38.1624475006
 11
162.6867475178
 21
39.0314062318
  0
LINE
  5
32A
100
AcDbEntity
  8
0
100
AcDbLine
 62
7
  6
CONTINUOUS
 10
70.6322767123
 20
230.7354052207
 11
69.644146827
 21
230.6851181578
  0
LINE
  5
32B
100
AcDbEntity
  8
0
100
AcDbLine
 62
7
  6
CONTINUOUS
 10
72.8755908677
 20
237.8783398126
 11
71.6488284547
 21
237.9670637479
  0
LINE
  5
32C
100
AcDbEntity
  8
0
100
AcDbLine
 62
7
  6
CONTINUOUS
 10
77.5778854067
 20
240.8899872381
 11
76.5965264782
 21
241.0159349669
  0
LINE
  5
32D
100
AcDbEntity
  8
0
100
AcDbLine
 62
7
  6
CONTINUOUS
 10
68.2390429816
 20
240.8922312435
 11
66.7736440899
 21
241.1199613158
  0
LINE
  5
32E
100
AcDbEntity
  8
0
100
AcDbLine
 62
7
  6
CONTINUOUS
 10
95.8936031898
 20
257.2025964607
 11
97.1290469962
 21
256.6091955374
  0
LINE
  5
32F
100
AcDbEntity
  8
0
100
AcDbLine
 62
7
  6
CONTINUOUS
 10
94.1208396789
 20
262.8295294659
 11
93.2539207129
 21
263.306373596
  0
LINE
  5
330
100
AcDbEntity
  8
0
100
AcDbLine
 62
7
  6
CONTINUOUS
 10
99.6341454972
 20
268.5837883806
 11
98.2688273527
 21
269.4209161689
  0
LINE
  5
331
100
AcDbEntity
  8
0
100
AcDbLine
 62
7
  6
CONTINUOUS
 10
199.9427301796
 20
62.4152277669
 11
199.6369041192
 21
61.3415731481
  0
LINE
  5
332
100
AcDbEntity
  8
0
100
AcDbLine
 62
7
  6
CONTINUOUS
 10
200.9661835237
 20
60.8801742459
 11
201.4081290504
 21
62.1874977067
  0
LINE
  5
333
100
AcDbEntity
  8
0
100
AcDbLine
 62
7
  6
CONTINUOUS
 10
170.5312341347
 20
33.5105773664
 11
170.0750356296
 21
32.6416184646
  0
LINE
  5
334
100
AcDbEntity
  8
0
100
AcDbLine
 62
7
  6
CONTINUOUS
 10
182.5025480972
 20
54.5036859182
 11
183.1695796378
 21
55.7117750666
  0
LINE
  5
335
100
AcDbEntity
  8
0
100
AcDbLine
 62
7
  6
CONTINUOUS
 10
189.6143087097
 20
67.1800521138
 11
189.0698463378
 21
66.2454035346
  0
LINE
  5
336
100
AcDbEntity
  8
0
100
AcDbLine
 62
7
  6
CONTINUOUS
 10
190.2630123187
 20
65.550346596
 11
190.8074746906
 21
66.4849951752
  0
LINE
  5
337
100
AcDbEntity
  8
0
100
AcDbLine
 62
7
  6
CONTINUOUS
 10
194.625606498
 20
64.2608125823
 11
194.0811441261
 21
63.3261640031
  0
LINE
  5
338
100
AcDbEntity
  8
0
100
AcDbLine
 62
7
  6
CONTINUOUS
 10
195.0356769108
 20
62.7701184522
 11
195.5801392828
 21
63.7047670314
  0
LINE
  5
339
100
AcDbEntity
  8
0
100
AcDbLine
 62
7
  6
CONTINUOUS
 10
182.2942080679
 20
56.8134087455
 11
181.2763057803
 21
55.1937597752
  0
LINE
  5
33A
100
AcDbEntity
  8
0
100
AcDbLine
 62
7
  6
CONTINUOUS
 10
161.6688542181
 20
40.3665978669
 11
160.9740075326
 21
39.3704711165
  0
LINE
  5
33B
100
AcDbEntity
  8
0
100
AcDbLine
 62
7
  6
CONTINUOUS
 10
190.5335175343
 20
68.209347439
 11
189.6143087097
 21
67.1800521138
  0
LINE
  5
33C
100
AcDbEntity
  8
0
100
AcDbLine
 62
7
  6
CONTINUOUS
 10
162.6867475178
 20
39.0314062318
 11
163.2728203156
 21
39.6566383538
  0
LINE
  5
33D
100
AcDbEntity
  8
0
100
AcDbLine
 62
7
  6
CONTINUOUS
 10
70.4289674763
 20
229.2890757324
 11
71.553213065
 21
229.5730266666
  0
LINE
  5
33E
100
AcDbEntity
  8
0
100
AcDbLine
 62
7
  6
CONTINUOUS
 10
66.0982453164
 20
233.3766219768
 11
64.7353661973
 21
233.231682625
  0
LINE
  5
33F
100
AcDbEntity
  8
0
100
AcDbLine
 62
7
  6
CONTINUOUS
 10
66.1955852859
 20
239.5789797334
 11
67.5584642378
 21
239.7239191825
  0
LINE
  5
340
100
AcDbEntity
  8
0
100
AcDbLine
 62
7
  6
CONTINUOUS
 10
76.559983119
 20
239.2703382678
 11
78.1023781987
 21
239.3767843173
  0
LINE
  5
341
100
AcDbEntity
  8
0
100
AcDbLine
 62
7
  6
CONTINUOUS
 10
71.4455161032
 20
236.5207289115
 11
72.4336484355
 21
236.571021712
  0
LINE
  5
342
100
AcDbEntity
  8
0
100
AcDbLine
 62
7
  6
CONTINUOUS
 10
97.9326703005
 20
257.9762183714
 11
97.195622987
 21
258.2093340958
  0
LINE
  5
343
100
AcDbEntity
  8
0
100
AcDbLine
 62
7
  6
CONTINUOUS
 10
92.9486940834
 20
261.5790652218
 11
94.4227887103
 21
261.1128337731
  0
LINE
  5
344
100
AcDbEntity
  8
0
100
AcDbLine
 62
7
  6
CONTINUOUS
 10
199.6369041192
 20
61.3415731481
 11
199.0924417473
 21
60.4069245689
  0
LINE
  5
345
100
AcDbEntity
  8
0
100
AcDbLine
 62
7
  6
CONTINUOUS
 10
200.1494915235
 20
59.4782040512
 11
200.9661835237
 21
60.8801742459
  0
LINE
  5
346
100
AcDbEntity
  8
0
100
AcDbLine
 62
7
  6
CONTINUOUS
 10
171.0929290089
 20
31.3064266801
 11
171.7877756603
 21
32.3025534945
  0
LINE
  5
347
100
AcDbEntity
  8
RUNDUNGEN
100
AcDbLine
 62
7
  6
CONTINUOUS
 10
234.3431183386
 20
117.9881003098
 11
243.9430303912
 21
131.6981955727
  0
LINE
  5
348
100
AcDbEntity
  8
0
100
AcDbLine
 62
7
  6
CONTINUOUS
 10
182.9959616083
 20
57.6365425193
 11
182.2942080679
 21
56.8134087455
  0
LINE
  5
349
100
AcDbEntity
  8
0
100
AcDbLine
 62
7
  6
CONTINUOUS
 10
183.1695796378
 20
55.7117750666
 11
183.8713291627
 21
56.5349041304
  0
LINE
  5
34A
100
AcDbEntity
  8
0
100
AcDbLine
 62
7
  6
CONTINUOUS
 10
181.7989752051
 20
51.5500024258
 11
182.6761661267
 21
52.5789184655
  0
LINE
  5
34B
100
AcDbEntity
  8
0
100
AcDbLine
 62
7
  6
CONTINUOUS
 10
194.4543117203
 20
53.1981157544
 11
189.5420449687
 21
47.4361887578
  0
LINE
  5
34C
100
AcDbEntity
  8
0
100
AcDbLine
 62
7
  6
CONTINUOUS
 10
190.8074746906
 20
66.4849951752
 11
191.5905671433
 21
67.2806270185
  0
LINE
  5
34D
100
AcDbEntity
  8
0
100
AcDbLine
 62
7
  6
CONTINUOUS
 10
194.0811441261
 20
63.3261640031
 11
193.298048558
 21
62.5305268117
  0
LINE
  5
34E
100
AcDbEntity
  8
0
100
AcDbLine
 62
7
  6
CONTINUOUS
 10
195.5801392828
 20
63.7047670314
 11
196.3632317355
 21
64.5003988747
  0
LINE
  5
34F
100
AcDbEntity
  8
0
100
AcDbLine
 62
7
  6
CONTINUOUS
 10
199.0924417473
 20
60.4069245689
 11
198.3093461791
 21
59.6112873775
  0
LINE
  5
350
100
AcDbEntity
  8
0
100
AcDbLine
 62
7
  6
CONTINUOUS
 10
162.4935751053
 20
41.1189980082
 11
161.6688542181
 21
40.3665978669
  0
LINE
  5
351
100
AcDbEntity
  8
0
100
AcDbLine
 62
7
  6
CONTINUOUS
 10
184.2587512998
 20
58.6920700714
 11
182.9959616083
 21
57.6365425193
  0
LINE
  5
352
100
AcDbEntity
  8
0
100
AcDbLine
 62
7
  6
CONTINUOUS
 10
183.8713291627
 20
56.5349041304
 11
184.9586834807
 21
57.3846517715
  0
LINE
  5
353
100
AcDbEntity
  8
0
100
AcDbLine
 62
7
  6
CONTINUOUS
 10
192.9586229501
 20
60.8505338415
 11
193.46948889
 21
61.1788494174
  0
LINE
  5
354
100
AcDbEntity
  8
0
100
AcDbLine
 62
7
  6
CONTINUOUS
 10
196.7026573433
 20
66.1803918449
 11
196.1917945189
 21
65.8520816171
  0
LINE
  5
355
100
AcDbEntity
  8
0
100
AcDbLine
 62
7
  6
CONTINUOUS
 10
196.3632317355
 20
64.5003988747
 11
197.3849604998
 21
65.1570246785
  0
LINE
  5
356
100
AcDbEntity
  8
0
100
AcDbLine
 62
7
  6
CONTINUOUS
 10
191.9299927512
 20
68.9606199887
 11
190.5335175343
 21
68.209347439
  0
LINE
  5
357
100
AcDbEntity
  8
0
100
AcDbLine
 62
7
  6
CONTINUOUS
 10
163.6868210148
 20
41.754841015
 11
162.4935751053
 21
41.1189980082
  0
LINE
  5
358
100
AcDbEntity
  8
0
100
AcDbLine
 62
7
  6
CONTINUOUS
 10
185.3808276175
 20
59.156862338
 11
184.2587512998
 21
58.6920700714
  0
LINE
  5
359
100
AcDbEntity
  8
0
100
AcDbLine
 62
7
  6
CONTINUOUS
 10
191.5905671433
 20
67.2806270185
 11
192.8509291038
 21
67.7982414345
  0
LINE
  5
35A
100
AcDbEntity
  8
0
100
AcDbLine
 62
7
  6
CONTINUOUS
 10
197.9630193038
 20
66.6980062609
 11
196.7026573433
 21
66.1803918449
  0
LINE
  5
35B
100
AcDbEntity
  8
0
100
AcDbLine
 62
7
  6
CONTINUOUS
 10
193.298048558
 20
62.5305268117
 11
192.0376897129
 21
62.0129177438
  0
LINE
  5
35C
100
AcDbEntity
  8
0
100
AcDbLine
 62
7
  6
CONTINUOUS
 10
78.5245223354
 20
241.1489948837
 11
77.5778854067
 21
240.8899872381
  0
LINE
  5
35D
100
AcDbEntity
  8
0
100
AcDbLine
 62
7
  6
CONTINUOUS
 10
71.6488284547
 20
237.9670637479
 11
70.524582866
 21
237.6831128137
  0
LINE
  5
35E
100
AcDbEntity
  8
0
100
AcDbLine
 62
7
  6
CONTINUOUS
 10
66.7736440899
 20
241.1199613158
 11
65.6493984177
 21
240.8360104303
  0
LINE
  5
35F
100
AcDbEntity
  8
0
100
AcDbLine
 62
7
  6
CONTINUOUS
 10
95.0965350817
 20
262.7235817608
 11
94.1208396789
 21
262.8295294659
  0
LINE
  5
360
100
AcDbEntity
  8
0
100
AcDbLine
 62
7
  6
CONTINUOUS
 10
99.2379675139
 20
262.426960415
 11
100.2136629168
 21
262.3210127099
  0
LINE
  5
361
100
AcDbEntity
  8
0
100
AcDbLine
 62
7
  6
CONTINUOUS
 10
97.1290469962
 20
256.6091955374
 11
98.4732646902
 21
256.3866892425
  0
LINE
  5
362
100
AcDbEntity
  8
0
100
AcDbLine
 62
7
  6
CONTINUOUS
 10
101.3858085123
 20
263.5714769541
 11
99.9117138854
 21
264.0377084027
  0
LINE
  5
363
100
AcDbEntity
  8
0
100
AcDbLine
 62
7
  6
CONTINUOUS
 10
97.2265560044
 20
267.9267252304
 11
98.3321257
 21
267.5770507455
  0
LINE
  5
364
100
AcDbEntity
  8
0
100
AcDbLine
 62
7
  6
CONTINUOUS
 10
245.7416029081
 20
173.5519210435
 11
245.7416029081
 21
161.2668233276
  0
LINE
  5
365
100
AcDbEntity
  8
0
100
AcDbLine
 62
7
  6
CONTINUOUS
 10
189.189348994
 20
44.8940720267
 11
195.5051188109
 21
52.302261861
  0
LINE
  5
366
100
AcDbEntity
  8
0
100
AcDbLine
 62
7
  6
CONTINUOUS
 10
199.230282678
 20
58.4489087382
 11
200.1494915235
 21
59.4782040512
  0
LINE
  5
367
100
AcDbEntity
  8
0
100
AcDbLine
 62
7
  6
CONTINUOUS
 10
170.0750356296
 20
32.6416184646
 11
169.2503120113
 21
31.8892168679
  0
LINE
  5
368
100
AcDbEntity
  8
0
100
AcDbLine
 62
7
  6
CONTINUOUS
 10
170.0295573125
 20
30.4268570429
 11
171.0929290089
 21
31.3064266801
  0
LINE
  5
369
100
AcDbEntity
  8
0
100
AcDbLine
 62
7
  6
CONTINUOUS
 10
198.3093461791
 20
59.6112873775
 11
197.2876205303
 21
58.9546669219
  0
LINE
  5
36A
100
AcDbEntity
  8
0
100
AcDbLine
 62
7
  6
CONTINUOUS
 10
197.8338073985
 20
57.697636225
 11
199.230282678
 21
58.4489087382
  0
LINE
  5
36B
100
AcDbEntity
  8
0
100
AcDbLine
 62
7
  6
CONTINUOUS
 10
163.2728203156
 20
39.6566383538
 11
164.7047143145
 21
40.4196493799
  0
LINE
  5
36C
100
AcDbEntity
  8
0
100
AcDbLine
 62
7
  6
CONTINUOUS
 10
166.785979322
 20
39.9640273606
 11
168.2178733209
 21
40.7270383867
  0
LINE
  5
36D
100
AcDbEntity
  8
0
100
AcDbLine
 62
7
  6
CONTINUOUS
 10
166.5229535024
 20
37.0074761703
 11
165.0910595034
 21
36.2444651442
  0
LINE
  5
36E
100
AcDbEntity
  8
0
100
AcDbLine
 62
7
  6
CONTINUOUS
 10
165.8703047137
 20
34.7821054899
 11
167.3021987127
 21
35.5451165159
  0
LINE
  5
36F
100
AcDbEntity
  8
0
100
AcDbLine
 62
7
  6
CONTINUOUS
 10
164.5228094216
 20
31.5606077177
 11
163.0909154226
 21
30.7975966917
  0
LINE
  5
370
100
AcDbEntity
  8
0
100
AcDbLine
 62
7
  6
CONTINUOUS
 10
169.2503120113
 20
31.8892168679
 11
167.3411218335
 21
30.8718698034
  0
LINE
  5
371
100
AcDbEntity
  8
0
100
AcDbLine
 62
7
  6
CONTINUOUS
 10
156.6678796932
 20
38.2053795894
 11
155.1183090268
 21
37.7244045383
  0
LINE
  5
372
100
AcDbEntity
  8
0
100
AcDbLine
 62
7
  6
CONTINUOUS
 10
147.8869787577
 20
35.4798541466
 11
146.3374080913
 21
34.9988790955
  0
LINE
  5
373
100
AcDbEntity
  8
0
100
AcDbLine
 62
7
  6
CONTINUOUS
 10
165.0099411259
 20
42.1469574128
 11
163.6868210148
 21
41.754841015
  0
LINE
  5
374
100
AcDbEntity
  8
0
100
AcDbLine
 62
7
  6
CONTINUOUS
 10
167.8460736136
 20
37.399592568
 11
166.5229535024
 21
37.0074761703
  0
LINE
  5
375
100
AcDbEntity
  8
0
100
AcDbLine
 62
7
  6
CONTINUOUS
 10
96.1810071035
 20
262.9885301394
 11
95.0965350817
 21
262.7235817608
  0
LINE
  5
376
100
AcDbEntity
  8
0
100
AcDbLine
 62
7
  6
CONTINUOUS
 10
98.697370393
 20
264.0164880886
 11
97.6129011024
 21
263.7515411654
  0
LINE
  5
377
100
AcDbEntity
  8
0
100
AcDbLine
 62
7
  6
CONTINUOUS
 10
98.7784915017
 20
258.1139972754
 11
97.9326703005
 21
257.9762183714
  0
LINE
  5
378
100
AcDbEntity
  8
0
100
AcDbLine
 62
7
  6
CONTINUOUS
 10
98.3921463127
 20
262.289181511
 11
99.2379675139
 21
262.426960415
  0
LINE
  5
379
100
AcDbEntity
  8
0
100
AcDbLine
 62
7
  6
CONTINUOUS
 10
119.2945380074
 20
263.9784101629
 11
120.907888851
 21
264.1504720865
  0
LINE
  5
37A
100
AcDbEntity
  8
0
100
AcDbLine
 62
7
  6
CONTINUOUS
 10
128.4368591979
 20
264.9534277026
 11
130.0502100415
 21
265.1254896262
  0
LINE
  5
37B
100
AcDbEntity
  8
0
100
AcDbLine
 62
7
  6
CONTINUOUS
 10
94.4227887103
 20
261.1128337731
 11
95.6371322026
 21
261.1340540872
  0
LINE
  5
37C
100
AcDbEntity
  8
0
100
AcDbLine
 62
7
  6
CONTINUOUS
 10
99.9117138854
 20
264.0377084027
 11
98.697370393
 21
264.0164880886
  0
LINE
  5
37D
100
AcDbEntity
  8
0
100
AcDbLine
 62
7
  6
CONTINUOUS
 10
98.2688273527
 20
269.4209161689
 11
96.685958804
 21
269.5162530533
  0
LINE
  5
37E
100
AcDbEntity
  8
BEZUGSACHSEN
100
AcDbLine
 62
7
  6
CONTINUOUS
 10
200.5456365217
 20
252.010301877
 11
242.730253183
 21
184.1058663643
  0
LINE
  5
37F
100
AcDbEntity
  8
0
100
AcDbLine
 62
7
  6
CONTINUOUS
 10
168.1203671347
 20
29.4095099784
 11
170.0295573125
 21
30.4268570429
  0
LINE
  5
380
100
AcDbEntity
  8
0
100
AcDbLine
 62
7
  6
CONTINUOUS
 10
154.3173974369
 20
23.8849140536
 11
156.3834911662
 21
24.5262139689
  0
LINE
  5
381
100
AcDbEntity
  8
0
100
AcDbLine
 62
7
  6
CONTINUOUS
 10
166.7972470122
 20
29.017393602
 11
168.1203671347
 21
29.4095099784
  0
LINE
  5
382
100
AcDbEntity
  8
0
100
AcDbLine
 62
7
  6
CONTINUOUS
 10
96.1420839827
 20
267.6617768518
 11
97.2265560044
 21
267.9267252304
  0
LINE
  5
383
100
AcDbEntity
  8
0
100
AcDbLine
 62
7
  6
CONTINUOUS
 10
124.3714456083
 20
277.5734645648
 11
122.2203112784
 21
277.3440486804
  0
LINE
  5
384
100
AcDbEntity
  8
AUSFORMSCHRAEGEN
100
AcDbLine
 62
7
  6
CONTINUOUS
 10
335.9027466504
 20
8.2668233276
 11
346.52991743
 21
9.3837839855
  0
LINE
  5
385
100
AcDbEntity
  8
BEZUGSACHSEN
100
AcDbLine
 62
7
  6
CONTINUOUS
 10
335.9027466504
 20
8.2668233276
 11
346.52991743
 21
9.3837839855
  0
LINE
  5
386
100
AcDbEntity
  8
BEZUGSACHSEN
100
AcDbLine
 62
7
  6
CONTINUOUS
 10
335.9027466504
 20
8.2668233276
 11
325.2755758708
 21
9.3837839855
  0
LINE
  5
387
100
AcDbEntity
  8
BEZUGSACHSEN
100
AcDbLine
 62
8
  6
HIDDEN
 10
335.9027466504
 20
54.2668233276
 11
332.5562296748
 21
53.7367871094
  0
LINE
  5
388
100
AcDbEntity
  8
BEZUGSACHSEN
100
AcDbLine
 62
8
  6
HIDDEN
 10
335.9027466504
 20
54.2668233276
 11
339.249263626
 21
53.7367871094
  0
LINE
  5
389
100
AcDbEntity
  8
BEZUGSACHSEN
100
AcDbLine
 62
7
  6
CONTINUOUS
 10
312.0099888011
 20
187.681847144
 11
309.7458902641
 21
185.417748607
  0
LINE
  5
38A
100
AcDbEntity
  8
BEZUGSACHSEN
100
AcDbLine
 62
7
  6
CONTINUOUS
 10
309.7459631834
 20
113.115825129
 11
312.0099726837
 21
110.8518156287
  0
LINE
  5
38B
100
AcDbEntity
  8
BEZUGSACHSEN
100
AcDbLine
 62
7
  6
CONTINUOUS
 10
307.4027466504
 20
179.760896354
 11
307.4027466504
 21
174.9739669287
  0
LINE
  5
38C
100
AcDbEntity
  8
RUNDUNGEN
100
AcDbLine
 62
7
  6
CONTINUOUS
 10
307.4027466504
 20
174.9739669287
 11
307.4027466504
 21
162.6464283162
  0
LINE
  5
38D
100
AcDbEntity
  8
BEZUGSACHSEN
100
AcDbLine
 62
7
  6
CONTINUOUS
 10
307.4027466504
 20
118.7727501609
 11
307.4027466504
 21
164.7829439768
  0
LINE
  5
38E
100
AcDbEntity
  8
BEZUGSACHSEN
100
AcDbLine
 62
7
  6
CONTINUOUS
 10
319.708107885
 20
230.8818965494
 11
314.275278455
 21
192.225306516
  0
LINE
  5
38F
100
AcDbEntity
  8
BEZUGSACHSEN
100
AcDbLine
 62
7
  6
CONTINUOUS
 10
314.2752804368
 20
106.3083260376
 11
319.7081071052
 21
67.6517556547
  0
LINE
  5
390
100
AcDbEntity
  8
BEZUGSACHSEN
100
AcDbLine
 62
8
  6
HIDDEN
 10
319.9027466504
 20
259.6121846548
 11
319.9027466504
 21
233.6653798762
  0
LINE
  5
391
100
AcDbEntity
  8
BEZUGSACHSEN
100
AcDbLine
 62
7
  6
CONTINUOUS
 10
319.9027466504
 20
199.4168027792
 11
319.9027466504
 21
180.3436912985
  0
LINE
  5
392
100
AcDbEntity
  8
BEZUGSACHSEN
100
AcDbLine
 62
7
  6
CONTINUOUS
 10
319.9027466504
 20
64.8682816829
 11
319.9027466504
 21
15.3509153577
  0
LINE
  5
393
100
AcDbEntity
  8
RUNDUNGEN
100
AcDbLine
 62
7
  6
CONTINUOUS
 10
319.9027466504
 20
179.6668233276
 11
319.9027466504
 21
283.1827312976
  0
LINE
  5
394
100
AcDbEntity
  8
BG_STARTBEZUEGE
100
AcDbLine
 62
7
  6
CENTER
 10
335.9027466504
 20
5.2668233276
 11
335.9027466504
 21
293.2668233276
  0
LINE
  5
395
100
AcDbEntity
  8
BG_STARTBEZUEGE
100
AcDbLine
 62
7
  6
CENTER
 10
335.9027466504
 20
149.2668233276
 11
326.5620073181
 21
149.2668233276
  0
LINE
  5
396
100
AcDbEntity
  8
BG_STARTBEZUEGE
100
AcDbLine
 62
7
  6
CENTER
 10
335.9027466504
 20
149.2668233276
 11
345.073813993
 21
149.2668233276
  0
LINE
  5
397
100
AcDbEntity
  8
RUNDUNGEN
100
AcDbLine
 62
7
  6
CONTINUOUS
 10
351.9027466504
 20
283.1827312976
 11
351.9027466504
 21
179.6668233276
  0
LINE
  5
398
100
AcDbEntity
  8
RUNDUNGEN
100
AcDbLine
 62
7
  6
CONTINUOUS
 10
351.9027466504
 20
64.8682816829
 11
351.9027466504
 21
15.3509153577
  0
LINE
  5
399
100
AcDbEntity
  8
RUNDUNGEN
100
AcDbLine
 62
7
  6
CONTINUOUS
 10
364.4027466504
 20
179.760896354
 11
364.4027466504
 21
118.7727501609
  0
LINE
  5
39A
100
AcDbEntity
  8
RUNDUNGEN
100
AcDbLine
 62
7
  6
CONTINUOUS
 10
357.530212864
 20
106.3083260376
 11
352.0973861957
 21
67.6517556547
  0
LINE
  5
39B
100
AcDbEntity
  8
RUNDUNGEN
100
AcDbLine
 62
7
  6
CONTINUOUS
 10
352.0973854158
 20
230.8818965494
 11
357.5302148459
 21
192.225306516
  0
LINE
  5
39C
100
AcDbEntity
  8
RUNDUNGEN
100
AcDbLine
 62
7
  6
CONTINUOUS
 10
362.0595301174
 20
113.115825129
 11
359.7955206172
 21
110.8518156287
  0
LINE
  5
39D
100
AcDbEntity
  8
RUNDUNGEN
100
AcDbLine
 62
7
  6
CONTINUOUS
 10
359.7955044998
 20
187.681847144
 11
362.0596090676
 21
185.4177425761
  0
LINE
  5
39E
100
AcDbEntity
  8
BEZUGSACHSEN
100
AcDbLine
 62
8
  6
HIDDEN
 10
335.9027466504
 20
244.2668233276
 11
339.249263626
 21
244.7968595458
  0
LINE
  5
39F
100
AcDbEntity
  8
BEZUGSACHSEN
100
AcDbLine
 62
8
  6
HIDDEN
 10
335.9027466504
 20
244.2668233276
 11
332.5562296748
 21
244.7968595458
  0
LINE
  5
3A0
100
AcDbEntity
  8
BEZUGSACHSEN
100
AcDbLine
 62
7
  6
CONTINUOUS
 10
335.9027466504
 20
290.2668233276
 11
325.2755758708
 21
289.1498626698
  0
LINE
  5
3A1
100
AcDbEntity
  8
AUSFORMSCHRAEGEN
100
AcDbLine
 62
7
  6
CONTINUOUS
 10
335.9027466504
 20
290.2668233276
 11
346.52991743
 21
289.1498626698
  0
LINE
  5
3A2
100
AcDbEntity
  8
BEZUGSACHSEN
100
AcDbLine
 62
7
  6
CONTINUOUS
 10
335.9027466504
 20
290.2668233276
 11
346.52991743
 21
289.1498626698
  0
ARC
  5
3A3
100
AcDbEntity
  8
BEZUGSACHSEN
100
AcDbCircle
 62
7
  6
CONTINUOUS
 10
88.7416029081
 20
123.5596797266
 40
20.0
100
AcDbArc
 50
321.4273491778
 51
360.0
  0
ARC
  5
3A4
100
AcDbEntity
  8
BEZUGSACHSEN
100
AcDbCircle
 62
7
  6
CONTINUOUS
 10
37.7416029081
 20
124.9817256118
 40
20.0
100
AcDbArc
 50
180.0
 51
211.85
  0
ARC
  5
3A5
100
AcDbEntity
  8
RUNDUNGEN
100
AcDbCircle
 62
7
  6
CONTINUOUS
 10
55.2416029081
 20
122.2668233276
 40
4.0
100
AcDbArc
 50
180.0
 51
269.9997416574
  0
ARC
  5
3A6
100
AcDbEntity
  8
RUNDUNGEN
100
AcDbCircle
 62
7
  6
CONTINUOUS
 10
83.2416029081
 20
122.2668233276
 40
4.0
100
AcDbArc
 50
269.9996626728
 51
360.0
  0
ARC
  5
3A7
100
AcDbEntity
  8
RUNDUNGEN
100
AcDbCircle
 62
7
  6
CONTINUOUS
 10
57.2416029081
 20
123.7668233276
 40
4.0
100
AcDbArc
 50
180.0
 51
270.0
  0
ARC
  5
3A8
100
AcDbEntity
  8
RUNDUNGEN
100
AcDbCircle
 62
7
  6
CONTINUOUS
 10
82.2416029081
 20
123.7668233276
 40
4.0
100
AcDbArc
 50
270.0
 51
360.0
  0
ARC
  5
3A9
100
AcDbEntity
  8
BEZUGSACHSEN
100
AcDbCircle
 62
7
  6
CONTINUOUS
 10
36.7404380812
 20
179.6668233276
 40
17.0011648269
100
AcDbArc
 50
346.0699250333
 51
70.4394933691
  0
ARC
  5
3AA
100
AcDbEntity
  8
BEZUGSACHSEN
100
AcDbCircle
 62
7
  6
CONTINUOUS
 10
102.742767735
 20
179.6668233276
 40
17.0011648269
100
AcDbArc
 50
179.0645807914
 51
193.9300749667
  0
ARC
  5
3AB
100
AcDbEntity
  8
0
100
AcDbCircle
 62
7
  6
CONTINUOUS
 10
27.6843041732
 20
161.1319188713
 40
9.9426914241
100
AcDbArc
 50
144.9955067492
 51
179.2225753734
  0
CIRCLE
  5
3AC
100
AcDbEntity
  8
BEZUGSACHSEN
100
AcDbCircle
 62
7
  6
CONTINUOUS
 10
31.2416029081
 20
149.2668233276
 40
5.0018623207
  0
ARC
  5
3AD
100
AcDbEntity
  8
RUNDUNGEN
100
AcDbCircle
 62
7
  6
CONTINUOUS
 10
32.4515817057
 20
178.2200649291
 40
4.046640824
100
AcDbArc
 50
89.9586210475
 51
144.9217292667
  0
ARC
  5
3AE
100
AcDbEntity
  8
RUNDUNGEN
100
AcDbCircle
 62
7
  6
CONTINUOUS
 10
91.2416029081
 20
178.2668233276
 40
4.0
100
AcDbArc
 50
90.0
 51
180.0
  0
ARC
  5
3AF
100
AcDbEntity
  8
RUNDUNGEN
100
AcDbCircle
 62
7
  6
CONTINUOUS
 10
47.2416029081
 20
178.2668233276
 40
4.0
100
AcDbArc
 50
0.0
 51
90.0
  0
ARC
  5
3B0
100
AcDbEntity
  8
RUNDUNGEN
100
AcDbCircle
 62
7
  6
CONTINUOUS
 10
131.7416029081
 20
100.2668233276
 40
92.0
100
AcDbArc
 50
270.0
 51
359.2150748773
  0
ARC
  5
3B1
100
AcDbEntity
  8
BEZUGSACHSEN
100
AcDbCircle
 62
7
  6
CONTINUOUS
 10
131.7416029081
 20
89.2668233276
 40
81.0
100
AcDbArc
 50
211.85
 51
270.0
  0
ARC
  5
3B2
100
AcDbEntity
  8
BEZUGSACHSEN
100
AcDbCircle
 62
7
  6
CONTINUOUS
 10
131.7416029081
 20
100.2668233276
 40
46.0
100
AcDbArc
 50
270.0
 51
359.4313256155
  0
ARC
  5
3B3
100
AcDbEntity
  8
BEZUGSACHSEN
100
AcDbCircle
 62
7
  6
CONTINUOUS
 10
131.7416029081
 20
89.2668233276
 40
35.0
100
AcDbArc
 50
141.4273491778
 51
270.0
  0
ARC
  5
3B4
100
AcDbEntity
  8
BEZUGSACHSEN
100
AcDbCircle
 62
7
  6
CONTINUOUS
 10
226.742767735
 20
118.8668233276
 40
17.0011648269
100
AcDbArc
 50
166.0699250333
 51
250.4394933691
  0
ARC
  5
3B5
100
AcDbEntity
  8
BEZUGSACHSEN
100
AcDbCircle
 62
7
  6
CONTINUOUS
 10
160.7404380812
 20
118.8668233276
 40
17.0011648269
100
AcDbArc
 50
359.0645807914
 51
13.9300749667
  0
ARC
  5
3B6
100
AcDbEntity
  8
0
100
AcDbCircle
 62
7
  6
CONTINUOUS
 10
235.7989016429
 20
137.401727784
 40
9.9426914241
100
AcDbArc
 50
324.9955067492
 51
359.2225753734
  0
ARC
  5
3B7
100
AcDbEntity
  8
RUNDUNGEN
100
AcDbCircle
 62
7
  6
CONTINUOUS
 10
231.0316241911
 20
120.3135816195
 40
4.046640824
100
AcDbArc
 50
269.9586199044
 51
324.921729846
  0
ARC
  5
3B8
100
AcDbEntity
  8
RUNDUNGEN
100
AcDbCircle
 62
7
  6
CONTINUOUS
 10
172.2416029081
 20
120.2668233276
 40
4.0
100
AcDbArc
 50
270.0
 51
360.0
  0
ARC
  5
3B9
100
AcDbEntity
  8
RUNDUNGEN
100
AcDbCircle
 62
7
  6
CONTINUOUS
 10
216.2416029081
 20
120.2668233276
 40
4.0
100
AcDbArc
 50
180.0
 51
270.0
  0
ARC
  5
3BA
100
AcDbEntity
  8
RUNDUNGEN
100
AcDbCircle
 62
7
  6
CONTINUOUS
 10
131.7416029081
 20
198.2668233276
 40
92.0
100
AcDbArc
 50
90.0
 51
179.2150748773
  0
ARC
  5
3BB
100
AcDbEntity
  8
BEZUGSACHSEN
100
AcDbCircle
 62
7
  6
CONTINUOUS
 10
131.7416029081
 20
209.2668233276
 40
81.0
100
AcDbArc
 50
31.85
 51
90.0
  0
ARC
  5
3BC
100
AcDbEntity
  8
BEZUGSACHSEN
100
AcDbCircle
 62
7
  6
CONTINUOUS
 10
131.7416029081
 20
198.2668233276
 40
46.0
100
AcDbArc
 50
90.0
 51
179.4313256155
  0
ARC
  5
3BD
100
AcDbEntity
  8
BEZUGSACHSEN
100
AcDbCircle
 62
7
  6
CONTINUOUS
 10
131.7416029081
 20
209.2668233276
 40
35.0
100
AcDbArc
 50
321.4273491778
 51
90.0
  0
ARC
  5
3BE
100
AcDbEntity
  8
BEZUGSACHSEN
100
AcDbCircle
 62
7
  6
CONTINUOUS
 10
174.7416029081
 20
174.9739669287
 40
20.0
100
AcDbArc
 50
141.4273491778
 51
180.0
  0
ARC
  5
3BF
100
AcDbEntity
  8
BEZUGSACHSEN
100
AcDbCircle
 62
7
  6
CONTINUOUS
 10
225.7416029081
 20
173.5519210435
 40
20.0
100
AcDbArc
 50
0.0
 51
31.85
  0
CIRCLE
  5
3C0
100
AcDbEntity
  8
BEZUGSACHSEN
100
AcDbCircle
 62
7
  6
CONTINUOUS
 10
232.2416029081
 20
149.2668233276
 40
5.0018623207
  0
ARC
  5
3C1
100
AcDbEntity
  8
RUNDUNGEN
100
AcDbCircle
 62
7
  6
CONTINUOUS
 10
206.2416029081
 20
174.7668233276
 40
4.0
100
AcDbArc
 50
0.0
 51
90.0
  0
ARC
  5
3C2
100
AcDbEntity
  8
RUNDUNGEN
100
AcDbCircle
 62
7
  6
CONTINUOUS
 10
181.2416029081
 20
174.7668233276
 40
4.0
100
AcDbArc
 50
90.0
 51
180.0
  0
ARC
  5
3C3
100
AcDbEntity
  8
RUNDUNGEN
100
AcDbCircle
 62
7
  6
CONTINUOUS
 10
208.2416029081
 20
176.2668233276
 40
4.0
100
AcDbArc
 50
0.0
 51
89.9997416574
  0
ARC
  5
3C4
100
AcDbEntity
  8
RUNDUNGEN
100
AcDbCircle
 62
7
  6
CONTINUOUS
 10
180.2416029081
 20
176.2668233276
 40
4.0
100
AcDbArc
 50
89.9996626728
 51
180.0
  0
ARC
  5
3C5
100
AcDbEntity
  8
BEZUGSACHSEN
100
AcDbCircle
 62
7
  6
CONTINUOUS
 10
299.9027466504
 20
64.8682870888
 40
20.0
100
AcDbArc
 50
359.9999845133
 51
8.0000189394
  0
ARC
  5
3C6
100
AcDbEntity
  8
BEZUGSACHSEN
100
AcDbCircle
 62
8
  6
HIDDEN
 10
334.9027466504
 20
38.9214620005
 40
15.0
100
AcDbArc
 50
99.0
 51
180.0
  0
ARC
  5
3C7
100
AcDbEntity
  8
BEZUGSACHSEN
100
AcDbCircle
 62
7
  6
CONTINUOUS
 10
306.3531354459
 20
105.1949443674
 40
8.0
100
AcDbArc
 50
7.9999773085
 51
45.0001723043
  0
ARC
  5
3C8
100
AcDbEntity
  8
BEZUGSACHSEN
100
AcDbCircle
 62
7
  6
CONTINUOUS
 10
315.4027466504
 20
118.7727501609
 40
8.0
100
AcDbArc
 50
179.99873932
 51
224.9999248509
  0
ARC
  5
3C9
100
AcDbEntity
  8
BEZUGSACHSEN
100
AcDbCircle
 62
7
  6
CONTINUOUS
 10
325.9027466504
 20
15.3509153577
 40
6.0
100
AcDbArc
 50
180.0
 51
264.0
  0
ARC
  5
3CA
100
AcDbEntity
  8
BEZUGSACHSEN
100
AcDbCircle
 62
7
  6
CONTINUOUS
 10
299.9027466504
 20
233.6653595665
 40
20.0
100
AcDbArc
 50
351.9999971132
 51
0.0000581831
  0
ARC
  5
3CB
100
AcDbEntity
  8
BEZUGSACHSEN
100
AcDbCircle
 62
7
  6
CONTINUOUS
 10
302.9015818235
 20
179.6668233276
 40
17.0011648269
100
AcDbArc
 50
354.6117389948
 51
360.0
  0
ARC
  5
3CC
100
AcDbEntity
  8
BEZUGSACHSEN
100
AcDbCircle
 62
8
  6
HIDDEN
 10
334.9027466504
 20
259.6121846548
 40
15.0
100
AcDbArc
 50
180.0
 51
261.0
  0
ARC
  5
3CD
100
AcDbEntity
  8
BEZUGSACHSEN
100
AcDbCircle
 62
7
  6
CONTINUOUS
 10
306.3531354459
 20
193.3387022878
 40
8.0
100
AcDbArc
 50
314.9999909414
 51
351.9999207033
  0
ARC
  5
3CE
100
AcDbEntity
  8
BEZUGSACHSEN
100
AcDbCircle
 62
7
  6
CONTINUOUS
 10
315.4027466504
 20
179.7608964943
 40
8.0
100
AcDbArc
 50
135.0000216433
 51
180.00126068
  0
ARC
  5
3CF
100
AcDbEntity
  8
BEZUGSACHSEN
100
AcDbCircle
 62
7
  6
CONTINUOUS
 10
325.9027466504
 20
283.1827312976
 40
6.0
100
AcDbArc
 50
96.0
 51
180.0
  0
ARC
  5
3D0
100
AcDbEntity
  8
RUNDUNGEN
100
AcDbCircle
 62
7
  6
CONTINUOUS
 10
311.4027466504
 20
164.7829439768
 40
4.0
100
AcDbArc
 50
147.6534678709
 51
180.0
  0
ARC
  5
3D1
100
AcDbEntity
  8
RUNDUNGEN
100
AcDbCircle
 62
7
  6
CONTINUOUS
 10
371.9027466504
 20
64.8682870888
 40
20.0
100
AcDbArc
 50
171.9999810606
 51
180.0000154867
  0
ARC
  5
3D2
100
AcDbEntity
  8
RUNDUNGEN
100
AcDbCircle
 62
8
  6
HIDDEN
 10
336.9027466504
 20
38.9214620005
 40
15.0
100
AcDbArc
 50
0.0
 51
81.0
  0
ARC
  5
3D3
100
AcDbEntity
  8
RUNDUNGEN
100
AcDbCircle
 62
7
  6
CONTINUOUS
 10
365.4523578549
 20
105.1949443674
 40
8.0
100
AcDbArc
 50
134.9998276957
 51
172.0000226915
  0
ARC
  5
3D4
100
AcDbEntity
  8
RUNDUNGEN
100
AcDbCircle
 62
7
  6
CONTINUOUS
 10
356.4027466504
 20
118.7727501609
 40
8.0
100
AcDbArc
 50
315.0000751491
 51
0.00126068
  0
ARC
  5
3D5
100
AcDbEntity
  8
RUNDUNGEN
100
AcDbCircle
 62
7
  6
CONTINUOUS
 10
345.9027466504
 20
15.3509153577
 40
6.0
100
AcDbArc
 50
276.0
 51
360.0
  0
ARC
  5
3D6
100
AcDbEntity
  8
RUNDUNGEN
100
AcDbCircle
 62
7
  6
CONTINUOUS
 10
335.9027466504
 20
149.2668233276
 40
33.0
100
AcDbArc
 50
32.3465321291
 51
147.6534678709
  0
CIRCLE
  5
3D7
100
AcDbEntity
  8
0
100
AcDbCircle
 62
7
  6
CONTINUOUS
 10
335.9027466504
 20
149.2668233276
 40
12.0
  0
ARC
  5
3D8
100
AcDbEntity
  8
RUNDUNGEN
100
AcDbCircle
 62
8
  6
HIDDEN
 10
336.9027466504
 20
259.6121846548
 40
15.0
100
AcDbArc
 50
279.0
 51
360.0
  0
ARC
  5
3D9
100
AcDbEntity
  8
RUNDUNGEN
100
AcDbCircle
 62
7
  6
CONTINUOUS
 10
345.9027466504
 20
283.1827312976
 40
6.0
100
AcDbArc
 50
0.0
 51
84.0
  0
ARC
  5
3DA
100
AcDbEntity
  8
BEZUGSACHSEN
100
AcDbCircle
 62
7
  6
CONTINUOUS
 10
368.9039114773
 20
179.6668233276
 40
17.0011648269
100
AcDbArc
 50
180.0
 51
185.351014701
  0
ARC
  5
3DB
100
AcDbEntity
  8
RUNDUNGEN
100
AcDbCircle
 62
7
  6
CONTINUOUS
 10
365.4523578549
 20
193.3387022878
 40
8.0
100
AcDbArc
 50
188.0000792967
 51
225.0000090586
  0
ARC
  5
3DC
100
AcDbEntity
  8
RUNDUNGEN
100
AcDbCircle
 62
7
  6
CONTINUOUS
 10
356.4027466504
 20
179.7608964943
 40
8.0
100
AcDbArc
 50
0.0
 51
44.9999783567
  0
ARC
  5
3DD
100
AcDbEntity
  8
RUNDUNGEN
100
AcDbCircle
 62
7
  6
CONTINUOUS
 10
360.4027466504
 20
164.7829439768
 40
4.0
100
AcDbArc
 50
359.9999078306
 51
32.3465321291
  0
ARC
  5
3DE
100
AcDbEntity
  8
RUNDUNGEN
100
AcDbCircle
 62
7
  6
CONTINUOUS
 10
371.9027466504
 20
233.6653595665
 40
20.0
100
AcDbArc
 50
181.4622656147
 51
188.0000028868
  0
SPLINE
  5
3DF
100
AcDbEntity
  8
0
100
AcDbSpline
 62
7
  6
CONTINUOUS
 70
0
 71
3
 72
11
 73
7
 74
0
 42
0.0000001
 43
0.0000001
 44
0.0000000001
 40
0.0
 40
0.0
 40
0.0
 40
0.0
 40
0.1849664943
 40
0.4007848712
 40
0.6686849314
 40
1.0
 40
1.0
 40
1.0
 40
1.0
 10
17.742527997
 20
161.2668233276
 30
0.0
 10
17.7627043656
 20
161.2668233276
 30
0.0
 10
17.8067185715
 20
161.2561214421
 30
0.0
 10
17.866701739
 20
161.2126974261
 30
0.0
 10
17.9245496979
 20
161.1445452094
 30
0.0
 10
17.958851443
 20
161.0886848235
 30
0.0
 10
17.9763833801
 20
161.0570818379
 30
0.0
  0
SPLINE
  5
3E0
100
AcDbEntity
  8
RUNDUNGEN
100
AcDbSpline
 62
7
  6
CONTINUOUS
 70
0
 71
3
 72
15
 73
11
 74
0
 42
0.0000001
 43
0.0000001
 44
0.0000000001
 40
0.0
 40
0.0
 40
0.0
 40
0.0
 40
0.1250047633
 40
0.2500010295
 40
0.3750036522
 40
0.5000036889
 40
0.62500304
 40
0.7500039676
 40
0.8749974508
 40
1.0
 40
1.0
 40
1.0
 40
1.0
 10
104.6917424049
 20
182.2668172057
 30
0.0
 10
104.9549558102
 20
182.2668175089
 30
0.0
 10
105.4827843008
 20
182.2156783576
 30
0.0
 10
106.2438643327
 20
181.9882104497
 30
0.0
 10
106.9471073028
 20
181.6181675867
 30
0.0
 10
107.5652806017
 20
181.1188389744
 30
0.0
 10
108.0744175948
 20
180.5086451593
 30
0.0
 10
108.454075835
 20
179.810354991
 30
0.0
 10
108.6886682212
 20
179.0511865986
 30
0.0
 10
108.7416028595
 20
178.5232804595
 30
0.0
 10
108.7416029081
 20
178.2600717164
 30
0.0
  0
SPLINE
  5
3E1
100
AcDbEntity
  8
RUNDUNGEN
100
AcDbSpline
 62
7
  6
CONTINUOUS
 70
0
 71
3
 72
11
 73
7
 74
0
 42
0.0000001
 43
0.0000001
 44
0.0000000001
 40
0.0
 40
0.0
 40
0.0
 40
0.0
 40
0.2500120257
 40
0.5000121754
 40
0.7500054448
 40
1.0
 40
1.0
 40
1.0
 40
1.0
 10
221.050741369
 20
102.846822038
 30
0.0
 10
221.4417890427
 20
102.7078824594
 30
0.0
 10
222.1857894249
 20
102.3059785692
 30
0.0
 10
223.0616735487
 20
101.3941906183
 30
0.0
 10
223.6183704813
 20
100.2588466395
 30
0.0
 10
223.7386545854
 20
99.4214352321
 30
0.0
 10
223.7329698984
 20
99.0065061955
 30
0.0
  0
SPLINE
  5
3E2
100
AcDbEntity
  8
0
100
AcDbSpline
 62
7
  6
CONTINUOUS
 70
0
 71
3
 72
11
 73
7
 74
0
 42
0.0000001
 43
0.0000001
 44
0.0000000001
 40
0.0
 40
0.0
 40
0.0
 40
0.0
 40
0.1849664943
 40
0.4007848712
 40
0.6686849314
 40
1.0
 40
1.0
 40
1.0
 40
1.0
 10
245.7406778192
 20
137.2668233276
 30
0.0
 10
245.7205014506
 20
137.2668233276
 30
0.0
 10
245.6764872446
 20
137.2775252131
 30
0.0
 10
245.6165040771
 20
137.3209492291
 30
0.0
 10
245.5586561183
 20
137.3891014459
 30
0.0
 10
245.5243543731
 20
137.4449618317
 30
0.0
 10
245.5068224361
 20
137.4765648173
 30
0.0
  0
SPLINE
  5
3E3
100
AcDbEntity
  8
RUNDUNGEN
100
AcDbSpline
 62
7
  6
CONTINUOUS
 70
0
 71
3
 72
15
 73
11
 74
0
 42
0.0000001
 43
0.0000001
 44
0.0000000001
 40
0.0
 40
0.0
 40
0.0
 40
0.0
 40
0.1250047633
 40
0.2500010295
 40
0.3750036522
 40
0.5000036889
 40
0.62500304
 40
0.7500039676
 40
0.8749974508
 40
1.0
 40
1.0
 40
1.0
 40
1.0
 10
158.7914634112
 20
116.2668294495
 30
0.0
 10
158.528250006
 20
116.2668291464
 30
0.0
 10
158.0004215154
 20
116.3179682976
 30
0.0
 10
157.2393414835
 20
116.5454362055
 30
0.0
 10
156.5360985134
 20
116.9154790685
 30
0.0
 10
155.9179252145
 20
117.4148076808
 30
0.0
 10
155.4087882213
 20
118.0250014959
 30
0.0
 10
155.0291299811
 20
118.7232916643
 30
0.0
 10
154.794537595
 20
119.4824600566
 30
0.0
 10
154.7416029566
 20
120.0103661958
 30
0.0
 10
154.7416029081
 20
120.2735749389
 30
0.0
  0
SPLINE
  5
3E4
100
AcDbEntity
  8
RUNDUNGEN
100
AcDbSpline
 62
7
  6
CONTINUOUS
 70
0
 71
3
 72
11
 73
7
 74
0
 42
0.0000001
 43
0.0000001
 44
0.0000000001
 40
0.0
 40
0.0
 40
0.0
 40
0.0
 40
0.2500120257
 40
0.5000121754
 40
0.7500054448
 40
1.0
 40
1.0
 40
1.0
 40
1.0
 10
42.4324644471
 20
195.6868246173
 30
0.0
 10
42.0414167735
 20
195.8257641959
 30
0.0
 10
41.2974163913
 20
196.227668086
 30
0.0
 10
40.4215322675
 20
197.139456037
 30
0.0
 10
39.8648353348
 20
198.2748000158
 30
0.0
 10
39.7445512308
 20
199.1122114231
 30
0.0
 10
39.7502359178
 20
199.5271404597
 30
0.0
  0
LINE
  5
3E5
100
AcDbEntity
  8
RUNDUNGEN
100
AcDbLine
 62
7
  6
CONTINUOUS
 10
335.9027466504
 20
182.2668205451
 11
335.9027466504
 21
180.5455463454
  0
ELLIPSE
  5
3E6
100
AcDbEntity
  8
0
100
AcDbEllipse
 62
7
  6
CONTINUOUS
 10
17.7416029081
 20
149.2668233276
 30
0.0
 11
0.0
 21
12.0
 31
0.0
 40
0.1051042353
 41
-3.1415926536
 42
-0.1872410864
  0
ELLIPSE
  5
3E7
100
AcDbEntity
  8
0
100
AcDbEllipse
 62
7
  6
CONTINUOUS
 10
108.7416029081
 20
149.2668233276
 30
0.0
 11
-0.0
 21
11.75
 31
0.0
 40
0.1583844403
 41
6.2831853072
 42
9.4247779608
  0
ELLIPSE
  5
3E8
100
AcDbEntity
  8
0
100
AcDbEllipse
 62
7
  6
CONTINUOUS
 10
245.7416029081
 20
149.2668233276
 30
0.0
 11
-0.0
 21
12.0
 31
0.0
 40
0.1051042353
 41
0.0
 42
2.9543515672
  0
ELLIPSE
  5
3E9
100
AcDbEntity
  8
0
100
AcDbEllipse
 62
7
  6
CONTINUOUS
 10
154.7416029081
 20
149.2668233276
 30
0.0
 11
0.0
 21
11.75
 31
0.0
 40
0.1583844403
 41
3.1415926536
 42
6.2831853072
  0
ENDSEC
  0
SECTION
  2
OBJECTS
  0
DICTIONARY
  5
C
100
AcDbDictionary
280
0
281
1
  3
ACAD_GROUP
350
D
  3
ACAD_MLINESTYLE
350
17
  3
ACAD_LAYOUT
350
1A
  3
ACAD_PLOTSETTINGS
350
19
  3
ACAD_PLOTSTYLENAME
350
E
  0
DICTIONARY
  5
D
102
{ACAD_REACTORS
330
C
102
}
100
AcDbDictionary
280
0
281
1
  0
ACDBDICTIONARYWDFLT
  5
E
102
{ACAD_REACTORS
330
C
102
}
100
AcDbDictionary
281
1
  3
Normal
350
F
100
AcDbDictionaryWithDefault
340
F
  0
DICTIONARY
  5
17
102
{ACAD_REACTORS
330
C
102
}
100
AcDbDictionary
280
0
281
1
  3
Standard
350
18
  0
DICTIONARY
  5
19
102
{ACAD_REACTORS
330
C
102
}
100
AcDbDictionary
281
1
  0
DICTIONARY
  5
1A
102
{ACAD_REACTORS
330
C
102
}
100
AcDbDictionary
281
1
  3
Model
350
3EA
  3
Layout1
350
3EB
  0
ACDBPLACEHOLDER
  5
F
102
{ACAD_REACTORS
330
E
102
}
  0
MLINESTYLE
  5
18
102
{ACAD_REACTORS
330
17
102
}
100
AcDbMlineStyle
  2
STANDARD
 70
0
  3

 62
256
 51
90.0
 52
90.0
 71
2
 49
0.5
 62
256
  6
BYLAYER
 49
-0.5
 62
256
  6
BYLAYER
  0
LAYOUT
  5
3EA
102
{ACAD_REACTORS
330
1A
102
}
100
AcDbPlotSettings
  1

  2
none_device
  4
ISO_A3_(420.00_x_297.00_MM)
  6

 40
0.0
 41
0.0
 42
0.0
 43
0.0
 44
420.0
 45
297.0
 46
0.0
 47
0.0
 48
0.0
 49
0.0
140
0.0
141
0.0
142
1.0
143
1.0
 70
1024
 72
1
 73
0
 74
0
  7

 75
0
147
1.0
148
0.0
149
0.0
100
AcDbLayout
  1
Model
 70
0
 71
0
 10
0.0
 20
0.0
 11
420.0
 21
297.0
 12
0.0
 22
0.0
 32
0.0
 14
0.0
 24
0.0
 34
0.0
 15
0.0
 25
0.0
 35
0.0
146
0.0
 13
0.0
 23
0.0
 33
0.0
 16
1.0
 26
0.0
 36
0.0
 17
0.0
 27
1.0
 37
0.0
 76
0
330
209
345
0
346
0
  0
LAYOUT
  5
3EB
102
{ACAD_REACTORS
330
1A
102
}
100
AcDbPlotSettings
  1

  2
none_device
  4
ISO_A3_(420.00_x_297.00_MM)
  6

 40
0.0
 41
0.0
 42
0.0
 43
0.0
 44
420.0
 45
297.0
 46
0.0
 47
0.0
 48
0.0
 49
0.0
140
0.0
141
0.0
142
1.0
143
1.0
 70
0
 72
1
 73
0
 74
0
  7

 75
0
147
1.0
148
0.0
149
0.0
100
AcDbLayout
  1
Layout1
 70
0
 71
1
 10
0.0
 20
0.0
 11
420.0
 21
297.0
 12
0.0
 22
0.0
 32
0.0
 14
0.0
 24
0.0
 34
0.0
 15
0.0
 25
0.0
 35
0.0
146
0.0
 13
0.0
 23
0.0
 33
0.0
 16
1.0
 26
0.0
 36
0.0
 17
0.0
 27
1.0
 37
0.0
 76
0
330
20A
345
0
346
0
  0
ENDSEC
  0
EOF
