999
DXF file: vvs22-dxf.dxf
999
Pro/ENGINEER 2010140 by Parametric Technology Corporation
  0
SECTION
  2
HEADER
  9
$ACADVER
  1
AC1021
  9
$DWGCODEPAGE
  3
ANSI_1252
  9
$EXTMAX
 10
420.0
 20
297.0
 30
0.0
  9
$EXTMIN
 10
0.0
 20
0.0
 30
0.0
  9
$LIMMIN
 10
0.0
 20
0.0
  9
$LIMMAX
 10
420.0
 20
297.0
  9
$VIEWCTR
 10
210.0
 20
148.5
  9
$VIEWSIZE
 40
297.0
  9
$CLAYER
  8
0
  9
$LTSCALE
 40
23.1
  9
$CELTYPE
  6
BYLAYER
  9
$DIMSCALE
 40
1.0
  9
$DIMASZ
 40
3.5
  9
$DIMEXO
 40
2.625
  9
$DIMDLI
 40
15.96
  9
$DIMEXE
 40
7.56
  9
$DIMCEN
 40
3.78
  9
$DIMLFAC
 40
1.0
  9
$DIMBLK
  1
_FILLED
  9
$DIMTXT
 40
3.5
  9
$DIMTOL
 70
1
  9
$DIMLIM
 70
0
  9
$DIMTFAC
 40
1.0
  9
$DIMTP
 40
0.005
  9
$DIMTM
 40
0.005
  9
$PDMODE
 70
3
  9
$PDSIZE
 40
0.3125
  9
$HANDSEED
  5
3A9
  9
$TILEMODE
 70
1
  9
$MEASUREMENT
 70
1
  9
$INSUNITS
 70
4
  0
ENDSEC
  0
SECTION
  2
CLASSES
  0
CLASS
  1
ACDBDICTIONARYWDFLT
  2
AcDbDictionaryWithDefault
  3
AutoCAD 2000
 90
0
 91
1
280
0
281
0
  0
CLASS
  1
ACDBPLACEHOLDER
  2
AcDbPlaceHolder
  3
AutoCAD 2000
 90
0
 91
1
280
0
281
0
  0
CLASS
  1
LAYOUT
  2
AcDbLayout
  3
AutoCAD 2000
 90
0
 91
0
280
0
281
0
  0
ENDSEC
  0
SECTION
  2
TABLES
  0
TABLE
  2
VPORT
  5
8
100
AcDbSymbolTable
 70
2
  0
VPORT
  5
1F4
100
AcDbSymbolTableRecord
100
AcDbViewportTableRecord
  2
*ACTIVE
 70
0
 10
0.0
 20
0.0
 11
1.0
 21
1.0
 12
210.0
 22
148.5
 13
0.0
 23
0.0
 14
1.0
 24
1.0
 15
0.0
 25
0.0
 16
0.0
 26
0.0
 36
1.0
 17
0.0
 27
0.0
 37
0.0
 40
297.0
 41
1.4141414141
 42
50.0
 43
0.0
 44
0.0
 50
0.0
 51
0.0
 71
0
 72
100
 73
1
 74
1
 75
0
 76
0
 77
0
 78
0
  0
ENDTAB
  0
TABLE
  2
LTYPE
  5
5
100
AcDbSymbolTable
 70
6
  0
LTYPE
  5
14
100
AcDbSymbolTableRecord
100
AcDbLinetypeTableRecord
  2
BYBLOCK
 70
0
  3

 72
65
 73
0
 40
0.0
  0
LTYPE
  5
15
100
AcDbSymbolTableRecord
100
AcDbLinetypeTableRecord
  2
BYLAYER
 70
0
  3

 72
65
 73
0
 40
0.0
  0
LTYPE
  5
16
100
AcDbSymbolTableRecord
100
AcDbLinetypeTableRecord
  2
CONTINUOUS
 70
64
  3
Solid line
 72
65
 73
0
 40
0.0
  0
LTYPE
  5
1F5
100
AcDbSymbolTableRecord
100
AcDbLinetypeTableRecord
  2
CENTER
 70
64
  3
____ _ ____ _ ____ _ ____ _ ____ _ ____ _ ____
 72
65
 73
4
 40
0.6
 49
0.375
 74
0
 49
-0.075
 74
0
 49
0.075
 74
0
 49
-0.075
 74
0
  0
LTYPE
  5
1F6
100
AcDbSymbolTableRecord
100
AcDbLinetypeTableRecord
  2
HIDDEN
 70
64
  3
- - - - - - - - - - - - - - - - - - - -
 72
65
 73
2
 40
0.2
 49
0.1
 74
0
 49
-0.1
 74
0
  0
LTYPE
  5
1F7
100
AcDbSymbolTableRecord
100
AcDbLinetypeTableRecord
  2
PHANTOM
 70
64
  3
_____ _ _ _____ _ _ _____ _ _ _____
 72
65
 73
6
 40
0.8
 49
0.45
 74
0
 49
-0.05
 74
0
 49
0.1
 74
0
 49
-0.05
 74
0
 49
0.1
 74
0
 49
-0.05
 74
0
  0
LTYPE
  5
1F8
100
AcDbSymbolTableRecord
100
AcDbLinetypeTableRecord
  2
DOT
 70
64
  3
. . . . . . . . . . . . . . . . . . . .
 72
65
 73
2
 40
0.2
 49
0.1
 74
0
 49
-0.1
 74
0
  0
LTYPE
  5
1F9
100
AcDbSymbolTableRecord
100
AcDbLinetypeTableRecord
  2
DASHED
 70
64
  3
- - - - - - - - - - - - - - - - - - - -
 72
65
 73
2
 40
0.2
 49
0.1
 74
0
 49
-0.1
 74
0
  0
ENDTAB
  0
TABLE
  2
LAYER
  5
2
100
AcDbSymbolTable
 70
36
  0
LAYER
  5
10
100
AcDbSymbolTableRecord
100
AcDbLayerTableRecord
  2
0
 70
0
 62
7
  6
CONTINUOUS
370
-3
390
F
  0
LAYER
  5
1FA
100
AcDbSymbolTableRecord
100
AcDbLayerTableRecord
  2
DEFAULT_1
 70
0
 62
7
  6
CENTER
370
-3
390
F
  0
LAYER
  5
1FB
100
AcDbSymbolTableRecord
100
AcDbLayerTableRecord
  2
DEFAULT_2
 70
0
 62
8
  6
HIDDEN
370
-3
390
F
  0
LAYER
  5
1FC
100
AcDbSymbolTableRecord
100
AcDbLayerTableRecord
  2
DEFAULT_3
 70
0
 62
7
  6
PHANTOM
370
-3
390
F
  0
LAYER
  5
1FD
100
AcDbSymbolTableRecord
100
AcDbLayerTableRecord
  2
AUSFORMSCHRAEGEN
 70
0
 62
7
  6
CONTINUOUS
370
-3
390
F
  0
LAYER
  5
1FE
100
AcDbSymbolTableRecord
100
AcDbLayerTableRecord
  2
BEZUGSACHSEN
 70
0
 62
7
  6
CONTINUOUS
370
-3
390
F
  0
LAYER
  5
1FF
100
AcDbSymbolTableRecord
100
AcDbLayerTableRecord
  2
BEZUGSEBENEN
 70
0
 62
7
  6
CONTINUOUS
370
-3
390
F
  0
LAYER
  5
200
100
AcDbSymbolTableRecord
100
AcDbLayerTableRecord
  2
HILFEN
 70
0
 62
7
  6
CONTINUOUS
370
-3
390
F
  0
LAYER
  5
201
100
AcDbSymbolTableRecord
100
AcDbLayerTableRecord
  2
PLATZIERUNG
 70
0
 62
7
  6
CONTINUOUS
370
-3
390
F
  0
LAYER
  5
202
100
AcDbSymbolTableRecord
100
AcDbLayerTableRecord
  2
RUNDUNGEN
 70
0
 62
7
  6
CONTINUOUS
370
-3
390
F
  0
LAYER
  5
203
100
AcDbSymbolTableRecord
100
AcDbLayerTableRecord
  2
T_STARTBEZUEGE
 70
0
 62
7
  6
CONTINUOUS
370
-3
390
F
  0
LAYER
  5
204
100
AcDbSymbolTableRecord
100
AcDbLayerTableRecord
  2
ZEICHNUNGSBEMASSUNGEN
 70
0
 62
7
  6
CONTINUOUS
370
-3
390
F
  0
ENDTAB
  0
TABLE
  2
STYLE
  5
3
100
AcDbSymbolTable
 70
1
  0
STYLE
  5
11
100
AcDbSymbolTableRecord
100
AcDbTextStyleTableRecord
  2
STANDARD
 70
0
 40
0.0
 41
0.7
 50
0.0
 71
0
 42
0.2
  3
txt
  4

  0
STYLE
  5
205
100
AcDbSymbolTableRecord
100
AcDbTextStyleTableRecord
  2
TEXTSTYLE_1
 70
0
 40
0.0
 41
0.8
 50
0.0
 71
0
 42
0.2
  3
gdt
  4

  0
ENDTAB
  0
TABLE
  2
VIEW
  5
6
100
AcDbSymbolTable
 70
0
  0
ENDTAB
  0
TABLE
  2
UCS
  5
7
100
AcDbSymbolTable
 70
0
  0
ENDTAB
  0
TABLE
  2
APPID
  5
9
100
AcDbSymbolTable
 70
1
  0
APPID
  5
206
100
AcDbSymbolTableRecord
100
AcDbRegAppTableRecord
  2
ACAD
 70
0
  0
ENDTAB
  0
TABLE
  2
BLOCK_RECORD
  5
1
100
AcDbSymbolTable
 70
0
  0
BLOCK_RECORD
  5
207
100
AcDbSymbolTableRecord
100
AcDbBlockTableRecord
  2
*Model_Space
  0
BLOCK_RECORD
  5
208
100
AcDbSymbolTableRecord
100
AcDbBlockTableRecord
  2
*Paper_Space
  0
ENDTAB
  0
TABLE
  2
DIMSTYLE
  5
A
100
AcDbSymbolTable
 70
1
100
AcDbDimStyleTable
 71
0
  0
DIMSTYLE
105
209
100
AcDbSymbolTableRecord
100
AcDbDimStyleTableRecord
  2
STANDARD
 70
0
  3

  4

 40
1.0
 41
3.5
 42
0.0625
 43
0.38
 44
0.18
 45
0.0
 46
0.0
 47
0.005
 48
0.005
140
3.5
141
0.09
142
0.0
143
25.4
144
1.0
145
0.0
146
1.0
147
0.09
 71
1.0
 72
0.0
 73
0
 74
0
 75
0
 76
0
 77
1
 78
8
170
0
171
2
172
0
173
0
174
0
175
0
176
0
177
0
178
5
270
2
271
3
272
3
273
2
274
2
275
0
280
0
281
0
282
0
283
1
284
8
285
0
286
0
287
3
288
0
340
11
  0
ENDTAB
  0
ENDSEC
  0
SECTION
  2
BLOCKS
  0
BLOCK
  5
20
100
AcDbEntity
  8
0
100
AcDbBlockBegin
  2
*Model_Space
 70
0
 10
0.0
 20
0.0
 30
0.0
  3
*Model_Space
  1

  0
ENDBLK
  5
21
100
AcDbEntity
  8
0
100
AcDbBlockEnd
  0
BLOCK
  5
1C
100
AcDbEntity
  8
0
100
AcDbBlockBegin
  2
*Paper_Space
 70
0
 10
0.0
 20
0.0
 30
0.0
  3
*Paper_Space
  1

  0
ENDBLK
  5
1D
100
AcDbEntity
  8
0
100
AcDbBlockEnd
  0
ENDSEC
  0
SECTION
  2
ENTITIES
  0
LINE
  5
20A
100
AcDbEntity
  8
0
100
AcDbLine
 62
7
  6
CONTINUOUS
 10
0.0
 20
0.0
 11
0.0
 21
297.0
  0
LINE
  5
20B
100
AcDbEntity
  8
0
100
AcDbLine
 62
7
  6
CONTINUOUS
 10
0.0
 20
0.0
 11
420.0
 21
0.0
  0
LINE
  5
20C
100
AcDbEntity
  8
0
100
AcDbLine
 62
7
  6
CONTINUOUS
 10
0.0
 20
297.0
 11
420.0
 21
297.0
  0
LINE
  5
20D
100
AcDbEntity
  8
0
100
AcDbLine
 62
7
  6
CONTINUOUS
 10
420.0
 20
0.0
 11
420.0
 21
297.0
  0
LINE
  5
20E
100
AcDbEntity
  8
BEZUGSACHSEN
100
AcDbLine
 62
7
  6
CONTINUOUS
 10
99.9792321294
 20
236.8079363481
 11
98.4804803728
 21
236.3384009051
  0
LINE
  5
20F
100
AcDbEntity
  8
BEZUGSACHSEN
100
AcDbLine
 62
7
  6
CONTINUOUS
 10
90.9168113509
 20
233.0463880221
 11
89.9574621235
 21
232.7575737096
  0
LINE
  5
210
100
AcDbEntity
  8
0
100
AcDbLine
 62
7
  6
CONTINUOUS
 10
121.7454145003
 20
52.656210721
 11
123.3069863557
 21
52.8241826907
  0
LINE
  5
211
100
AcDbEntity
  8
0
100
AcDbLine
 62
7
  6
CONTINUOUS
 10
30.388024948
 20
126.8897752092
 11
30.388024948
 21
137.0924906445
  0
LINE
  5
212
100
AcDbEntity
  8
0
100
AcDbLine
 62
7
  6
CONTINUOUS
 10
30.388024948
 20
154.5164906445
 11
30.388024948
 21
156.4599611979
  0
LINE
  5
213
100
AcDbEntity
  8
BEZUGSACHSEN
100
AcDbLine
 62
7
  6
CONTINUOUS
 10
88.5485002844
 20
230.4049679615
 11
89.144889563
 21
230.9537872713
  0
LINE
  5
214
100
AcDbEntity
  8
BEZUGSACHSEN
100
AcDbLine
 62
7
  6
CONTINUOUS
 10
88.5745865362
 20
232.0130121329
 11
87.8053383121
 21
231.3711228769
  0
LINE
  5
215
100
AcDbEntity
  8
BEZUGSACHSEN
100
AcDbLine
 62
7
  6
CONTINUOUS
 10
89.9574621235
 20
232.7575737096
 11
88.5745865362
 21
232.0130121329
  0
LINE
  5
216
100
AcDbEntity
  8
BEZUGSACHSEN
100
AcDbLine
 62
7
  6
CONTINUOUS
 10
89.144889563
 20
230.9537872713
 11
90.5277651503
 21
231.698348848
  0
LINE
  5
217
100
AcDbEntity
  8
BEZUGSACHSEN
100
AcDbLine
 62
7
  6
CONTINUOUS
 10
92.5759962359
 20
231.2071491719
 11
93.6131539155
 21
231.7655708869
  0
LINE
  5
218
100
AcDbEntity
  8
BEZUGSACHSEN
100
AcDbLine
 62
7
  6
CONTINUOUS
 10
91.6078048427
 20
228.8641467705
 11
90.5706471631
 21
228.3057250554
  0
LINE
  5
219
100
AcDbEntity
  8
BEZUGSACHSEN
100
AcDbLine
 62
7
  6
CONTINUOUS
 10
91.1409501233
 20
227.2465003174
 11
92.1781078029
 21
227.8049220325
  0
LINE
  5
21A
100
AcDbEntity
  8
BEZUGSACHSEN
100
AcDbLine
 62
7
  6
CONTINUOUS
 10
90.9592471503
 20
225.0992410007
 11
89.9220894707
 21
224.5408192856
  0
LINE
  5
21B
100
AcDbEntity
  8
BEZUGSACHSEN
100
AcDbLine
 62
7
  6
CONTINUOUS
 10
93.5088149763
 20
225.3333971493
 11
92.4716572967
 21
224.7749754342
  0
LINE
  5
21C
100
AcDbEntity
  8
BEZUGSACHSEN
100
AcDbLine
 62
7
  6
CONTINUOUS
 10
98.3001891168
 20
226.4068169996
 11
99.4242532023
 21
226.7589686658
  0
LINE
  5
21D
100
AcDbEntity
  8
BEZUGSACHSEN
100
AcDbLine
 62
7
  6
CONTINUOUS
 10
104.6698859585
 20
228.4023432198
 11
105.7939500439
 21
228.754494886
  0
LINE
  5
21E
100
AcDbEntity
  8
BEZUGSACHSEN
100
AcDbLine
 62
7
  6
CONTINUOUS
 10
90.1816009042
 20
226.9576859894
 11
91.1409501233
 21
227.2465003174
  0
LINE
  5
21F
100
AcDbEntity
  8
BEZUGSACHSEN
100
AcDbLine
 62
7
  6
CONTINUOUS
 10
92.2554699917
 20
223.520006299
 11
93.2148192108
 21
223.808820627
  0
LINE
  5
220
100
AcDbEntity
  8
0
100
AcDbLine
 62
7
  6
CONTINUOUS
 10
142.2482847458
 20
59.910632441
 11
141.4617944805
 21
59.7148880439
  0
LINE
  5
221
100
AcDbEntity
  8
0
100
AcDbLine
 62
7
  6
CONTINUOUS
 10
140.3817567663
 20
62.5490911865
 11
141.1682450533
 21
62.7448345185
  0
LINE
  5
222
100
AcDbEntity
  8
0
100
AcDbLine
 62
7
  6
CONTINUOUS
 10
142.2054027329
 20
63.3032562336
 11
142.9918929982
 21
63.4990006307
  0
LINE
  5
223
100
AcDbEntity
  8
0
100
AcDbLine
 62
7
  6
CONTINUOUS
 10
140.5979420931
 20
63.8040592565
 11
139.98431276
 21
63.7013858553
  0
LINE
  5
224
100
AcDbEntity
  8
0
100
AcDbLine
 62
7
  6
CONTINUOUS
 10
140.3043925993
 20
66.8340058548
 11
140.9180219325
 21
66.936679256
  0
LINE
  5
225
100
AcDbEntity
  8
0
100
AcDbLine
 62
7
  6
CONTINUOUS
 10
125.4222981883
 20
62.5295583213
 11
124.2511192269
 21
62.4035793365
  0
LINE
  5
226
100
AcDbEntity
  8
0
100
AcDbLine
 62
7
  6
CONTINUOUS
 10
118.7856175932
 20
61.8156774275
 11
117.6144386318
 21
61.6896984427
  0
LINE
  5
227
100
AcDbEntity
  8
0
100
AcDbLine
 62
7
  6
CONTINUOUS
 10
139.5002179859
 20
62.5298853108
 11
140.3817567663
 21
62.5490911865
  0
LINE
  5
228
100
AcDbEntity
  8
0
100
AcDbLine
 62
7
  6
CONTINUOUS
 10
143.4759877722
 20
64.6705011752
 11
142.5944489918
 21
64.6512952995
  0
LINE
  5
229
100
AcDbEntity
  8
0
100
AcDbLine
 62
7
  6
CONTINUOUS
 10
140.7097883143
 20
58.6268538979
 11
141.8592385451
 21
58.5625932669
  0
LINE
  5
22A
100
AcDbEntity
  8
BEZUGSACHSEN
100
AcDbLine
 62
7
  6
CONTINUOUS
 10
63.7232090957
 20
69.0872601499
 11
32.5742648484
 21
119.2276109063
  0
LINE
  5
22B
100
AcDbEntity
  8
BEZUGSACHSEN
100
AcDbLine
 62
7
  6
CONTINUOUS
 10
68.2815265421
 20
213.3047038158
 11
64.7805141396
 21
207.1651579637
  0
LINE
  5
22C
100
AcDbEntity
  8
BEZUGSACHSEN
100
AcDbLine
 62
7
  6
CONTINUOUS
 10
65.6513717255
 20
206.6685604495
 11
68.3743798879
 21
211.4437601766
  0
LINE
  5
22D
100
AcDbEntity
  8
BEZUGSACHSEN
100
AcDbLine
 62
7
  6
CONTINUOUS
 10
87.8053383121
 20
231.3711228769
 11
87.3040015302
 21
230.6457671295
  0
LINE
  5
22E
100
AcDbEntity
  8
RUNDUNGEN
100
AcDbLine
 62
7
  6
CONTINUOUS
 10
38.6634602349
 20
170.5550370544
 11
31.6937885953
 21
160.6013143946
  0
LINE
  5
22F
100
AcDbEntity
  8
BEZUGSACHSEN
100
AcDbLine
 62
7
  6
CONTINUOUS
 10
74.7011833146
 20
221.4113821326
 11
70.1571689829
 21
215.9981534412
  0
LINE
  5
230
100
AcDbEntity
  8
BEZUGSACHSEN
100
AcDbLine
 62
7
  6
CONTINUOUS
 10
70.9250028559
 20
215.3536123878
 11
74.459237188
 21
219.5639025172
  0
LINE
  5
231
100
AcDbEntity
  8
BEZUGSACHSEN
100
AcDbLine
 62
7
  6
CONTINUOUS
 10
80.1033651471
 20
216.6203195858
 11
79.472251564
 21
215.868481694
  0
LINE
  5
232
100
AcDbEntity
  8
BEZUGSACHSEN
100
AcDbLine
 62
7
  6
CONTINUOUS
 10
79.1314249163
 20
213.5913567545
 11
78.626536361
 21
212.9898891943
  0
LINE
  5
233
100
AcDbEntity
  8
BEZUGSACHSEN
100
AcDbLine
 62
7
  6
CONTINUOUS
 10
73.6517218402
 20
205.7224233149
 11
72.9912993668
 21
204.9690294033
  0
LINE
  5
234
100
AcDbEntity
  8
BEZUGSACHSEN
100
AcDbLine
 62
7
  6
CONTINUOUS
 10
94.0791179365
 20
224.2741724113
 11
94.6755052368
 21
224.8229906559
  0
LINE
  5
235
100
AcDbEntity
  8
BEZUGSACHSEN
100
AcDbLine
 62
7
  6
CONTINUOUS
 10
78.357244068
 20
211.4216830311
 11
79.268146543
 21
212.1949796203
  0
LINE
  5
236
100
AcDbEntity
  8
BEZUGSACHSEN
100
AcDbLine
 62
7
  6
CONTINUOUS
 10
78.626536361
 20
212.9898891943
 11
77.8418545802
 21
212.3669577743
  0
LINE
  5
237
100
AcDbEntity
  8
BEZUGSACHSEN
100
AcDbLine
 62
7
  6
CONTINUOUS
 10
72.930311778
 20
203.6478132944
 11
73.6676568836
 21
204.131347379
  0
LINE
  5
238
100
AcDbEntity
  8
BEZUGSACHSEN
100
AcDbLine
 62
7
  6
CONTINUOUS
 10
93.2148192108
 20
223.808820627
 11
94.0791179365
 21
224.2741724113
  0
LINE
  5
239
100
AcDbEntity
  8
BEZUGSACHSEN
100
AcDbLine
 62
7
  6
CONTINUOUS
 10
72.9912993668
 20
204.9690294033
 11
72.3512053477
 21
204.6560395602
  0
LINE
  5
23A
100
AcDbEntity
  8
BEZUGSACHSEN
100
AcDbLine
 62
7
  6
CONTINUOUS
 10
77.5452191175
 20
211.0780284145
 11
78.357244068
 21
211.4216830311
  0
LINE
  5
23B
100
AcDbEntity
  8
0
100
AcDbLine
 62
7
  6
CONTINUOUS
 10
154.9341953158
 20
79.2420235147
 11
155.6199966829
 21
79.4353095204
  0
LINE
  5
23C
100
AcDbEntity
  8
0
100
AcDbLine
 62
7
  6
CONTINUOUS
 10
139.98431276
 20
63.7013858553
 11
139.2756329334
 21
63.7752499104
  0
LINE
  5
23D
100
AcDbEntity
  8
0
100
AcDbLine
 62
7
  6
CONTINUOUS
 10
142.9918929982
 20
63.4990006307
 11
143.7005728247
 21
63.4251365756
  0
LINE
  5
23E
100
AcDbEntity
  8
0
100
AcDbLine
 62
7
  6
CONTINUOUS
 10
141.4971691781
 20
67.9316434093
 11
140.5205799044
 21
68.0889749899
  0
LINE
  5
23F
100
AcDbEntity
  8
0
100
AcDbLine
 62
7
  6
CONTINUOUS
 10
141.4617944805
 20
59.7148880439
 11
140.6580640941
 21
59.9652896789
  0
LINE
  5
240
100
AcDbEntity
  8
0
100
AcDbLine
 62
7
  6
CONTINUOUS
 10
138.4285762406
 20
62.8637532827
 11
139.5002179859
 21
62.5298853108
  0
LINE
  5
241
100
AcDbEntity
  8
BEZUGSACHSEN
100
AcDbLine
 62
7
  6
CENTER
 10
46.534024948
 20
145.8044906445
 11
46.534024948
 21
139.1731385997
  0
LINE
  5
242
100
AcDbEntity
  8
BEZUGSACHSEN
100
AcDbLine
 62
7
  6
CENTER
 10
46.534024948
 20
145.8044906445
 11
46.534024948
 21
152.4358426893
  0
LINE
  5
243
100
AcDbEntity
  8
BEZUGSACHSEN
100
AcDbLine
 62
7
  6
CONTINUOUS
 10
88.2200224979
 20
229.7726820676
 11
88.5485002844
 21
230.4049679615
  0
LINE
  5
244
100
AcDbEntity
  8
BEZUGSACHSEN
100
AcDbLine
 62
7
  6
CONTINUOUS
 10
79.6089731908
 20
214.4721045598
 11
79.1314249163
 21
213.5913567545
  0
LINE
  5
245
100
AcDbEntity
  8
BEZUGSACHSEN
100
AcDbLine
 62
7
  6
CONTINUOUS
 10
74.4544501713
 20
209.558657416
 11
73.9681991907
 21
208.7059440155
  0
LINE
  5
246
100
AcDbEntity
  8
BEZUGSACHSEN
100
AcDbLine
 62
7
  6
CONTINUOUS
 10
74.0407239602
 20
206.4045963774
 11
73.6517218402
 21
205.7224233149
  0
LINE
  5
247
100
AcDbEntity
  8
BEZUGSACHSEN
100
AcDbLine
 62
7
  6
CONTINUOUS
 10
74.4253304434
 20
205.0552855321
 11
74.8143303376
 21
205.7374546912
  0
LINE
  5
248
100
AcDbEntity
  8
BEZUGSACHSEN
100
AcDbLine
 62
7
  6
CONTINUOUS
 10
79.7730379873
 20
212.7964506222
 11
80.5030276505
 21
213.9779287659
  0
LINE
  5
249
100
AcDbEntity
  8
BEZUGSACHSEN
100
AcDbLine
 62
7
  6
CONTINUOUS
 10
94.6755052368
 20
224.8229906559
 11
95.1768420437
 21
225.548346357
  0
LINE
  5
24A
100
AcDbEntity
  8
BEZUGSACHSEN
100
AcDbLine
 62
7
  6
CONTINUOUS
 10
73.6676568836
 20
204.131347379
 11
74.4253304434
 21
205.0552855321
  0
LINE
  5
24B
100
AcDbEntity
  8
BEZUGSACHSEN
100
AcDbLine
 62
7
  6
CONTINUOUS
 10
79.268146543
 20
212.1949796203
 11
79.7730379873
 21
212.7964506222
  0
LINE
  5
24C
100
AcDbEntity
  8
BEZUGSACHSEN
100
AcDbLine
 62
7
  6
CONTINUOUS
 10
93.9323433227
 20
225.7891454631
 11
93.5088149763
 21
225.3333971493
  0
LINE
  5
24D
100
AcDbEntity
  8
0
100
AcDbLine
 62
7
  6
CONTINUOUS
 10
160.9314262091
 20
88.2460631013
 11
159.845738118
 21
87.9611679945
  0
LINE
  5
24E
100
AcDbEntity
  8
0
100
AcDbLine
 62
7
  6
CONTINUOUS
 10
156.3499863461
 20
80.6167876642
 11
155.2308307785
 21
80.5309528745
  0
LINE
  5
24F
100
AcDbEntity
  8
0
100
AcDbLine
 62
7
  6
CONTINUOUS
 10
144.5476295175
 20
64.3366332034
 11
143.4759877722
 21
64.6705011752
  0
LINE
  5
250
100
AcDbEntity
  8
0
100
AcDbLine
 62
7
  6
CONTINUOUS
 10
140.9180219325
 20
66.936679256
 11
141.4538428052
 21
66.7697452701
  0
LINE
  5
251
100
AcDbEntity
  8
RUNDUNGEN
100
AcDbLine
 62
7
  6
CONTINUOUS
 10
55.788024948
 20
125.7084906445
 11
55.788024948
 21
168.9004220459
  0
LINE
  5
252
100
AcDbEntity
  8
BEZUGSACHSEN
100
AcDbLine
 62
7
  6
CONTINUOUS
 10
56.288024948
 20
127.7085561601
 11
56.288024948
 21
161.2223034936
  0
LINE
  5
253
100
AcDbEntity
  8
BEZUGSACHSEN
100
AcDbLine
 62
7
  6
CONTINUOUS
 10
74.352803448
 20
207.3566292668
 11
74.0407239602
 21
206.4045963774
  0
LINE
  5
254
100
AcDbEntity
  8
BEZUGSACHSEN
100
AcDbLine
 62
7
  6
CONTINUOUS
 10
74.8143303376
 20
205.7374546912
 11
75.3209119983
 21
207.0305760636
  0
LINE
  5
255
100
AcDbEntity
  8
BEZUGSACHSEN
100
AcDbLine
 62
7
  6
CONTINUOUS
 10
94.2608211758
 20
226.4214312333
 11
93.9323433227
 21
225.7891454631
  0
LINE
  5
256
100
AcDbEntity
  8
0
100
AcDbLine
 62
7
  6
CONTINUOUS
 10
160.4248445483
 20
86.9529417288
 11
161.1418589737
 21
86.9960678415
  0
LINE
  5
257
100
AcDbEntity
  8
0
100
AcDbLine
 62
7
  6
CONTINUOUS
 10
155.6199966829
 20
79.4353095204
 11
156.3331412198
 21
79.3493187226
  0
LINE
  5
258
100
AcDbEntity
  8
0
100
AcDbLine
 62
7
  6
CONTINUOUS
 10
142.3959499914
 20
67.5047044415
 11
141.4971691781
 21
67.9316434093
  0
LINE
  5
259
100
AcDbEntity
  8
0
100
AcDbLine
 62
7
  6
CONTINUOUS
 10
143.7005728247
 20
63.4251365756
 11
144.3314423456
 21
63.081663821
  0
LINE
  5
25A
100
AcDbEntity
  8
0
100
AcDbLine
 62
7
  6
CONTINUOUS
 10
139.7159569079
 20
59.2303305075
 11
140.7097883143
 21
58.6268538979
  0
LINE
  5
25B
100
AcDbEntity
  8
BEZUGSACHSEN
100
AcDbLine
 62
7
  6
CONTINUOUS
 10
80.5030276505
 20
213.9779287659
 11
80.7007855887
 21
214.837216153
  0
LINE
  5
25C
100
AcDbEntity
  8
BEZUGSACHSEN
100
AcDbLine
 62
7
  6
CONTINUOUS
 10
87.3040015302
 20
230.6457671295
 11
86.992763765
 21
229.5673353889
  0
LINE
  5
25D
100
AcDbEntity
  8
0
100
AcDbLine
 62
7
  6
CONTINUOUS
 10
145.2735495319
 20
63.8166229924
 11
144.5476295175
 21
64.3366332034
  0
LINE
  5
25E
100
AcDbEntity
  8
0
100
AcDbLine
 62
7
  6
CONTINUOUS
 10
141.4538428052
 20
66.7697452701
 11
141.8168027458
 21
66.5097402882
  0
LINE
  5
25F
100
AcDbEntity
  8
0
100
AcDbLine
 62
7
  6
CONTINUOUS
 10
140.6580640941
 20
59.9652896789
 11
140.2000536601
 21
60.4018321171
  0
LINE
  5
260
100
AcDbEntity
  8
BEZUGSACHSEN
100
AcDbLine
 62
7
  6
CONTINUOUS
 10
74.296211496
 20
208.0668970657
 11
74.352803448
 21
207.3566292668
  0
LINE
  5
261
100
AcDbEntity
  8
BEZUGSACHSEN
100
AcDbLine
 62
7
  6
CONTINUOUS
 10
75.7739520052
 20
213.3338458633
 11
75.4690171876
 21
220.7668410792
  0
LINE
  5
262
100
AcDbEntity
  8
BEZUGSACHSEN
100
AcDbLine
 62
7
  6
CONTINUOUS
 10
74.459237188
 20
219.5639025172
 11
74.6821396073
 21
212.9687342701
  0
LINE
  5
263
100
AcDbEntity
  8
BEZUGSACHSEN
100
AcDbLine
 62
7
  6
CONTINUOUS
 10
75.3209119983
 20
207.0305760636
 11
75.3615711328
 21
207.911388104
  0
LINE
  5
264
100
AcDbEntity
  8
BEZUGSACHSEN
100
AcDbLine
 62
7
  6
CONTINUOUS
 10
79.6805075456
 20
215.181023336
 11
79.6089731908
 21
214.4721045598
  0
LINE
  5
265
100
AcDbEntity
  8
BEZUGSACHSEN
100
AcDbLine
 62
7
  6
CONTINUOUS
 10
95.1768420437
 20
225.548346357
 11
95.4880798421
 21
226.6267780358
  0
LINE
  5
266
100
AcDbEntity
  8
0
100
AcDbLine
 62
7
  6
CONTINUOUS
 10
161.7253610408
 20
88.0193254836
 11
160.9314262091
 21
88.2460631013
  0
LINE
  5
267
100
AcDbEntity
  8
0
100
AcDbLine
 62
7
  6
CONTINUOUS
 10
157.0904769418
 20
80.2515235045
 11
156.3499863461
 21
80.6167876642
  0
LINE
  5
268
100
AcDbEntity
  8
0
100
AcDbLine
 62
7
  6
CONTINUOUS
 10
139.2756329334
 20
63.7752499104
 11
138.8176224995
 21
64.2117923486
  0
LINE
  5
269
100
AcDbEntity
  8
0
100
AcDbLine
 62
7
  6
CONTINUOUS
 10
142.8539604253
 20
67.0681620033
 11
142.3959499914
 21
67.5047044415
  0
LINE
  5
26A
100
AcDbEntity
  8
0
100
AcDbLine
 62
7
  6
CONTINUOUS
 10
139.1628959805
 20
59.843410402
 11
139.7159569079
 21
59.2303305075
  0
LINE
  5
26B
100
AcDbEntity
  8
0
100
AcDbLine
 62
7
  6
CONTINUOUS
 10
137.8755153133
 20
63.4768331772
 11
138.4285762406
 21
62.8637532827
  0
LINE
  5
26C
100
AcDbEntity
  8
0
100
AcDbLine
 62
7
  6
CONTINUOUS
 10
133.186548855
 20
56.1837928342
 11
128.1061639376
 21
63.2066380692
  0
LINE
  5
26D
100
AcDbEntity
  8
0
100
AcDbLine
 62
7
  6
CONTINUOUS
 10
126.9820998521
 20
62.854486403
 11
132.7968177666
 21
54.8010449409
  0
LINE
  5
26E
100
AcDbEntity
  8
BEZUGSACHSEN
100
AcDbLine
 62
7
  6
CONTINUOUS
 10
80.7007855887
 20
214.837216153
 11
80.5914085761
 21
215.9543182045
  0
LINE
  5
26F
100
AcDbEntity
  8
BEZUGSACHSEN
100
AcDbLine
 62
7
  6
CONTINUOUS
 10
86.992763765
 20
229.5673353889
 11
87.0272478974
 21
228.6750455783
  0
LINE
  5
270
100
AcDbEntity
  8
BEZUGSACHSEN
100
AcDbLine
 62
7
  6
CONTINUOUS
 10
83.388024948
 20
173.4532409439
 11
83.388024948
 21
181.8044906445
  0
LINE
  5
271
100
AcDbEntity
  8
BEZUGSACHSEN
100
AcDbLine
 62
7
  6
CONTINUOUS
 10
83.488024948
 20
166.3406651727
 11
83.488024948
 21
127.7085561345
  0
LINE
  5
272
100
AcDbEntity
  8
RUNDUNGEN
100
AcDbLine
 62
7
  6
CONTINUOUS
 10
83.788024948
 20
125.7084906445
 11
83.788024948
 21
168.9004220459
  0
LINE
  5
273
100
AcDbEntity
  8
BEZUGSACHSEN
100
AcDbLine
 62
7
  6
CONTINUOUS
 10
88.1594560703
 20
229.056929837
 11
88.2200224979
 21
229.7726820676
  0
LINE
  5
274
100
AcDbEntity
  8
BEZUGSACHSEN
100
AcDbLine
 62
7
  6
CONTINUOUS
 10
109.4690635403
 20
238.7847985983
 11
107.3537517077
 21
229.0794229677
  0
LINE
  5
275
100
AcDbEntity
  8
0
100
AcDbLine
 62
7
  6
CONTINUOUS
 10
163.6236657681
 20
78.8008749874
 11
164.4945233539
 21
78.3042774732
  0
LINE
  5
276
100
AcDbEntity
  8
0
100
AcDbLine
 62
7
  6
CONTINUOUS
 10
161.1418589737
 20
86.9960678415
 11
161.4902024472
 21
86.7974285854
  0
LINE
  5
277
100
AcDbEntity
  8
0
100
AcDbLine
 62
7
  6
CONTINUOUS
 10
167.9955357564
 20
84.4438233252
 11
167.1246781706
 21
84.9404208395
  0
LINE
  5
278
100
AcDbEntity
  8
0
100
AcDbLine
 62
7
  6
CONTINUOUS
 10
162.0737045143
 20
87.8206862274
 11
161.7253610408
 21
88.0193254836
  0
LINE
  5
279
100
AcDbEntity
  8
0
100
AcDbLine
 62
7
  6
CONTINUOUS
 10
157.3070327085
 20
70.8421402098
 11
158.0748665814
 21
70.1975991564
  0
LINE
  5
27A
100
AcDbEntity
  8
0
100
AcDbLine
 62
7
  6
CONTINUOUS
 10
122.3975409
 20
53.9362943506
 11
118.7856175932
 21
61.8156774275
  0
LINE
  5
27B
100
AcDbEntity
  8
0
100
AcDbLine
 62
7
  6
CONTINUOUS
 10
117.6144386318
 20
61.6896984427
 11
121.7454145003
 21
52.656210721
  0
LINE
  5
27C
100
AcDbEntity
  8
BEZUGSACHSEN
100
AcDbLine
 62
7
  6
CONTINUOUS
 10
70.7836614248
 20
205.5499152388
 11
69.152384128
 21
212.8081063016
  0
LINE
  5
27D
100
AcDbEntity
  8
BEZUGSACHSEN
100
AcDbLine
 62
7
  6
CONTINUOUS
 10
68.3743798879
 20
211.4437601766
 11
69.7748959659
 21
204.9951603051
  0
LINE
  5
27E
100
AcDbEntity
  8
BEZUGSACHSEN
100
AcDbLine
 62
7
  6
CONTINUOUS
 10
98.4804803728
 20
236.3384009051
 11
98.3001891168
 21
226.4068169996
  0
LINE
  5
27F
100
AcDbEntity
  8
BEZUGSACHSEN
100
AcDbLine
 62
7
  6
CONTINUOUS
 10
99.4242532023
 20
226.7589686658
 11
99.589501041
 21
235.4251884547
  0
LINE
  5
280
100
AcDbEntity
  8
BEZUGSACHSEN
100
AcDbLine
 62
7
  6
CONTINUOUS
 10
108.5249306691
 20
229.2054019525
 11
110.3785089961
 21
237.6726869384
  0
LINE
  5
281
100
AcDbEntity
  8
BEZUGSACHSEN
100
AcDbLine
 62
7
  6
CONTINUOUS
 10
134.8282236733
 20
119.8044906445
 11
146.084024948
 21
119.8044906445
  0
LINE
  5
282
100
AcDbEntity
  8
BEZUGSACHSEN
100
AcDbLine
 62
7
  6
CONTINUOUS
 10
179.892024948
 20
119.8044906445
 11
191.70645856
 21
119.8044906445
  0
LINE
  5
283
100
AcDbEntity
  8
RUNDUNGEN
100
AcDbLine
 62
7
  6
CONTINUOUS
 10
80.8840657855
 20
122.8044906445
 11
58.691979467
 21
122.8044906445
  0
LINE
  5
284
100
AcDbEntity
  8
BEZUGSACHSEN
100
AcDbLine
 62
7
  6
CONTINUOUS
 10
59.192024948
 20
124.8044906445
 11
80.584024948
 21
124.8044906445
  0
LINE
  5
285
100
AcDbEntity
  8
0
100
AcDbLine
 62
7
  6
CONTINUOUS
 10
156.3331412198
 20
79.3493187226
 11
156.6402751562
 21
79.0915019763
  0
LINE
  5
286
100
AcDbEntity
  8
0
100
AcDbLine
 62
7
  6
CONTINUOUS
 10
162.6188809131
 20
75.6108278478
 11
161.8510470401
 21
76.2553689012
  0
LINE
  5
287
100
AcDbEntity
  8
0
100
AcDbLine
 62
7
  6
CONTINUOUS
 10
157.3976108781
 20
79.9937067582
 11
157.0904769418
 21
80.2515235045
  0
LINE
  5
288
100
AcDbEntity
  8
0
100
AcDbLine
 62
7
  6
CONTINUOUS
 10
157.7221648402
 20
82.6181460702
 11
158.3215997248
 21
82.050323873
  0
LINE
  5
289
100
AcDbEntity
  8
0
100
AcDbLine
 62
7
  6
CONTINUOUS
 10
137.4953130735
 20
64.1829834971
 11
137.8755153133
 21
63.4768331772
  0
LINE
  5
28A
100
AcDbEntity
  8
0
100
AcDbLine
 62
7
  6
CONTINUOUS
 10
138.8176224995
 20
64.2117923486
 11
138.6275215128
 21
64.5648672613
  0
LINE
  5
28B
100
AcDbEntity
  8
BEZUGSACHSEN
100
AcDbLine
 62
7
  6
CONTINUOUS
 10
74.6821396073
 20
212.9687342701
 11
74.8903955889
 21
212.2812759122
  0
LINE
  5
28C
100
AcDbEntity
  8
BEZUGSACHSEN
100
AcDbLine
 62
7
  6
CONTINUOUS
 10
75.3615711328
 20
207.911388104
 11
75.0538850559
 21
208.9908352188
  0
LINE
  5
28D
100
AcDbEntity
  8
0
100
AcDbLine
 62
7
  6
CONTINUOUS
 10
100.888024948
 20
168.8960224368
 11
100.888024948
 21
154.3349906445
  0
LINE
  5
28E
100
AcDbEntity
  8
0
100
AcDbLine
 62
7
  6
CONTINUOUS
 10
100.888024948
 20
137.2739906445
 11
100.888024948
 21
127.5072142356
  0
LINE
  5
28F
100
AcDbEntity
  8
0
100
AcDbLine
 62
7
  6
CONTINUOUS
 10
55.788024948
 20
137.2739906445
 11
56.288024948
 21
137.2739906445
  0
LINE
  5
290
100
AcDbEntity
  8
0
100
AcDbLine
 62
7
  6
CONTINUOUS
 10
83.488024948
 20
137.2739906445
 11
83.788024948
 21
137.2739906445
  0
LINE
  5
291
100
AcDbEntity
  8
0
100
AcDbLine
 62
7
  6
CONTINUOUS
 10
100.888024948
 20
137.2739906445
 11
131.888024948
 21
137.2739906445
  0
LINE
  5
292
100
AcDbEntity
  8
0
100
AcDbLine
 62
7
  6
CONTINUOUS
 10
148.988024948
 20
137.2739906445
 11
149.288024948
 21
137.2739906445
  0
LINE
  5
293
100
AcDbEntity
  8
0
100
AcDbLine
 62
7
  6
CONTINUOUS
 10
176.488024948
 20
137.2739906445
 11
176.988024948
 21
137.2739906445
  0
LINE
  5
294
100
AcDbEntity
  8
0
100
AcDbLine
 62
7
  6
CONTINUOUS
 10
162.6731416248
 20
87.2528679336
 11
162.0737045143
 21
87.8206862274
  0
LINE
  5
295
100
AcDbEntity
  8
0
100
AcDbLine
 62
7
  6
CONTINUOUS
 10
152.1846413199
 20
75.6546630845
 11
152.6726847489
 21
74.9886617032
  0
LINE
  5
296
100
AcDbEntity
  8
0
100
AcDbLine
 62
7
  6
CONTINUOUS
 10
144.3314423456
 20
63.081663821
 11
144.6165938257
 21
62.552051452
  0
LINE
  5
297
100
AcDbEntity
  8
0
100
AcDbLine
 62
7
  6
CONTINUOUS
 10
145.7488019987
 20
62.9339357107
 11
145.2735495319
 21
63.8166229924
  0
LINE
  5
298
100
AcDbEntity
  8
BEZUGSACHSEN
100
AcDbLine
 62
7
  6
CONTINUOUS
 10
69.7748959659
 20
204.9951603051
 11
70.1029082713
 21
204.3561133554
  0
LINE
  5
299
100
AcDbEntity
  8
BEZUGSACHSEN
100
AcDbLine
 62
7
  6
CONTINUOUS
 10
73.9681991907
 20
208.7059440155
 11
74.296211496
 21
208.0668970657
  0
LINE
  5
29A
100
AcDbEntity
  8
BEZUGSACHSEN
100
AcDbLine
 62
7
  6
CONTINUOUS
 10
76.1357747399
 20
212.5174793127
 11
75.7739520052
 21
213.3338458633
  0
LINE
  5
29B
100
AcDbEntity
  8
BEZUGSACHSEN
100
AcDbLine
 62
7
  6
CONTINUOUS
 10
79.472251564
 20
215.868481694
 11
79.6805075456
 21
215.181023336
  0
LINE
  5
29C
100
AcDbEntity
  8
T_STARTBEZUEGE
100
AcDbLine
 62
7
  6
CENTER
 10
116.388024948
 20
36.8044906445
 11
116.388024948
 21
254.8044906445
  0
LINE
  5
29D
100
AcDbEntity
  8
BEZUGSACHSEN
100
AcDbLine
 62
7
  6
CENTER
 10
186.242024948
 20
145.8044906445
 11
179.6106729032
 21
145.8044906445
  0
LINE
  5
29E
100
AcDbEntity
  8
BEZUGSACHSEN
100
AcDbLine
 62
7
  6
CENTER
 10
46.534024948
 20
145.8044906445
 11
39.9026729032
 21
145.8044906445
  0
LINE
  5
29F
100
AcDbEntity
  8
T_STARTBEZUEGE
100
AcDbLine
 62
7
  6
CENTER
 10
27.384153545
 20
145.8044906445
 11
205.3918963511
 21
145.8044906445
  0
LINE
  5
2A0
100
AcDbEntity
  8
BEZUGSACHSEN
100
AcDbLine
 62
7
  6
CENTER
 10
46.534024948
 20
145.8044906445
 11
53.1653769928
 21
145.8044906445
  0
LINE
  5
2A1
100
AcDbEntity
  8
BEZUGSACHSEN
100
AcDbLine
 62
7
  6
CENTER
 10
186.242024948
 20
145.8044906445
 11
192.8733769928
 21
145.8044906445
  0
LINE
  5
2A2
100
AcDbEntity
  8
0
100
AcDbLine
 62
7
  6
CONTINUOUS
 10
157.8856543071
 20
79.3277053768
 11
157.3976108781
 21
79.9937067582
  0
LINE
  5
2A3
100
AcDbEntity
  8
BEZUGSACHSEN
100
AcDbLine
 62
7
  6
CONTINUOUS
 10
71.2858474489
 20
204.8115527036
 11
70.7836614248
 21
205.5499152388
  0
LINE
  5
2A4
100
AcDbEntity
  8
0
100
AcDbLine
 62
7
  6
CONTINUOUS
 10
137.2879700539
 20
64.9822032532
 11
137.4953130735
 21
64.1829834971
  0
LINE
  5
2A5
100
AcDbEntity
  8
BEZUGSACHSEN
100
AcDbLine
 62
7
  6
CONTINUOUS
 10
95.4880798421
 20
226.6267780358
 11
95.2807368225
 21
227.4259977919
  0
LINE
  5
2A6
100
AcDbEntity
  8
BEZUGSACHSEN
100
AcDbLine
 62
7
  6
CONTINUOUS
 10
94.1485283833
 20
227.0441140277
 11
94.2608211758
 21
226.4214312333
  0
LINE
  5
2A7
100
AcDbEntity
  8
0
100
AcDbLine
 62
7
  6
CONTINUOUS
 10
55.788024948
 20
154.3349906445
 11
56.288024948
 21
154.3349906445
  0
LINE
  5
2A8
100
AcDbEntity
  8
0
100
AcDbLine
 62
7
  6
CONTINUOUS
 10
83.488024948
 20
154.3349906445
 11
83.788024948
 21
154.3349906445
  0
LINE
  5
2A9
100
AcDbEntity
  8
0
100
AcDbLine
 62
7
  6
CONTINUOUS
 10
100.888024948
 20
154.3349906445
 11
131.888024948
 21
154.3349906445
  0
LINE
  5
2AA
100
AcDbEntity
  8
0
100
AcDbLine
 62
7
  6
CONTINUOUS
 10
148.988024948
 20
154.3349906445
 11
149.288024948
 21
154.3349906445
  0
LINE
  5
2AB
100
AcDbEntity
  8
0
100
AcDbLine
 62
7
  6
CONTINUOUS
 10
176.488024948
 20
154.3349906445
 11
176.988024948
 21
154.3349906445
  0
LINE
  5
2AC
100
AcDbEntity
  8
BEZUGSACHSEN
100
AcDbLine
 62
7
  6
CONTINUOUS
 10
74.8903955889
 20
212.2812759122
 11
75.3784390179
 21
211.6152745308
  0
LINE
  5
2AD
100
AcDbEntity
  8
0
100
AcDbLine
 62
7
  6
CONTINUOUS
 10
161.4902024472
 20
86.7974285854
 11
161.9923884712
 21
86.0590660501
  0
LINE
  5
2AE
100
AcDbEntity
  8
0
100
AcDbLine
 62
7
  6
CONTINUOUS
 10
158.8078507054
 20
82.9030372735
 11
158.4798384
 21
83.5420842233
  0
LINE
  5
2AF
100
AcDbEntity
  8
0
100
AcDbLine
 62
7
  6
CONTINUOUS
 10
156.6402751562
 20
79.0915019763
 11
157.0020978909
 21
78.2751354257
  0
LINE
  5
2B0
100
AcDbEntity
  8
0
100
AcDbLine
 62
7
  6
CONTINUOUS
 10
138.6275215128
 20
64.5648672613
 11
138.5152287202
 21
65.1875500556
  0
LINE
  5
2B1
100
AcDbEntity
  8
BEZUGSACHSEN
100
AcDbLine
 62
7
  6
CONTINUOUS
 10
131.888024948
 20
122.7129588522
 11
131.888024948
 21
137.2739906445
  0
LINE
  5
2B2
100
AcDbEntity
  8
BEZUGSACHSEN
100
AcDbLine
 62
7
  6
CONTINUOUS
 10
131.888024948
 20
154.3349906445
 11
131.888024948
 21
164.1017670534
  0
LINE
  5
2B3
100
AcDbEntity
  8
0
100
AcDbLine
 62
7
  6
CONTINUOUS
 10
133.3517966938
 20
64.8500126232
 11
133.186548855
 21
56.1837928342
  0
LINE
  5
2B4
100
AcDbEntity
  8
BEZUGSACHSEN
100
AcDbLine
 62
7
  6
CONTINUOUS
 10
70.1029082713
 20
204.3561133554
 11
70.7023453818
 21
203.7882950615
  0
LINE
  5
2B5
100
AcDbEntity
  8
BEZUGSACHSEN
100
AcDbLine
 62
7
  6
CONTINUOUS
 10
75.0538850559
 20
208.9908352188
 11
74.4544501713
 21
209.558657416
  0
LINE
  5
2B6
100
AcDbEntity
  8
BEZUGSACHSEN
100
AcDbLine
 62
7
  6
CONTINUOUS
 10
80.5914085761
 20
215.9543182045
 11
80.1033651471
 21
216.6203195858
  0
LINE
  5
2B7
100
AcDbEntity
  8
BEZUGSACHSEN
100
AcDbLine
 62
7
  6
CONTINUOUS
 10
87.0272478974
 20
228.6750455783
 11
87.5025003642
 21
227.7923582966
  0
LINE
  5
2B8
100
AcDbEntity
  8
BEZUGSACHSEN
100
AcDbLine
 62
7
  6
CONTINUOUS
 10
88.4446075504
 20
228.527317468
 11
88.1594560703
 21
229.056929837
  0
LINE
  5
2B9
100
AcDbEntity
  8
BEZUGSACHSEN
100
AcDbLine
 62
7
  6
CONTINUOUS
 10
93.9584273966
 20
227.3971889404
 11
94.1485283833
 21
227.0441140277
  0
LINE
  5
2BA
100
AcDbEntity
  8
0
100
AcDbLine
 62
7
  6
CONTINUOUS
 10
163.0011539301
 20
86.6138209839
 11
162.6731416248
 21
87.2528679336
  0
LINE
  5
2BB
100
AcDbEntity
  8
0
100
AcDbLine
 62
7
  6
CONTINUOUS
 10
153.303798332
 20
75.740499595
 11
153.0955423504
 21
76.427957953
  0
LINE
  5
2BC
100
AcDbEntity
  8
0
100
AcDbLine
 62
7
  6
CONTINUOUS
 10
145.783286131
 20
62.0416459001
 11
145.7488019987
 21
62.9339357107
  0
LINE
  5
2BD
100
AcDbEntity
  8
0
100
AcDbLine
 62
7
  6
CONTINUOUS
 10
134.2955695233
 20
55.2705803839
 11
134.4758607792
 21
65.2021642893
  0
LINE
  5
2BE
100
AcDbEntity
  8
0
100
AcDbLine
 62
7
  6
CONTINUOUS
 10
123.3069863557
 20
52.8241826907
 11
125.4222981883
 21
62.5295583213
  0
LINE
  5
2BF
100
AcDbEntity
  8
0
100
AcDbLine
 62
7
  6
CONTINUOUS
 10
124.2511192269
 20
62.4035793365
 11
122.3975409
 21
53.9362943506
  0
LINE
  5
2C0
100
AcDbEntity
  8
0
100
AcDbLine
 62
7
  6
CONTINUOUS
 10
173.584024948
 20
166.8044906445
 11
152.192024948
 21
166.8044906445
  0
LINE
  5
2C1
100
AcDbEntity
  8
BEZUGSACHSEN
100
AcDbLine
 62
7
  6
CONTINUOUS
 10
151.8919841105
 20
168.8044906445
 11
174.084070429
 21
168.8044906445
  0
LINE
  5
2C2
100
AcDbEntity
  8
BEZUGSACHSEN
100
AcDbLine
 62
7
  6
CONTINUOUS
 10
97.9478262227
 20
171.8044906445
 11
86.692024948
 21
171.8044906445
  0
LINE
  5
2C3
100
AcDbEntity
  8
BEZUGSACHSEN
100
AcDbLine
 62
7
  6
CONTINUOUS
 10
52.884024948
 20
171.8044906445
 11
41.069591336
 21
171.8044906445
  0
LINE
  5
2C4
100
AcDbEntity
  8
BEZUGSACHSEN
100
AcDbLine
 62
7
  6
CONTINUOUS
 10
64.7805141396
 20
207.1651579637
 11
65.6513717255
 21
206.6685604495
  0
LINE
  5
2C5
100
AcDbEntity
  8
BEZUGSACHSEN
100
AcDbLine
 62
7
  6
CONTINUOUS
 10
70.7023453818
 20
203.7882950615
 11
71.0506888552
 21
203.5896558054
  0
LINE
  5
2C6
100
AcDbEntity
  8
BEZUGSACHSEN
100
AcDbLine
 62
7
  6
CONTINUOUS
 10
70.1571689829
 20
215.9981534412
 11
70.9250028559
 21
215.3536123878
  0
LINE
  5
2C7
100
AcDbEntity
  8
BEZUGSACHSEN
100
AcDbLine
 62
7
  6
CONTINUOUS
 10
75.3784390179
 20
211.6152745308
 11
75.6855729543
 21
211.3574577844
  0
LINE
  5
2C8
100
AcDbEntity
  8
BEZUGSACHSEN
100
AcDbLine
 62
7
  6
CONTINUOUS
 10
76.4429086762
 20
212.2596625664
 11
76.1357747399
 21
212.5174793127
  0
LINE
  5
2C9
100
AcDbEntity
  8
BEZUGSACHSEN
100
AcDbLine
 62
7
  6
CONTINUOUS
 10
95.2807368225
 20
227.4259977919
 11
94.9005345828
 21
228.1321481118
  0
LINE
  5
2CA
100
AcDbEntity
  8
0
100
AcDbLine
 62
7
  6
CONTINUOUS
 10
158.0939102887
 20
78.6402470188
 11
157.8856543071
 21
79.3277053768
  0
LINE
  5
2CB
100
AcDbEntity
  8
0
100
AcDbLine
 62
7
  6
CONTINUOUS
 10
157.4144787632
 20
83.697593185
 11
157.7221648402
 21
82.6181460702
  0
LINE
  5
2CC
100
AcDbEntity
  8
0
100
AcDbLine
 62
7
  6
CONTINUOUS
 10
152.0752643074
 20
76.771765136
 11
152.1846413199
 21
75.6546630845
  0
LINE
  5
2CD
100
AcDbEntity
  8
0
100
AcDbLine
 62
7
  6
CONTINUOUS
 10
158.4798384
 20
83.5420842233
 11
158.423246448
 21
84.2523520221
  0
LINE
  5
2CE
100
AcDbEntity
  8
BEZUGSACHSEN
100
AcDbLine
 62
7
  6
CONTINUOUS
 10
148.988024948
 20
122.7084906445
 11
148.988024948
 21
165.9004906445
  0
LINE
  5
2CF
100
AcDbEntity
  8
BEZUGSACHSEN
100
AcDbLine
 62
7
  6
CONTINUOUS
 10
149.288024948
 20
125.2683161163
 11
149.288024948
 21
133.0750545556
  0
LINE
  5
2D0
100
AcDbEntity
  8
0
100
AcDbLine
 62
7
  6
CONTINUOUS
 10
149.288024948
 20
133.0750545556
 11
149.288024948
 21
156.5719081622
  0
LINE
  5
2D1
100
AcDbEntity
  8
RUNDUNGEN
100
AcDbLine
 62
7
  6
CONTINUOUS
 10
149.288024948
 20
133.0750545556
 11
149.288024948
 21
163.9004251544
  0
LINE
  5
2D2
100
AcDbEntity
  8
RUNDUNGEN
100
AcDbLine
 62
7
  6
CONTINUOUS
 10
149.388024948
 20
118.1557403451
 11
149.388024948
 21
109.8044906445
  0
LINE
  5
2D3
100
AcDbEntity
  8
0
100
AcDbLine
 62
7
  6
CONTINUOUS
 10
144.6165938257
 20
62.552051452
 11
144.5560273981
 21
61.8362992213
  0
LINE
  5
2D4
100
AcDbEntity
  8
BEZUGSACHSEN
100
AcDbLine
 62
7
  6
CONTINUOUS
 10
71.6341909223
 20
204.6129134474
 11
71.2858474489
 21
204.8115527036
  0
LINE
  5
2D5
100
AcDbEntity
  8
BEZUGSACHSEN
100
AcDbLine
 62
7
  6
CONTINUOUS
 10
69.152384128
 20
212.8081063016
 11
68.2815265421
 21
213.3047038158
  0
LINE
  5
2D6
100
AcDbEntity
  8
BEZUGSACHSEN
100
AcDbLine
 62
7
  6
CONTINUOUS
 10
75.4690171876
 20
220.7668410792
 11
74.7011833146
 21
221.4113821326
  0
LINE
  5
2D7
100
AcDbEntity
  8
BEZUGSACHSEN
100
AcDbLine
 62
7
  6
CONTINUOUS
 10
110.3785089961
 20
237.6726869384
 11
113.9904323028
 21
229.7933038615
  0
LINE
  5
2D8
100
AcDbEntity
  8
BEZUGSACHSEN
100
AcDbLine
 62
7
  6
CONTINUOUS
 10
115.1616112642
 20
229.9192828463
 11
111.0306353958
 21
238.952770568
  0
LINE
  5
2D9
100
AcDbEntity
  8
0
100
AcDbLine
 62
7
  6
CONTINUOUS
 10
161.9923884712
 20
86.0590660501
 11
163.6236657681
 21
78.8008749874
  0
LINE
  5
2DA
100
AcDbEntity
  8
0
100
AcDbLine
 62
7
  6
CONTINUOUS
 10
164.4016700081
 20
80.1652211124
 11
163.0011539301
 21
86.6138209839
  0
LINE
  5
2DB
100
AcDbEntity
  8
0
100
AcDbLine
 62
7
  6
CONTINUOUS
 10
157.0020978909
 20
78.2751354257
 11
157.3070327085
 21
70.8421402098
  0
LINE
  5
2DC
100
AcDbEntity
  8
0
100
AcDbLine
 62
7
  6
CONTINUOUS
 10
158.3168127081
 20
72.0450787718
 11
158.0939102887
 21
78.6402470188
  0
LINE
  5
2DD
100
AcDbEntity
  8
0
100
AcDbLine
 62
7
  6
CONTINUOUS
 10
157.4551378977
 20
84.5784052254
 11
157.4144787632
 21
83.697593185
  0
LINE
  5
2DE
100
AcDbEntity
  8
0
100
AcDbLine
 62
7
  6
CONTINUOUS
 10
153.0955423504
 20
76.427957953
 11
153.1670767053
 21
77.1368767292
  0
LINE
  5
2DF
100
AcDbEntity
  8
0
100
AcDbLine
 62
7
  6
CONTINUOUS
 10
137.5992078523
 20
66.060634932
 11
137.2879700539
 21
64.9822032532
  0
LINE
  5
2E0
100
AcDbEntity
  8
BEZUGSACHSEN
100
AcDbLine
 62
7
  6
CONTINUOUS
 10
71.0506888552
 20
203.5896558054
 11
71.8446236869
 21
203.3629181877
  0
LINE
  5
2E1
100
AcDbEntity
  8
BEZUGSACHSEN
100
AcDbLine
 62
7
  6
CONTINUOUS
 10
75.6855729543
 20
211.3574577844
 11
76.4260635499
 21
210.9921936248
  0
LINE
  5
2E2
100
AcDbEntity
  8
BEZUGSACHSEN
100
AcDbLine
 62
7
  6
CONTINUOUS
 10
89.9220894707
 20
224.5408192856
 11
90.3800999047
 21
224.1042768475
  0
LINE
  5
2E3
100
AcDbEntity
  8
BEZUGSACHSEN
100
AcDbLine
 62
7
  6
CONTINUOUS
 10
93.5004169626
 20
227.8337313786
 11
93.9584273966
 21
227.3971889404
  0
LINE
  5
2E4
100
AcDbEntity
  8
BEZUGSACHSEN
100
AcDbLine
 62
7
  6
CONTINUOUS
 10
92.117985802
 20
231.64369161
 11
92.5759962359
 21
231.2071491719
  0
LINE
  5
2E5
100
AcDbEntity
  8
BEZUGSACHSEN
100
AcDbLine
 62
7
  6
CONTINUOUS
 10
94.9005345828
 20
228.1321481118
 11
94.3474736555
 21
228.7452280063
  0
LINE
  5
2E6
100
AcDbEntity
  8
BEZUGSACHSEN
100
AcDbLine
 62
7
  6
CONTINUOUS
 10
93.6131539155
 20
231.7655708869
 11
93.0600929882
 21
232.3786507815
  0
LINE
  5
2E7
100
AcDbEntity
  8
BEZUGSACHSEN
100
AcDbLine
 62
7
  6
CONTINUOUS
 10
99.589501041
 20
235.4251884547
 11
104.6698859585
 21
228.4023432198
  0
LINE
  5
2E8
100
AcDbEntity
  8
BEZUGSACHSEN
100
AcDbLine
 62
7
  6
CONTINUOUS
 10
105.7939500439
 20
228.754494886
 11
99.9792321294
 21
236.8079363481
  0
LINE
  5
2E9
100
AcDbEntity
  8
0
100
AcDbLine
 62
7
  6
CONTINUOUS
 10
152.2730222455
 20
77.6310525231
 11
152.0752643074
 21
76.771765136
  0
LINE
  5
2EA
100
AcDbEntity
  8
0
100
AcDbLine
 62
7
  6
CONTINUOUS
 10
145.4720483659
 20
60.9632141595
 11
145.783286131
 21
62.0416459001
  0
LINE
  5
2EB
100
AcDbEntity
  8
BEZUGSACHSEN
100
AcDbLine
 62
7
  6
CONTINUOUS
 10
91.3222070909
 20
224.8392360189
 11
90.9592471503
 21
225.0992410007
  0
LINE
  5
2EC
100
AcDbEntity
  8
BEZUGSACHSEN
100
AcDbLine
 62
7
  6
CONTINUOUS
 10
87.5025003642
 20
227.7923582966
 11
88.2284203785
 21
227.2723480856
  0
LINE
  5
2ED
100
AcDbEntity
  8
BEZUGSACHSEN
100
AcDbLine
 62
7
  6
CONTINUOUS
 10
176.488024948
 20
133.7766196307
 11
176.488024948
 21
130.3866777954
  0
LINE
  5
2EE
100
AcDbEntity
  8
RUNDUNGEN
100
AcDbLine
 62
7
  6
CONTINUOUS
 10
176.488024948
 20
133.7766196307
 11
176.488024948
 21
163.9004251288
  0
LINE
  5
2EF
100
AcDbEntity
  8
BEZUGSACHSEN
100
AcDbLine
 62
7
  6
CONTINUOUS
 10
176.988024948
 20
165.9004906445
 11
176.988024948
 21
122.7084906445
  0
LINE
  5
2F0
100
AcDbEntity
  8
0
100
AcDbLine
 62
7
  6
CONTINUOUS
 10
158.423246448
 20
84.2523520221
 11
158.7353259359
 21
85.2043849116
  0
LINE
  5
2F1
100
AcDbEntity
  8
0
100
AcDbLine
 62
7
  6
CONTINUOUS
 10
157.9617195585
 20
85.8715265978
 11
157.4551378977
 21
84.5784052254
  0
LINE
  5
2F2
100
AcDbEntity
  8
0
100
AcDbLine
 62
7
  6
CONTINUOUS
 10
138.5152287202
 20
65.1875500556
 11
138.8437065733
 21
65.8198358259
  0
LINE
  5
2F3
100
AcDbEntity
  8
0
100
AcDbLine
 62
7
  6
CONTINUOUS
 10
144.5560273981
 20
61.8362992213
 11
144.2275496116
 21
61.2040133275
  0
LINE
  5
2F4
100
AcDbEntity
  8
0
100
AcDbLine
 62
7
  6
CONTINUOUS
 10
138.1005446593
 20
66.785990633
 11
137.5992078523
 21
66.060634932
  0
LINE
  5
2F5
100
AcDbEntity
  8
BEZUGSACHSEN
100
AcDbLine
 62
7
  6
CONTINUOUS
 10
72.3512053477
 20
204.6560395602
 11
71.6341909223
 21
204.6129134474
  0
LINE
  5
2F6
100
AcDbEntity
  8
BEZUGSACHSEN
100
AcDbLine
 62
7
  6
CONTINUOUS
 10
77.1560532131
 20
212.1736717686
 11
76.4429086762
 21
212.2596625664
  0
LINE
  5
2F7
100
AcDbEntity
  8
BEZUGSACHSEN
100
AcDbLine
 62
7
  6
CONTINUOUS
 10
90.3800999047
 20
224.1042768475
 11
91.2788807179
 21
223.6773378797
  0
LINE
  5
2F8
100
AcDbEntity
  8
BEZUGSACHSEN
100
AcDbLine
 62
7
  6
CONTINUOUS
 10
89.0754770714
 20
228.1838447134
 11
88.4446075504
 21
228.527317468
  0
LINE
  5
2F9
100
AcDbEntity
  8
BEZUGSACHSEN
100
AcDbLine
 62
7
  6
CONTINUOUS
 10
93.0600929882
 20
232.3786507815
 11
92.0662615817
 21
232.982127391
  0
LINE
  5
2FA
100
AcDbEntity
  8
BEZUGSACHSEN
100
AcDbLine
 62
7
  6
CENTER
 10
186.242024948
 20
145.8044906445
 11
186.242024948
 21
139.1731385997
  0
LINE
  5
2FB
100
AcDbEntity
  8
BEZUGSACHSEN
100
AcDbLine
 62
7
  6
CENTER
 10
186.242024948
 20
145.8044906445
 11
186.242024948
 21
152.4358426893
  0
LINE
  5
2FC
100
AcDbEntity
  8
0
100
AcDbLine
 62
7
  6
CONTINUOUS
 10
153.1670767053
 20
77.1368767292
 11
153.6446249798
 21
78.0176245345
  0
LINE
  5
2FD
100
AcDbEntity
  8
0
100
AcDbLine
 62
7
  6
CONTINUOUS
 10
158.3507194526
 20
86.5536957569
 11
157.9617195585
 21
85.8715265978
  0
LINE
  5
2FE
100
AcDbEntity
  8
0
100
AcDbLine
 62
7
  6
CONTINUOUS
 10
158.7353259359
 20
85.2043849116
 11
159.1243280559
 21
85.8865579741
  0
LINE
  5
2FF
100
AcDbEntity
  8
0
100
AcDbLine
 62
7
  6
CONTINUOUS
 10
158.3215997248
 20
82.050323873
 11
158.8078507054
 21
82.9030372735
  0
LINE
  5
300
100
AcDbEntity
  8
0
100
AcDbLine
 62
7
  6
CONTINUOUS
 10
153.0030119087
 20
78.8125306668
 11
152.2730222455
 21
77.6310525231
  0
LINE
  5
301
100
AcDbEntity
  8
0
100
AcDbLine
 62
7
  6
CONTINUOUS
 10
144.9707115839
 20
60.2378584121
 11
145.4720483659
 21
60.9632141595
  0
LINE
  5
302
100
AcDbEntity
  8
0
100
AcDbLine
 62
7
  6
CONTINUOUS
 10
159.1083930125
 20
87.4776339099
 11
158.3507194526
 21
86.5536957569
  0
LINE
  5
303
100
AcDbEntity
  8
0
100
AcDbLine
 62
7
  6
CONTINUOUS
 10
153.507903353
 20
79.4140016686
 11
153.0030119087
 21
78.8125306668
  0
LINE
  5
304
100
AcDbEntity
  8
0
100
AcDbLine
 62
7
  6
CONTINUOUS
 10
153.6446249798
 20
78.0176245345
 11
154.1495135351
 21
78.6190920947
  0
LINE
  5
305
100
AcDbEntity
  8
0
100
AcDbLine
 62
7
  6
CONTINUOUS
 10
152.6726847489
 20
74.9886617032
 11
153.303798332
 21
75.740499595
  0
LINE
  5
306
100
AcDbEntity
  8
0
100
AcDbLine
 62
7
  6
CONTINUOUS
 10
159.1243280559
 20
85.8865579741
 11
159.7847505293
 21
86.6399518857
  0
LINE
  5
307
100
AcDbEntity
  8
0
100
AcDbLine
 62
7
  6
CONTINUOUS
 10
138.8437065733
 20
65.8198358259
 11
139.2672349197
 21
66.2755841397
  0
LINE
  5
308
100
AcDbEntity
  8
0
100
AcDbLine
 62
7
  6
CONTINUOUS
 10
138.6969319595
 20
67.3348088777
 11
138.1005446593
 21
66.785990633
  0
LINE
  5
309
100
AcDbEntity
  8
0
100
AcDbLine
 62
7
  6
CONTINUOUS
 10
159.845738118
 20
87.9611679945
 11
159.1083930125
 21
87.4776339099
  0
LINE
  5
30A
100
AcDbEntity
  8
0
100
AcDbLine
 62
7
  6
CONTINUOUS
 10
159.7847505293
 20
86.6399518857
 11
160.4248445483
 21
86.9529417288
  0
LINE
  5
30B
100
AcDbEntity
  8
BEZUGSACHSEN
100
AcDbLine
 62
7
  6
CONTINUOUS
 10
71.8446236869
 20
203.3629181877
 11
72.930311778
 21
203.6478132944
  0
LINE
  5
30C
100
AcDbEntity
  8
BEZUGSACHSEN
100
AcDbLine
 62
7
  6
CONTINUOUS
 10
76.4260635499
 20
210.9921936248
 11
77.5452191175
 21
211.0780284145
  0
LINE
  5
30D
100
AcDbEntity
  8
BEZUGSACHSEN
100
AcDbLine
 62
7
  6
CONTINUOUS
 10
91.2788807179
 20
223.6773378797
 11
92.2554699917
 21
223.520006299
  0
LINE
  5
30E
100
AcDbEntity
  8
BEZUGSACHSEN
100
AcDbLine
 62
7
  6
CONTINUOUS
 10
91.8580279636
 20
224.672302033
 11
91.3222070909
 21
224.8392360189
  0
LINE
  5
30F
100
AcDbEntity
  8
BEZUGSACHSEN
100
AcDbLine
 62
7
  6
CONTINUOUS
 10
88.2284203785
 20
227.2723480856
 11
89.3000621238
 21
226.9384801137
  0
LINE
  5
310
100
AcDbEntity
  8
BEZUGSACHSEN
100
AcDbLine
 62
7
  6
CONTINUOUS
 10
94.3474736555
 20
228.7452280063
 11
93.2758319101
 21
229.0790959782
  0
LINE
  5
311
100
AcDbEntity
  8
0
100
AcDbLine
 62
7
  6
CONTINUOUS
 10
167.1246781706
 20
84.9404208395
 11
164.4016700081
 21
80.1652211124
  0
LINE
  5
312
100
AcDbEntity
  8
0
100
AcDbLine
 62
7
  6
CONTINUOUS
 10
164.4945233539
 20
78.3042774732
 11
167.9955357564
 21
84.4438233252
  0
LINE
  5
313
100
AcDbEntity
  8
BEZUGSACHSEN
100
AcDbLine
 62
7
  6
CONTINUOUS
 10
194.1125896612
 20
121.0539442346
 11
201.0822613008
 21
131.0076668944
  0
LINE
  5
314
100
AcDbEntity
  8
0
100
AcDbLine
 62
7
  6
CONTINUOUS
 10
161.8510470401
 20
76.2553689012
 11
158.3168127081
 21
72.0450787718
  0
LINE
  5
315
100
AcDbEntity
  8
0
100
AcDbLine
 62
7
  6
CONTINUOUS
 10
158.0748665814
 20
70.1975991564
 11
162.6188809131
 21
75.6108278478
  0
LINE
  5
316
100
AcDbEntity
  8
0
100
AcDbLine
 62
7
  6
CONTINUOUS
 10
144.2275496116
 20
61.2040133275
 11
143.6311603331
 21
60.6551940177
  0
LINE
  5
317
100
AcDbEntity
  8
0
100
AcDbLine
 62
7
  6
CONTINUOUS
 10
154.418805828
 20
80.1872982579
 11
153.507903353
 21
79.4140016686
  0
LINE
  5
318
100
AcDbEntity
  8
0
100
AcDbLine
 62
7
  6
CONTINUOUS
 10
154.1495135351
 20
78.6190920947
 11
154.9341953158
 21
79.2420235147
  0
LINE
  5
319
100
AcDbEntity
  8
0
100
AcDbLine
 62
7
  6
CONTINUOUS
 10
139.5612306853
 20
67.800160662
 11
138.6969319595
 21
67.3348088777
  0
LINE
  5
31A
100
AcDbEntity
  8
0
100
AcDbLine
 62
7
  6
CONTINUOUS
 10
139.2672349197
 20
66.2755841397
 11
140.3043925993
 21
66.8340058548
  0
LINE
  5
31B
100
AcDbEntity
  8
0
100
AcDbLine
 62
7
  6
CONTINUOUS
 10
141.8168027458
 20
66.5097402882
 11
142.8539604253
 21
67.0681620033
  0
LINE
  5
31C
100
AcDbEntity
  8
0
100
AcDbLine
 62
7
  6
CONTINUOUS
 10
155.2308307785
 20
80.5309528745
 11
154.418805828
 21
80.1872982579
  0
LINE
  5
31D
100
AcDbEntity
  8
0
100
AcDbLine
 62
7
  6
CONTINUOUS
 10
134.4758607792
 20
65.2021642893
 11
133.3517966938
 21
64.8500126232
  0
LINE
  5
31E
100
AcDbEntity
  8
0
100
AcDbLine
 62
7
  6
CONTINUOUS
 10
128.1061639376
 20
63.2066380692
 11
126.9820998521
 21
62.854486403
  0
LINE
  5
31F
100
AcDbEntity
  8
0
100
AcDbLine
 62
7
  6
CONTINUOUS
 10
140.5205799044
 20
68.0889749899
 11
139.5612306853
 21
67.800160662
  0
LINE
  5
320
100
AcDbEntity
  8
BEZUGSACHSEN
100
AcDbLine
 62
7
  6
CONTINUOUS
 10
77.8418545802
 20
212.3669577743
 11
77.1560532131
 21
212.1736717686
  0
LINE
  5
321
100
AcDbEntity
  8
BEZUGSACHSEN
100
AcDbLine
 62
7
  6
CONTINUOUS
 10
92.4716572967
 20
224.7749754342
 11
91.8580279636
 21
224.672302033
  0
LINE
  5
322
100
AcDbEntity
  8
BEZUGSACHSEN
100
AcDbLine
 62
7
  6
CONTINUOUS
 10
89.3000621238
 20
226.9384801137
 11
90.1816009042
 21
226.9576859894
  0
LINE
  5
323
100
AcDbEntity
  8
BEZUGSACHSEN
100
AcDbLine
 62
7
  6
CONTINUOUS
 10
89.7841568979
 20
228.1099806582
 11
89.0754770714
 21
228.1838447134
  0
LINE
  5
324
100
AcDbEntity
  8
BEZUGSACHSEN
100
AcDbLine
 62
7
  6
CONTINUOUS
 10
92.7917371361
 20
227.9075954337
 11
93.5004169626
 21
227.8337313786
  0
LINE
  5
325
100
AcDbEntity
  8
BEZUGSACHSEN
100
AcDbLine
 62
7
  6
CONTINUOUS
 10
91.3142554155
 20
231.8940932451
 11
92.117985802
 21
231.64369161
  0
LINE
  5
326
100
AcDbEntity
  8
BEZUGSACHSEN
100
AcDbLine
 62
7
  6
CONTINUOUS
 10
202.388024948
 20
164.7192060797
 11
202.388024948
 21
154.5164906445
  0
LINE
  5
327
100
AcDbEntity
  8
BEZUGSACHSEN
100
AcDbLine
 62
7
  6
CONTINUOUS
 10
202.388024948
 20
137.0924906445
 11
202.388024948
 21
135.1490200911
  0
LINE
  5
328
100
AcDbEntity
  8
0
100
AcDbLine
 62
7
  6
CONTINUOUS
 10
144.2014633599
 20
59.5959691561
 11
144.9707115839
 21
60.2378584121
  0
LINE
  5
329
100
AcDbEntity
  8
0
100
AcDbLine
 62
7
  6
CONTINUOUS
 10
141.6350997727
 20
64.3624809716
 11
140.5979420931
 21
63.8040592565
  0
LINE
  5
32A
100
AcDbEntity
  8
0
100
AcDbLine
 62
7
  6
CONTINUOUS
 10
141.1682450533
 20
62.7448345185
 11
142.2054027329
 21
63.3032562336
  0
LINE
  5
32B
100
AcDbEntity
  8
0
100
AcDbLine
 62
7
  6
CONTINUOUS
 10
140.2000536601
 20
60.4018321171
 11
139.1628959805
 21
59.843410402
  0
LINE
  5
32C
100
AcDbEntity
  8
0
100
AcDbLine
 62
7
  6
CONTINUOUS
 10
143.6311603331
 20
60.6551940177
 11
142.2482847458
 21
59.910632441
  0
LINE
  5
32D
100
AcDbEntity
  8
0
100
AcDbLine
 62
7
  6
CONTINUOUS
 10
142.8185877725
 20
58.8514075793
 11
144.2014633599
 21
59.5959691561
  0
LINE
  5
32E
100
AcDbEntity
  8
0
100
AcDbLine
 62
7
  6
CONTINUOUS
 10
132.7968177666
 20
54.8010449409
 11
134.2955695233
 21
55.2705803839
  0
LINE
  5
32F
100
AcDbEntity
  8
0
100
AcDbLine
 62
7
  6
CONTINUOUS
 10
142.5944489918
 20
64.6512952995
 11
141.6350997727
 21
64.3624809716
  0
LINE
  5
330
100
AcDbEntity
  8
0
100
AcDbLine
 62
7
  6
CONTINUOUS
 10
141.8592385451
 20
58.5625932669
 11
142.8185877725
 21
58.8514075793
  0
LINE
  5
331
100
AcDbEntity
  8
BEZUGSACHSEN
100
AcDbLine
 62
7
  6
CONTINUOUS
 10
90.5706471631
 20
228.3057250554
 11
89.7841568979
 21
228.1099806582
  0
LINE
  5
332
100
AcDbEntity
  8
BEZUGSACHSEN
100
AcDbLine
 62
7
  6
CONTINUOUS
 10
92.3942931298
 20
229.0598901025
 11
91.6078048427
 21
228.8641467705
  0
LINE
  5
333
100
AcDbEntity
  8
BEZUGSACHSEN
100
AcDbLine
 62
7
  6
CONTINUOUS
 10
90.5277651503
 20
231.698348848
 11
91.3142554155
 21
231.8940932451
  0
LINE
  5
334
100
AcDbEntity
  8
BEZUGSACHSEN
100
AcDbLine
 62
7
  6
CONTINUOUS
 10
92.1781078029
 20
227.8049220325
 11
92.7917371361
 21
227.9075954337
  0
LINE
  5
335
100
AcDbEntity
  8
BEZUGSACHSEN
100
AcDbLine
 62
7
  6
CONTINUOUS
 10
107.3537517077
 20
229.0794229677
 11
108.5249306691
 21
229.2054019525
  0
LINE
  5
336
100
AcDbEntity
  8
BEZUGSACHSEN
100
AcDbLine
 62
7
  6
CONTINUOUS
 10
113.9904323028
 20
229.7933038615
 11
115.1616112642
 21
229.9192828463
  0
LINE
  5
337
100
AcDbEntity
  8
BEZUGSACHSEN
100
AcDbLine
 62
7
  6
CONTINUOUS
 10
93.2758319101
 20
229.0790959782
 11
92.3942931298
 21
229.0598901025
  0
LINE
  5
338
100
AcDbEntity
  8
BEZUGSACHSEN
100
AcDbLine
 62
7
  6
CONTINUOUS
 10
92.0662615817
 20
232.982127391
 11
90.9168113509
 21
233.0463880221
  0
LINE
  5
339
100
AcDbEntity
  8
BEZUGSACHSEN
100
AcDbLine
 62
7
  6
CONTINUOUS
 10
169.0528408004
 20
222.5217211391
 11
200.2017850476
 21
172.3813703827
  0
LINE
  5
33A
100
AcDbEntity
  8
BEZUGSACHSEN
100
AcDbLine
 62
7
  6
CONTINUOUS
 10
111.0306353958
 20
238.952770568
 11
109.4690635403
 21
238.7847985983
  0
LINE
  5
33B
100
AcDbEntity
  8
BEZUGSACHSEN
100
AcDbLine
 62
7
  6
CONTINUOUS
 10
262.4636865269
 20
39.8044906445
 11
271.8130125128
 21
40.7871444025
  0
LINE
  5
33C
100
AcDbEntity
  8
AUSFORMSCHRAEGEN
100
AcDbLine
 62
7
  6
CONTINUOUS
 10
262.4636865269
 20
39.8044906445
 11
271.8130125128
 21
40.7871444025
  0
LINE
  5
33D
100
AcDbEntity
  8
BEZUGSACHSEN
100
AcDbLine
 62
7
  6
CONTINUOUS
 10
262.4636865269
 20
39.8044906445
 11
253.1143605409
 21
40.7871444025
  0
LINE
  5
33E
100
AcDbEntity
  8
BEZUGSACHSEN
100
AcDbLine
 62
8
  6
HIDDEN
 10
262.4636865269
 20
76.8044906445
 11
258.4001152026
 21
76.1608841746
  0
LINE
  5
33F
100
AcDbEntity
  8
BEZUGSACHSEN
100
AcDbLine
 62
8
  6
HIDDEN
 10
262.4636865269
 20
76.8044906445
 11
266.5272578511
 21
76.1608841746
  0
LINE
  5
340
100
AcDbEntity
  8
BEZUGSACHSEN
100
AcDbLine
 62
7
  6
CONTINUOUS
 10
241.6133642777
 20
174.3652102692
 11
241.6056845662
 21
174.3530479376
  0
LINE
  5
341
100
AcDbEntity
  8
BEZUGSACHSEN
100
AcDbLine
 62
7
  6
CONTINUOUS
 10
243.4835448963
 20
176.4357985033
 11
242.4148100802
 21
175.3670636871
  0
LINE
  5
342
100
AcDbEntity
  8
BEZUGSACHSEN
100
AcDbLine
 62
7
  6
CONTINUOUS
 10
242.4148617271
 20
116.2418659549
 11
243.4835326136
 21
115.1731950684
  0
LINE
  5
343
100
AcDbEntity
  8
BEZUGSACHSEN
100
AcDbLine
 62
7
  6
CONTINUOUS
 10
240.7136865269
 20
171.2601875679
 11
240.7136865269
 21
159.1556516427
  0
LINE
  5
344
100
AcDbEntity
  8
RUNDUNGEN
100
AcDbLine
 62
7
  6
CONTINUOUS
 10
240.7136865269
 20
159.1556516427
 11
240.7136865269
 21
157.524989413
  0
LINE
  5
345
100
AcDbEntity
  8
BEZUGSACHSEN
100
AcDbLine
 62
7
  6
CONTINUOUS
 10
240.7136865269
 20
157.524989413
 11
240.7136865269
 21
120.3487935255
  0
LINE
  5
346
100
AcDbEntity
  8
BEZUGSACHSEN
100
AcDbLine
 62
7
  6
CONTINUOUS
 10
249.072378788
 20
207.7990338377
 11
245.1281459642
 21
179.7343590257
  0
LINE
  5
347
100
AcDbEntity
  8
BEZUGSACHSEN
100
AcDbLine
 62
7
  6
CONTINUOUS
 10
245.1281460559
 20
111.8746216111
 11
249.072378217
 21
83.809951514
  0
LWPOLYLINE
  5
348
100
AcDbEntity
  8
BEZUGSACHSEN
100
AcDbPolyline
 62
7
  6
CONTINUOUS
 90
6
 70
0
 10
249.2136865269
 20
176.6715688718
 10
249.2224331325
 20
176.4463498798
 10
249.2486202677
 20
176.2224875283
 10
249.2920901952
 20
176.0013303264
 10
249.3525810671
 20
175.7842104975
 10
249.4297285025
 20
175.5724359431
  0
LINE
  5
349
100
AcDbEntity
  8
BEZUGSACHSEN
100
AcDbLine
 62
7
  6
CONTINUOUS
 10
249.2136865269
 20
81.7891494103
 11
249.2136865269
 21
45.1192817787
  0
LINE
  5
34A
100
AcDbEntity
  8
BEZUGSACHSEN
100
AcDbLine
 62
7
  6
CONTINUOUS
 10
249.2136865269
 20
176.6718273693
 11
249.2136865269
 21
246.4896995103
  0
LINE
  5
34B
100
AcDbEntity
  8
T_STARTBEZUEGE
100
AcDbLine
 62
7
  6
CENTER
 10
262.4636865269
 20
254.8044906445
 11
262.4636865269
 21
36.8044906445
  0
LWPOLYLINE
  5
34C
100
AcDbEntity
  8
BEZUGSACHSEN
100
AcDbPolyline
 62
7
  6
CONTINUOUS
 90
7
 70
0
 10
275.4024673582
 20
175.3636453912
 10
275.497645659
 20
175.5724503271
 10
275.5747927664
 20
175.7842234886
 10
275.6352833395
 20
176.0013417733
 10
275.6787530197
 20
176.2224972763
 10
275.7049399843
 20
176.4463577688
 10
275.7136865269
 20
176.6715747639
  0
LINE
  5
34D
100
AcDbEntity
  8
T_STARTBEZUEGE
100
AcDbLine
 62
7
  6
CENTER
 10
288.4332374248
 20
145.8044906445
 11
236.4941356277
 21
145.8044906445
  0
LINE
  5
34E
100
AcDbEntity
  8
BEZUGSACHSEN
100
AcDbLine
 62
7
  6
CONTINUOUS
 10
249.4297285025
 20
175.5724359431
 11
249.524906949
 21
175.3636301332
  0
LINE
  5
34F
100
AcDbEntity
  8
BEZUGSACHSEN
100
AcDbLine
 62
7
  6
CONTINUOUS
 10
275.7136865269
 20
246.4896995103
 11
275.7136865269
 21
176.6715716787
  0
LINE
  5
350
100
AcDbEntity
  8
RUNDUNGEN
100
AcDbLine
 62
7
  6
CONTINUOUS
 10
275.7136865269
 20
81.7891494103
 11
275.7136865269
 21
45.1192817787
  0
LINE
  5
351
100
AcDbEntity
  8
BEZUGSACHSEN
100
AcDbLine
 62
7
  6
CONTINUOUS
 10
284.2136865269
 20
171.2601875679
 11
284.2136865269
 21
159.1556516427
  0
LINE
  5
352
100
AcDbEntity
  8
RUNDUNGEN
100
AcDbLine
 62
7
  6
CONTINUOUS
 10
284.2136865269
 20
159.1556516427
 11
284.2136865269
 21
120.3487935255
  0
LINE
  5
353
100
AcDbEntity
  8
RUNDUNGEN
100
AcDbLine
 62
7
  6
CONTINUOUS
 10
279.7992269978
 20
111.8746216111
 11
275.8549948367
 21
83.809951514
  0
LINE
  5
354
100
AcDbEntity
  8
BEZUGSACHSEN
100
AcDbLine
 62
7
  6
CONTINUOUS
 10
275.8549942657
 20
207.7990338377
 11
279.7992270895
 21
179.7343590257
  0
LINE
  5
355
100
AcDbEntity
  8
RUNDUNGEN
100
AcDbLine
 62
7
  6
CONTINUOUS
 10
283.2971824535
 20
117.2173191762
 11
283.2971351199
 21
117.2172452404
  0
LINE
  5
356
100
AcDbEntity
  8
RUNDUNGEN
100
AcDbLine
 62
7
  6
CONTINUOUS
 10
282.5125113266
 20
116.2418659549
 11
281.4438404401
 21
115.1731950684
  0
LINE
  5
357
100
AcDbEntity
  8
BEZUGSACHSEN
100
AcDbLine
 62
7
  6
CONTINUOUS
 10
281.4438281574
 20
176.4357985033
 11
282.5125629735
 21
175.3670636871
  0
LINE
  5
358
100
AcDbEntity
  8
BEZUGSACHSEN
100
AcDbLine
 62
7
  6
CONTINUOUS
 10
283.3040924451
 20
174.3808247885
 11
283.2970996872
 21
174.3917909989
  0
LINE
  5
359
100
AcDbEntity
  8
BEZUGSACHSEN
100
AcDbLine
 62
7
  6
CONTINUOUS
 10
283.3216884893
 20
174.3530479347
 11
283.3140087787
 21
174.3652102648
  0
LINE
  5
35A
100
AcDbEntity
  8
BEZUGSACHSEN
100
AcDbLine
 62
8
  6
HIDDEN
 10
262.4636865269
 20
214.8044906445
 11
266.5272578511
 21
215.4480971144
  0
LINE
  5
35B
100
AcDbEntity
  8
BEZUGSACHSEN
100
AcDbLine
 62
8
  6
HIDDEN
 10
262.4636865269
 20
214.8044906445
 11
258.4001152026
 21
215.4480971144
  0
LINE
  5
35C
100
AcDbEntity
  8
BEZUGSACHSEN
100
AcDbLine
 62
7
  6
CONTINUOUS
 10
262.4636865269
 20
251.8044906445
 11
253.1143605409
 21
250.8218368865
  0
LINE
  5
35D
100
AcDbEntity
  8
BEZUGSACHSEN
100
AcDbLine
 62
7
  6
CONTINUOUS
 10
262.4636865269
 20
251.8044906445
 11
271.8130125128
 21
250.8218368865
  0
ARC
  5
35E
100
AcDbEntity
  8
BEZUGSACHSEN
100
AcDbCircle
 62
7
  6
CONTINUOUS
 10
86.368024948
 20
127.5072142356
 40
14.52
100
AcDbArc
 50
319.4303027696
 51
360.0
  0
ARC
  5
35F
100
AcDbEntity
  8
BEZUGSACHSEN
100
AcDbCircle
 62
7
  6
CONTINUOUS
 10
44.908024948
 20
126.8897752092
 40
14.52
100
AcDbArc
 50
180.0
 51
211.85
  0
ARC
  5
360
100
AcDbEntity
  8
BEZUGSACHSEN
100
AcDbCircle
 62
7
  6
CONTINUOUS
 10
80.584024948
 20
127.7084906445
 40
2.904
100
AcDbArc
 50
270.0
 51
360.0
  0
ARC
  5
361
100
AcDbEntity
  8
BEZUGSACHSEN
100
AcDbCircle
 62
7
  6
CONTINUOUS
 10
59.192024948
 20
127.7084906445
 40
2.904
100
AcDbArc
 50
180.0
 51
270.0
  0
ARC
  5
362
100
AcDbEntity
  8
RUNDUNGEN
100
AcDbCircle
 62
7
  6
CONTINUOUS
 10
58.692024948
 20
125.7084906445
 40
2.904
100
AcDbArc
 50
180.0
 51
269.9991026624
  0
ARC
  5
363
100
AcDbEntity
  8
BEZUGSACHSEN
100
AcDbCircle
 62
7
  6
CONTINUOUS
 10
58.692024948
 20
125.7084906445
 40
2.904
100
AcDbArc
 50
235.1126425333
 51
269.9991026624
  0
ARC
  5
364
100
AcDbEntity
  8
RUNDUNGEN
100
AcDbCircle
 62
7
  6
CONTINUOUS
 10
80.884024948
 20
125.7084906445
 40
2.904
100
AcDbArc
 50
270.0008057215
 51
360.0
  0
ARC
  5
365
100
AcDbEntity
  8
BEZUGSACHSEN
100
AcDbCircle
 62
7
  6
CONTINUOUS
 10
80.884024948
 20
125.7084906445
 40
2.904
100
AcDbArc
 50
270.0008057215
 51
304.8873574667
  0
ARC
  5
366
100
AcDbEntity
  8
BEZUGSACHSEN
100
AcDbCircle
 62
7
  6
CONTINUOUS
 10
47.4171792837
 20
169.8044906445
 40
12.3428456643
100
AcDbArc
 50
315.9475377101
 51
82.6011077975
  0
ARC
  5
367
100
AcDbEntity
  8
BEZUGSACHSEN
100
AcDbCircle
 62
7
  6
CONTINUOUS
 10
95.3348706124
 20
169.8044906445
 40
12.3428456643
100
AcDbArc
 50
167.5279813677
 51
196.2980635084
  0
ARC
  5
368
100
AcDbEntity
  8
BEZUGSACHSEN
100
AcDbCircle
 62
7
  6
CONTINUOUS
 10
37.6065079832
 20
156.4605116859
 40
7.2184830562
100
AcDbArc
 50
144.9956305717
 51
180.0043694283
  0
CIRCLE
  5
369
100
AcDbEntity
  8
BEZUGSACHSEN
100
AcDbCircle
 62
7
  6
CONTINUOUS
 10
46.534024948
 20
145.8044906445
 40
3.6313520448
  0
ARC
  5
36A
100
AcDbEntity
  8
RUNDUNGEN
100
AcDbCircle
 62
7
  6
CONTINUOUS
 10
52.884024948
 20
168.9004906445
 40
2.904
100
AcDbArc
 50
0.0
 51
90.0
  0
ARC
  5
36B
100
AcDbEntity
  8
RUNDUNGEN
100
AcDbCircle
 62
7
  6
CONTINUOUS
 10
86.692024948
 20
168.9004906445
 40
2.904
100
AcDbArc
 50
90.0
 51
180.0
  0
ARC
  5
36C
100
AcDbEntity
  8
RUNDUNGEN
100
AcDbCircle
 62
7
  6
CONTINUOUS
 10
116.388024948
 20
109.8044906445
 40
70.0
100
AcDbArc
 50
270.0
 51
357.3317548133
  0
ARC
  5
36D
100
AcDbEntity
  8
BEZUGSACHSEN
100
AcDbCircle
 62
7
  6
CONTINUOUS
 10
116.388024948
 20
101.8044906445
 40
62.0
100
AcDbArc
 50
211.85
 51
270.0
  0
ARC
  5
36E
100
AcDbEntity
  8
BEZUGSACHSEN
100
AcDbCircle
 62
7
  6
CONTINUOUS
 10
116.388024948
 20
109.8044906445
 40
33.0
100
AcDbArc
 50
270.0
 51
360.0
  0
ARC
  5
36F
100
AcDbEntity
  8
BEZUGSACHSEN
100
AcDbCircle
 62
7
  6
CONTINUOUS
 10
116.388024948
 20
101.8044906445
 40
25.0
100
AcDbArc
 50
139.4303027696
 51
270.0
  0
ARC
  5
370
100
AcDbEntity
  8
BEZUGSACHSEN
100
AcDbCircle
 62
7
  6
CONTINUOUS
 10
185.3588706124
 20
121.8044906445
 40
12.3428456643
100
AcDbArc
 50
135.9475377101
 51
262.6011077975
  0
ARC
  5
371
100
AcDbEntity
  8
BEZUGSACHSEN
100
AcDbCircle
 62
7
  6
CONTINUOUS
 10
137.4411792837
 20
121.8044906445
 40
12.3428456643
100
AcDbArc
 50
347.5279813677
 51
16.2980635084
  0
ARC
  5
372
100
AcDbEntity
  8
RUNDUNGEN
100
AcDbCircle
 62
7
  6
CONTINUOUS
 10
137.4411792837
 20
121.8044906445
 40
12.3428456643
100
AcDbArc
 50
347.5279813677
 51
16.2980635084
  0
ARC
  5
373
100
AcDbEntity
  8
BEZUGSACHSEN
100
AcDbCircle
 62
7
  6
CONTINUOUS
 10
195.1695419128
 20
135.148469603
 40
7.2184830562
100
AcDbArc
 50
324.9956305717
 51
0.0043694283
  0
ARC
  5
374
100
AcDbEntity
  8
BEZUGSACHSEN
100
AcDbCircle
 62
7
  6
CONTINUOUS
 10
179.892024948
 20
122.7084906445
 40
2.904
100
AcDbArc
 50
180.0
 51
270.0
  0
ARC
  5
375
100
AcDbEntity
  8
BEZUGSACHSEN
100
AcDbCircle
 62
7
  6
CONTINUOUS
 10
146.084024948
 20
122.7084906445
 40
2.904
100
AcDbArc
 50
270.0
 51
360.0
  0
ARC
  5
376
100
AcDbEntity
  8
BEZUGSACHSEN
100
AcDbCircle
 62
7
  6
CONTINUOUS
 10
116.388024948
 20
181.8044906445
 40
70.0
100
AcDbArc
 50
90.0
 51
177.3317548133
  0
ARC
  5
377
100
AcDbEntity
  8
BEZUGSACHSEN
100
AcDbCircle
 62
7
  6
CONTINUOUS
 10
116.388024948
 20
189.8044906445
 40
62.0
100
AcDbArc
 50
31.85
 51
90.0
  0
ARC
  5
378
100
AcDbEntity
  8
BEZUGSACHSEN
100
AcDbCircle
 62
7
  6
CONTINUOUS
 10
116.388024948
 20
181.8044906445
 40
33.0
100
AcDbArc
 50
90.0
 51
180.0
  0
ARC
  5
379
100
AcDbEntity
  8
BEZUGSACHSEN
100
AcDbCircle
 62
7
  6
CONTINUOUS
 10
116.388024948
 20
189.8044906445
 40
25.0
100
AcDbArc
 50
319.4303027696
 51
90.0
  0
ARC
  5
37A
100
AcDbEntity
  8
BEZUGSACHSEN
100
AcDbCircle
 62
7
  6
CONTINUOUS
 10
187.868024948
 20
164.7192060797
 40
14.52
100
AcDbArc
 50
0.0
 51
31.85
  0
ARC
  5
37B
100
AcDbEntity
  8
BEZUGSACHSEN
100
AcDbCircle
 62
7
  6
CONTINUOUS
 10
146.408024948
 20
164.1017670534
 40
14.52
100
AcDbArc
 50
139.4303027696
 51
180.0
  0
CIRCLE
  5
37C
100
AcDbEntity
  8
BEZUGSACHSEN
100
AcDbCircle
 62
7
  6
CONTINUOUS
 10
186.242024948
 20
145.8044906445
 40
3.6313520448
  0
ARC
  5
37D
100
AcDbEntity
  8
RUNDUNGEN
100
AcDbCircle
 62
7
  6
CONTINUOUS
 10
152.192024948
 20
163.9004906445
 40
2.904
100
AcDbArc
 50
90.0
 51
180.0
  0
ARC
  5
37E
100
AcDbEntity
  8
RUNDUNGEN
100
AcDbCircle
 62
7
  6
CONTINUOUS
 10
173.584024948
 20
163.9004906445
 40
2.904
100
AcDbArc
 50
0.0
 51
90.0
  0
ARC
  5
37F
100
AcDbEntity
  8
BEZUGSACHSEN
100
AcDbCircle
 62
7
  6
CONTINUOUS
 10
151.892024948
 20
165.9004906445
 40
2.904
100
AcDbArc
 50
90.0008057215
 51
180.0
  0
ARC
  5
380
100
AcDbEntity
  8
BEZUGSACHSEN
100
AcDbCircle
 62
7
  6
CONTINUOUS
 10
174.084024948
 20
165.9004906445
 40
2.904
100
AcDbArc
 50
0.0
 51
89.9991026624
  0
ARC
  5
381
100
AcDbEntity
  8
BEZUGSACHSEN
100
AcDbCircle
 62
7
  6
CONTINUOUS
 10
234.6936865269
 20
81.7891533351
 40
14.52
100
AcDbArc
 50
359.999984513
 51
8.0000189395
  0
ARC
  5
382
100
AcDbEntity
  8
BEZUGSACHSEN
100
AcDbCircle
 62
8
  6
HIDDEN
 10
260.1036865269
 20
65.4049581455
 40
10.89
100
AcDbArc
 50
99.0
 51
180.0
  0
ARC
  5
383
100
AcDbEntity
  8
BEZUGSACHSEN
100
AcDbCircle
 62
7
  6
CONTINUOUS
 10
239.3766687924
 20
111.0663065194
 40
5.808
100
AcDbArc
 50
7.9999772997
 51
45.0001724914
  0
ARC
  5
384
100
AcDbEntity
  8
BEZUGSACHSEN
100
AcDbCircle
 62
7
  6
CONTINUOUS
 10
246.5216865269
 20
120.3487935255
 40
5.808
100
AcDbArc
 50
180.0
 51
224.999996351
  0
ARC
  5
385
100
AcDbEntity
  8
BEZUGSACHSEN
100
AcDbCircle
 62
7
  6
CONTINUOUS
 10
253.5696865269
 20
45.1192817787
 40
4.356
100
AcDbArc
 50
180.0
 51
264.0
  0
ARC
  5
386
100
AcDbEntity
  8
BEZUGSACHSEN
100
AcDbCircle
 62
7
  6
CONTINUOUS
 10
234.6936865269
 20
209.8198279539
 40
14.52
100
AcDbArc
 50
351.9999972496
 51
0.000015487
  0
ARC
  5
387
100
AcDbEntity
  8
BEZUGSACHSEN
100
AcDbCircle
 62
7
  6
CONTINUOUS
 10
238.5048408625
 20
169.8044906445
 40
12.3428456643
100
AcDbArc
 50
356.4882795266
 51
26.8197002527
  0
ARC
  5
388
100
AcDbEntity
  8
BEZUGSACHSEN
100
AcDbCircle
 62
8
  6
HIDDEN
 10
260.1036865269
 20
226.2040231435
 40
10.89
100
AcDbArc
 50
180.0
 51
261.0
  0
ARC
  5
389
100
AcDbEntity
  8
BEZUGSACHSEN
100
AcDbCircle
 62
7
  6
CONTINUOUS
 10
246.5216865269
 20
171.2601877635
 40
5.808
100
AcDbArc
 50
134.9992831127
 51
180.0
  0
ARC
  5
38A
100
AcDbEntity
  8
BEZUGSACHSEN
100
AcDbCircle
 62
7
  6
CONTINUOUS
 10
239.3766687924
 20
180.5426747696
 40
5.808
100
AcDbArc
 50
314.9999988671
 51
352.0000162029
  0
ARC
  5
38B
100
AcDbEntity
  8
BEZUGSACHSEN
100
AcDbCircle
 62
7
  6
CONTINUOUS
 10
253.5696865269
 20
246.4896995103
 40
4.356
100
AcDbArc
 50
96.0
 51
180.0
  0
ARC
  5
38C
100
AcDbEntity
  8
RUNDUNGEN
100
AcDbCircle
 62
7
  6
CONTINUOUS
 10
243.6176865269
 20
159.1556516427
 40
2.904
100
AcDbArc
 50
144.6849180004
 51
180.0
  0
ARC
  5
38D
100
AcDbEntity
  8
RUNDUNGEN
100
AcDbCircle
 62
7
  6
CONTINUOUS
 10
290.2336865269
 20
81.7891533351
 40
14.52
100
AcDbArc
 50
171.9999810605
 51
180.000015487
  0
ARC
  5
38E
100
AcDbEntity
  8
RUNDUNGEN
100
AcDbCircle
 62
8
  6
HIDDEN
 10
264.8236865269
 20
65.4049581455
 40
10.89
100
AcDbArc
 50
0.0
 51
81.0
  0
ARC
  5
38F
100
AcDbEntity
  8
RUNDUNGEN
100
AcDbCircle
 62
7
  6
CONTINUOUS
 10
285.5507042613
 20
111.0663065194
 40
5.808
100
AcDbArc
 50
134.9998275086
 51
172.0000227003
  0
ARC
  5
390
100
AcDbEntity
  8
RUNDUNGEN
100
AcDbCircle
 62
7
  6
CONTINUOUS
 10
278.4056865269
 20
120.3487935255
 40
5.808
100
AcDbArc
 50
315.000003649
 51
0.00006616
  0
ARC
  5
391
100
AcDbEntity
  8
RUNDUNGEN
100
AcDbCircle
 62
7
  6
CONTINUOUS
 10
271.3576865269
 20
45.1192817787
 40
4.356
100
AcDbArc
 50
276.0
 51
360.0
  0
ARC
  5
392
100
AcDbEntity
  8
RUNDUNGEN
100
AcDbCircle
 62
7
  6
CONTINUOUS
 10
262.4636865269
 20
145.8044906445
 40
26.0
100
AcDbArc
 50
35.3150819996
 51
144.6849180004
  0
CIRCLE
  5
393
100
AcDbEntity
  8
0
100
AcDbCircle
 62
7
  6
CONTINUOUS
 10
262.4636865269
 20
145.8044906445
 40
8.712
  0
ARC
  5
394
100
AcDbEntity
  8
BEZUGSACHSEN
100
AcDbCircle
 62
8
  6
HIDDEN
 10
264.8236865269
 20
226.2040231435
 40
10.89
100
AcDbArc
 50
279.0
 51
360.0
  0
ARC
  5
395
100
AcDbEntity
  8
BEZUGSACHSEN
100
AcDbCircle
 62
7
  6
CONTINUOUS
 10
271.3576865269
 20
246.4896995103
 40
4.356
100
AcDbArc
 50
0.0
 51
84.0
  0
ARC
  5
396
100
AcDbEntity
  8
BEZUGSACHSEN
100
AcDbCircle
 62
7
  6
CONTINUOUS
 10
286.4225321912
 20
169.8044906445
 40
12.3428456643
100
AcDbArc
 50
153.2266549468
 51
183.5162630668
  0
ARC
  5
397
100
AcDbEntity
  8
BEZUGSACHSEN
100
AcDbCircle
 62
7
  6
CONTINUOUS
 10
278.4056865269
 20
171.2601877635
 40
5.808
100
AcDbArc
 50
359.9999980704
 51
45.0007168873
  0
ARC
  5
398
100
AcDbEntity
  8
BEZUGSACHSEN
100
AcDbCircle
 62
7
  6
CONTINUOUS
 10
285.5507042613
 20
180.5426747696
 40
5.808
100
AcDbArc
 50
187.9999837971
 51
225.0000011329
  0
ARC
  5
399
100
AcDbEntity
  8
RUNDUNGEN
100
AcDbCircle
 62
7
  6
CONTINUOUS
 10
281.3096840281
 20
159.1556556599
 40
2.9040000356
100
AcDbArc
 50
359.9999207417
 51
35.3149888271
  0
ARC
  5
39A
100
AcDbEntity
  8
BEZUGSACHSEN
100
AcDbCircle
 62
7
  6
CONTINUOUS
 10
290.2336865269
 20
209.8198279539
 40
14.52
100
AcDbArc
 50
181.3859119016
 51
188.0000027504
  0
SPLINE
  5
39B
100
AcDbEntity
  8
BEZUGSACHSEN
100
AcDbSpline
 62
7
  6
CONTINUOUS
 70
0
 71
3
 72
13
 73
9
 74
0
 42
0.0000001
 43
0.0000001
 44
0.0000000001
 40
0.0
 40
0.0
 40
0.0
 40
0.0
 40
0.1252752166
 40
0.2505420777
 40
0.5000088244
 40
0.7494615049
 40
0.8747265241
 40
1.0
 40
1.0
 40
1.0
 40
1.0
 10
49.0066467965
 20
182.0445654864
 30
0.0
 10
48.8277378221
 20
182.0677979366
 30
0.0
 10
48.473278321
 20
182.1476345299
 30
0.0
 10
47.8086966807
 20
182.4331418343
 30
0.0
 10
47.093731396
 20
183.0139422437
 30
0.0
 10
46.6406979269
 20
183.8163437783
 30
0.0
 10
46.4727274262
 20
184.5199724209
 30
0.0
 10
46.4555183749
 20
184.8829759274
 30
0.0
 10
46.4639169061
 20
185.0631889348
 30
0.0
  0
SPLINE
  5
39C
100
AcDbEntity
  8
BEZUGSACHSEN
100
AcDbSpline
 62
7
  6
CONTINUOUS
 70
0
 71
3
 72
8
 73
4
 74
0
 42
0.0000001
 43
0.0000001
 44
0.0000000001
 40
0.0
 40
0.0
 40
0.0
 40
0.0
 40
1.0
 40
1.0
 40
1.0
 40
1.0
 10
83.2832990607
 20
172.4700855481
 30
0.0
 10
83.3546966597
 20
172.7918313915
 30
0.0
 10
83.388025057
 20
173.1236684862
 30
0.0
 10
83.388024948
 20
173.4532409439
 30
0.0
  0
SPLINE
  5
39D
100
AcDbEntity
  8
BEZUGSACHSEN
100
AcDbSpline
 62
7
  6
CONTINUOUS
 70
0
 71
3
 72
11
 73
7
 74
0
 42
0.0000001
 43
0.0000001
 44
0.0000000001
 40
0.0
 40
0.0
 40
0.0
 40
0.0
 40
0.250013997
 40
0.5000034833
 40
0.7499908137
 40
1.0
 40
1.0
 40
1.0
 40
1.0
 10
191.70645856
 20
119.8044908804
 30
0.0
 10
191.9407459486
 20
119.8044904816
 30
0.0
 10
192.4112106926
 20
119.8608745982
 30
0.0
 10
193.0753238004
 20
120.1100462407
 30
0.0
 10
193.6615959639
 20
120.509376184
 30
0.0
 10
193.9782103212
 20
120.8620310744
 30
0.0
 10
194.1125896612
 20
121.0539442346
 30
0.0
  0
SPLINE
  5
39E
100
AcDbEntity
  8
BEZUGSACHSEN
100
AcDbSpline
 62
7
  6
CONTINUOUS
 70
0
 71
3
 72
15
 73
11
 74
0
 42
0.0000001
 43
0.0000001
 44
0.0000000001
 40
0.0
 40
0.0
 40
0.0
 40
0.0
 40
0.125004763
 40
0.2500010338
 40
0.3750036572
 40
0.5000036905
 40
0.6250030325
 40
0.7500039506
 40
0.8749974339
 40
1.0
 40
1.0
 40
1.0
 40
1.0
 10
134.8282236733
 20
119.8044946616
 30
0.0
 10
134.6371435179
 20
119.804494468
 30
0.0
 10
134.2539662372
 20
119.8416075842
 30
0.0
 10
133.7014469692
 20
120.0066921172
 30
0.0
 10
133.1908958908
 20
120.2752647885
 30
0.0
 10
132.7420857005
 20
120.6376958852
 30
0.0
 10
132.3724269747
 20
121.0806265988
 30
0.0
 10
132.0967746723
 20
121.5875320327
 30
0.0
 10
131.9264536004
 20
122.1386473627
 30
0.0
 10
131.8880249872
 20
122.521882055
 30
0.0
 10
131.888024948
 20
122.7129588522
 30
0.0
  0
SPLINE
  5
39F
100
AcDbEntity
  8
RUNDUNGEN
100
AcDbSpline
 62
7
  6
CONTINUOUS
 70
0
 71
3
 72
15
 73
11
 74
0
 42
0.0000001
 43
0.0000001
 44
0.0000000001
 40
0.0
 40
0.0
 40
0.0
 40
0.0
 40
0.125004763
 40
0.2500010338
 40
0.3750036572
 40
0.5000036905
 40
0.6250030325
 40
0.7500039506
 40
0.8749974339
 40
1.0
 40
1.0
 40
1.0
 40
1.0
 10
97.9478262227
 20
171.8044866274
 30
0.0
 10
98.1389063781
 20
171.804486821
 30
0.0
 10
98.5220836588
 20
171.7673737047
 30
0.0
 10
99.0746029268
 20
171.6022891717
 30
0.0
 10
99.5851540052
 20
171.3337165004
 30
0.0
 10
100.0339641956
 20
170.9712854038
 30
0.0
 10
100.4036229213
 20
170.5283546902
 30
0.0
 10
100.6792752237
 20
170.0214492563
 30
0.0
 10
100.8495962956
 20
169.4703339263
 30
0.0
 10
100.8880249089
 20
169.087099234
 30
0.0
 10
100.888024948
 20
168.8960224368
 30
0.0
  0
SPLINE
  5
3A0
100
AcDbEntity
  8
RUNDUNGEN
100
AcDbSpline
 62
7
  6
CONTINUOUS
 70
0
 71
3
 72
11
 73
7
 74
0
 42
0.0000001
 43
0.0000001
 44
0.0000000001
 40
0.0
 40
0.0
 40
0.0
 40
0.0
 40
0.250013997
 40
0.5000034833
 40
0.7499908137
 40
1.0
 40
1.0
 40
1.0
 40
1.0
 10
41.069591336
 20
171.8044904085
 30
0.0
 10
40.8353039474
 20
171.8044908074
 30
0.0
 10
40.3648392035
 20
171.7481066908
 30
0.0
 10
39.7007260957
 20
171.4989350482
 30
0.0
 10
39.1144539321
 20
171.099605105
 30
0.0
 10
38.7978395749
 20
170.7469502146
 30
0.0
 10
38.6634602349
 20
170.5550370544
 30
0.0
  0
SPLINE
  5
3A1
100
AcDbEntity
  8
RUNDUNGEN
100
AcDbSpline
 62
7
  6
CONTINUOUS
 70
0
 71
3
 72
8
 73
4
 74
0
 42
0.0000001
 43
0.0000001
 44
0.0000000001
 40
0.0
 40
0.0
 40
0.0
 40
0.0
 40
1.0
 40
1.0
 40
1.0
 40
1.0
 10
149.4927508353
 20
119.1388957408
 30
0.0
 10
149.4213532364
 20
118.8171498975
 30
0.0
 10
149.388024839
 20
118.4853128028
 30
0.0
 10
149.388024948
 20
118.1557403451
 30
0.0
  0
SPLINE
  5
3A2
100
AcDbEntity
  8
RUNDUNGEN
100
AcDbSpline
 62
7
  6
CONTINUOUS
 70
0
 71
3
 72
13
 73
9
 74
0
 42
0.0000001
 43
0.0000001
 44
0.0000000001
 40
0.0
 40
0.0
 40
0.0
 40
0.0
 40
0.1252752166
 40
0.2505420777
 40
0.5000088244
 40
0.7494615049
 40
0.8747265241
 40
1.0
 40
1.0
 40
1.0
 40
1.0
 10
183.7694030995
 20
109.5644158026
 30
0.0
 10
183.9483120739
 20
109.5411833524
 30
0.0
 10
184.3027715751
 20
109.461346759
 30
0.0
 10
184.9673532153
 20
109.1758394547
 30
0.0
 10
185.6823185001
 20
108.5950390453
 30
0.0
 10
186.1353519692
 20
107.7926375107
 30
0.0
 10
186.3033224699
 20
107.0890088681
 30
0.0
 10
186.3205315212
 20
106.7260053616
 30
0.0
 10
186.3121329899
 20
106.5457923542
 30
0.0
  0
ELLIPSE
  5
3A3
100
AcDbEntity
  8
0
100
AcDbEllipse
 62
7
  6
CONTINUOUS
 10
30.388024948
 20
145.8044906445
 30
0.0
 11
0.0
 21
8.712
 31
0.0
 40
0.1051042353
 41
-3.1415926536
 42
0.0
  0
ELLIPSE
  5
3A4
100
AcDbEntity
  8
BEZUGSACHSEN
100
AcDbEllipse
 62
7
  6
CONTINUOUS
 10
202.388024948
 20
145.8044906445
 30
0.0
 11
-0.0
 21
8.712
 31
0.0
 40
0.1051042353
 41
0.0
 42
3.1415926536
  0
ELLIPSE
  5
3A5
100
AcDbEntity
  8
BEZUGSACHSEN
100
AcDbEllipse
 62
7
  6
CONTINUOUS
 10
131.888024948
 20
145.8044906445
 30
0.0
 11
0.0
 21
8.5305
 31
0.0
 40
0.1583844403
 41
-3.1415926536
 42
0.0
  0
ELLIPSE
  5
3A6
100
AcDbEntity
  8
0
100
AcDbEllipse
 62
7
  6
CONTINUOUS
 10
100.888024948
 20
145.8044906445
 30
0.0
 11
0.0
 21
8.5305
 31
0.0
 40
0.1583844403
 41
0.0
 42
3.1415926536
  0
ENDSEC
  0
SECTION
  2
OBJECTS
  0
DICTIONARY
  5
C
100
AcDbDictionary
280
0
281
1
  3
ACAD_GROUP
350
D
  3
ACAD_MLINESTYLE
350
17
  3
ACAD_LAYOUT
350
1A
  3
ACAD_PLOTSETTINGS
350
19
  3
ACAD_PLOTSTYLENAME
350
E
  0
DICTIONARY
  5
D
102
{ACAD_REACTORS
330
C
102
}
100
AcDbDictionary
280
0
281
1
  0
ACDBDICTIONARYWDFLT
  5
E
102
{ACAD_REACTORS
330
C
102
}
100
AcDbDictionary
281
1
  3
Normal
350
F
100
AcDbDictionaryWithDefault
340
F
  0
DICTIONARY
  5
17
102
{ACAD_REACTORS
330
C
102
}
100
AcDbDictionary
280
0
281
1
  3
Standard
350
18
  0
DICTIONARY
  5
19
102
{ACAD_REACTORS
330
C
102
}
100
AcDbDictionary
281
1
  0
DICTIONARY
  5
1A
102
{ACAD_REACTORS
330
C
102
}
100
AcDbDictionary
281
1
  3
Model
350
3A7
  3
Layout1
350
3A8
  0
ACDBPLACEHOLDER
  5
F
102
{ACAD_REACTORS
330
E
102
}
  0
MLINESTYLE
  5
18
102
{ACAD_REACTORS
330
17
102
}
100
AcDbMlineStyle
  2
STANDARD
 70
0
  3

 62
256
 51
90.0
 52
90.0
 71
2
 49
0.5
 62
256
  6
BYLAYER
 49
-0.5
 62
256
  6
BYLAYER
  0
LAYOUT
  5
3A7
102
{ACAD_REACTORS
330
1A
102
}
100
AcDbPlotSettings
  1

  2
none_device
  4
ISO_A3_(420.00_x_297.00_MM)
  6

 40
0.0
 41
0.0
 42
0.0
 43
0.0
 44
420.0
 45
297.0
 46
0.0
 47
0.0
 48
0.0
 49
0.0
140
0.0
141
0.0
142
1.0
143
1.0
 70
1024
 72
1
 73
0
 74
0
  7

 75
0
147
1.0
148
0.0
149
0.0
100
AcDbLayout
  1
Model
 70
0
 71
0
 10
0.0
 20
0.0
 11
420.0
 21
297.0
 12
0.0
 22
0.0
 32
0.0
 14
0.0
 24
0.0
 34
0.0
 15
0.0
 25
0.0
 35
0.0
146
0.0
 13
0.0
 23
0.0
 33
0.0
 16
1.0
 26
0.0
 36
0.0
 17
0.0
 27
1.0
 37
0.0
 76
0
330
207
345
0
346
0
  0
LAYOUT
  5
3A8
102
{ACAD_REACTORS
330
1A
102
}
100
AcDbPlotSettings
  1

  2
none_device
  4
ISO_A3_(420.00_x_297.00_MM)
  6

 40
0.0
 41
0.0
 42
0.0
 43
0.0
 44
420.0
 45
297.0
 46
0.0
 47
0.0
 48
0.0
 49
0.0
140
0.0
141
0.0
142
1.0
143
1.0
 70
0
 72
1
 73
0
 74
0
  7

 75
0
147
1.0
148
0.0
149
0.0
100
AcDbLayout
  1
Layout1
 70
0
 71
1
 10
0.0
 20
0.0
 11
420.0
 21
297.0
 12
0.0
 22
0.0
 32
0.0
 14
0.0
 24
0.0
 34
0.0
 15
0.0
 25
0.0
 35
0.0
146
0.0
 13
0.0
 23
0.0
 33
0.0
 16
1.0
 26
0.0
 36
0.0
 17
0.0
 27
1.0
 37
0.0
 76
0
330
208
345
0
346
0
  0
ENDSEC
  0
EOF
