999
DXF file: vvs-8-dxf.dxf
999
Pro/ENGINEER 2010140 by Parametric Technology Corporation
  0
SECTION
  2
HEADER
  9
$ACADVER
  1
AC1021
  9
$DWGCODEPAGE
  3
ANSI_1252
  9
$EXTMAX
 10
420.0
 20
297.0
 30
0.0
  9
$EXTMIN
 10
0.0
 20
0.0
 30
0.0
  9
$LIMMIN
 10
0.0
 20
0.0
  9
$LIMMAX
 10
420.0
 20
297.0
  9
$VIEWCTR
 10
210.0
 20
148.5
  9
$VIEWSIZE
 40
297.0
  9
$CLAYER
  8
0
  9
$LTSCALE
 40
23.1
  9
$CELTYPE
  6
BYLAYER
  9
$DIMSCALE
 40
1.0
  9
$DIMASZ
 40
3.5
  9
$DIMEXO
 40
2.625
  9
$DIMDLI
 40
15.96
  9
$DIMEXE
 40
7.56
  9
$DIMCEN
 40
3.78
  9
$DIMLFAC
 40
1.0
  9
$DIMBLK
  1
_FILLED
  9
$DIMTXT
 40
3.5
  9
$DIMTOL
 70
1
  9
$DIMLIM
 70
0
  9
$DIMTFAC
 40
1.0
  9
$DIMTP
 40
0.005
  9
$DIMTM
 40
0.005
  9
$PDMODE
 70
3
  9
$PDSIZE
 40
0.3125
  9
$HANDSEED
  5
3AE
  9
$TILEMODE
 70
1
  9
$MEASUREMENT
 70
1
  9
$INSUNITS
 70
4
  0
ENDSEC
  0
SECTION
  2
CLASSES
  0
CLASS
  1
ACDBDICTIONARYWDFLT
  2
AcDbDictionaryWithDefault
  3
AutoCAD 2000
 90
0
 91
1
280
0
281
0
  0
CLASS
  1
ACDBPLACEHOLDER
  2
AcDbPlaceHolder
  3
AutoCAD 2000
 90
0
 91
1
280
0
281
0
  0
CLASS
  1
LAYOUT
  2
AcDbLayout
  3
AutoCAD 2000
 90
0
 91
0
280
0
281
0
  0
ENDSEC
  0
SECTION
  2
TABLES
  0
TABLE
  2
VPORT
  5
8
100
AcDbSymbolTable
 70
2
  0
VPORT
  5
1F4
100
AcDbSymbolTableRecord
100
AcDbViewportTableRecord
  2
*ACTIVE
 70
0
 10
0.0
 20
0.0
 11
1.0
 21
1.0
 12
210.0
 22
148.5
 13
0.0
 23
0.0
 14
1.0
 24
1.0
 15
0.0
 25
0.0
 16
0.0
 26
0.0
 36
1.0
 17
0.0
 27
0.0
 37
0.0
 40
297.0
 41
1.4141414141
 42
50.0
 43
0.0
 44
0.0
 50
0.0
 51
0.0
 71
0
 72
100
 73
1
 74
1
 75
0
 76
0
 77
0
 78
0
  0
ENDTAB
  0
TABLE
  2
LTYPE
  5
5
100
AcDbSymbolTable
 70
6
  0
LTYPE
  5
14
100
AcDbSymbolTableRecord
100
AcDbLinetypeTableRecord
  2
BYBLOCK
 70
0
  3

 72
65
 73
0
 40
0.0
  0
LTYPE
  5
15
100
AcDbSymbolTableRecord
100
AcDbLinetypeTableRecord
  2
BYLAYER
 70
0
  3

 72
65
 73
0
 40
0.0
  0
LTYPE
  5
16
100
AcDbSymbolTableRecord
100
AcDbLinetypeTableRecord
  2
CONTINUOUS
 70
64
  3
Solid line
 72
65
 73
0
 40
0.0
  0
LTYPE
  5
1F5
100
AcDbSymbolTableRecord
100
AcDbLinetypeTableRecord
  2
CENTER
 70
64
  3
____ _ ____ _ ____ _ ____ _ ____ _ ____ _ ____
 72
65
 73
4
 40
0.6
 49
0.375
 74
0
 49
-0.075
 74
0
 49
0.075
 74
0
 49
-0.075
 74
0
  0
LTYPE
  5
1F6
100
AcDbSymbolTableRecord
100
AcDbLinetypeTableRecord
  2
HIDDEN
 70
64
  3
- - - - - - - - - - - - - - - - - - - -
 72
65
 73
2
 40
0.2
 49
0.1
 74
0
 49
-0.1
 74
0
  0
LTYPE
  5
1F7
100
AcDbSymbolTableRecord
100
AcDbLinetypeTableRecord
  2
PHANTOM
 70
64
  3
_____ _ _ _____ _ _ _____ _ _ _____
 72
65
 73
6
 40
0.8
 49
0.45
 74
0
 49
-0.05
 74
0
 49
0.1
 74
0
 49
-0.05
 74
0
 49
0.1
 74
0
 49
-0.05
 74
0
  0
LTYPE
  5
1F8
100
AcDbSymbolTableRecord
100
AcDbLinetypeTableRecord
  2
DOT
 70
64
  3
. . . . . . . . . . . . . . . . . . . .
 72
65
 73
2
 40
0.2
 49
0.1
 74
0
 49
-0.1
 74
0
  0
LTYPE
  5
1F9
100
AcDbSymbolTableRecord
100
AcDbLinetypeTableRecord
  2
DASHED
 70
64
  3
- - - - - - - - - - - - - - - - - - - -
 72
65
 73
2
 40
0.2
 49
0.1
 74
0
 49
-0.1
 74
0
  0
ENDTAB
  0
TABLE
  2
LAYER
  5
2
100
AcDbSymbolTable
 70
36
  0
LAYER
  5
10
100
AcDbSymbolTableRecord
100
AcDbLayerTableRecord
  2
0
 70
0
 62
7
  6
CONTINUOUS
370
-3
390
F
  0
LAYER
  5
1FA
100
AcDbSymbolTableRecord
100
AcDbLayerTableRecord
  2
DEFAULT_1
 70
0
 62
7
  6
CENTER
370
-3
390
F
  0
LAYER
  5
1FB
100
AcDbSymbolTableRecord
100
AcDbLayerTableRecord
  2
DEFAULT_2
 70
0
 62
8
  6
HIDDEN
370
-3
390
F
  0
LAYER
  5
1FC
100
AcDbSymbolTableRecord
100
AcDbLayerTableRecord
  2
DEFAULT_3
 70
0
 62
7
  6
PHANTOM
370
-3
390
F
  0
LAYER
  5
1FD
100
AcDbSymbolTableRecord
100
AcDbLayerTableRecord
  2
AUSFORMSCHRAEGEN
 70
0
 62
7
  6
CONTINUOUS
370
-3
390
F
  0
LAYER
  5
1FE
100
AcDbSymbolTableRecord
100
AcDbLayerTableRecord
  2
BEZUGSACHSEN
 70
0
 62
7
  6
CONTINUOUS
370
-3
390
F
  0
LAYER
  5
1FF
100
AcDbSymbolTableRecord
100
AcDbLayerTableRecord
  2
BEZUGSEBENEN
 70
0
 62
7
  6
CONTINUOUS
370
-3
390
F
  0
LAYER
  5
200
100
AcDbSymbolTableRecord
100
AcDbLayerTableRecord
  2
HILFEN
 70
0
 62
7
  6
CONTINUOUS
370
-3
390
F
  0
LAYER
  5
201
100
AcDbSymbolTableRecord
100
AcDbLayerTableRecord
  2
PLATZIERUNG
 70
0
 62
7
  6
CONTINUOUS
370
-3
390
F
  0
LAYER
  5
202
100
AcDbSymbolTableRecord
100
AcDbLayerTableRecord
  2
RUNDUNGEN
 70
0
 62
7
  6
CONTINUOUS
370
-3
390
F
  0
LAYER
  5
203
100
AcDbSymbolTableRecord
100
AcDbLayerTableRecord
  2
T_STARTBEZUEGE
 70
0
 62
7
  6
CONTINUOUS
370
-3
390
F
  0
LAYER
  5
204
100
AcDbSymbolTableRecord
100
AcDbLayerTableRecord
  2
ZEICHNUNGSBEMASSUNGEN
 70
0
 62
7
  6
CONTINUOUS
370
-3
390
F
  0
ENDTAB
  0
TABLE
  2
STYLE
  5
3
100
AcDbSymbolTable
 70
1
  0
STYLE
  5
11
100
AcDbSymbolTableRecord
100
AcDbTextStyleTableRecord
  2
STANDARD
 70
0
 40
0.0
 41
0.7
 50
0.0
 71
0
 42
0.2
  3
txt
  4

  0
STYLE
  5
205
100
AcDbSymbolTableRecord
100
AcDbTextStyleTableRecord
  2
TEXTSTYLE_1
 70
0
 40
0.0
 41
0.8
 50
0.0
 71
0
 42
0.2
  3
gdt
  4

  0
ENDTAB
  0
TABLE
  2
VIEW
  5
6
100
AcDbSymbolTable
 70
0
  0
ENDTAB
  0
TABLE
  2
UCS
  5
7
100
AcDbSymbolTable
 70
0
  0
ENDTAB
  0
TABLE
  2
APPID
  5
9
100
AcDbSymbolTable
 70
1
  0
APPID
  5
206
100
AcDbSymbolTableRecord
100
AcDbRegAppTableRecord
  2
ACAD
 70
0
  0
ENDTAB
  0
TABLE
  2
BLOCK_RECORD
  5
1
100
AcDbSymbolTable
 70
0
  0
BLOCK_RECORD
  5
207
100
AcDbSymbolTableRecord
100
AcDbBlockTableRecord
  2
*Model_Space
  0
BLOCK_RECORD
  5
208
100
AcDbSymbolTableRecord
100
AcDbBlockTableRecord
  2
*Paper_Space
  0
ENDTAB
  0
TABLE
  2
DIMSTYLE
  5
A
100
AcDbSymbolTable
 70
1
100
AcDbDimStyleTable
 71
0
  0
DIMSTYLE
105
209
100
AcDbSymbolTableRecord
100
AcDbDimStyleTableRecord
  2
STANDARD
 70
0
  3

  4

 40
1.0
 41
3.5
 42
0.0625
 43
0.38
 44
0.18
 45
0.0
 46
0.0
 47
0.005
 48
0.005
140
3.5
141
0.09
142
0.0
143
25.4
144
1.0
145
0.0
146
1.0
147
0.09
 71
1.0
 72
0.0
 73
0
 74
0
 75
0
 76
0
 77
1
 78
8
170
0
171
2
172
0
173
0
174
0
175
0
176
0
177
0
178
5
270
2
271
3
272
3
273
2
274
2
275
0
280
0
281
0
282
0
283
1
284
8
285
0
286
0
287
3
288
0
340
11
  0
ENDTAB
  0
ENDSEC
  0
SECTION
  2
BLOCKS
  0
BLOCK
  5
20
100
AcDbEntity
  8
0
100
AcDbBlockBegin
  2
*Model_Space
 70
0
 10
0.0
 20
0.0
 30
0.0
  3
*Model_Space
  1

  0
ENDBLK
  5
21
100
AcDbEntity
  8
0
100
AcDbBlockEnd
  0
BLOCK
  5
1C
100
AcDbEntity
  8
0
100
AcDbBlockBegin
  2
*Paper_Space
 70
0
 10
0.0
 20
0.0
 30
0.0
  3
*Paper_Space
  1

  0
ENDBLK
  5
1D
100
AcDbEntity
  8
0
100
AcDbBlockEnd
  0
ENDSEC
  0
SECTION
  2
ENTITIES
  0
LINE
  5
20A
100
AcDbEntity
  8
0
100
AcDbLine
 62
7
  6
CONTINUOUS
 10
0.0
 20
0.0
 11
0.0
 21
297.0
  0
LINE
  5
20B
100
AcDbEntity
  8
0
100
AcDbLine
 62
7
  6
CONTINUOUS
 10
0.0
 20
0.0
 11
420.0
 21
0.0
  0
LINE
  5
20C
100
AcDbEntity
  8
0
100
AcDbLine
 62
7
  6
CONTINUOUS
 10
0.0
 20
297.0
 11
420.0
 21
297.0
  0
LINE
  5
20D
100
AcDbEntity
  8
0
100
AcDbLine
 62
7
  6
CONTINUOUS
 10
420.0
 20
0.0
 11
420.0
 21
297.0
  0
LINE
  5
20E
100
AcDbEntity
  8
BEZUGSACHSEN
100
AcDbLine
 62
7
  6
CONTINUOUS
 10
104.9464115772
 20
182.942393856
 11
104.3572210841
 21
182.6201781919
  0
LINE
  5
20F
100
AcDbEntity
  8
BEZUGSACHSEN
100
AcDbLine
 62
7
  6
CONTINUOUS
 10
109.2318823722
 20
184.6998959934
 11
108.591859592
 21
184.4965739401
  0
LINE
  5
210
100
AcDbEntity
  8
BEZUGSACHSEN
100
AcDbLine
 62
7
  6
CONTINUOUS
 10
105.35579022
 20
183.0685631147
 11
104.9464115772
 21
182.942393856
  0
LINE
  5
211
100
AcDbEntity
  8
0
100
AcDbLine
 62
7
  6
CONTINUOUS
 10
127.3268345967
 20
109.117882708
 11
126.9911045584
 21
109.0319902855
  0
LINE
  5
212
100
AcDbEntity
  8
0
100
AcDbLine
 62
7
  6
CONTINUOUS
 10
118.555032355
 20
105.9780383132
 11
119.2226237628
 21
106.0507768176
  0
LINE
  5
213
100
AcDbEntity
  8
0
100
AcDbLine
 62
7
  6
CONTINUOUS
 10
80.260024948
 20
138.9171721586
 11
80.260024948
 21
142.0794479052
  0
LINE
  5
214
100
AcDbEntity
  8
0
100
AcDbLine
 62
7
  6
CONTINUOUS
 10
80.260024948
 20
149.5295333838
 11
80.260024948
 21
150.360514889
  0
LINE
  5
215
100
AcDbEntity
  8
BEZUGSACHSEN
100
AcDbLine
 62
7
  6
CONTINUOUS
 10
97.651277979
 20
177.0496701881
 11
97.3319527621
 21
176.6601812941
  0
LINE
  5
216
100
AcDbEntity
  8
BEZUGSACHSEN
100
AcDbLine
 62
7
  6
CONTINUOUS
 10
104.3505626657
 20
181.9325587535
 11
104.6040248062
 21
182.1688829169
  0
LINE
  5
217
100
AcDbEntity
  8
BEZUGSACHSEN
100
AcDbLine
 62
7
  6
CONTINUOUS
 10
104.3572210841
 20
182.6201781919
 11
104.0301103463
 21
182.3435771792
  0
LINE
  5
218
100
AcDbEntity
  8
BEZUGSACHSEN
100
AcDbLine
 62
7
  6
CONTINUOUS
 10
97.9836779002
 20
177.3198905445
 11
97.651277979
 21
177.0496701881
  0
LINE
  5
219
100
AcDbEntity
  8
BEZUGSACHSEN
100
AcDbLine
 62
7
  6
CONTINUOUS
 10
97.9295366202
 20
176.7129887294
 11
98.2087164782
 21
176.9182952655
  0
LINE
  5
21A
100
AcDbEntity
  8
BEZUGSACHSEN
100
AcDbLine
 62
7
  6
CONTINUOUS
 10
98.8436856526
 20
175.5293255703
 11
98.5645057946
 21
175.3240190343
  0
LINE
  5
21B
100
AcDbEntity
  8
BEZUGSACHSEN
100
AcDbLine
 62
7
  6
CONTINUOUS
 10
99.3217522147
 20
175.5715709548
 11
99.6009320727
 21
175.7768774908
  0
LINE
  5
21C
100
AcDbEntity
  8
BEZUGSACHSEN
100
AcDbLine
 62
7
  6
CONTINUOUS
 10
104.6040248062
 20
182.1688829169
 11
105.1932152993
 21
182.4910985809
  0
LINE
  5
21D
100
AcDbEntity
  8
BEZUGSACHSEN
100
AcDbLine
 62
7
  6
CONTINUOUS
 10
106.0703443063
 20
182.2868035605
 11
106.5122375975
 21
182.528465539
  0
LINE
  5
21E
100
AcDbEntity
  8
BEZUGSACHSEN
100
AcDbLine
 62
7
  6
CONTINUOUS
 10
105.6629274172
 20
181.2823066814
 11
105.2210341259
 21
181.0406447029
  0
LINE
  5
21F
100
AcDbEntity
  8
BEZUGSACHSEN
100
AcDbLine
 62
7
  6
CONTINUOUS
 10
105.4678378193
 20
180.5893494806
 11
105.9097311105
 21
180.8310114591
  0
LINE
  5
220
100
AcDbEntity
  8
BEZUGSACHSEN
100
AcDbLine
 62
7
  6
CONTINUOUS
 10
105.3961501832
 20
179.6707444578
 11
104.954256892
 21
179.4290824793
  0
LINE
  5
221
100
AcDbEntity
  8
BEZUGSACHSEN
100
AcDbLine
 62
7
  6
CONTINUOUS
 10
106.4856065101
 20
179.7779890628
 11
106.0437132189
 21
179.5363270843
  0
LINE
  5
222
100
AcDbEntity
  8
BEZUGSACHSEN
100
AcDbLine
 62
7
  6
CONTINUOUS
 10
106.3641655131
 20
179.1253087047
 11
106.7324102034
 21
179.3266938405
  0
LINE
  5
223
100
AcDbEntity
  8
BEZUGSACHSEN
100
AcDbLine
 62
7
  6
CONTINUOUS
 10
98.2087164782
 20
176.9182952655
 11
98.5541923103
 21
177.0692485796
  0
LINE
  5
224
100
AcDbEntity
  8
BEZUGSACHSEN
100
AcDbLine
 62
7
  6
CONTINUOUS
 10
99.7876653415
 20
176.2750728287
 11
99.6149280345
 21
176.1995969145
  0
LINE
  5
225
100
AcDbEntity
  8
BEZUGSACHSEN
100
AcDbLine
 62
7
  6
CONTINUOUS
 10
98.5645057946
 20
175.3240190343
 11
98.2190299625
 21
175.1730657202
  0
LINE
  5
226
100
AcDbEntity
  8
BEZUGSACHSEN
100
AcDbLine
 62
7
  6
CONTINUOUS
 10
98.4486709993
 20
177.4814059333
 11
97.9836779002
 21
177.3198905445
  0
LINE
  5
227
100
AcDbEntity
  8
BEZUGSACHSEN
100
AcDbLine
 62
7
  6
CONTINUOUS
 10
108.5317461844
 20
180.2497920917
 11
109.011763384
 21
180.4022836681
  0
LINE
  5
228
100
AcDbEntity
  8
BEZUGSACHSEN
100
AcDbLine
 62
7
  6
CONTINUOUS
 10
111.2518438011
 20
181.1139110726
 11
111.7318610007
 21
181.266402649
  0
LINE
  5
229
100
AcDbEntity
  8
BEZUGSACHSEN
100
AcDbLine
 62
7
  6
CONTINUOUS
 10
105.05845918
 20
180.4631802152
 11
105.4678378193
 21
180.5893494806
  0
LINE
  5
22A
100
AcDbEntity
  8
BEZUGSACHSEN
100
AcDbLine
 62
7
  6
CONTINUOUS
 10
105.9547868739
 20
178.9991394394
 11
106.3641655131
 21
179.1253087047
  0
LINE
  5
22B
100
AcDbEntity
  8
0
100
AcDbLine
 62
7
  6
CONTINUOUS
 10
126.5213932834
 20
110.2407826459
 11
126.8571224789
 21
110.3266746075
  0
LINE
  5
22C
100
AcDbEntity
  8
0
100
AcDbLine
 62
7
  6
CONTINUOUS
 10
127.2990157701
 20
110.5683365861
 11
127.6347458084
 21
110.6542290086
  0
LINE
  5
22D
100
AcDbEntity
  8
0
100
AcDbLine
 62
7
  6
CONTINUOUS
 10
126.6103187855
 20
110.7779698299
 11
126.348238191
 21
110.732354711
  0
LINE
  5
22E
100
AcDbEntity
  8
0
100
AcDbLine
 62
7
  6
CONTINUOUS
 10
126.4763366772
 20
112.0726542047
 11
126.7384172717
 21
112.1182693235
  0
LINE
  5
22F
100
AcDbEntity
  8
0
100
AcDbLine
 62
7
  6
CONTINUOUS
 10
120.1213755259
 20
110.2018025116
 11
119.6206819402
 21
110.1472486301
  0
LINE
  5
230
100
AcDbEntity
  8
0
100
AcDbLine
 62
7
  6
CONTINUOUS
 10
117.2841119534
 20
109.8926638582
 11
116.7834183678
 21
109.8381099766
  0
LINE
  5
231
100
AcDbEntity
  8
0
100
AcDbLine
 62
7
  6
CONTINUOUS
 10
126.1445301391
 20
110.2301065547
 11
126.5213932834
 21
110.2407826459
  0
LINE
  5
232
100
AcDbEntity
  8
0
100
AcDbLine
 62
7
  6
CONTINUOUS
 10
127.8384538603
 20
111.156477165
 11
127.461590716
 21
111.1458010738
  0
LINE
  5
233
100
AcDbEntity
  8
0
100
AcDbLine
 62
7
  6
CONTINUOUS
 10
126.6726131283
 20
108.5646806694
 11
127.164259676
 21
108.5404181742
  0
LINE
  5
234
100
AcDbEntity
  8
0
100
AcDbLine
 62
7
  6
CONTINUOUS
 10
126.348238191
 20
110.732354711
 11
126.0450236476
 21
110.7619554626
  0
LINE
  5
235
100
AcDbEntity
  8
0
100
AcDbLine
 62
7
  6
CONTINUOUS
 10
127.6347458084
 20
110.6542290086
 11
127.9379603518
 21
110.6246282571
  0
LINE
  5
236
100
AcDbEntity
  8
BEZUGSACHSEN
100
AcDbLine
 62
7
  6
CONTINUOUS
 10
95.281248854
 20
112.9661189083
 11
81.1948088171
 21
135.6410140429
  0
LINE
  5
237
100
AcDbEntity
  8
BEZUGSACHSEN
100
AcDbLine
 62
7
  6
CENTER
 10
85.7220941064
 20
145.8044906445
 11
85.7220941064
 21
141.2518114011
  0
LINE
  5
238
100
AcDbEntity
  8
BEZUGSACHSEN
100
AcDbLine
 62
7
  6
CENTER
 10
85.7220941064
 20
145.8044906445
 11
85.7220941064
 21
150.3571698879
  0
LINE
  5
239
100
AcDbEntity
  8
BEZUGSACHSEN
100
AcDbLine
 62
7
  6
CONTINUOUS
 10
97.3319527621
 20
176.6601812941
 11
97.1321448006
 21
176.2812544843
  0
LINE
  5
23A
100
AcDbEntity
  8
BEZUGSACHSEN
100
AcDbLine
 62
7
  6
CONTINUOUS
 10
104.0301103463
 20
182.3435771792
 11
103.8177830083
 21
182.0320375866
  0
LINE
  5
23B
100
AcDbEntity
  8
RUNDUNGEN
100
AcDbLine
 62
7
  6
CONTINUOUS
 10
83.7984030621
 20
156.3872320583
 11
80.8183382393
 21
152.1312584216
  0
LINE
  5
23C
100
AcDbEntity
  8
BEZUGSACHSEN
100
AcDbLine
 62
7
  6
CONTINUOUS
 10
97.7166539543
 20
176.4533304573
 11
97.9295366202
 21
176.7129887294
  0
LINE
  5
23D
100
AcDbEntity
  8
BEZUGSACHSEN
100
AcDbLine
 62
7
  6
CONTINUOUS
 10
99.0565683185
 20
175.7889838425
 11
98.8436856526
 21
175.5293255703
  0
LINE
  5
23E
100
AcDbEntity
  8
BEZUGSACHSEN
100
AcDbLine
 62
7
  6
CONTINUOUS
 10
99.1088695488
 20
175.3119126826
 11
99.3217522147
 21
175.5715709548
  0
LINE
  5
23F
100
AcDbEntity
  8
BEZUGSACHSEN
100
AcDbLine
 62
7
  6
CONTINUOUS
 10
100.3824879853
 20
174.7019192517
 11
100.1696053195
 21
174.4422609795
  0
LINE
  5
240
100
AcDbEntity
  8
BEZUGSACHSEN
100
AcDbLine
 62
7
  6
CONTINUOUS
 10
100.5010851898
 20
174.1704948699
 11
100.7139678556
 21
174.430153142
  0
LINE
  5
241
100
AcDbEntity
  8
BEZUGSACHSEN
100
AcDbLine
 62
7
  6
CONTINUOUS
 10
106.6654192069
 20
179.9740359225
 11
106.4856065101
 21
179.7779890628
  0
LINE
  5
242
100
AcDbEntity
  8
BEZUGSACHSEN
100
AcDbLine
 62
7
  6
CONTINUOUS
 10
106.7324102034
 20
179.3266938405
 11
106.9858715011
 21
179.5630175429
  0
LINE
  5
243
100
AcDbEntity
  8
BEZUGSACHSEN
100
AcDbLine
 62
7
  6
CONTINUOUS
 10
100.1686840562
 20
173.9002730229
 11
100.5010851898
 21
174.1704948699
  0
LINE
  5
244
100
AcDbEntity
  8
BEZUGSACHSEN
100
AcDbLine
 62
7
  6
CONTINUOUS
 10
100.1696053195
 20
174.4422609795
 11
99.8904254615
 21
174.2369544435
  0
LINE
  5
245
100
AcDbEntity
  8
BEZUGSACHSEN
100
AcDbLine
 62
7
  6
CONTINUOUS
 10
98.3777725258
 20
174.8258236964
 11
98.5505098328
 21
174.9012996106
  0
LINE
  5
246
100
AcDbEntity
  8
BEZUGSACHSEN
100
AcDbLine
 62
7
  6
CONTINUOUS
 10
99.7036921927
 20
173.7387591056
 11
100.1686840562
 21
173.9002730229
  0
LINE
  5
247
100
AcDbEntity
  8
0
100
AcDbLine
 62
7
  6
CONTINUOUS
 10
132.9191178233
 20
115.8321037982
 11
132.5073460172
 21
115.735503706
  0
LINE
  5
248
100
AcDbEntity
  8
0
100
AcDbLine
 62
7
  6
CONTINUOUS
 10
134.5540491764
 20
116.8797576847
 11
134.1422773702
 21
116.7831575925
  0
LINE
  5
249
100
AcDbEntity
  8
0
100
AcDbLine
 62
7
  6
CONTINUOUS
 10
132.6296244346
 20
117.3720268455
 11
133.0413962407
 21
117.4686269376
  0
LINE
  5
24A
100
AcDbEntity
  8
0
100
AcDbLine
 62
7
  6
CONTINUOUS
 10
133.712828952
 20
114.0958913364
 11
134.0713788968
 21
114.1275753557
  0
LINE
  5
24B
100
AcDbEntity
  8
0
100
AcDbLine
 62
7
  6
CONTINUOUS
 10
132.3738340239
 20
115.3022236791
 11
132.7323845546
 21
115.3339084603
  0
LINE
  5
24C
100
AcDbEntity
  8
0
100
AcDbLine
 62
7
  6
CONTINUOUS
 10
133.9658575858
 20
114.5397327094
 11
133.5410110347
 21
114.5624011882
  0
LINE
  5
24D
100
AcDbEntity
  8
0
100
AcDbLine
 62
7
  6
CONTINUOUS
 10
126.9832601153
 20
112.5453020704
 11
126.5652630221
 21
112.6098418496
  0
LINE
  5
24E
100
AcDbEntity
  8
0
100
AcDbLine
 62
7
  6
CONTINUOUS
 10
126.9911045584
 20
109.0319902855
 11
126.6467560373
 21
109.1368069601
  0
LINE
  5
24F
100
AcDbEntity
  8
0
100
AcDbLine
 62
7
  6
CONTINUOUS
 10
125.6853982542
 20
110.3698617433
 11
126.1445301391
 21
110.2301065547
  0
LINE
  5
250
100
AcDbEntity
  8
BEZUGSACHSEN
100
AcDbLine
 62
7
  6
CONTINUOUS
 10
87.420024948
 20
161.4301630725
 11
87.420024948
 21
161.4675127725
  0
LINE
  5
251
100
AcDbEntity
  8
RUNDUNGEN
100
AcDbLine
 62
7
  6
CONTINUOUS
 10
89.538294932
 20
137.2119219016
 11
89.538294932
 21
155.6797550055
  0
LINE
  5
252
100
AcDbEntity
  8
BEZUGSACHSEN
100
AcDbLine
 62
7
  6
CONTINUOUS
 10
89.7979557896
 20
138.0671020585
 11
89.7979557896
 21
151.4471361457
  0
LINE
  5
253
100
AcDbEntity
  8
BEZUGSACHSEN
100
AcDbLine
 62
7
  6
CONTINUOUS
 10
97.5700660444
 20
176.1393174774
 11
97.7166539543
 21
176.4533304573
  0
LINE
  5
254
100
AcDbEntity
  8
BEZUGSACHSEN
100
AcDbLine
 62
7
  6
CONTINUOUS
 10
99.2031562284
 20
176.1029968224
 11
99.0565683185
 21
175.7889838425
  0
LINE
  5
255
100
AcDbEntity
  8
BEZUGSACHSEN
100
AcDbLine
 62
7
  6
CONTINUOUS
 10
98.9622816389
 20
174.9978997028
 11
99.1088695488
 21
175.3119126826
  0
LINE
  5
256
100
AcDbEntity
  8
BEZUGSACHSEN
100
AcDbLine
 62
7
  6
CONTINUOUS
 10
100.5290758952
 20
175.0159322315
 11
100.3824879853
 21
174.7019192517
  0
LINE
  5
257
100
AcDbEntity
  8
BEZUGSACHSEN
100
AcDbLine
 62
7
  6
CONTINUOUS
 10
104.2118839467
 20
181.6612959708
 11
104.3505626657
 21
181.9325587535
  0
LINE
  5
258
100
AcDbEntity
  8
BEZUGSACHSEN
100
AcDbLine
 62
7
  6
CONTINUOUS
 10
100.7139678556
 20
174.430153142
 11
100.9137770411
 21
174.8090814328
  0
LINE
  5
259
100
AcDbEntity
  8
BEZUGSACHSEN
100
AcDbLine
 62
7
  6
CONTINUOUS
 10
106.9858715011
 20
179.5630175429
 11
107.1981988499
 21
179.8745571157
  0
LINE
  5
25A
100
AcDbEntity
  8
0
100
AcDbLine
 62
7
  6
CONTINUOUS
 10
133.174908234
 20
117.9019069646
 11
132.8163577034
 21
117.8702221833
  0
LINE
  5
25B
100
AcDbEntity
  8
0
100
AcDbLine
 62
7
  6
CONTINUOUS
 10
134.3010199335
 20
116.4359155688
 11
134.7258665311
 21
116.4132470519
  0
LINE
  5
25C
100
AcDbEntity
  8
0
100
AcDbLine
 62
7
  6
CONTINUOUS
 10
132.5073460172
 20
115.735503706
 11
132.2020167621
 21
115.7687342357
  0
LINE
  5
25D
100
AcDbEntity
  8
0
100
AcDbLine
 62
7
  6
CONTINUOUS
 10
133.0413962407
 20
117.4686269376
 11
133.3467256815
 21
117.4353962557
  0
LINE
  5
25E
100
AcDbEntity
  8
0
100
AcDbLine
 62
7
  6
CONTINUOUS
 10
128.2975857453
 20
111.0167219764
 11
127.8384538603
 21
111.156477165
  0
LINE
  5
25F
100
AcDbEntity
  8
0
100
AcDbLine
 62
7
  6
CONTINUOUS
 10
126.7384172717
 20
112.1182693235
 11
126.9679832141
 21
112.0483917292
  0
LINE
  5
260
100
AcDbEntity
  8
0
100
AcDbLine
 62
7
  6
CONTINUOUS
 10
126.245996695
 20
108.8199291112
 11
126.6726131283
 21
108.5646806694
  0
LINE
  5
261
100
AcDbEntity
  8
BEZUGSACHSEN
100
AcDbLine
 62
7
  6
CONTINUOUS
 10
97.1321448006
 20
176.2812544843
 11
97.0649275807
 21
175.7936197354
  0
LINE
  5
262
100
AcDbEntity
  8
BEZUGSACHSEN
100
AcDbLine
 62
7
  6
CONTINUOUS
 10
97.4897741086
 20
175.7709512756
 11
97.5700660444
 21
176.1393174774
  0
LINE
  5
263
100
AcDbEntity
  8
BEZUGSACHSEN
100
AcDbLine
 62
7
  6
CONTINUOUS
 10
98.5505098328
 20
174.9012996106
 11
98.5103644739
 21
174.7171172526
  0
LINE
  5
264
100
AcDbEntity
  8
BEZUGSACHSEN
100
AcDbLine
 62
7
  6
CONTINUOUS
 10
99.2834481642
 20
176.4713630242
 11
99.2031562284
 21
176.1029968224
  0
LINE
  5
265
100
AcDbEntity
  8
BEZUGSACHSEN
100
AcDbLine
 62
7
  6
CONTINUOUS
 10
99.6149280345
 20
176.1995969145
 11
99.6550733934
 21
176.3837792725
  0
LINE
  5
266
100
AcDbEntity
  8
BEZUGSACHSEN
100
AcDbLine
 62
7
  6
CONTINUOUS
 10
106.8040979547
 20
180.2452986525
 11
106.6654192069
 21
179.9740359225
  0
LINE
  5
267
100
AcDbEntity
  8
0
100
AcDbLine
 62
7
  6
CONTINUOUS
 10
132.0022081857
 20
115.3898066878
 11
132.3738340239
 21
115.3022236791
  0
LINE
  5
268
100
AcDbEntity
  8
0
100
AcDbLine
 62
7
  6
CONTINUOUS
 10
133.2749070933
 20
114.2378276051
 11
133.712828952
 21
114.0958913364
  0
LINE
  5
269
100
AcDbEntity
  8
0
100
AcDbLine
 62
7
  6
CONTINUOUS
 10
127.3687425565
 20
112.3652695781
 11
126.9832601153
 21
112.5453020704
  0
LINE
  5
26A
100
AcDbEntity
  8
0
100
AcDbLine
 62
7
  6
CONTINUOUS
 10
127.9379603518
 20
110.6246282571
 11
128.2086594579
 21
110.4795342261
  0
LINE
  5
26B
100
AcDbEntity
  8
BEZUGSACHSEN
100
AcDbLine
 62
7
  6
CONTINUOUS
 10
100.9137770411
 20
174.8090814328
 11
100.9809930602
 21
175.2967146817
  0
LINE
  5
26C
100
AcDbEntity
  8
BEZUGSACHSEN
100
AcDbLine
 62
7
  6
CONTINUOUS
 10
103.8177830083
 20
182.0320375866
 11
103.6877227289
 21
181.5700657858
  0
LINE
  5
26D
100
AcDbEntity
  8
0
100
AcDbLine
 62
7
  6
CONTINUOUS
 10
134.9919704724
 20
116.737820635
 11
134.5540491764
 21
116.8797576847
  0
LINE
  5
26E
100
AcDbEntity
  8
0
100
AcDbLine
 62
7
  6
CONTINUOUS
 10
133.6128296229
 20
117.7599698388
 11
133.174908234
 21
117.9019069646
  0
LINE
  5
26F
100
AcDbEntity
  8
0
100
AcDbLine
 62
7
  6
CONTINUOUS
 10
128.6094188003
 20
110.796412075
 11
128.2975857453
 21
111.0167219764
  0
LINE
  5
270
100
AcDbEntity
  8
0
100
AcDbLine
 62
7
  6
CONTINUOUS
 10
126.9679832141
 20
112.0483917292
 11
127.1238997128
 21
111.9382368312
  0
LINE
  5
271
100
AcDbEntity
  8
0
100
AcDbLine
 62
7
  6
CONTINUOUS
 10
126.6467560373
 20
109.1368069601
 11
126.4497055898
 21
109.3221777285
  0
LINE
  5
272
100
AcDbEntity
  8
0
100
AcDbLine
 62
7
  6
CONTINUOUS
 10
126.0450236476
 20
110.7619554626
 11
125.8479732001
 21
110.947326231
  0
LINE
  5
273
100
AcDbEntity
  8
BEZUGSACHSEN
100
AcDbLine
 62
7
  6
CONTINUOUS
 10
97.0649275807
 20
175.7936197354
 11
97.1041529176
 21
175.4358156035
  0
LINE
  5
274
100
AcDbEntity
  8
BEZUGSACHSEN
100
AcDbLine
 62
7
  6
CONTINUOUS
 10
101.428024948
 20
138.0671020476
 11
101.428024948
 21
161.4675127725
  0
LINE
  5
275
100
AcDbEntity
  8
RUNDUNGEN
100
AcDbLine
 62
7
  6
CONTINUOUS
 10
101.510424948
 20
137.2119219016
 11
101.510424948
 21
155.6797550055
  0
LINE
  5
276
100
AcDbEntity
  8
BEZUGSACHSEN
100
AcDbLine
 62
7
  6
CONTINUOUS
 10
98.9482856771
 20
174.575180279
 11
98.9622816389
 21
174.9978997028
  0
LINE
  5
277
100
AcDbEntity
  8
BEZUGSACHSEN
100
AcDbLine
 62
7
  6
CONTINUOUS
 10
99.6550733934
 20
176.3837792725
 11
99.6690687461
 21
176.8064979534
  0
LINE
  5
278
100
AcDbEntity
  8
BEZUGSACHSEN
100
AcDbLine
 62
7
  6
CONTINUOUS
 10
100.543071857
 20
175.4386516553
 11
100.5290758952
 21
175.0159322315
  0
LINE
  5
279
100
AcDbEntity
  8
BEZUGSACHSEN
100
AcDbLine
 62
7
  6
CONTINUOUS
 10
104.1879885915
 20
181.3550946741
 11
104.2118839467
 21
181.6612959708
  0
LINE
  5
27A
100
AcDbEntity
  8
BEZUGSACHSEN
100
AcDbLine
 62
7
  6
CONTINUOUS
 10
107.1981988499
 20
179.8745571157
 11
107.3282591437
 21
180.3365288903
  0
LINE
  5
27B
100
AcDbEntity
  8
0
100
AcDbLine
 62
7
  6
CONTINUOUS
 10
127.5657930041
 20
112.1798988097
 11
127.3687425565
 21
112.3652695781
  0
LINE
  5
27C
100
AcDbEntity
  8
0
100
AcDbLine
 62
7
  6
CONTINUOUS
 10
126.0078122985
 20
109.08051575
 11
126.245996695
 21
108.8199291112
  0
LINE
  5
27D
100
AcDbEntity
  8
0
100
AcDbLine
 62
7
  6
CONTINUOUS
 10
125.4472138577
 20
110.6304483821
 11
125.6853982542
 21
110.3698617433
  0
LINE
  5
27E
100
AcDbEntity
  8
0
100
AcDbLine
 62
7
  6
CONTINUOUS
 10
123.4524426075
 20
107.5009765798
 11
121.2682060949
 21
110.4950702163
  0
LINE
  5
27F
100
AcDbEntity
  8
0
100
AcDbLine
 62
7
  6
CONTINUOUS
 10
120.7881888954
 20
110.34257864
 11
123.2881675239
 21
106.9090852956
  0
LINE
  5
280
100
AcDbEntity
  8
BEZUGSACHSEN
100
AcDbLine
 62
7
  6
CONTINUOUS
 10
98.5103644739
 20
174.7171172526
 11
98.5495897877
 21
174.3593131398
  0
LINE
  5
281
100
AcDbEntity
  8
BEZUGSACHSEN
100
AcDbLine
 62
7
  6
CONTINUOUS
 10
100.9809930602
 20
175.2967146817
 11
100.9417677465
 21
175.6545187945
  0
LINE
  5
282
100
AcDbEntity
  8
BEZUGSACHSEN
100
AcDbLine
 62
7
  6
CONTINUOUS
 10
103.6877227289
 20
181.5700657858
 11
103.7049613514
 21
181.188648566
  0
LINE
  5
283
100
AcDbEntity
  8
BEZUGSACHSEN
100
AcDbLine
 62
7
  6
CONTINUOUS
 10
113.2974261333
 20
185.5582044714
 11
112.3986743702
 21
181.4071787774
  0
LINE
  5
284
100
AcDbEntity
  8
BEZUGSACHSEN
100
AcDbLine
 62
7
  6
CONTINUOUS
 10
112.8993679558
 20
181.4617326589
 11
113.6869364991
 21
185.0832270907
  0
LINE
  5
285
100
AcDbEntity
  8
BEZUGSACHSEN
100
AcDbLine
 62
7
  6
CONTINUOUS
 10
125.7571835699
 20
134.6875127725
 11
129.7679440349
 21
134.6875127725
  0
LINE
  5
286
100
AcDbEntity
  8
BEZUGSACHSEN
100
AcDbLine
 62
7
  6
CONTINUOUS
 10
144.2234358771
 20
134.6875127725
 11
147.948842749
 21
134.6875127725
  0
LINE
  5
287
100
AcDbEntity
  8
0
100
AcDbLine
 62
7
  6
CONTINUOUS
 10
133.0760191711
 20
114.4008872709
 11
133.2749070933
 21
114.2378276051
  0
LINE
  5
288
100
AcDbEntity
  8
0
100
AcDbLine
 62
7
  6
CONTINUOUS
 10
131.8033202636
 20
115.5528663536
 11
132.0022081857
 21
115.3898066878
  0
LINE
  5
289
100
AcDbEntity
  8
0
100
AcDbLine
 62
7
  6
CONTINUOUS
 10
133.5410110347
 20
114.5624011882
 11
133.3421231125
 21
114.725460854
  0
LINE
  5
28A
100
AcDbEntity
  8
0
100
AcDbLine
 62
7
  6
CONTINUOUS
 10
132.2020167621
 20
115.7687342357
 11
132.069424814
 21
115.8774406796
  0
LINE
  5
28B
100
AcDbEntity
  8
0
100
AcDbLine
 62
7
  6
CONTINUOUS
 10
133.3467256815
 20
117.4353962557
 11
133.4793176297
 21
117.3266898118
  0
LINE
  5
28C
100
AcDbEntity
  8
0
100
AcDbLine
 62
7
  6
CONTINUOUS
 10
134.7258665311
 20
116.4132470519
 11
134.9247544533
 21
116.2501873861
  0
LINE
  5
28D
100
AcDbEntity
  8
0
100
AcDbLine
 62
7
  6
CONTINUOUS
 10
118.8331133969
 20
106.5257541983
 11
117.2841119534
 21
109.8926638582
  0
LINE
  5
28E
100
AcDbEntity
  8
0
100
AcDbLine
 62
7
  6
CONTINUOUS
 10
116.7834183678
 20
109.8381099766
 11
118.555032355
 21
105.9780383132
  0
LINE
  5
28F
100
AcDbEntity
  8
0
100
AcDbLine
 62
7
  6
CONTINUOUS
 10
107.260024948
 20
155.6778771047
 11
107.260024948
 21
149.0544906445
  0
LINE
  5
290
100
AcDbEntity
  8
0
100
AcDbLine
 62
7
  6
CONTINUOUS
 10
107.260024948
 20
142.5544906445
 11
107.260024948
 21
133.3636710971
  0
LINE
  5
291
100
AcDbEntity
  8
BEZUGSACHSEN
100
AcDbLine
 62
7
  6
CONTINUOUS
 10
108.591859592
 20
184.4965739401
 11
108.5317461844
 21
180.2497920917
  0
LINE
  5
292
100
AcDbEntity
  8
BEZUGSACHSEN
100
AcDbLine
 62
7
  6
CONTINUOUS
 10
109.011763384
 20
180.4022836681
 11
109.0676072885
 21
184.1080047092
  0
LINE
  5
293
100
AcDbEntity
  8
RUNDUNGEN
100
AcDbLine
 62
7
  6
CONTINUOUS
 10
100.2687401967
 20
135.9702409885
 11
90.7799579212
 21
135.9702409885
  0
LINE
  5
294
100
AcDbEntity
  8
BEZUGSACHSEN
100
AcDbLine
 62
7
  6
CONTINUOUS
 10
91.0396367027
 20
136.8253931325
 11
100.1863440349
 21
136.8253931325
  0
LINE
  5
295
100
AcDbEntity
  8
0
100
AcDbLine
 62
7
  6
CONTINUOUS
 10
133.8117175451
 20
117.596910173
 11
133.6128296229
 21
117.7599698388
  0
LINE
  5
296
100
AcDbEntity
  8
0
100
AcDbLine
 62
7
  6
CONTINUOUS
 10
135.1908583946
 20
116.5747609692
 11
134.9919704724
 21
116.737820635
  0
LINE
  5
297
100
AcDbEntity
  8
0
100
AcDbLine
 62
7
  6
CONTINUOUS
 10
125.2826779469
 20
110.9313120744
 11
125.4472138577
 21
110.6304483821
  0
LINE
  5
298
100
AcDbEntity
  8
0
100
AcDbLine
 62
7
  6
CONTINUOUS
 10
125.8479732001
 20
110.947326231
 11
125.7657053023
 21
111.0977579718
  0
LINE
  5
299
100
AcDbEntity
  8
BEZUGSACHSEN
100
AcDbLine
 62
7
  6
CONTINUOUS
 10
99.0407322664
 20
174.2822914772
 11
98.9482856771
 21
174.575180279
  0
LINE
  5
29A
100
AcDbEntity
  8
BEZUGSACHSEN
100
AcDbLine
 62
7
  6
CONTINUOUS
 10
97.5952954428
 20
175.3587939028
 11
97.4897741086
 21
175.7709512756
  0
LINE
  5
29B
100
AcDbEntity
  8
BEZUGSACHSEN
100
AcDbLine
 62
7
  6
CONTINUOUS
 10
99.1779267836
 20
176.883520435
 11
99.2834481642
 21
176.4713630242
  0
LINE
  5
29C
100
AcDbEntity
  8
0
100
AcDbLine
 62
7
  6
CONTINUOUS
 10
128.2086594579
 20
110.4795342261
 11
128.3320613046
 21
110.2538866149
  0
LINE
  5
29D
100
AcDbEntity
  8
0
100
AcDbLine
 62
7
  6
CONTINUOUS
 10
128.8150885447
 20
110.420332723
 11
128.6094188003
 21
110.796412075
  0
LINE
  5
29E
100
AcDbEntity
  8
BEZUGSACHSEN
100
AcDbLine
 62
7
  6
CONTINUOUS
 10
98.5495897877
 20
174.3593131398
 11
98.708332351
 21
174.012071116
  0
LINE
  5
29F
100
AcDbEntity
  8
BEZUGSACHSEN
100
AcDbLine
 62
7
  6
CONTINUOUS
 10
100.4506250821
 20
175.7315406094
 11
100.543071857
 21
175.4386516553
  0
LINE
  5
2A0
100
AcDbEntity
  8
T_STARTBEZUEGE
100
AcDbLine
 62
7
  6
CENTER
 10
116.260024948
 20
98.3014685165
 11
116.260024948
 21
193.3075127725
  0
LINE
  5
2A1
100
AcDbEntity
  8
0
100
AcDbLine
 62
7
  6
CONTINUOUS
 10
89.538294932
 20
142.5544906445
 11
89.7979557896
 21
142.5544906445
  0
LINE
  5
2A2
100
AcDbEntity
  8
0
100
AcDbLine
 62
7
  6
CONTINUOUS
 10
101.428024948
 20
142.5544906445
 11
101.510424948
 21
142.5544906445
  0
LINE
  5
2A3
100
AcDbEntity
  8
0
100
AcDbLine
 62
7
  6
CONTINUOUS
 10
107.260024948
 20
142.5544906445
 11
124.500024948
 21
142.5544906445
  0
LINE
  5
2A4
100
AcDbEntity
  8
0
100
AcDbLine
 62
7
  6
CONTINUOUS
 10
131.009624948
 20
142.5544906445
 11
131.092024948
 21
142.5544906445
  0
LINE
  5
2A5
100
AcDbEntity
  8
0
100
AcDbLine
 62
7
  6
CONTINUOUS
 10
142.7220941064
 20
142.5544906445
 11
142.981754964
 21
142.5544906445
  0
LINE
  5
2A6
100
AcDbEntity
  8
BEZUGSACHSEN
100
AcDbLine
 62
7
  6
CENTER
 10
146.7979557896
 20
145.8044906445
 11
142.2452765463
 21
145.8044906445
  0
LINE
  5
2A7
100
AcDbEntity
  8
BEZUGSACHSEN
100
AcDbLine
 62
7
  6
CENTER
 10
85.7220941064
 20
145.8044906445
 11
81.1694148631
 21
145.8044906445
  0
LINE
  5
2A8
100
AcDbEntity
  8
T_STARTBEZUEGE
100
AcDbLine
 62
7
  6
CENTER
 10
77.2583696287
 20
145.8044906445
 11
155.5176802673
 21
145.8044906445
  0
LINE
  5
2A9
100
AcDbEntity
  8
BEZUGSACHSEN
100
AcDbLine
 62
7
  6
CENTER
 10
85.7220941064
 20
145.8044906445
 11
90.2747733498
 21
145.8044906445
  0
LINE
  5
2AA
100
AcDbEntity
  8
BEZUGSACHSEN
100
AcDbLine
 62
7
  6
CENTER
 10
146.7979557896
 20
145.8044906445
 11
151.350635033
 21
145.8044906445
  0
LINE
  5
2AB
100
AcDbEntity
  8
BEZUGSACHSEN
100
AcDbLine
 62
7
  6
CONTINUOUS
 10
97.1041529176
 20
175.4358156035
 11
97.3291915014
 21
175.0342203197
  0
LINE
  5
2AC
100
AcDbEntity
  8
0
100
AcDbLine
 62
7
  6
CONTINUOUS
 10
131.5782821495
 20
115.9544624945
 11
131.8033202636
 21
115.5528663536
  0
LINE
  5
2AD
100
AcDbEntity
  8
0
100
AcDbLine
 62
7
  6
CONTINUOUS
 10
132.85098115
 20
114.8024833356
 11
133.0760191711
 21
114.4008872709
  0
LINE
  5
2AE
100
AcDbEntity
  8
0
100
AcDbLine
 62
7
  6
CONTINUOUS
 10
125.1917907523
 20
111.2724523987
 11
125.2826779469
 21
110.9313120744
  0
LINE
  5
2AF
100
AcDbEntity
  8
BEZUGSACHSEN
100
AcDbLine
 62
7
  6
CONTINUOUS
 10
107.3282591437
 20
180.3365288903
 11
107.2373719491
 21
180.6776692146
  0
LINE
  5
2B0
100
AcDbEntity
  8
BEZUGSACHSEN
100
AcDbLine
 62
7
  6
CONTINUOUS
 10
106.7543445938
 20
180.5112233172
 11
106.8040979547
 21
180.2452986525
  0
LINE
  5
2B1
100
AcDbEntity
  8
0
100
AcDbLine
 62
7
  6
CONTINUOUS
 10
89.538294932
 20
149.0544906445
 11
89.7979557896
 21
149.0544906445
  0
LINE
  5
2B2
100
AcDbEntity
  8
0
100
AcDbLine
 62
7
  6
CONTINUOUS
 10
101.428024948
 20
149.0544906445
 11
101.510424948
 21
149.0544906445
  0
LINE
  5
2B3
100
AcDbEntity
  8
0
100
AcDbLine
 62
7
  6
CONTINUOUS
 10
107.260024948
 20
149.0544906445
 11
124.500024948
 21
149.0544906445
  0
LINE
  5
2B4
100
AcDbEntity
  8
0
100
AcDbLine
 62
7
  6
CONTINUOUS
 10
131.009624948
 20
149.0544906445
 11
131.092024948
 21
149.0544906445
  0
LINE
  5
2B5
100
AcDbEntity
  8
0
100
AcDbLine
 62
7
  6
CONTINUOUS
 10
142.7220941064
 20
149.0544906445
 11
142.981754964
 21
149.0544906445
  0
LINE
  5
2B6
100
AcDbEntity
  8
BEZUGSACHSEN
100
AcDbLine
 62
7
  6
CONTINUOUS
 10
99.6690687461
 20
176.8064979534
 11
99.4440307249
 21
177.2080940181
  0
LINE
  5
2B7
100
AcDbEntity
  8
BEZUGSACHSEN
100
AcDbLine
 62
7
  6
CONTINUOUS
 10
100.9417677465
 20
175.6545187945
 11
100.7167296325
 21
176.0561149354
  0
LINE
  5
2B8
100
AcDbEntity
  8
0
100
AcDbLine
 62
7
  6
CONTINUOUS
 10
135.4158969784
 20
116.1731656855
 11
135.1908583946
 21
116.5747609692
  0
LINE
  5
2B9
100
AcDbEntity
  8
0
100
AcDbLine
 62
7
  6
CONTINUOUS
 10
133.9704601084
 20
117.2496681492
 11
133.8117175451
 21
117.596910173
  0
LINE
  5
2BA
100
AcDbEntity
  8
0
100
AcDbLine
 62
7
  6
CONTINUOUS
 10
125.7657053023
 20
111.0977579718
 11
125.7159519413
 21
111.3636826364
  0
LINE
  5
2BB
100
AcDbEntity
  8
BEZUGSACHSEN
100
AcDbLine
 62
7
  6
CONTINUOUS
 10
124.500024948
 20
135.9311041843
 11
124.500024948
 21
142.5544906445
  0
LINE
  5
2BC
100
AcDbEntity
  8
BEZUGSACHSEN
100
AcDbLine
 62
7
  6
CONTINUOUS
 10
124.500024948
 20
149.0544906445
 11
124.500024948
 21
156.8477217163
  0
LINE
  5
2BD
100
AcDbEntity
  8
0
100
AcDbLine
 62
7
  6
CONTINUOUS
 10
123.928190304
 20
107.1124073489
 11
123.9883037116
 21
111.3591891972
  0
LINE
  5
2BE
100
AcDbEntity
  8
0
100
AcDbLine
 62
7
  6
CONTINUOUS
 10
123.5082865121
 20
111.2066976209
 11
123.4524426075
 21
107.5009765798
  0
LINE
  5
2BF
100
AcDbEntity
  8
BEZUGSACHSEN
100
AcDbLine
 62
7
  6
CONTINUOUS
 10
103.7049613514
 20
181.188648566
 11
103.9106310958
 21
180.812569214
  0
LINE
  5
2C0
100
AcDbEntity
  8
BEZUGSACHSEN
100
AcDbLine
 62
7
  6
CONTINUOUS
 10
104.3113904381
 20
181.1294470629
 11
104.1879885915
 21
181.3550946741
  0
LINE
  5
2C1
100
AcDbEntity
  8
0
100
AcDbLine
 62
7
  6
CONTINUOUS
 10
132.069424814
 20
115.8774406796
 11
131.976978039
 21
116.1703296337
  0
LINE
  5
2C2
100
AcDbEntity
  8
0
100
AcDbLine
 62
7
  6
CONTINUOUS
 10
133.4793176297
 20
117.3266898118
 11
133.5717642189
 21
117.03380101
  0
LINE
  5
2C3
100
AcDbEntity
  8
0
100
AcDbLine
 62
7
  6
CONTINUOUS
 10
131.5390568358
 20
116.3122666073
 11
131.5782821495
 21
115.9544624945
  0
LINE
  5
2C4
100
AcDbEntity
  8
0
100
AcDbLine
 62
7
  6
CONTINUOUS
 10
128.8323271672
 20
110.0389155032
 11
128.8150885447
 21
110.420332723
  0
LINE
  5
2C5
100
AcDbEntity
  8
0
100
AcDbLine
 62
7
  6
CONTINUOUS
 10
119.2226237628
 20
106.0507768176
 11
120.1213755259
 21
110.2018025116
  0
LINE
  5
2C6
100
AcDbEntity
  8
0
100
AcDbLine
 62
7
  6
CONTINUOUS
 10
119.6206819402
 20
110.1472486301
 11
118.8331133969
 21
106.5257541983
  0
LINE
  5
2C7
100
AcDbEntity
  8
0
100
AcDbLine
 62
7
  6
CONTINUOUS
 10
141.4804131933
 20
154.7835881565
 11
132.3337058611
 21
154.7835881565
  0
LINE
  5
2C8
100
AcDbEntity
  8
BEZUGSACHSEN
100
AcDbLine
 62
7
  6
CONTINUOUS
 10
132.2513058611
 20
155.6387403005
 11
141.740074051
 21
155.6387403005
  0
LINE
  5
2C9
100
AcDbEntity
  8
BEZUGSACHSEN
100
AcDbLine
 62
7
  6
CONTINUOUS
 10
106.0028663262
 20
156.9214685165
 11
102.7521058611
 21
156.9214685165
  0
LINE
  5
2CA
100
AcDbEntity
  8
BEZUGSACHSEN
100
AcDbLine
 62
7
  6
CONTINUOUS
 10
88.2966140189
 20
156.9214685165
 11
84.827207147
 21
156.9214685165
  0
LINE
  5
2CB
100
AcDbEntity
  8
BEZUGSACHSEN
100
AcDbLine
 62
7
  6
CONTINUOUS
 10
97.3291915014
 20
175.0342203197
 11
97.5280794236
 21
174.871160654
  0
LINE
  5
2CC
100
AcDbEntity
  8
BEZUGSACHSEN
100
AcDbLine
 62
7
  6
CONTINUOUS
 10
98.708332351
 20
174.012071116
 11
98.9072202731
 21
173.8490114502
  0
LINE
  5
2CD
100
AcDbEntity
  8
BEZUGSACHSEN
100
AcDbLine
 62
7
  6
CONTINUOUS
 10
97.794183365
 20
175.1957342371
 11
97.5952954428
 21
175.3587939028
  0
LINE
  5
2CE
100
AcDbEntity
  8
BEZUGSACHSEN
100
AcDbLine
 62
7
  6
CONTINUOUS
 10
99.1733242145
 20
174.1735850333
 11
99.0407322664
 21
174.2822914772
  0
LINE
  5
2CF
100
AcDbEntity
  8
BEZUGSACHSEN
100
AcDbLine
 62
7
  6
CONTINUOUS
 10
106.672076696
 20
180.661655058
 11
106.7543445938
 21
180.5112233172
  0
LINE
  5
2D0
100
AcDbEntity
  8
BEZUGSACHSEN
100
AcDbLine
 62
7
  6
CONTINUOUS
 10
107.2373719491
 20
180.6776692146
 11
107.0728360383
 21
180.9785329069
  0
LINE
  5
2D1
100
AcDbEntity
  8
0
100
AcDbLine
 62
7
  6
CONTINUOUS
 10
133.3421231125
 20
114.725460854
 11
133.2366017318
 21
115.1376182648
  0
LINE
  5
2D2
100
AcDbEntity
  8
0
100
AcDbLine
 62
7
  6
CONTINUOUS
 10
134.9247544533
 20
116.2501873861
 11
135.0302757875
 21
115.8380300134
  0
LINE
  5
2D3
100
AcDbEntity
  8
0
100
AcDbLine
 62
7
  6
CONTINUOUS
 10
134.0096854221
 20
116.8918640364
 11
133.9704601084
 21
117.2496681492
  0
LINE
  5
2D4
100
AcDbEntity
  8
0
100
AcDbLine
 62
7
  6
CONTINUOUS
 10
135.4551223154
 20
115.8153615536
 11
135.4158969784
 21
116.1731656855
  0
LINE
  5
2D5
100
AcDbEntity
  8
BEZUGSACHSEN
100
AcDbLine
 62
7
  6
CONTINUOUS
 10
131.009624948
 20
135.9292262834
 11
131.009624948
 21
154.3970593874
  0
LINE
  5
2D6
100
AcDbEntity
  8
0
100
AcDbLine
 62
7
  6
CONTINUOUS
 10
131.092024948
 20
136.3978170605
 11
131.092024948
 21
130.1414685165
  0
LINE
  5
2D7
100
AcDbEntity
  8
BEZUGSACHSEN
100
AcDbLine
 62
7
  6
CONTINUOUS
 10
131.092024948
 20
136.3978170605
 11
131.092024948
 21
141.0046040207
  0
LINE
  5
2D8
100
AcDbEntity
  8
0
100
AcDbLine
 62
7
  6
CONTINUOUS
 10
131.092024948
 20
141.0046040207
 11
131.092024948
 21
150.4083807323
  0
LINE
  5
2D9
100
AcDbEntity
  8
RUNDUNGEN
100
AcDbLine
 62
7
  6
CONTINUOUS
 10
131.092024948
 20
141.0046040207
 11
131.092024948
 21
153.5418792414
  0
LINE
  5
2DA
100
AcDbEntity
  8
0
100
AcDbLine
 62
7
  6
CONTINUOUS
 10
128.3320613046
 20
110.2538866149
 11
128.3081659494
 21
109.9476853182
  0
LINE
  5
2DB
100
AcDbEntity
  8
BEZUGSACHSEN
100
AcDbLine
 62
7
  6
CONTINUOUS
 10
100.3180331339
 20
175.8402470533
 11
100.4506250821
 21
175.7315406094
  0
LINE
  5
2DC
100
AcDbEntity
  8
BEZUGSACHSEN
100
AcDbLine
 62
7
  6
CONTINUOUS
 10
98.9790388614
 20
177.0465801008
 11
99.1779267836
 21
176.883520435
  0
LINE
  5
2DD
100
AcDbEntity
  8
BEZUGSACHSEN
100
AcDbLine
 62
7
  6
CONTINUOUS
 10
100.7167296325
 20
176.0561149354
 11
100.5178417103
 21
176.2191746012
  0
LINE
  5
2DE
100
AcDbEntity
  8
BEZUGSACHSEN
100
AcDbLine
 62
7
  6
CONTINUOUS
 10
99.4440307249
 20
177.2080940181
 11
99.2451428028
 21
177.3711536839
  0
LINE
  5
2DF
100
AcDbEntity
  8
BEZUGSACHSEN
100
AcDbLine
 62
7
  6
CONTINUOUS
 10
113.6869364991
 20
185.0832270907
 11
115.2359379426
 21
181.7163174308
  0
LINE
  5
2E0
100
AcDbEntity
  8
BEZUGSACHSEN
100
AcDbLine
 62
7
  6
CONTINUOUS
 10
115.7366315283
 20
181.7708713124
 11
113.965017541
 21
185.6309429758
  0
LINE
  5
2E1
100
AcDbEntity
  8
0
100
AcDbLine
 62
7
  6
CONTINUOUS
 10
131.976978039
 20
116.1703296337
 11
131.9909740008
 21
116.5930490574
  0
LINE
  5
2E2
100
AcDbEntity
  8
0
100
AcDbLine
 62
7
  6
CONTINUOUS
 10
132.8649765027
 20
115.2252020165
 11
132.85098115
 21
114.8024833356
  0
LINE
  5
2E3
100
AcDbEntity
  8
0
100
AcDbLine
 62
7
  6
CONTINUOUS
 10
133.5717642189
 20
117.03380101
 11
133.5577682571
 21
116.6110815862
  0
LINE
  5
2E4
100
AcDbEntity
  8
0
100
AcDbLine
 62
7
  6
CONTINUOUS
 10
131.606272855
 20
116.7998998561
 11
131.5390568358
 21
116.3122666073
  0
LINE
  5
2E5
100
AcDbEntity
  8
0
100
AcDbLine
 62
7
  6
CONTINUOUS
 10
125.3218510462
 20
111.7344241733
 11
125.1917907523
 21
111.2724523987
  0
LINE
  5
2E6
100
AcDbEntity
  8
BEZUGSACHSEN
100
AcDbLine
 62
7
  6
CONTINUOUS
 10
104.954256892
 20
179.4290824793
 11
105.1513073395
 21
179.2437117109
  0
LINE
  5
2E7
100
AcDbEntity
  8
BEZUGSACHSEN
100
AcDbLine
 62
7
  6
CONTINUOUS
 10
106.4750262484
 20
180.8470258264
 11
106.672076696
 21
180.661655058
  0
LINE
  5
2E8
100
AcDbEntity
  8
BEZUGSACHSEN
100
AcDbLine
 62
7
  6
CONTINUOUS
 10
105.8732938587
 20
182.4721743289
 11
106.0703443063
 21
182.2868035605
  0
LINE
  5
2E9
100
AcDbEntity
  8
BEZUGSACHSEN
100
AcDbLine
 62
7
  6
CONTINUOUS
 10
107.0728360383
 20
180.9785329069
 11
106.8346516419
 21
181.2391195457
  0
LINE
  5
2EA
100
AcDbEntity
  8
BEZUGSACHSEN
100
AcDbLine
 62
7
  6
CONTINUOUS
 10
106.5122375975
 20
182.528465539
 11
106.2740532011
 21
182.7890521778
  0
LINE
  5
2EB
100
AcDbEntity
  8
BEZUGSACHSEN
100
AcDbLine
 62
7
  6
CONTINUOUS
 10
109.0676072885
 20
184.1080047092
 11
111.2518438011
 21
181.1139110726
  0
LINE
  5
2EC
100
AcDbEntity
  8
BEZUGSACHSEN
100
AcDbLine
 62
7
  6
CONTINUOUS
 10
111.7318610007
 20
181.266402649
 11
109.2318823722
 21
184.6998959934
  0
LINE
  5
2ED
100
AcDbEntity
  8
0
100
AcDbLine
 62
7
  6
CONTINUOUS
 10
135.3879050955
 20
115.3277268047
 11
135.4551223154
 21
115.8153615536
  0
LINE
  5
2EE
100
AcDbEntity
  8
0
100
AcDbLine
 62
7
  6
CONTINUOUS
 10
132.9051218615
 20
115.4093843745
 11
132.8649765027
 21
115.2252020165
  0
LINE
  5
2EF
100
AcDbEntity
  8
0
100
AcDbLine
 62
7
  6
CONTINUOUS
 10
133.2366017318
 20
115.1376182648
 11
133.3168936677
 21
115.5059844666
  0
LINE
  5
2F0
100
AcDbEntity
  8
0
100
AcDbLine
 62
7
  6
CONTINUOUS
 10
133.9695400633
 20
116.7076816784
 11
134.0096854221
 21
116.8918640364
  0
LINE
  5
2F1
100
AcDbEntity
  8
0
100
AcDbLine
 62
7
  6
CONTINUOUS
 10
128.7022668877
 20
109.5769437023
 11
128.8323271672
 21
110.0389155032
  0
LINE
  5
2F2
100
AcDbEntity
  8
BEZUGSACHSEN
100
AcDbLine
 62
7
  6
CONTINUOUS
 10
98.9072202731
 20
173.8490114502
 11
99.3451416621
 21
173.7070743244
  0
LINE
  5
2F3
100
AcDbEntity
  8
BEZUGSACHSEN
100
AcDbLine
 62
7
  6
CONTINUOUS
 10
97.5280794236
 20
174.871160654
 11
97.9660007197
 21
174.7292236043
  0
LINE
  5
2F4
100
AcDbEntity
  8
BEZUGSACHSEN
100
AcDbLine
 62
7
  6
CONTINUOUS
 10
105.5520666819
 20
179.5605895598
 11
105.3961501832
 21
179.6707444578
  0
LINE
  5
2F5
100
AcDbEntity
  8
BEZUGSACHSEN
100
AcDbLine
 62
7
  6
CONTINUOUS
 10
103.9106310958
 20
180.812569214
 11
104.2224641508
 21
180.5922593126
  0
LINE
  5
2F6
100
AcDbEntity
  8
BEZUGSACHSEN
100
AcDbLine
 62
7
  6
CONTINUOUS
 10
142.7220941064
 20
141.4071995144
 11
142.7220941064
 21
140.161845149
  0
LINE
  5
2F7
100
AcDbEntity
  8
RUNDUNGEN
100
AcDbLine
 62
7
  6
CONTINUOUS
 10
142.7220941064
 20
141.4071995144
 11
142.7220941064
 21
153.5418792305
  0
LINE
  5
2F8
100
AcDbEntity
  8
BEZUGSACHSEN
100
AcDbLine
 62
7
  6
CONTINUOUS
 10
142.981754964
 20
154.3970593874
 11
142.981754964
 21
135.9291936856
  0
LINE
  5
2F9
100
AcDbEntity
  8
0
100
AcDbLine
 62
7
  6
CONTINUOUS
 10
135.0302757875
 20
115.8380300134
 11
134.9499838516
 21
115.4696638116
  0
LINE
  5
2FA
100
AcDbEntity
  8
0
100
AcDbLine
 62
7
  6
CONTINUOUS
 10
131.9909740008
 20
116.5930490574
 11
132.1375619107
 21
116.9070620373
  0
LINE
  5
2FB
100
AcDbEntity
  8
0
100
AcDbLine
 62
7
  6
CONTINUOUS
 10
125.7159519413
 20
111.3636826364
 11
125.8546306892
 21
111.6349453665
  0
LINE
  5
2FC
100
AcDbEntity
  8
0
100
AcDbLine
 62
7
  6
CONTINUOUS
 10
128.3081659494
 20
109.9476853182
 11
128.1694872303
 21
109.6764225355
  0
LINE
  5
2FD
100
AcDbEntity
  8
0
100
AcDbLine
 62
7
  6
CONTINUOUS
 10
131.8060820404
 20
117.1788281469
 11
131.606272855
 21
116.7998998561
  0
LINE
  5
2FE
100
AcDbEntity
  8
0
100
AcDbLine
 62
7
  6
CONTINUOUS
 10
125.5341783949
 20
112.0459637461
 11
125.3218510462
 21
111.7344241733
  0
LINE
  5
2FF
100
AcDbEntity
  8
BEZUGSACHSEN
100
AcDbLine
 62
7
  6
CONTINUOUS
 10
99.4786536553
 20
174.1403543513
 11
99.1733242145
 21
174.1735850333
  0
LINE
  5
300
100
AcDbEntity
  8
BEZUGSACHSEN
100
AcDbLine
 62
7
  6
CONTINUOUS
 10
100.5178417103
 20
176.2191746012
 11
100.1462158721
 21
176.3067576099
  0
LINE
  5
301
100
AcDbEntity
  8
BEZUGSACHSEN
100
AcDbLine
 62
7
  6
CONTINUOUS
 10
99.2451428028
 20
177.3711536839
 11
98.8072209441
 21
177.5130899526
  0
LINE
  5
302
100
AcDbEntity
  8
BEZUGSACHSEN
100
AcDbLine
 62
7
  6
CONTINUOUS
 10
105.1513073395
 20
179.2437117109
 11
105.5367897807
 21
179.0636792185
  0
LINE
  5
303
100
AcDbEntity
  8
BEZUGSACHSEN
100
AcDbLine
 62
7
  6
CONTINUOUS
 10
104.5820895443
 20
180.9843530319
 11
104.3113904381
 21
181.1294470629
  0
LINE
  5
304
100
AcDbEntity
  8
BEZUGSACHSEN
100
AcDbLine
 62
7
  6
CONTINUOUS
 10
106.2740532011
 20
182.7890521778
 11
105.8474367678
 21
183.0443006195
  0
LINE
  5
305
100
AcDbEntity
  8
RUNDUNGEN
100
AcDbLine
 62
7
  6
CONTINUOUS
 10
145.100024948
 20
130.1788182165
 11
145.100024948
 21
130.1414685165
  0
LINE
  5
306
100
AcDbEntity
  8
BEZUGSACHSEN
100
AcDbLine
 62
7
  6
CENTER
 10
146.7979557896
 20
145.8044906445
 11
146.7979557896
 21
141.2518114011
  0
LINE
  5
307
100
AcDbEntity
  8
BEZUGSACHSEN
100
AcDbLine
 62
7
  6
CENTER
 10
146.7979557896
 20
145.8044906445
 11
146.7979557896
 21
150.3571698879
  0
LINE
  5
308
100
AcDbEntity
  8
0
100
AcDbLine
 62
7
  6
CONTINUOUS
 10
133.5577682571
 20
116.6110815862
 11
133.4111803472
 21
116.2970686064
  0
LINE
  5
309
100
AcDbEntity
  8
0
100
AcDbLine
 62
7
  6
CONTINUOUS
 10
133.3168936677
 20
115.5059844666
 11
133.4634815776
 21
115.8199974465
  0
LINE
  5
30A
100
AcDbEntity
  8
0
100
AcDbLine
 62
7
  6
CONTINUOUS
 10
134.9499838516
 20
115.4696638116
 11
134.8033959417
 21
115.1556508317
  0
LINE
  5
30B
100
AcDbEntity
  8
0
100
AcDbLine
 62
7
  6
CONTINUOUS
 10
135.188097134
 20
114.9487999949
 11
135.3879050955
 21
115.3277268047
  0
LINE
  5
30C
100
AcDbEntity
  8
0
100
AcDbLine
 62
7
  6
CONTINUOUS
 10
128.4899395498
 20
109.2654041098
 11
128.7022668877
 21
109.5769437023
  0
LINE
  5
30D
100
AcDbEntity
  8
0
100
AcDbLine
 62
7
  6
CONTINUOUS
 10
132.0189647063
 20
117.4384864191
 11
131.8060820404
 21
117.1788281469
  0
LINE
  5
30E
100
AcDbEntity
  8
0
100
AcDbLine
 62
7
  6
CONTINUOUS
 10
132.1375619107
 20
116.9070620373
 11
132.3504445766
 21
117.1667203095
  0
LINE
  5
30F
100
AcDbEntity
  8
0
100
AcDbLine
 62
7
  6
CONTINUOUS
 10
125.8546306892
 20
111.6349453665
 11
126.0344433859
 21
111.8309922261
  0
LINE
  5
310
100
AcDbEntity
  8
0
100
AcDbLine
 62
7
  6
CONTINUOUS
 10
125.7876396926
 20
112.2822874485
 11
125.5341783949
 21
112.0459637461
  0
LINE
  5
311
100
AcDbEntity
  8
BEZUGSACHSEN
100
AcDbLine
 62
7
  6
CONTINUOUS
 10
99.3451416621
 20
173.7070743244
 11
99.7036921927
 21
173.7387591056
  0
LINE
  5
312
100
AcDbEntity
  8
BEZUGSACHSEN
100
AcDbLine
 62
7
  6
CONTINUOUS
 10
98.2190299625
 20
175.1730657202
 11
97.794183365
 21
175.1957342371
  0
LINE
  5
313
100
AcDbEntity
  8
BEZUGSACHSEN
100
AcDbLine
 62
7
  6
CONTINUOUS
 10
98.5541923103
 20
177.0692485796
 11
98.9790388614
 21
177.0465801008
  0
LINE
  5
314
100
AcDbEntity
  8
BEZUGSACHSEN
100
AcDbLine
 62
7
  6
CONTINUOUS
 10
100.0127038789
 20
175.873477583
 11
100.3180331339
 21
175.8402470533
  0
LINE
  5
315
100
AcDbEntity
  8
BEZUGSACHSEN
100
AcDbLine
 62
7
  6
CONTINUOUS
 10
105.7816326244
 20
179.4907119655
 11
105.5520666819
 21
179.5605895598
  0
LINE
  5
316
100
AcDbEntity
  8
BEZUGSACHSEN
100
AcDbLine
 62
7
  6
CONTINUOUS
 10
104.2224641508
 20
180.5922593126
 11
104.6815960357
 21
180.452504124
  0
LINE
  5
317
100
AcDbEntity
  8
BEZUGSACHSEN
100
AcDbLine
 62
7
  6
CONTINUOUS
 10
148.977646834
 20
135.2217492307
 11
151.9577116568
 21
139.4777228673
  0
LINE
  5
318
100
AcDbEntity
  8
0
100
AcDbLine
 62
7
  6
CONTINUOUS
 10
133.4111803472
 20
116.2970686064
 11
133.1982976814
 21
116.0374103342
  0
LINE
  5
319
100
AcDbEntity
  8
0
100
AcDbLine
 62
7
  6
CONTINUOUS
 10
133.4634815776
 20
115.8199974465
 11
133.6763642434
 21
116.0796557187
  0
LINE
  5
31A
100
AcDbEntity
  8
0
100
AcDbLine
 62
7
  6
CONTINUOUS
 10
134.8033959417
 20
115.1556508317
 11
134.5905132759
 21
114.8959925595
  0
LINE
  5
31B
100
AcDbEntity
  8
0
100
AcDbLine
 62
7
  6
CONTINUOUS
 10
134.8687719171
 20
114.5593111009
 11
135.188097134
 21
114.9487999949
  0
LINE
  5
31C
100
AcDbEntity
  8
0
100
AcDbLine
 62
7
  6
CONTINUOUS
 10
128.1694872303
 20
109.6764225355
 11
127.9160250898
 21
109.4400983721
  0
LINE
  5
31D
100
AcDbEntity
  8
0
100
AcDbLine
 62
7
  6
CONTINUOUS
 10
132.3513658398
 20
117.708708266
 11
132.0189647063
 21
117.4384864191
  0
LINE
  5
31E
100
AcDbEntity
  8
0
100
AcDbLine
 62
7
  6
CONTINUOUS
 10
132.3504445766
 20
117.1667203095
 11
132.6296244346
 21
117.3720268455
  0
LINE
  5
31F
100
AcDbEntity
  8
0
100
AcDbLine
 62
7
  6
CONTINUOUS
 10
133.1982976814
 20
116.0374103342
 11
132.9191178233
 21
115.8321037982
  0
LINE
  5
320
100
AcDbEntity
  8
0
100
AcDbLine
 62
7
  6
CONTINUOUS
 10
133.6763642434
 20
116.0796557187
 11
133.9555441015
 21
116.2849622547
  0
LINE
  5
321
100
AcDbEntity
  8
0
100
AcDbLine
 62
7
  6
CONTINUOUS
 10
126.1558843829
 20
112.4836725843
 11
125.7876396926
 21
112.2822874485
  0
LINE
  5
322
100
AcDbEntity
  8
0
100
AcDbLine
 62
7
  6
CONTINUOUS
 10
126.0344433859
 20
111.8309922261
 11
126.4763366772
 21
112.0726542047
  0
LINE
  5
323
100
AcDbEntity
  8
0
100
AcDbLine
 62
7
  6
CONTINUOUS
 10
127.1238997128
 20
111.9382368312
 11
127.5657930041
 21
112.1798988097
  0
LINE
  5
324
100
AcDbEntity
  8
0
100
AcDbLine
 62
7
  6
CONTINUOUS
 10
134.1422773702
 20
116.7831575925
 11
133.9695400633
 21
116.7076816784
  0
LINE
  5
325
100
AcDbEntity
  8
0
100
AcDbLine
 62
7
  6
CONTINUOUS
 10
133.9555441015
 20
116.2849622547
 11
134.3010199335
 21
116.4359155688
  0
LINE
  5
326
100
AcDbEntity
  8
0
100
AcDbLine
 62
7
  6
CONTINUOUS
 10
132.7323845546
 20
115.3339084603
 11
132.9051218615
 21
115.4093843745
  0
LINE
  5
327
100
AcDbEntity
  8
0
100
AcDbLine
 62
7
  6
CONTINUOUS
 10
132.8163577034
 20
117.8702221833
 11
132.3513658398
 21
117.708708266
  0
LINE
  5
328
100
AcDbEntity
  8
0
100
AcDbLine
 62
7
  6
CONTINUOUS
 10
126.5652630221
 20
112.6098418496
 11
126.1558843829
 21
112.4836725843
  0
LINE
  5
329
100
AcDbEntity
  8
BEZUGSACHSEN
100
AcDbLine
 62
7
  6
CONTINUOUS
 10
99.8904254615
 20
174.2369544435
 11
99.4786536553
 21
174.1403543513
  0
LINE
  5
32A
100
AcDbEntity
  8
BEZUGSACHSEN
100
AcDbLine
 62
7
  6
CONTINUOUS
 10
97.9660007197
 20
174.7292236043
 11
98.3777725258
 21
174.8258236964
  0
LINE
  5
32B
100
AcDbEntity
  8
BEZUGSACHSEN
100
AcDbLine
 62
7
  6
CONTINUOUS
 10
99.6009320727
 20
175.7768774908
 11
100.0127038789
 21
175.873477583
  0
LINE
  5
32C
100
AcDbEntity
  8
BEZUGSACHSEN
100
AcDbLine
 62
7
  6
CONTINUOUS
 10
100.1462158721
 20
176.3067576099
 11
99.7876653415
 21
176.2750728287
  0
LINE
  5
32D
100
AcDbEntity
  8
BEZUGSACHSEN
100
AcDbLine
 62
7
  6
CONTINUOUS
 10
98.8072209441
 20
177.5130899526
 11
98.4486709993
 21
177.4814059333
  0
LINE
  5
32E
100
AcDbEntity
  8
BEZUGSACHSEN
100
AcDbLine
 62
7
  6
CONTINUOUS
 10
104.8853040877
 20
180.9547522804
 11
104.5820895443
 21
180.9843530319
  0
LINE
  5
32F
100
AcDbEntity
  8
BEZUGSACHSEN
100
AcDbLine
 62
7
  6
CONTINUOUS
 10
106.171811705
 20
180.8766265779
 11
106.4750262484
 21
180.8470258264
  0
LINE
  5
330
100
AcDbEntity
  8
BEZUGSACHSEN
100
AcDbLine
 62
7
  6
CONTINUOUS
 10
105.5367897807
 20
179.0636792185
 11
105.9547868739
 21
178.9991394394
  0
LINE
  5
331
100
AcDbEntity
  8
BEZUGSACHSEN
100
AcDbLine
 62
7
  6
CONTINUOUS
 10
106.8346516419
 20
181.2391195457
 11
106.3755197569
 21
181.3788747343
  0
LINE
  5
332
100
AcDbEntity
  8
BEZUGSACHSEN
100
AcDbLine
 62
7
  6
CONTINUOUS
 10
105.5289453376
 20
182.5769910035
 11
105.8732938587
 21
182.4721743289
  0
LINE
  5
333
100
AcDbEntity
  8
BEZUGSACHSEN
100
AcDbLine
 62
7
  6
CONTINUOUS
 10
152.516024948
 20
152.2797267917
 11
152.516024948
 21
149.5295333838
  0
LINE
  5
334
100
AcDbEntity
  8
BEZUGSACHSEN
100
AcDbLine
 62
7
  6
CONTINUOUS
 10
152.516024948
 20
142.0794479052
 11
152.516024948
 21
141.2484664
  0
LINE
  5
335
100
AcDbEntity
  8
0
100
AcDbLine
 62
7
  6
CONTINUOUS
 10
128.1628288119
 20
108.9888030971
 11
128.4899395498
 21
109.2654041098
  0
LINE
  5
336
100
AcDbEntity
  8
0
100
AcDbLine
 62
7
  6
CONTINUOUS
 10
134.5363719958
 20
114.2890907445
 11
134.8687719171
 21
114.5593111009
  0
LINE
  5
337
100
AcDbEntity
  8
0
100
AcDbLine
 62
7
  6
CONTINUOUS
 10
134.5905132759
 20
114.8959925595
 11
134.3113334178
 21
114.6906860235
  0
LINE
  5
338
100
AcDbEntity
  8
0
100
AcDbLine
 62
7
  6
CONTINUOUS
 10
127.0522120768
 20
111.0196318084
 11
126.6103187855
 21
110.7779698299
  0
LINE
  5
339
100
AcDbEntity
  8
0
100
AcDbLine
 62
7
  6
CONTINUOUS
 10
126.8571224789
 20
110.3266746075
 11
127.2990157701
 21
110.5683365861
  0
LINE
  5
33A
100
AcDbEntity
  8
0
100
AcDbLine
 62
7
  6
CONTINUOUS
 10
126.4497055898
 20
109.3221777285
 11
126.0078122985
 21
109.08051575
  0
LINE
  5
33B
100
AcDbEntity
  8
0
100
AcDbLine
 62
7
  6
CONTINUOUS
 10
127.9160250898
 20
109.4400983721
 11
127.3268345967
 21
109.117882708
  0
LINE
  5
33C
100
AcDbEntity
  8
0
100
AcDbLine
 62
7
  6
CONTINUOUS
 10
127.5736383188
 20
108.666587433
 11
128.1628288119
 21
108.9888030971
  0
LINE
  5
33D
100
AcDbEntity
  8
0
100
AcDbLine
 62
7
  6
CONTINUOUS
 10
134.3113334178
 20
114.6906860235
 11
133.9658575858
 21
114.5397327094
  0
LINE
  5
33E
100
AcDbEntity
  8
0
100
AcDbLine
 62
7
  6
CONTINUOUS
 10
134.0713788968
 20
114.1275753557
 11
134.5363719958
 21
114.2890907445
  0
LINE
  5
33F
100
AcDbEntity
  8
0
100
AcDbLine
 62
7
  6
CONTINUOUS
 10
123.9883037116
 20
111.3591891972
 11
123.5082865121
 21
111.2066976209
  0
LINE
  5
340
100
AcDbEntity
  8
0
100
AcDbLine
 62
7
  6
CONTINUOUS
 10
121.2682060949
 20
110.4950702163
 11
120.7881888954
 21
110.34257864
  0
LINE
  5
341
100
AcDbEntity
  8
0
100
AcDbLine
 62
7
  6
CONTINUOUS
 10
127.461590716
 20
111.1458010738
 11
127.0522120768
 21
111.0196318084
  0
LINE
  5
342
100
AcDbEntity
  8
BEZUGSACHSEN
100
AcDbLine
 62
7
  6
CONTINUOUS
 10
105.2210341259
 20
181.0406447029
 11
104.8853040877
 21
180.9547522804
  0
LINE
  5
343
100
AcDbEntity
  8
BEZUGSACHSEN
100
AcDbLine
 62
7
  6
CONTINUOUS
 10
105.9986566126
 20
181.3681986431
 11
105.6629274172
 21
181.2823066814
  0
LINE
  5
344
100
AcDbEntity
  8
BEZUGSACHSEN
100
AcDbLine
 62
7
  6
CONTINUOUS
 10
105.1932152993
 20
182.4910985809
 11
105.5289453376
 21
182.5769910035
  0
LINE
  5
345
100
AcDbEntity
  8
BEZUGSACHSEN
100
AcDbLine
 62
7
  6
CONTINUOUS
 10
106.0437132189
 20
179.5363270843
 11
105.7816326244
 21
179.4907119655
  0
LINE
  5
346
100
AcDbEntity
  8
BEZUGSACHSEN
100
AcDbLine
 62
7
  6
CONTINUOUS
 10
105.9097311105
 20
180.8310114591
 11
106.171811705
 21
180.8766265779
  0
LINE
  5
347
100
AcDbEntity
  8
BEZUGSACHSEN
100
AcDbLine
 62
7
  6
CONTINUOUS
 10
112.3986743702
 20
181.4071787774
 11
112.8993679558
 21
181.4617326589
  0
LINE
  5
348
100
AcDbEntity
  8
BEZUGSACHSEN
100
AcDbLine
 62
7
  6
CONTINUOUS
 10
115.2359379426
 20
181.7163174308
 11
115.7366315283
 21
181.7708713124
  0
LINE
  5
349
100
AcDbEntity
  8
BEZUGSACHSEN
100
AcDbLine
 62
7
  6
CONTINUOUS
 10
104.6815960357
 20
180.452504124
 11
105.05845918
 21
180.4631802152
  0
LINE
  5
34A
100
AcDbEntity
  8
BEZUGSACHSEN
100
AcDbLine
 62
7
  6
CONTINUOUS
 10
106.3755197569
 20
181.3788747343
 11
105.9986566126
 21
181.3681986431
  0
LINE
  5
34B
100
AcDbEntity
  8
BEZUGSACHSEN
100
AcDbLine
 62
7
  6
CONTINUOUS
 10
105.8474367678
 20
183.0443006195
 11
105.35579022
 21
183.0685631147
  0
LINE
  5
34C
100
AcDbEntity
  8
BEZUGSACHSEN
100
AcDbLine
 62
7
  6
CONTINUOUS
 10
137.238801042
 20
178.6428623807
 11
151.581241079
 21
155.5558849073
  0
LINE
  5
34D
100
AcDbEntity
  8
0
100
AcDbLine
 62
7
  6
CONTINUOUS
 10
123.2881675239
 20
106.9090852956
 11
123.928190304
 21
107.1124073489
  0
LINE
  5
34E
100
AcDbEntity
  8
0
100
AcDbLine
 62
7
  6
CONTINUOUS
 10
127.164259676
 20
108.5404181742
 11
127.5736383188
 21
108.666587433
  0
LINE
  5
34F
100
AcDbEntity
  8
BEZUGSACHSEN
100
AcDbLine
 62
7
  6
CONTINUOUS
 10
113.965017541
 20
185.6309429758
 11
113.2974261333
 21
185.5582044714
  0
LINE
  5
350
100
AcDbEntity
  8
AUSFORMSCHRAEGEN
100
AcDbLine
 62
7
  6
CONTINUOUS
 10
262.4636863511
 20
101.3014685165
 11
265.3958514781
 21
101.6096514898
  0
LINE
  5
351
100
AcDbEntity
  8
BEZUGSACHSEN
100
AcDbLine
 62
7
  6
CONTINUOUS
 10
262.4636863511
 20
101.3014685165
 11
265.3958514781
 21
101.6096514898
  0
LINE
  5
352
100
AcDbEntity
  8
BEZUGSACHSEN
100
AcDbLine
 62
7
  6
CONTINUOUS
 10
262.4636863511
 20
101.3014685165
 11
259.5315212242
 21
101.6096514898
  0
LINE
  5
353
100
AcDbEntity
  8
BEZUGSACHSEN
100
AcDbLine
 62
8
  6
HIDDEN
 10
262.4636863511
 20
115.3094685165
 11
261.6597312584
 21
115.1821345391
  0
LINE
  5
354
100
AcDbEntity
  8
BEZUGSACHSEN
100
AcDbLine
 62
8
  6
HIDDEN
 10
262.4636863511
 20
115.3094685165
 11
263.2676414438
 21
115.1821345391
  0
LINE
  5
355
100
AcDbEntity
  8
BEZUGSACHSEN
100
AcDbLine
 62
7
  6
CONTINUOUS
 10
255.4136158612
 20
158.9017058994
 11
254.4410461899
 21
157.9291362281
  0
LINE
  5
356
100
AcDbEntity
  8
BEZUGSACHSEN
100
AcDbLine
 62
7
  6
CONTINUOUS
 10
254.4410681618
 20
133.679823089
 11
255.4136096512
 21
132.7072815996
  0
LINE
  5
357
100
AcDbEntity
  8
BEZUGSACHSEN
100
AcDbLine
 62
7
  6
CONTINUOUS
 10
253.7136863511
 20
156.1731342407
 11
253.7136863511
 21
152.2190548944
  0
LINE
  5
358
100
AcDbEntity
  8
RUNDUNGEN
100
AcDbLine
 62
7
  6
CONTINUOUS
 10
253.7136863511
 20
152.2190548944
 11
253.7136863511
 21
150.8341147458
  0
LINE
  5
359
100
AcDbEntity
  8
BEZUGSACHSEN
100
AcDbLine
 62
7
  6
CONTINUOUS
 10
253.7136863511
 20
150.8341147458
 11
253.7136863511
 21
135.4358470483
  0
LINE
  5
35A
100
AcDbEntity
  8
BEZUGSACHSEN
100
AcDbLine
 62
7
  6
CONTINUOUS
 10
257.8032665409
 20
172.3118738922
 11
256.1168065156
 21
160.3120872903
  0
LINE
  5
35B
100
AcDbEntity
  8
BEZUGSACHSEN
100
AcDbLine
 62
7
  6
CONTINUOUS
 10
256.1168070045
 20
131.2968905199
 11
257.8032662991
 21
119.2971091176
  0
LINE
  5
35C
100
AcDbEntity
  8
BEZUGSACHSEN
100
AcDbLine
 62
7
  6
CONTINUOUS
 10
257.8636863511
 20
118.4330624919
 11
257.8636863511
 21
103.4619697725
  0
LINE
  5
35D
100
AcDbEntity
  8
BEZUGSACHSEN
100
AcDbLine
 62
7
  6
CONTINUOUS
 10
257.8636863511
 20
155.9241308536
 11
257.8636863511
 21
188.1470115165
  0
LINE
  5
35E
100
AcDbEntity
  8
T_STARTBEZUEGE
100
AcDbLine
 62
7
  6
CENTER
 10
262.4636863511
 20
193.3075127725
 11
262.4636863511
 21
98.3014685165
  0
LINE
  5
35F
100
AcDbEntity
  8
BEZUGSACHSEN
100
AcDbLine
 62
7
  6
CONTINUOUS
 10
262.4636863511
 20
161.4301630725
 11
262.4636863511
 21
190.3075127725
  0
LINE
  5
360
100
AcDbEntity
  8
T_STARTBEZUEGE
100
AcDbLine
 62
7
  6
CENTER
 10
275.1964988364
 20
145.8044906445
 11
249.7308738658
 21
145.8044906445
  0
LINE
  5
361
100
AcDbEntity
  8
BEZUGSACHSEN
100
AcDbLine
 62
7
  6
CONTINUOUS
 10
267.0636863511
 20
188.1470115165
 11
267.0636863511
 21
155.9242981222
  0
LINE
  5
362
100
AcDbEntity
  8
RUNDUNGEN
100
AcDbLine
 62
7
  6
CONTINUOUS
 10
267.0636863511
 20
118.4330624919
 11
267.0636863511
 21
103.4619697725
  0
LINE
  5
363
100
AcDbEntity
  8
BEZUGSACHSEN
100
AcDbLine
 62
7
  6
CONTINUOUS
 10
271.2136863511
 20
156.1731342407
 11
271.2136863511
 21
152.2190548944
  0
LINE
  5
364
100
AcDbEntity
  8
RUNDUNGEN
100
AcDbLine
 62
7
  6
CONTINUOUS
 10
271.2136863511
 20
152.2190548944
 11
271.2136863511
 21
135.4358470483
  0
LINE
  5
365
100
AcDbEntity
  8
RUNDUNGEN
100
AcDbLine
 62
7
  6
CONTINUOUS
 10
268.8105656977
 20
131.2968905199
 11
267.1241064032
 21
119.2971091176
  0
LINE
  5
366
100
AcDbEntity
  8
BEZUGSACHSEN
100
AcDbLine
 62
7
  6
CONTINUOUS
 10
267.1241061613
 20
172.3118738922
 11
268.8105661866
 21
160.3120872903
  0
LINE
  5
367
100
AcDbEntity
  8
RUNDUNGEN
100
AcDbLine
 62
7
  6
CONTINUOUS
 10
270.4863045405
 20
133.679823089
 11
269.5137630511
 21
132.7072815996
  0
LINE
  5
368
100
AcDbEntity
  8
BEZUGSACHSEN
100
AcDbLine
 62
7
  6
CONTINUOUS
 10
269.5137630513
 20
158.9016996892
 11
270.4863265124
 21
157.9291362281
  0
LINE
  5
369
100
AcDbEntity
  8
BEZUGSACHSEN
100
AcDbLine
 62
8
  6
HIDDEN
 10
262.4636863511
 20
176.2995127725
 11
263.1357892623
 21
176.4059634159
  0
LINE
  5
36A
100
AcDbEntity
  8
BEZUGSACHSEN
100
AcDbLine
 62
8
  6
HIDDEN
 10
262.4636863511
 20
176.2995127725
 11
261.79158344
 21
176.4059634159
  0
LINE
  5
36B
100
AcDbEntity
  8
BEZUGSACHSEN
100
AcDbLine
 62
7
  6
CONTINUOUS
 10
262.4636863511
 20
190.3075127725
 11
259.5315212242
 21
189.9993297992
  0
LINE
  5
36C
100
AcDbEntity
  8
BEZUGSACHSEN
100
AcDbLine
 62
7
  6
CONTINUOUS
 10
262.4636863511
 20
190.3075127725
 11
265.3958514781
 21
189.9993297992
  0
ARC
  5
36D
100
AcDbEntity
  8
BEZUGSACHSEN
100
AcDbCircle
 62
7
  6
CONTINUOUS
 10
116.260024948
 20
130.1414685165
 40
28.84
100
AcDbArc
 50
270.0
 51
360.0
  0
ARC
  5
36E
100
AcDbEntity
  8
BEZUGSACHSEN
100
AcDbCircle
 62
7
  6
CONTINUOUS
 10
116.260024948
 20
125.9988703165
 40
24.6974018
100
AcDbArc
 50
211.85
 51
270.0
  0
ARC
  5
36F
100
AcDbEntity
  8
BEZUGSACHSEN
100
AcDbCircle
 62
7
  6
CONTINUOUS
 10
116.260024948
 20
130.1414685165
 40
14.832
100
AcDbArc
 50
270.0
 51
360.0
  0
ARC
  5
370
100
AcDbEntity
  8
BEZUGSACHSEN
100
AcDbCircle
 62
7
  6
CONTINUOUS
 10
116.260024948
 20
125.9988703165
 40
10.6894018
100
AcDbArc
 50
154.1610143067
 51
270.0
  0
ARC
  5
371
100
AcDbEntity
  8
BEZUGSACHSEN
100
AcDbCircle
 62
7
  6
CONTINUOUS
 10
101.0516203826
 20
133.3636710971
 40
6.2084045654
100
AcDbArc
 50
334.1610143067
 51
360.0
  0
ARC
  5
372
100
AcDbEntity
  8
BEZUGSACHSEN
100
AcDbCircle
 62
7
  6
CONTINUOUS
 10
86.4684295135
 20
138.9171721586
 40
6.2084045654
100
AcDbArc
 50
180.0
 51
211.85
  0
ARC
  5
373
100
AcDbEntity
  8
BEZUGSACHSEN
100
AcDbCircle
 62
7
  6
CONTINUOUS
 10
100.1863440349
 20
138.0670740456
 40
1.2416809131
100
AcDbArc
 50
270.0
 51
360.0
  0
ARC
  5
374
100
AcDbEntity
  8
BEZUGSACHSEN
100
AcDbCircle
 62
7
  6
CONTINUOUS
 10
91.0396367027
 20
138.0670740456
 40
1.2416809131
100
AcDbArc
 50
180.0
 51
270.0
  0
ARC
  5
375
100
AcDbEntity
  8
RUNDUNGEN
100
AcDbCircle
 62
7
  6
CONTINUOUS
 10
90.7799758451
 20
137.2119219016
 40
1.2416809131
100
AcDbArc
 50
180.0
 51
269.9991729245
  0
ARC
  5
376
100
AcDbEntity
  8
RUNDUNGEN
100
AcDbCircle
 62
7
  6
CONTINUOUS
 10
100.2687440349
 20
137.2119219016
 40
1.2416809131
100
AcDbArc
 50
269.9998228884
 51
360.0
  0
ARC
  5
377
100
AcDbEntity
  8
BEZUGSACHSEN
100
AcDbCircle
 62
7
  6
CONTINUOUS
 10
116.260024948
 20
161.4675127725
 40
28.84
100
AcDbArc
 50
90.0
 51
180.0
  0
ARC
  5
378
100
AcDbEntity
  8
BEZUGSACHSEN
100
AcDbCircle
 62
7
  6
CONTINUOUS
 10
116.260024948
 20
165.6101109725
 40
24.6974018
100
AcDbArc
 50
31.85
 51
90.0
  0
ARC
  5
379
100
AcDbEntity
  8
BEZUGSACHSEN
100
AcDbCircle
 62
7
  6
CONTINUOUS
 10
116.260024948
 20
161.4675127725
 40
14.832
100
AcDbArc
 50
90.0
 51
180.0
  0
ARC
  5
37A
100
AcDbEntity
  8
BEZUGSACHSEN
100
AcDbCircle
 62
7
  6
CONTINUOUS
 10
116.260024948
 20
165.6101109725
 40
10.6894018
100
AcDbArc
 50
328.7648355016
 51
90.0
  0
ARC
  5
37B
100
AcDbEntity
  8
BEZUGSACHSEN
100
AcDbCircle
 62
7
  6
CONTINUOUS
 10
86.2625194816
 20
155.3653931325
 40
5.2775054665
100
AcDbArc
 50
311.9880592811
 51
68.3418233597
  0
ARC
  5
37C
100
AcDbEntity
  8
BEZUGSACHSEN
100
AcDbCircle
 62
7
  6
CONTINUOUS
 10
83.34647557
 20
150.3607502645
 40
3.086450631
100
AcDbArc
 50
144.9956305717
 51
180.0043694283
  0
CIRCLE
  5
37D
100
AcDbEntity
  8
BEZUGSACHSEN
100
AcDbCircle
 62
7
  6
CONTINUOUS
 10
85.7220941064
 20
145.8044906445
 40
1.5526792434
  0
ARC
  5
37E
100
AcDbEntity
  8
RUNDUNGEN
100
AcDbCircle
 62
7
  6
CONTINUOUS
 10
88.2966140189
 20
155.6797876034
 40
1.2416809131
100
AcDbArc
 50
0.0
 51
90.0
  0
ARC
  5
37F
100
AcDbEntity
  8
RUNDUNGEN
100
AcDbCircle
 62
7
  6
CONTINUOUS
 10
102.7521058611
 20
155.6797876034
 40
1.2416809131
100
AcDbArc
 50
90.0
 51
180.0
  0
ARC
  5
380
100
AcDbEntity
  8
BEZUGSACHSEN
100
AcDbCircle
 62
7
  6
CONTINUOUS
 10
146.2575304145
 20
136.2435881565
 40
5.2775054665
100
AcDbArc
 50
131.9880587331
 51
248.3418233597
  0
ARC
  5
381
100
AcDbEntity
  8
BEZUGSACHSEN
100
AcDbCircle
 62
7
  6
CONTINUOUS
 10
149.429574326
 20
141.2482310244
 40
3.086450631
100
AcDbArc
 50
324.9956305717
 51
0.0043694283
  0
ARC
  5
382
100
AcDbEntity
  8
BEZUGSACHSEN
100
AcDbCircle
 62
7
  6
CONTINUOUS
 10
144.2234358771
 20
135.9291936856
 40
1.2416809131
100
AcDbArc
 50
180.0
 51
270.0
  0
ARC
  5
383
100
AcDbEntity
  8
BEZUGSACHSEN
100
AcDbCircle
 62
7
  6
CONTINUOUS
 10
129.7679440349
 20
135.9291936856
 40
1.2416809131
100
AcDbArc
 50
270.0
 51
360.0
  0
ARC
  5
384
100
AcDbEntity
  8
BEZUGSACHSEN
100
AcDbCircle
 62
7
  6
CONTINUOUS
 10
146.3076203826
 20
152.2797267917
 40
6.2084045654
100
AcDbArc
 50
0.0
 51
31.85
  0
ARC
  5
385
100
AcDbEntity
  8
BEZUGSACHSEN
100
AcDbCircle
 62
7
  6
CONTINUOUS
 10
130.7084295135
 20
156.8477217163
 40
6.2084045654
100
AcDbArc
 50
148.7648355016
 51
180.0
  0
CIRCLE
  5
386
100
AcDbEntity
  8
BEZUGSACHSEN
100
AcDbCircle
 62
7
  6
CONTINUOUS
 10
146.7979557896
 20
145.8044906445
 40
1.5526792434
  0
ARC
  5
387
100
AcDbEntity
  8
RUNDUNGEN
100
AcDbCircle
 62
7
  6
CONTINUOUS
 10
132.3337058611
 20
153.5419072434
 40
1.2416809131
100
AcDbArc
 50
90.0
 51
180.0
  0
ARC
  5
388
100
AcDbEntity
  8
RUNDUNGEN
100
AcDbCircle
 62
7
  6
CONTINUOUS
 10
141.4804131933
 20
153.5419072434
 40
1.2416809131
100
AcDbArc
 50
0.0
 51
90.0
  0
ARC
  5
389
100
AcDbEntity
  8
BEZUGSACHSEN
100
AcDbCircle
 62
7
  6
CONTINUOUS
 10
132.2513058611
 20
154.3970593874
 40
1.2416809131
100
AcDbArc
 50
89.9998229982
 51
180.0
  0
ARC
  5
38A
100
AcDbEntity
  8
BEZUGSACHSEN
100
AcDbCircle
 62
7
  6
CONTINUOUS
 10
141.7400740509
 20
154.3970593874
 40
1.2416809131
100
AcDbArc
 50
0.0
 51
89.9991729017
  0
ARC
  5
38B
100
AcDbEntity
  8
BEZUGSACHSEN
100
AcDbCircle
 62
7
  6
CONTINUOUS
 10
251.6552817857
 20
118.43306417
 40
6.2084045654
100
AcDbArc
 50
359.9999845138
 51
8.0000189393
  0
ARC
  5
38C
100
AcDbEntity
  8
BEZUGSACHSEN
100
AcDbCircle
 62
8
  6
HIDDEN
 10
262.3636863511
 20
110.7375370064
 40
4.5
100
AcDbArc
 50
99.0
 51
180.0
  0
ARC
  5
38D
100
AcDbEntity
  8
BEZUGSACHSEN
100
AcDbCircle
 62
7
  6
CONTINUOUS
 10
253.657612948
 20
130.9512743279
 40
2.4833618262
100
AcDbArc
 50
7.9999773054
 51
45.0001724189
  0
ARC
  5
38E
100
AcDbEntity
  8
BEZUGSACHSEN
100
AcDbCircle
 62
7
  6
CONTINUOUS
 10
256.1970481773
 20
135.4358470483
 40
2.4833618262
100
AcDbArc
 50
180.0
 51
225.0007169142
  0
ARC
  5
38F
100
AcDbEntity
  8
BEZUGSACHSEN
100
AcDbCircle
 62
7
  6
CONTINUOUS
 10
259.7262077208
 20
103.4619697725
 40
1.8625213696
100
AcDbArc
 50
180.0
 51
264.0
  0
ARC
  5
390
100
AcDbEntity
  8
BEZUGSACHSEN
100
AcDbCircle
 62
7
  6
CONTINUOUS
 10
251.6552817857
 20
173.175917119
 40
6.2084045654
100
AcDbArc
 50
351.9999970981
 51
0.000015487
  0
ARC
  5
391
100
AcDbEntity
  8
BEZUGSACHSEN
100
AcDbCircle
 62
8
  6
HIDDEN
 10
262.407382927
 20
181.0049400181
 40
4.6563034241
100
AcDbArc
 50
279.0
 51
360.0
  0
ARC
  5
392
100
AcDbEntity
  8
BEZUGSACHSEN
100
AcDbCircle
 62
7
  6
CONTINUOUS
 10
256.1970481773
 20
156.1731342407
 40
2.4833618262
100
AcDbArc
 50
135.0
 51
180.0
  0
ARC
  5
393
100
AcDbEntity
  8
BEZUGSACHSEN
100
AcDbCircle
 62
7
  6
CONTINUOUS
 10
253.657612948
 20
160.6577069611
 40
2.4833618262
100
AcDbArc
 50
315.0000302047
 51
351.999941644
  0
ARC
  5
394
100
AcDbEntity
  8
BEZUGSACHSEN
100
AcDbCircle
 62
7
  6
CONTINUOUS
 10
259.7262077208
 20
188.1470115165
 40
1.8625213696
100
AcDbArc
 50
96.0
 51
180.0
  0
ARC
  5
395
100
AcDbEntity
  8
RUNDUNGEN
100
AcDbCircle
 62
7
  6
CONTINUOUS
 10
254.9553672642
 20
152.2190548944
 40
1.2416809131
100
AcDbArc
 50
139.4918207579
 51
180.0
  0
ARC
  5
396
100
AcDbEntity
  8
RUNDUNGEN
100
AcDbCircle
 62
7
  6
CONTINUOUS
 10
273.2720909166
 20
118.43306417
 40
6.2084045654
100
AcDbArc
 50
171.9999810607
 51
180.0000154862
  0
ARC
  5
397
100
AcDbEntity
  8
RUNDUNGEN
100
AcDbCircle
 62
8
  6
HIDDEN
 10
262.5636863511
 20
110.7375370064
 40
4.5
100
AcDbArc
 50
0.0
 51
81.0
  0
ARC
  5
398
100
AcDbEntity
  8
RUNDUNGEN
100
AcDbCircle
 62
7
  6
CONTINUOUS
 10
271.2697597542
 20
130.9512743279
 40
2.4833618262
100
AcDbArc
 50
134.9998275811
 51
172.0000226946
  0
ARC
  5
399
100
AcDbEntity
  8
RUNDUNGEN
100
AcDbCircle
 62
7
  6
CONTINUOUS
 10
268.7303245249
 20
135.4358470483
 40
2.4833618262
100
AcDbArc
 50
314.9992830858
 51
360.0
  0
ARC
  5
39A
100
AcDbEntity
  8
RUNDUNGEN
100
AcDbCircle
 62
7
  6
CONTINUOUS
 10
265.2011649815
 20
103.4619697725
 40
1.8625213696
100
AcDbArc
 50
276.0
 51
360.0
  0
ARC
  5
39B
100
AcDbEntity
  8
RUNDUNGEN
100
AcDbCircle
 62
7
  6
CONTINUOUS
 10
262.4636863511
 20
145.8044906445
 40
11.116977872
100
AcDbArc
 50
40.5081792421
 51
139.4918207579
  0
CIRCLE
  5
39C
100
AcDbEntity
  8
0
100
AcDbCircle
 62
7
  6
CONTINUOUS
 10
262.4636863511
 20
145.8044906445
 40
3.7250427393
  0
ARC
  5
39D
100
AcDbEntity
  8
BEZUGSACHSEN
100
AcDbCircle
 62
8
  6
HIDDEN
 10
262.5199897752
 20
181.0049400181
 40
4.6563034241
100
AcDbArc
 50
180.0
 51
261.0
  0
ARC
  5
39E
100
AcDbEntity
  8
BEZUGSACHSEN
100
AcDbCircle
 62
7
  6
CONTINUOUS
 10
265.2011649815
 20
188.1470115165
 40
1.8625213696
100
AcDbArc
 50
0.0
 51
84.0
  0
ARC
  5
39F
100
AcDbEntity
  8
BEZUGSACHSEN
100
AcDbCircle
 62
7
  6
CONTINUOUS
 10
268.7303245249
 20
156.1731342407
 40
2.4833618262
100
AcDbArc
 50
0.0
 51
45.0
  0
ARC
  5
3A0
100
AcDbEntity
  8
BEZUGSACHSEN
100
AcDbCircle
 62
7
  6
CONTINUOUS
 10
271.2697597542
 20
160.6577069611
 40
2.4833618262
100
AcDbArc
 50
188.000058356
 51
224.9999697953
  0
ARC
  5
3A1
100
AcDbEntity
  8
RUNDUNGEN
100
AcDbCircle
 62
7
  6
CONTINUOUS
 10
269.972005438
 20
152.2190548944
 40
1.2416809131
100
AcDbArc
 50
359.9999384528
 51
40.5081792421
  0
ARC
  5
3A2
100
AcDbEntity
  8
BEZUGSACHSEN
100
AcDbCircle
 62
7
  6
CONTINUOUS
 10
273.2720909166
 20
173.175917119
 40
6.2084045654
100
AcDbArc
 50
179.999984513
 51
188.0000029019
  0
SPLINE
  5
3A3
100
AcDbEntity
  8
BEZUGSACHSEN
100
AcDbSpline
 62
7
  6
CONTINUOUS
 70
0
 71
3
 72
11
 73
7
 74
0
 42
0.0000001
 43
0.0000001
 44
0.0000000001
 40
0.0
 40
0.0
 40
0.0
 40
0.0
 40
0.2500139656
 40
0.500003507
 40
0.7499908108
 40
1.0
 40
1.0
 40
1.0
 40
1.0
 10
147.948842749
 20
134.6875130075
 30
0.0
 10
148.0490184516
 20
134.6875130262
 30
0.0
 10
148.2501782996
 20
134.711619184
 30
0.0
 10
148.5341368078
 20
134.8181609472
 30
0.0
 10
148.7848128169
 20
134.988904684
 30
0.0
 10
148.9201894587
 20
135.1396917023
 30
0.0
 10
148.977646834
 20
135.2217492307
 30
0.0
  0
SPLINE
  5
3A4
100
AcDbEntity
  8
BEZUGSACHSEN
100
AcDbSpline
 62
7
  6
CONTINUOUS
 70
0
 71
3
 72
15
 73
11
 74
0
 42
0.0000001
 43
0.0000001
 44
0.0000000001
 40
0.0
 40
0.0
 40
0.0
 40
0.0
 40
0.1250047633
 40
0.2500010336
 40
0.3750036572
 40
0.5000036904
 40
0.6250030325
 40
0.7500039506
 40
0.8749974339
 40
1.0
 40
1.0
 40
1.0
 40
1.0
 10
125.7571835699
 20
134.6875144404
 30
0.0
 10
125.6754822651
 20
134.6875143493
 30
0.0
 10
125.5116448282
 20
134.7033830727
 30
0.0
 10
125.2754007938
 20
134.7739692275
 30
0.0
 10
125.0571013627
 20
134.8888044848
 30
0.0
 10
124.8652008597
 20
135.043771354
 30
0.0
 10
124.7071436367
 20
135.2331579413
 30
0.0
 10
124.589281315
 20
135.4498985873
 30
0.0
 10
124.5164561095
 20
135.6855423257
 30
0.0
 10
124.500024961
 20
135.8494043155
 30
0.0
 10
124.500024948
 20
135.9311041843
 30
0.0
  0
SPLINE
  5
3A5
100
AcDbEntity
  8
RUNDUNGEN
100
AcDbSpline
 62
7
  6
CONTINUOUS
 70
0
 71
3
 72
15
 73
11
 74
0
 42
0.0000001
 43
0.0000001
 44
0.0000000001
 40
0.0
 40
0.0
 40
0.0
 40
0.0
 40
0.1250047633
 40
0.2500010336
 40
0.3750036572
 40
0.5000036904
 40
0.6250030324
 40
0.7500039506
 40
0.8749974338
 40
1.0
 40
1.0
 40
1.0
 40
1.0
 10
106.0028663262
 20
156.9214668764
 30
0.0
 10
106.0845676326
 20
156.9214669715
 30
0.0
 10
106.2484050726
 20
156.9055982453
 30
0.0
 10
106.4846491142
 20
156.8350120992
 30
0.0
 10
106.7029485496
 20
156.7201768381
 30
0.0
 10
106.8948490542
 20
156.5652099631
 30
0.0
 10
107.052906275
 20
156.3758233675
 30
0.0
 10
107.1707685925
 20
156.1590827136
 30
0.0
 10
107.2435937926
 20
155.9234389685
 30
0.0
 10
107.2600249372
 20
155.7595769751
 30
0.0
 10
107.260024948
 20
155.6778771047
 30
0.0
  0
SPLINE
  5
3A6
100
AcDbEntity
  8
RUNDUNGEN
100
AcDbSpline
 62
7
  6
CONTINUOUS
 70
0
 71
3
 72
11
 73
7
 74
0
 42
0.0000001
 43
0.0000001
 44
0.0000000001
 40
0.0
 40
0.0
 40
0.0
 40
0.0
 40
0.2500139656
 40
0.500003507
 40
0.7499908108
 40
1.0
 40
1.0
 40
1.0
 40
1.0
 10
84.827207147
 20
156.9214682809
 30
0.0
 10
84.7270314445
 20
156.9214682622
 30
0.0
 10
84.5258715964
 20
156.897362105
 30
0.0
 10
84.2419130883
 20
156.7908203416
 30
0.0
 10
83.9912370792
 20
156.6200766049
 30
0.0
 10
83.8558604374
 20
156.4692895867
 30
0.0
 10
83.7984030621
 20
156.3872320583
 30
0.0
  0
LINE
  5
3A7
100
AcDbEntity
  8
BEZUGSACHSEN
100
AcDbLine
 62
7
  6
CONTINUOUS
 10
262.4636863511
 20
160.2703195609
 11
262.4636863511
 21
161.4301630725
  0
ELLIPSE
  5
3A8
100
AcDbEntity
  8
0
100
AcDbEllipse
 62
7
  6
CONTINUOUS
 10
80.260024948
 20
145.8044906445
 30
0.0
 11
-0.0
 21
3.7250427393
 31
0.0
 40
0.1051042353
 41
3.1415926536
 42
6.2831853072
  0
ELLIPSE
  5
3A9
100
AcDbEntity
  8
BEZUGSACHSEN
100
AcDbEllipse
 62
7
  6
CONTINUOUS
 10
152.516024948
 20
145.8044906445
 30
0.0
 11
0.0
 21
3.7250427393
 31
0.0
 40
0.1051042353
 41
0.0
 42
3.1415926536
  0
ELLIPSE
  5
3AA
100
AcDbEntity
  8
BEZUGSACHSEN
100
AcDbEllipse
 62
7
  6
CONTINUOUS
 10
124.500024948
 20
145.8044906445
 30
0.0
 11
-0.0
 21
3.25
 31
0.0
 40
0.1583844403
 41
-3.1415926536
 42
0.0
  0
ELLIPSE
  5
3AB
100
AcDbEntity
  8
0
100
AcDbEllipse
 62
7
  6
CONTINUOUS
 10
107.260024948
 20
145.8044906445
 30
0.0
 11
0.0
 21
3.25
 31
0.0
 40
0.1583844403
 41
0.0
 42
3.1415926536
  0
ENDSEC
  0
SECTION
  2
OBJECTS
  0
DICTIONARY
  5
C
100
AcDbDictionary
280
0
281
1
  3
ACAD_GROUP
350
D
  3
ACAD_MLINESTYLE
350
17
  3
ACAD_LAYOUT
350
1A
  3
ACAD_PLOTSETTINGS
350
19
  3
ACAD_PLOTSTYLENAME
350
E
  0
DICTIONARY
  5
D
102
{ACAD_REACTORS
330
C
102
}
100
AcDbDictionary
280
0
281
1
  0
ACDBDICTIONARYWDFLT
  5
E
102
{ACAD_REACTORS
330
C
102
}
100
AcDbDictionary
281
1
  3
Normal
350
F
100
AcDbDictionaryWithDefault
340
F
  0
DICTIONARY
  5
17
102
{ACAD_REACTORS
330
C
102
}
100
AcDbDictionary
280
0
281
1
  3
Standard
350
18
  0
DICTIONARY
  5
19
102
{ACAD_REACTORS
330
C
102
}
100
AcDbDictionary
281
1
  0
DICTIONARY
  5
1A
102
{ACAD_REACTORS
330
C
102
}
100
AcDbDictionary
281
1
  3
Model
350
3AC
  3
Layout1
350
3AD
  0
ACDBPLACEHOLDER
  5
F
102
{ACAD_REACTORS
330
E
102
}
  0
MLINESTYLE
  5
18
102
{ACAD_REACTORS
330
17
102
}
100
AcDbMlineStyle
  2
STANDARD
 70
0
  3

 62
256
 51
90.0
 52
90.0
 71
2
 49
0.5
 62
256
  6
BYLAYER
 49
-0.5
 62
256
  6
BYLAYER
  0
LAYOUT
  5
3AC
102
{ACAD_REACTORS
330
1A
102
}
100
AcDbPlotSettings
  1

  2
none_device
  4
ISO_A3_(420.00_x_297.00_MM)
  6

 40
0.0
 41
0.0
 42
0.0
 43
0.0
 44
420.0
 45
297.0
 46
0.0
 47
0.0
 48
0.0
 49
0.0
140
0.0
141
0.0
142
1.0
143
1.0
 70
1024
 72
1
 73
0
 74
0
  7

 75
0
147
1.0
148
0.0
149
0.0
100
AcDbLayout
  1
Model
 70
0
 71
0
 10
0.0
 20
0.0
 11
420.0
 21
297.0
 12
0.0
 22
0.0
 32
0.0
 14
0.0
 24
0.0
 34
0.0
 15
0.0
 25
0.0
 35
0.0
146
0.0
 13
0.0
 23
0.0
 33
0.0
 16
1.0
 26
0.0
 36
0.0
 17
0.0
 27
1.0
 37
0.0
 76
0
330
207
345
0
346
0
  0
LAYOUT
  5
3AD
102
{ACAD_REACTORS
330
1A
102
}
100
AcDbPlotSettings
  1

  2
none_device
  4
ISO_A3_(420.00_x_297.00_MM)
  6

 40
0.0
 41
0.0
 42
0.0
 43
0.0
 44
420.0
 45
297.0
 46
0.0
 47
0.0
 48
0.0
 49
0.0
140
0.0
141
0.0
142
1.0
143
1.0
 70
0
 72
1
 73
0
 74
0
  7

 75
0
147
1.0
148
0.0
149
0.0
100
AcDbLayout
  1
Layout1
 70
0
 71
1
 10
0.0
 20
0.0
 11
420.0
 21
297.0
 12
0.0
 22
0.0
 32
0.0
 14
0.0
 24
0.0
 34
0.0
 15
0.0
 25
0.0
 35
0.0
146
0.0
 13
0.0
 23
0.0
 33
0.0
 16
1.0
 26
0.0
 36
0.0
 17
0.0
 27
1.0
 37
0.0
 76
0
330
208
345
0
346
0
  0
ENDSEC
  0
EOF
