999
DXF file: vvs-6-dxf.dxf
999
Pro/ENGINEER 2010140 by Parametric Technology Corporation
  0
SECTION
  2
HEADER
  9
$ACADVER
  1
AC1021
  9
$DWGCODEPAGE
  3
ANSI_1252
  9
$EXTMAX
 10
420.0
 20
297.0
 30
0.0
  9
$EXTMIN
 10
0.0
 20
0.0
 30
0.0
  9
$LIMMIN
 10
0.0
 20
0.0
  9
$LIMMAX
 10
420.0
 20
297.0
  9
$VIEWCTR
 10
210.0
 20
148.5
  9
$VIEWSIZE
 40
297.0
  9
$CLAYER
  8
0
  9
$LTSCALE
 40
23.1
  9
$CELTYPE
  6
BYLAYER
  9
$DIMSCALE
 40
1.0
  9
$DIMASZ
 40
3.5
  9
$DIMEXO
 40
2.625
  9
$DIMDLI
 40
15.96
  9
$DIMEXE
 40
7.56
  9
$DIMCEN
 40
3.78
  9
$DIMLFAC
 40
1.0
  9
$DIMBLK
  1
_FILLED
  9
$DIMTXT
 40
3.5
  9
$DIMTOL
 70
1
  9
$DIMLIM
 70
0
  9
$DIMTFAC
 40
1.0
  9
$DIMTP
 40
0.005
  9
$DIMTM
 40
0.005
  9
$PDMODE
 70
3
  9
$PDSIZE
 40
0.3125
  9
$HANDSEED
  5
3A8
  9
$TILEMODE
 70
1
  9
$MEASUREMENT
 70
1
  9
$INSUNITS
 70
4
  0
ENDSEC
  0
SECTION
  2
CLASSES
  0
CLASS
  1
ACDBDICTIONARYWDFLT
  2
AcDbDictionaryWithDefault
  3
AutoCAD 2000
 90
0
 91
1
280
0
281
0
  0
CLASS
  1
ACDBPLACEHOLDER
  2
AcDbPlaceHolder
  3
AutoCAD 2000
 90
0
 91
1
280
0
281
0
  0
CLASS
  1
LAYOUT
  2
AcDbLayout
  3
AutoCAD 2000
 90
0
 91
0
280
0
281
0
  0
ENDSEC
  0
SECTION
  2
TABLES
  0
TABLE
  2
VPORT
  5
8
100
AcDbSymbolTable
 70
2
  0
VPORT
  5
1F4
100
AcDbSymbolTableRecord
100
AcDbViewportTableRecord
  2
*ACTIVE
 70
0
 10
0.0
 20
0.0
 11
1.0
 21
1.0
 12
210.0
 22
148.5
 13
0.0
 23
0.0
 14
1.0
 24
1.0
 15
0.0
 25
0.0
 16
0.0
 26
0.0
 36
1.0
 17
0.0
 27
0.0
 37
0.0
 40
297.0
 41
1.4141414141
 42
50.0
 43
0.0
 44
0.0
 50
0.0
 51
0.0
 71
0
 72
100
 73
1
 74
1
 75
0
 76
0
 77
0
 78
0
  0
ENDTAB
  0
TABLE
  2
LTYPE
  5
5
100
AcDbSymbolTable
 70
6
  0
LTYPE
  5
14
100
AcDbSymbolTableRecord
100
AcDbLinetypeTableRecord
  2
BYBLOCK
 70
0
  3

 72
65
 73
0
 40
0.0
  0
LTYPE
  5
15
100
AcDbSymbolTableRecord
100
AcDbLinetypeTableRecord
  2
BYLAYER
 70
0
  3

 72
65
 73
0
 40
0.0
  0
LTYPE
  5
16
100
AcDbSymbolTableRecord
100
AcDbLinetypeTableRecord
  2
CONTINUOUS
 70
64
  3
Solid line
 72
65
 73
0
 40
0.0
  0
LTYPE
  5
1F5
100
AcDbSymbolTableRecord
100
AcDbLinetypeTableRecord
  2
CENTER
 70
64
  3
____ _ ____ _ ____ _ ____ _ ____ _ ____ _ ____
 72
65
 73
4
 40
0.6
 49
0.375
 74
0
 49
-0.075
 74
0
 49
0.075
 74
0
 49
-0.075
 74
0
  0
LTYPE
  5
1F6
100
AcDbSymbolTableRecord
100
AcDbLinetypeTableRecord
  2
HIDDEN
 70
64
  3
- - - - - - - - - - - - - - - - - - - -
 72
65
 73
2
 40
0.2
 49
0.1
 74
0
 49
-0.1
 74
0
  0
LTYPE
  5
1F7
100
AcDbSymbolTableRecord
100
AcDbLinetypeTableRecord
  2
PHANTOM
 70
64
  3
_____ _ _ _____ _ _ _____ _ _ _____
 72
65
 73
6
 40
0.8
 49
0.45
 74
0
 49
-0.05
 74
0
 49
0.1
 74
0
 49
-0.05
 74
0
 49
0.1
 74
0
 49
-0.05
 74
0
  0
LTYPE
  5
1F8
100
AcDbSymbolTableRecord
100
AcDbLinetypeTableRecord
  2
DOT
 70
64
  3
. . . . . . . . . . . . . . . . . . . .
 72
65
 73
2
 40
0.2
 49
0.1
 74
0
 49
-0.1
 74
0
  0
LTYPE
  5
1F9
100
AcDbSymbolTableRecord
100
AcDbLinetypeTableRecord
  2
DASHED
 70
64
  3
- - - - - - - - - - - - - - - - - - - -
 72
65
 73
2
 40
0.2
 49
0.1
 74
0
 49
-0.1
 74
0
  0
ENDTAB
  0
TABLE
  2
LAYER
  5
2
100
AcDbSymbolTable
 70
36
  0
LAYER
  5
10
100
AcDbSymbolTableRecord
100
AcDbLayerTableRecord
  2
0
 70
0
 62
7
  6
CONTINUOUS
370
-3
390
F
  0
LAYER
  5
1FA
100
AcDbSymbolTableRecord
100
AcDbLayerTableRecord
  2
DEFAULT_1
 70
0
 62
7
  6
CENTER
370
-3
390
F
  0
LAYER
  5
1FB
100
AcDbSymbolTableRecord
100
AcDbLayerTableRecord
  2
DEFAULT_2
 70
0
 62
8
  6
HIDDEN
370
-3
390
F
  0
LAYER
  5
1FC
100
AcDbSymbolTableRecord
100
AcDbLayerTableRecord
  2
DEFAULT_3
 70
0
 62
7
  6
PHANTOM
370
-3
390
F
  0
LAYER
  5
1FD
100
AcDbSymbolTableRecord
100
AcDbLayerTableRecord
  2
AUSFORMSCHRAEGEN
 70
0
 62
7
  6
CONTINUOUS
370
-3
390
F
  0
LAYER
  5
1FE
100
AcDbSymbolTableRecord
100
AcDbLayerTableRecord
  2
BEZUGSACHSEN
 70
0
 62
7
  6
CONTINUOUS
370
-3
390
F
  0
LAYER
  5
1FF
100
AcDbSymbolTableRecord
100
AcDbLayerTableRecord
  2
BEZUGSEBENEN
 70
0
 62
7
  6
CONTINUOUS
370
-3
390
F
  0
LAYER
  5
200
100
AcDbSymbolTableRecord
100
AcDbLayerTableRecord
  2
HILFEN
 70
0
 62
7
  6
CONTINUOUS
370
-3
390
F
  0
LAYER
  5
201
100
AcDbSymbolTableRecord
100
AcDbLayerTableRecord
  2
PLATZIERUNG
 70
0
 62
7
  6
CONTINUOUS
370
-3
390
F
  0
LAYER
  5
202
100
AcDbSymbolTableRecord
100
AcDbLayerTableRecord
  2
RUNDUNGEN
 70
0
 62
7
  6
CONTINUOUS
370
-3
390
F
  0
LAYER
  5
203
100
AcDbSymbolTableRecord
100
AcDbLayerTableRecord
  2
T_STARTBEZUEGE
 70
0
 62
7
  6
CONTINUOUS
370
-3
390
F
  0
LAYER
  5
204
100
AcDbSymbolTableRecord
100
AcDbLayerTableRecord
  2
ZEICHNUNGSBEMASSUNGEN
 70
0
 62
7
  6
CONTINUOUS
370
-3
390
F
  0
ENDTAB
  0
TABLE
  2
STYLE
  5
3
100
AcDbSymbolTable
 70
1
  0
STYLE
  5
11
100
AcDbSymbolTableRecord
100
AcDbTextStyleTableRecord
  2
STANDARD
 70
0
 40
0.0
 41
0.7
 50
0.0
 71
0
 42
0.2
  3
txt
  4

  0
STYLE
  5
205
100
AcDbSymbolTableRecord
100
AcDbTextStyleTableRecord
  2
TEXTSTYLE_1
 70
0
 40
0.0
 41
0.8
 50
0.0
 71
0
 42
0.2
  3
gdt
  4

  0
ENDTAB
  0
TABLE
  2
VIEW
  5
6
100
AcDbSymbolTable
 70
0
  0
ENDTAB
  0
TABLE
  2
UCS
  5
7
100
AcDbSymbolTable
 70
0
  0
ENDTAB
  0
TABLE
  2
APPID
  5
9
100
AcDbSymbolTable
 70
1
  0
APPID
  5
206
100
AcDbSymbolTableRecord
100
AcDbRegAppTableRecord
  2
ACAD
 70
0
  0
ENDTAB
  0
TABLE
  2
BLOCK_RECORD
  5
1
100
AcDbSymbolTable
 70
0
  0
BLOCK_RECORD
  5
207
100
AcDbSymbolTableRecord
100
AcDbBlockTableRecord
  2
*Model_Space
  0
BLOCK_RECORD
  5
208
100
AcDbSymbolTableRecord
100
AcDbBlockTableRecord
  2
*Paper_Space
  0
ENDTAB
  0
TABLE
  2
DIMSTYLE
  5
A
100
AcDbSymbolTable
 70
1
100
AcDbDimStyleTable
 71
0
  0
DIMSTYLE
105
209
100
AcDbSymbolTableRecord
100
AcDbDimStyleTableRecord
  2
STANDARD
 70
0
  3

  4

 40
1.0
 41
3.5
 42
0.0625
 43
0.38
 44
0.18
 45
0.0
 46
0.0
 47
0.005
 48
0.005
140
3.5
141
0.09
142
0.0
143
25.4
144
1.0
145
0.0
146
1.0
147
0.09
 71
1.0
 72
0.0
 73
0
 74
0
 75
0
 76
0
 77
1
 78
8
170
0
171
2
172
0
173
0
174
0
175
0
176
0
177
0
178
5
270
2
271
3
272
3
273
2
274
2
275
0
280
0
281
0
282
0
283
1
284
8
285
0
286
0
287
3
288
0
340
11
  0
ENDTAB
  0
ENDSEC
  0
SECTION
  2
BLOCKS
  0
BLOCK
  5
20
100
AcDbEntity
  8
0
100
AcDbBlockBegin
  2
*Model_Space
 70
0
 10
0.0
 20
0.0
 30
0.0
  3
*Model_Space
  1

  0
ENDBLK
  5
21
100
AcDbEntity
  8
0
100
AcDbBlockEnd
  0
BLOCK
  5
1C
100
AcDbEntity
  8
0
100
AcDbBlockBegin
  2
*Paper_Space
 70
0
 10
0.0
 20
0.0
 30
0.0
  3
*Paper_Space
  1

  0
ENDBLK
  5
1D
100
AcDbEntity
  8
0
100
AcDbBlockEnd
  0
ENDSEC
  0
SECTION
  2
ENTITIES
  0
LINE
  5
20A
100
AcDbEntity
  8
0
100
AcDbLine
 62
7
  6
CONTINUOUS
 10
0.0
 20
0.0
 11
0.0
 21
297.0
  0
LINE
  5
20B
100
AcDbEntity
  8
0
100
AcDbLine
 62
7
  6
CONTINUOUS
 10
0.0
 20
0.0
 11
420.0
 21
0.0
  0
LINE
  5
20C
100
AcDbEntity
  8
0
100
AcDbLine
 62
7
  6
CONTINUOUS
 10
0.0
 20
297.0
 11
420.0
 21
297.0
  0
LINE
  5
20D
100
AcDbEntity
  8
0
100
AcDbLine
 62
7
  6
CONTINUOUS
 10
420.0
 20
0.0
 11
420.0
 21
297.0
  0
LINE
  5
20E
100
AcDbEntity
  8
BEZUGSACHSEN
100
AcDbLine
 62
7
  6
CONTINUOUS
 10
111.2058814131
 20
174.5008521743
 11
110.7335681189
 21
174.3513929069
  0
LINE
  5
20F
100
AcDbEntity
  8
BEZUGSACHSEN
100
AcDbLine
 62
7
  6
CONTINUOUS
 10
108.3467311148
 20
173.3021958528
 11
108.0445616801
 21
173.2096768315
  0
LINE
  5
210
100
AcDbEntity
  8
0
100
AcDbLine
 62
7
  6
CONTINUOUS
 10
118.0801555954
 20
116.4241999614
 11
118.5726585004
 21
116.4776686147
  0
LINE
  5
211
100
AcDbEntity
  8
0
100
AcDbLine
 62
7
  6
CONTINUOUS
 10
88.388024948
 20
142.0572946581
 11
88.388024948
 21
143.0565266157
  0
LINE
  5
212
100
AcDbEntity
  8
0
100
AcDbLine
 62
7
  6
CONTINUOUS
 10
88.388024948
 20
148.5524546732
 11
88.388024948
 21
149.1654697297
  0
LINE
  5
213
100
AcDbEntity
  8
BEZUGSACHSEN
100
AcDbLine
 62
7
  6
CONTINUOUS
 10
107.6094790625
 20
172.9727787833
 11
107.3677942916
 21
172.7691747359
  0
LINE
  5
214
100
AcDbEntity
  8
BEZUGSACHSEN
100
AcDbLine
 62
7
  6
CONTINUOUS
 10
102.8615089955
 20
169.0293644133
 11
102.6156473865
 21
168.8308231212
  0
LINE
  5
215
100
AcDbEntity
  8
BEZUGSACHSEN
100
AcDbLine
 62
7
  6
CONTINUOUS
 10
102.8989419241
 20
168.6773038532
 11
103.0659686929
 21
168.7803258835
  0
LINE
  5
216
100
AcDbEntity
  8
BEZUGSACHSEN
100
AcDbLine
 62
7
  6
CONTINUOUS
 10
108.0445616801
 20
173.2096768315
 11
107.6094790625
 21
172.9727787833
  0
LINE
  5
217
100
AcDbEntity
  8
BEZUGSACHSEN
100
AcDbLine
 62
7
  6
CONTINUOUS
 10
107.7909330592
 20
172.6395236953
 11
108.2260156769
 21
172.8764217436
  0
LINE
  5
218
100
AcDbEntity
  8
BEZUGSACHSEN
100
AcDbLine
 62
7
  6
CONTINUOUS
 10
108.8727952429
 20
172.7245225346
 11
109.1991075174
 21
172.9021962402
  0
LINE
  5
219
100
AcDbEntity
  8
BEZUGSACHSEN
100
AcDbLine
 62
7
  6
CONTINUOUS
 10
108.5708803362
 20
171.9840596616
 11
108.2445680618
 21
171.806385956
  0
LINE
  5
21A
100
AcDbEntity
  8
BEZUGSACHSEN
100
AcDbLine
 62
7
  6
CONTINUOUS
 10
108.4260220374
 20
171.473130907
 11
108.7523343118
 21
171.6508046126
  0
LINE
  5
21B
100
AcDbEntity
  8
BEZUGSACHSEN
100
AcDbLine
 62
7
  6
CONTINUOUS
 10
108.3718908111
 20
170.7955744722
 11
108.0455785366
 21
170.6179007666
  0
LINE
  5
21C
100
AcDbEntity
  8
BEZUGSACHSEN
100
AcDbLine
 62
7
  6
CONTINUOUS
 10
103.204920545
 20
169.1473930562
 11
102.8615089955
 21
169.0293644133
  0
LINE
  5
21D
100
AcDbEntity
  8
BEZUGSACHSEN
100
AcDbLine
 62
7
  6
CONTINUOUS
 10
110.6856970107
 20
171.2185938243
 11
111.0399320658
 21
171.3306883016
  0
LINE
  5
21E
100
AcDbEntity
  8
BEZUGSACHSEN
100
AcDbLine
 62
7
  6
CONTINUOUS
 10
112.6930291023
 20
171.8537958977
 11
113.0472641574
 21
171.965890375
  0
LINE
  5
21F
100
AcDbEntity
  8
BEZUGSACHSEN
100
AcDbLine
 62
7
  6
CONTINUOUS
 10
108.1238526053
 20
171.3806118808
 11
108.4260220374
 21
171.473130907
  0
LINE
  5
220
100
AcDbEntity
  8
BEZUGSACHSEN
100
AcDbLine
 62
7
  6
CONTINUOUS
 10
103.0659686929
 20
168.7803258835
 11
103.2817708788
 21
168.8430921393
  0
LINE
  5
221
100
AcDbEntity
  8
0
100
AcDbLine
 62
7
  6
CONTINUOUS
 10
124.5500342192
 20
118.7325595454
 11
124.3022499587
 21
118.6696526906
  0
LINE
  5
222
100
AcDbEntity
  8
0
100
AcDbLine
 62
7
  6
CONTINUOUS
 10
123.9573859218
 20
119.5620151114
 11
124.2051695599
 21
119.6249216274
  0
LINE
  5
223
100
AcDbEntity
  8
0
100
AcDbLine
 62
7
  6
CONTINUOUS
 10
124.5314818343
 20
119.802595333
 11
124.7792660948
 21
119.8655021878
  0
LINE
  5
224
100
AcDbEntity
  8
0
100
AcDbLine
 62
7
  6
CONTINUOUS
 10
124.0237155843
 20
119.9581766764
 11
123.8303171178
 21
119.9248823318
  0
LINE
  5
225
100
AcDbEntity
  8
0
100
AcDbLine
 62
7
  6
CONTINUOUS
 10
123.9266351642
 20
120.913445652
 11
124.1200336307
 21
120.9467399967
  0
LINE
  5
226
100
AcDbEntity
  8
0
100
AcDbLine
 62
7
  6
CONTINUOUS
 10
119.2368523715
 20
119.539623527
 11
118.8674751708
 21
119.4995220347
  0
LINE
  5
227
100
AcDbEntity
  8
0
100
AcDbLine
 62
7
  6
CONTINUOUS
 10
117.1437149594
 20
119.3123817435
 11
116.7743377587
 21
119.2722802511
  0
LINE
  5
228
100
AcDbEntity
  8
0
100
AcDbLine
 62
7
  6
CONTINUOUS
 10
123.6793599544
 20
119.5546511036
 11
123.9573859218
 21
119.5620151114
  0
LINE
  5
229
100
AcDbEntity
  8
0
100
AcDbLine
 62
7
  6
CONTINUOUS
 10
124.9302232581
 20
120.2357334159
 11
124.6521972908
 21
120.2283694081
  0
LINE
  5
22A
100
AcDbEntity
  8
0
100
AcDbLine
 62
7
  6
CONTINUOUS
 10
124.0666646827
 20
118.325351441
 11
124.4293187812
 21
118.3067854362
  0
LINE
  5
22B
100
AcDbEntity
  8
BEZUGSACHSEN
100
AcDbLine
 62
7
  6
CONTINUOUS
 10
100.4186936896
 20
121.3847766191
 11
89.0776150082
 21
139.6404728162
  0
LINE
  5
22C
100
AcDbEntity
  8
BEZUGSACHSEN
100
AcDbLine
 62
7
  6
CENTER
 10
93.0675269662
 20
145.8044906445
 11
93.0675269662
 21
141.5544906445
  0
LINE
  5
22D
100
AcDbEntity
  8
BEZUGSACHSEN
100
AcDbLine
 62
7
  6
CENTER
 10
93.0675269662
 20
145.8044906445
 11
93.0675269662
 21
150.0544906445
  0
LINE
  5
22E
100
AcDbEntity
  8
BEZUGSACHSEN
100
AcDbLine
 62
7
  6
CONTINUOUS
 10
102.4185621011
 20
168.5920271442
 11
102.2702522371
 21
168.3129753892
  0
LINE
  5
22F
100
AcDbEntity
  8
RUNDUNGEN
100
AcDbLine
 62
7
  6
CONTINUOUS
 10
90.9982864828
 20
153.6113789854
 11
88.799892663
 21
150.4717472337
  0
LINE
  5
230
100
AcDbEntity
  8
BEZUGSACHSEN
100
AcDbLine
 62
7
  6
CONTINUOUS
 10
102.6156473865
 20
168.8308231212
 11
102.4185621011
 21
168.5920271442
  0
LINE
  5
231
100
AcDbEntity
  8
BEZUGSACHSEN
100
AcDbLine
 62
7
  6
CONTINUOUS
 10
102.6230218028
 20
168.3429886109
 11
102.8989419241
 21
168.6773038532
  0
LINE
  5
232
100
AcDbEntity
  8
BEZUGSACHSEN
100
AcDbLine
 62
7
  6
CONTINUOUS
 10
103.8744503687
 20
167.8721882787
 11
103.5985302474
 21
167.5378730364
  0
LINE
  5
233
100
AcDbEntity
  8
BEZUGSACHSEN
100
AcDbLine
 62
7
  6
CONTINUOUS
 10
103.8818247509
 20
167.3843537966
 11
104.0789100363
 21
167.6231497736
  0
LINE
  5
234
100
AcDbEntity
  8
BEZUGSACHSEN
100
AcDbLine
 62
7
  6
CONTINUOUS
 10
103.8591407531
 20
166.7607452551
 11
103.6620545655
 21
166.521948185
  0
LINE
  5
235
100
AcDbEntity
  8
BEZUGSACHSEN
100
AcDbLine
 62
7
  6
CONTINUOUS
 10
107.6036334573
 20
172.4655318241
 11
107.7909330592
 21
172.6395236953
  0
LINE
  5
236
100
AcDbEntity
  8
BEZUGSACHSEN
100
AcDbLine
 62
7
  6
CONTINUOUS
 10
109.3571809818
 20
170.5399542935
 11
109.5444799614
 21
170.7139458258
  0
LINE
  5
237
100
AcDbEntity
  8
BEZUGSACHSEN
100
AcDbLine
 62
7
  6
CONTINUOUS
 10
103.6359640484
 20
167.1858135941
 11
103.8818247509
 21
167.3843537966
  0
LINE
  5
238
100
AcDbEntity
  8
BEZUGSACHSEN
100
AcDbLine
 62
7
  6
CONTINUOUS
 10
104.5045627915
 20
166.5492238545
 11
104.7504243962
 21
166.7477651501
  0
LINE
  5
239
100
AcDbEntity
  8
BEZUGSACHSEN
100
AcDbLine
 62
7
  6
CONTINUOUS
 10
103.5985302474
 20
167.5378730364
 11
103.4315034786
 21
167.4348510061
  0
LINE
  5
23A
100
AcDbEntity
  8
BEZUGSACHSEN
100
AcDbLine
 62
7
  6
CONTINUOUS
 10
104.4671298928
 20
166.9012843899
 11
104.300103124
 21
166.7982623596
  0
LINE
  5
23B
100
AcDbEntity
  8
BEZUGSACHSEN
100
AcDbLine
 62
7
  6
CONTINUOUS
 10
109.1757270062
 20
170.8732093426
 11
108.8494147318
 21
170.6955356369
  0
LINE
  5
23C
100
AcDbEntity
  8
BEZUGSACHSEN
100
AcDbLine
 62
7
  6
CONTINUOUS
 10
109.085253879
 20
170.3918927592
 11
109.3571809818
 21
170.5399542935
  0
LINE
  5
23D
100
AcDbEntity
  8
BEZUGSACHSEN
100
AcDbLine
 62
7
  6
CONTINUOUS
 10
103.2925516095
 20
167.0677838475
 11
103.6359640484
 21
167.1858135941
  0
LINE
  5
23E
100
AcDbEntity
  8
BEZUGSACHSEN
100
AcDbLine
 62
7
  6
CONTINUOUS
 10
104.1611512548
 20
166.431195201
 11
104.5045627915
 21
166.5492238545
  0
LINE
  5
23F
100
AcDbEntity
  8
BEZUGSACHSEN
100
AcDbLine
 62
7
  6
CONTINUOUS
 10
108.7830844469
 20
170.2993737331
 11
109.085253879
 21
170.3918927592
  0
LINE
  5
240
100
AcDbEntity
  8
BEZUGSACHSEN
100
AcDbLine
 62
7
  6
CONTINUOUS
 10
103.4315034786
 20
167.4348510061
 11
103.2157012927
 21
167.3720847503
  0
LINE
  5
241
100
AcDbEntity
  8
BEZUGSACHSEN
100
AcDbLine
 62
7
  6
CONTINUOUS
 10
104.300103124
 20
166.7982623596
 11
104.0843009381
 21
166.7354961038
  0
LINE
  5
242
100
AcDbEntity
  8
0
100
AcDbLine
 62
7
  6
CONTINUOUS
 10
123.8303171178
 20
119.9248823318
 11
123.606676322
 21
119.9471304953
  0
LINE
  5
243
100
AcDbEntity
  8
0
100
AcDbLine
 62
7
  6
CONTINUOUS
 10
124.7792660948
 20
119.8655021878
 11
125.0029068905
 21
119.8432540243
  0
LINE
  5
244
100
AcDbEntity
  8
0
100
AcDbLine
 62
7
  6
CONTINUOUS
 10
124.3012337457
 20
121.2614290555
 11
123.9929654491
 21
121.3096075559
  0
LINE
  5
245
100
AcDbEntity
  8
0
100
AcDbLine
 62
7
  6
CONTINUOUS
 10
124.3022499587
 20
118.6696526906
 11
124.0483668125
 21
118.7474434012
  0
LINE
  5
246
100
AcDbEntity
  8
0
100
AcDbLine
 62
7
  6
CONTINUOUS
 10
123.3408487062
 20
119.6583717733
 11
123.6793599544
 21
119.5546511036
  0
LINE
  5
247
100
AcDbEntity
  8
BEZUGSACHSEN
100
AcDbLine
 62
7
  6
CONTINUOUS
 10
102.5535458683
 20
168.1594550316
 11
102.6230218028
 21
168.3429886109
  0
LINE
  5
248
100
AcDbEntity
  8
BEZUGSACHSEN
100
AcDbLine
 62
7
  6
CONTINUOUS
 10
107.5009619998
 20
172.2656099161
 11
107.6036334573
 21
172.4655318241
  0
LINE
  5
249
100
AcDbEntity
  8
BEZUGSACHSEN
100
AcDbLine
 62
7
  6
CONTINUOUS
 10
104.0789100363
 20
167.6231497736
 11
104.2272208067
 21
167.9022026182
  0
LINE
  5
24A
100
AcDbEntity
  8
BEZUGSACHSEN
100
AcDbLine
 62
7
  6
CONTINUOUS
 10
104.9080922637
 20
166.9388014945
 11
105.0564030341
 21
167.2178543391
  0
LINE
  5
24B
100
AcDbEntity
  8
BEZUGSACHSEN
100
AcDbLine
 62
7
  6
CONTINUOUS
 10
107.3677942916
 20
172.7691747359
 11
107.2107376492
 21
172.5396406809
  0
LINE
  5
24C
100
AcDbEntity
  8
BEZUGSACHSEN
100
AcDbLine
 62
7
  6
CONTINUOUS
 10
104.7036325961
 20
167.1878399996
 11
104.4671298928
 21
166.9012843899
  0
LINE
  5
24D
100
AcDbEntity
  8
BEZUGSACHSEN
100
AcDbLine
 62
7
  6
CONTINUOUS
 10
104.7504243962
 20
166.7477651501
 11
104.9080922637
 21
166.9388014945
  0
LINE
  5
24E
100
AcDbEntity
  8
BEZUGSACHSEN
100
AcDbLine
 62
7
  6
CONTINUOUS
 10
109.3086408142
 20
171.0175887035
 11
109.1757270062
 21
170.8732093426
  0
LINE
  5
24F
100
AcDbEntity
  8
0
100
AcDbLine
 62
7
  6
CONTINUOUS
 10
129.5603486033
 20
124.2368965387
 11
129.7367333712
 21
124.2519031619
  0
LINE
  5
250
100
AcDbEntity
  8
0
100
AcDbLine
 62
7
  6
CONTINUOUS
 10
129.7480758895
 20
124.5637079228
 11
129.4834982866
 21
124.5411974415
  0
LINE
  5
251
100
AcDbEntity
  8
0
100
AcDbLine
 62
7
  6
CONTINUOUS
 10
129.2577763139
 20
122.47933354
 11
129.5711293511
 21
122.4615882327
  0
LINE
  5
252
100
AcDbEntity
  8
0
100
AcDbLine
 62
7
  6
CONTINUOUS
 10
129.4942790173
 20
122.7658891496
 11
129.2691187981
 21
122.7911383291
  0
LINE
  5
253
100
AcDbEntity
  8
0
100
AcDbLine
 62
7
  6
CONTINUOUS
 10
125.2687345064
 20
120.1320127462
 11
124.9302232581
 21
120.2357334159
  0
LINE
  5
254
100
AcDbEntity
  8
0
100
AcDbLine
 62
7
  6
CONTINUOUS
 10
124.1200336307
 20
120.9467399967
 11
124.2892892548
 21
120.8948796618
  0
LINE
  5
255
100
AcDbEntity
  8
RUNDUNGEN
100
AcDbLine
 62
7
  6
CONTINUOUS
 10
96.5561846352
 20
139.4657526828
 11
96.5561846352
 21
153.0894972111
  0
LINE
  5
256
100
AcDbEntity
  8
BEZUGSACHSEN
100
AcDbLine
 62
7
  6
CONTINUOUS
 10
96.7085229299
 20
140.0966190846
 11
96.7085229299
 21
149.6549756323
  0
LINE
  5
257
100
AcDbEntity
  8
BEZUGSACHSEN
100
AcDbLine
 62
7
  6
CONTINUOUS
 10
102.2702522371
 20
168.3129753892
 11
102.2194923137
 21
167.953410985
  0
LINE
  5
258
100
AcDbEntity
  8
BEZUGSACHSEN
100
AcDbLine
 62
7
  6
CONTINUOUS
 10
103.9439263033
 20
168.0557218581
 11
103.8744503687
 21
167.8721882787
  0
LINE
  5
259
100
AcDbEntity
  8
BEZUGSACHSEN
100
AcDbLine
 62
7
  6
CONTINUOUS
 10
104.7731085307
 20
167.3713735789
 11
104.7036325961
 21
167.1878399996
  0
LINE
  5
25A
100
AcDbEntity
  8
BEZUGSACHSEN
100
AcDbLine
 62
7
  6
CONTINUOUS
 10
109.4113122929
 20
171.2175105727
 11
109.3086408142
 21
171.0175887035
  0
LINE
  5
25B
100
AcDbEntity
  8
BEZUGSACHSEN
100
AcDbLine
 62
7
  6
CONTINUOUS
 10
109.5444799614
 20
170.7139458258
 11
109.7015366117
 21
170.9434798663
  0
LINE
  5
25C
100
AcDbEntity
  8
0
100
AcDbLine
 62
7
  6
CONTINUOUS
 10
128.9282516613
 20
125.1600407948
 11
128.6148986412
 21
125.177786088
  0
LINE
  5
25D
100
AcDbEntity
  8
0
100
AcDbLine
 62
7
  6
CONTINUOUS
 10
128.6917489579
 20
124.8734851852
 11
128.916909143
 21
124.8482360339
  0
LINE
  5
25E
100
AcDbEntity
  8
0
100
AcDbLine
 62
7
  6
CONTINUOUS
 10
128.9350648094
 20
122.5850937219
 11
129.2577763139
 21
122.47933354
  0
LINE
  5
25F
100
AcDbEntity
  8
0
100
AcDbLine
 62
7
  6
CONTINUOUS
 10
124.5853592
 20
121.1280958756
 11
124.3012337457
 21
121.2614290555
  0
LINE
  5
260
100
AcDbEntity
  8
0
100
AcDbLine
 62
7
  6
CONTINUOUS
 10
125.0029068905
 20
119.8432540243
 11
125.2024042639
 21
119.7358507646
  0
LINE
  5
261
100
AcDbEntity
  8
0
100
AcDbLine
 62
7
  6
CONTINUOUS
 10
123.7522968674
 20
118.5142271874
 11
124.0666646827
 21
118.325351441
  0
LINE
  5
262
100
AcDbEntity
  8
BEZUGSACHSEN
100
AcDbLine
 62
7
  6
CONTINUOUS
 10
102.5328453508
 20
167.9356656778
 11
102.5535458683
 21
168.1594550316
  0
LINE
  5
263
100
AcDbEntity
  8
BEZUGSACHSEN
100
AcDbLine
 62
7
  6
CONTINUOUS
 10
103.9646268207
 20
168.2795112119
 11
103.9439263033
 21
168.0557218581
  0
LINE
  5
264
100
AcDbEntity
  8
BEZUGSACHSEN
100
AcDbLine
 62
7
  6
CONTINUOUS
 10
104.2272208067
 20
167.9022026182
 11
104.2686218416
 21
168.3497813259
  0
LINE
  5
265
100
AcDbEntity
  8
BEZUGSACHSEN
100
AcDbLine
 62
7
  6
CONTINUOUS
 10
105.0564030341
 20
167.2178543391
 11
105.1071620682
 21
167.5774176396
  0
LINE
  5
266
100
AcDbEntity
  8
BEZUGSACHSEN
100
AcDbLine
 62
7
  6
CONTINUOUS
 10
107.2107376492
 20
172.5396406809
 11
107.1141650457
 21
172.1990212657
  0
LINE
  5
267
100
AcDbEntity
  8
0
100
AcDbLine
 62
7
  6
CONTINUOUS
 10
130.0707869088
 20
124.4579472225
 11
129.7480758895
 21
124.5637079228
  0
LINE
  5
268
100
AcDbEntity
  8
0
100
AcDbLine
 62
7
  6
CONTINUOUS
 10
129.2691187981
 20
122.7911383291
 11
129.0833751288
 21
122.86414602
  0
LINE
  5
269
100
AcDbEntity
  8
0
100
AcDbLine
 62
7
  6
CONTINUOUS
 10
129.7367333712
 20
124.2519031619
 11
129.9224771088
 21
124.1788954147
  0
LINE
  5
26A
100
AcDbEntity
  8
0
100
AcDbLine
 62
7
  6
CONTINUOUS
 10
129.1139953305
 20
125.087033104
 11
128.9282516613
 21
125.1600407948
  0
LINE
  5
26B
100
AcDbEntity
  8
0
100
AcDbLine
 62
7
  6
CONTINUOUS
 10
125.498474209
 20
119.9690669783
 11
125.2687345064
 21
120.1320127462
  0
LINE
  5
26C
100
AcDbEntity
  8
0
100
AcDbLine
 62
7
  6
CONTINUOUS
 10
124.2892892548
 20
120.8948796618
 11
124.404159085
 21
120.8134068168
  0
LINE
  5
26D
100
AcDbEntity
  8
0
100
AcDbLine
 62
7
  6
CONTINUOUS
 10
124.0483668125
 20
118.7474434012
 11
123.9032546531
 21
118.8844587544
  0
LINE
  5
26E
100
AcDbEntity
  8
BEZUGSACHSEN
100
AcDbLine
 62
7
  6
CONTINUOUS
 10
104.7938090481
 20
167.5951629327
 11
104.7731085307
 21
167.3713735789
  0
LINE
  5
26F
100
AcDbEntity
  8
BEZUGSACHSEN
100
AcDbLine
 62
7
  6
CONTINUOUS
 10
109.7015366117
 20
170.9434798663
 11
109.7981092258
 21
171.284099262
  0
LINE
  5
270
100
AcDbEntity
  8
0
100
AcDbLine
 62
7
  6
CONTINUOUS
 10
128.5542198545
 20
122.8191251137
 11
128.9350648094
 21
122.5850937219
  0
LINE
  5
271
100
AcDbEntity
  8
0
100
AcDbLine
 62
7
  6
CONTINUOUS
 10
123.606676322
 20
119.9471304953
 11
123.4615641626
 21
120.0841458485
  0
LINE
  5
272
100
AcDbEntity
  8
0
100
AcDbLine
 62
7
  6
CONTINUOUS
 10
124.7304713594
 20
120.9910805224
 11
124.5853592
 21
121.1280958756
  0
LINE
  5
273
100
AcDbEntity
  8
0
100
AcDbLine
 62
7
  6
CONTINUOUS
 10
123.5769423787
 20
118.7067850488
 11
123.7522968674
 21
118.5142271874
  0
LINE
  5
274
100
AcDbEntity
  8
0
100
AcDbLine
 62
7
  6
CONTINUOUS
 10
123.1654942175
 20
119.8509296347
 11
123.3408487062
 21
119.6583717733
  0
LINE
  5
275
100
AcDbEntity
  8
0
100
AcDbLine
 62
7
  6
CONTINUOUS
 10
121.6918454952
 20
117.5446306652
 11
120.0830207937
 21
119.7551853913
  0
LINE
  5
276
100
AcDbEntity
  8
0
100
AcDbLine
 62
7
  6
CONTINUOUS
 10
119.7287857386
 20
119.643090914
 11
121.5701684829
 21
117.1081291147
  0
LINE
  5
277
100
AcDbEntity
  8
BEZUGSACHSEN
100
AcDbLine
 62
7
  6
CONTINUOUS
 10
103.9459099202
 20
168.455540933
 11
103.9646268207
 21
168.2795112119
  0
LINE
  5
278
100
AcDbEntity
  8
BEZUGSACHSEN
100
AcDbLine
 62
7
  6
CONTINUOUS
 10
105.288024948
 20
151.9808454454
 11
105.288024948
 21
140.0966190765
  0
LINE
  5
279
100
AcDbEntity
  8
RUNDUNGEN
100
AcDbLine
 62
7
  6
CONTINUOUS
 10
105.388024948
 20
139.4657526828
 11
105.388024948
 21
153.0894972111
  0
LINE
  5
27A
100
AcDbEntity
  8
BEZUGSACHSEN
100
AcDbLine
 62
7
  6
CONTINUOUS
 10
105.388024948
 20
154.0893501734
 11
105.388024948
 21
157.3034960683
  0
LINE
  5
27B
100
AcDbEntity
  8
BEZUGSACHSEN
100
AcDbLine
 62
7
  6
CONTINUOUS
 10
107.4829186444
 20
172.0397580489
 11
107.5009619998
 21
172.2656099161
  0
LINE
  5
27C
100
AcDbEntity
  8
BEZUGSACHSEN
100
AcDbLine
 62
7
  6
CONTINUOUS
 10
114.2033913957
 20
175.1313126743
 11
113.5391975245
 21
172.0693577619
  0
LINE
  5
27D
100
AcDbEntity
  8
0
100
AcDbLine
 62
7
  6
CONTINUOUS
 10
128.2127919348
 20
123.1009155351
 11
128.5542198545
 21
122.8191251137
  0
LINE
  5
27E
100
AcDbEntity
  8
0
100
AcDbLine
 62
7
  6
CONTINUOUS
 10
128.5074280544
 20
123.2591999631
 11
128.4098772202
 21
123.3397115121
  0
LINE
  5
27F
100
AcDbEntity
  8
0
100
AcDbLine
 62
7
  6
CONTINUOUS
 10
129.0833751288
 20
122.86414602
 11
128.9370488775
 21
122.9849133434
  0
LINE
  5
280
100
AcDbEntity
  8
0
100
AcDbLine
 62
7
  6
CONTINUOUS
 10
118.2854522884
 20
116.8281705724
 11
117.1437149594
 21
119.3123817435
  0
LINE
  5
281
100
AcDbEntity
  8
0
100
AcDbLine
 62
7
  6
CONTINUOUS
 10
116.7743377587
 20
119.2722802511
 11
118.0801555954
 21
116.4241999614
  0
LINE
  5
282
100
AcDbEntity
  8
BEZUGSACHSEN
100
AcDbLine
 62
7
  6
CONTINUOUS
 10
102.2194923137
 20
167.953410985
 11
102.2963426475
 21
167.6491100681
  0
LINE
  5
283
100
AcDbEntity
  8
BEZUGSACHSEN
100
AcDbLine
 62
7
  6
CONTINUOUS
 10
107.1141650457
 20
172.1990212657
 11
107.1263640407
 21
171.9176268515
  0
LINE
  5
284
100
AcDbEntity
  8
0
100
AcDbLine
 62
7
  6
CONTINUOUS
 10
109.388024948
 20
153.0880878362
 11
109.388024948
 21
148.2020156445
  0
LINE
  5
285
100
AcDbEntity
  8
0
100
AcDbLine
 62
7
  6
CONTINUOUS
 10
109.388024948
 20
143.4069656445
 11
109.388024948
 21
136.2207553146
  0
LINE
  5
286
100
AcDbEntity
  8
BEZUGSACHSEN
100
AcDbLine
 62
7
  6
CONTINUOUS
 10
110.7335681189
 20
174.3513929069
 11
110.6856970107
 21
171.2185938243
  0
LINE
  5
287
100
AcDbEntity
  8
BEZUGSACHSEN
100
AcDbLine
 62
7
  6
CONTINUOUS
 10
111.0399320658
 20
171.3306883016
 11
111.0842044008
 21
174.0643506237
  0
LINE
  5
288
100
AcDbEntity
  8
BEZUGSACHSEN
100
AcDbLine
 62
7
  6
CONTINUOUS
 10
113.9085747253
 20
172.1094592543
 11
114.4905976077
 21
174.7808107165
  0
LINE
  5
289
100
AcDbEntity
  8
BEZUGSACHSEN
100
AcDbLine
 62
7
  6
CONTINUOUS
 10
124.3154308634
 20
137.6034960683
 11
126.4720369384
 21
137.6034960683
  0
LINE
  5
28A
100
AcDbEntity
  8
BEZUGSACHSEN
100
AcDbLine
 62
7
  6
CONTINUOUS
 10
137.1358532704
 20
137.6034960683
 11
141.0188146398
 21
137.6034960683
  0
LINE
  5
28B
100
AcDbEntity
  8
RUNDUNGEN
100
AcDbLine
 62
7
  6
CONTINUOUS
 10
104.4720369384
 20
138.5497646733
 11
97.4721726448
 21
138.5497646733
  0
LINE
  5
28C
100
AcDbEntity
  8
BEZUGSACHSEN
100
AcDbLine
 62
7
  6
CONTINUOUS
 10
97.6245109395
 20
139.1806104099
 11
104.3720369384
 21
139.1806104099
  0
LINE
  5
28D
100
AcDbEntity
  8
0
100
AcDbLine
 62
7
  6
CONTINUOUS
 10
129.9224771088
 20
124.1788954147
 11
130.0688033601
 21
124.0581280912
  0
LINE
  5
28E
100
AcDbEntity
  8
0
100
AcDbLine
 62
7
  6
CONTINUOUS
 10
130.3146640626
 20
124.2566682937
 11
130.0707869088
 21
124.4579472225
  0
LINE
  5
28F
100
AcDbEntity
  8
0
100
AcDbLine
 62
7
  6
CONTINUOUS
 10
127.9107809819
 20
123.4304650427
 11
128.2127919348
 21
123.1009155351
  0
LINE
  5
290
100
AcDbEntity
  8
0
100
AcDbLine
 62
7
  6
CONTINUOUS
 10
128.4098772202
 20
123.3397115121
 11
128.1566421355
 21
123.6290057917
  0
LINE
  5
291
100
AcDbEntity
  8
0
100
AcDbLine
 62
7
  6
CONTINUOUS
 10
123.0445248157
 20
120.073099823
 11
123.1654942175
 21
119.8509296347
  0
LINE
  5
292
100
AcDbEntity
  8
0
100
AcDbLine
 62
7
  6
CONTINUOUS
 10
123.4615641626
 20
120.0841458485
 11
123.4010795041
 21
120.1952308649
  0
LINE
  5
293
100
AcDbEntity
  8
BEZUGSACHSEN
100
AcDbLine
 62
7
  6
CONTINUOUS
 10
102.6003377026
 20
167.7193801539
 11
102.5328453508
 21
167.9356656778
  0
LINE
  5
294
100
AcDbEntity
  8
BEZUGSACHSEN
100
AcDbLine
 62
7
  6
CONTINUOUS
 10
105.1071620682
 20
167.5774176396
 11
105.0303117515
 21
167.8817185424
  0
LINE
  5
295
100
AcDbEntity
  8
0
100
AcDbLine
 62
7
  6
CONTINUOUS
 10
125.2024042639
 20
119.7358507646
 11
125.2931312517
 21
119.56922324
  0
LINE
  5
296
100
AcDbEntity
  8
0
100
AcDbLine
 62
7
  6
CONTINUOUS
 10
125.6496858554
 20
119.6913544375
 11
125.498474209
 21
119.9690669783
  0
LINE
  5
297
100
AcDbEntity
  8
BEZUGSACHSEN
100
AcDbLine
 62
7
  6
CONTINUOUS
 10
104.7263167305
 20
167.8114484284
 11
104.7938090481
 21
167.5951629327
  0
LINE
  5
298
100
AcDbEntity
  8
T_STARTBEZUEGE
100
AcDbLine
 62
7
  6
CENTER
 10
116.388024948
 20
109.5054852207
 11
116.388024948
 21
182.1034960683
  0
LINE
  5
299
100
AcDbEntity
  8
0
100
AcDbLine
 62
7
  6
CONTINUOUS
 10
96.5561846352
 20
143.4069656445
 11
96.7085229299
 21
143.4069656445
  0
LINE
  5
29A
100
AcDbEntity
  8
0
100
AcDbLine
 62
7
  6
CONTINUOUS
 10
105.288024948
 20
143.4069656445
 11
105.388024948
 21
143.4069656445
  0
LINE
  5
29B
100
AcDbEntity
  8
0
100
AcDbLine
 62
7
  6
CONTINUOUS
 10
109.388024948
 20
143.4069656445
 11
123.388024948
 21
143.4069656445
  0
LINE
  5
29C
100
AcDbEntity
  8
0
100
AcDbLine
 62
7
  6
CONTINUOUS
 10
127.388024948
 20
143.4069656445
 11
127.488024948
 21
143.4069656445
  0
LINE
  5
29D
100
AcDbEntity
  8
0
100
AcDbLine
 62
7
  6
CONTINUOUS
 10
136.0675269662
 20
143.4069656445
 11
136.2198652608
 21
143.4069656445
  0
LINE
  5
29E
100
AcDbEntity
  8
BEZUGSACHSEN
100
AcDbLine
 62
7
  6
CENTER
 10
139.7085229299
 20
145.8044906445
 11
135.4585229299
 21
145.8044906445
  0
LINE
  5
29F
100
AcDbEntity
  8
BEZUGSACHSEN
100
AcDbLine
 62
7
  6
CENTER
 10
93.0675269662
 20
145.8044906445
 11
88.8175269662
 21
145.8044906445
  0
LINE
  5
2A0
100
AcDbEntity
  8
T_STARTBEZUEGE
100
AcDbLine
 62
7
  6
CENTER
 10
85.386803819
 20
145.8044906445
 11
147.3892460771
 21
145.8044906445
  0
LINE
  5
2A1
100
AcDbEntity
  8
BEZUGSACHSEN
100
AcDbLine
 62
7
  6
CENTER
 10
93.0675269662
 20
145.8044906445
 11
97.3175269662
 21
145.8044906445
  0
LINE
  5
2A2
100
AcDbEntity
  8
BEZUGSACHSEN
100
AcDbLine
 62
7
  6
CENTER
 10
139.7085229299
 20
145.8044906445
 11
143.9585229299
 21
145.8044906445
  0
LINE
  5
2A3
100
AcDbEntity
  8
0
100
AcDbLine
 62
7
  6
CONTINUOUS
 10
128.1566421355
 20
123.6290057917
 11
128.0497331655
 21
123.7975328606
  0
LINE
  5
2A4
100
AcDbEntity
  8
0
100
AcDbLine
 62
7
  6
CONTINUOUS
 10
128.9370488775
 20
122.9849133434
 11
128.8301399758
 21
123.153440356
  0
LINE
  5
2A5
100
AcDbEntity
  8
0
100
AcDbLine
 62
7
  6
CONTINUOUS
 10
130.0688033601
 20
124.0581280912
 11
130.1757121935
 21
123.8896011351
  0
LINE
  5
2A6
100
AcDbEntity
  8
BEZUGSACHSEN
100
AcDbLine
 62
7
  6
CONTINUOUS
 10
102.7072465359
 20
167.5508531978
 11
102.6003377026
 21
167.7193801539
  0
LINE
  5
2A7
100
AcDbEntity
  8
BEZUGSACHSEN
100
AcDbLine
 62
7
  6
CONTINUOUS
 10
102.2963426475
 20
167.6491100681
 11
102.4613858334
 21
167.3523129953
  0
LINE
  5
2A8
100
AcDbEntity
  8
0
100
AcDbLine
 62
7
  6
CONTINUOUS
 10
127.7457381446
 20
123.7272627466
 11
127.9107809819
 21
123.4304650427
  0
LINE
  5
2A9
100
AcDbEntity
  8
0
100
AcDbLine
 62
7
  6
CONTINUOUS
 10
122.9779406702
 20
120.324882027
 11
123.0445248157
 21
120.073099823
  0
LINE
  5
2AA
100
AcDbEntity
  8
BEZUGSACHSEN
100
AcDbLine
 62
7
  6
CONTINUOUS
 10
109.7981092258
 20
171.284099262
 11
109.7315250803
 21
171.535881466
  0
LINE
  5
2AB
100
AcDbEntity
  8
BEZUGSACHSEN
100
AcDbLine
 62
7
  6
CONTINUOUS
 10
109.3749703919
 20
171.4137504241
 11
109.4113122929
 21
171.2175105727
  0
LINE
  5
2AC
100
AcDbEntity
  8
0
100
AcDbLine
 62
7
  6
CONTINUOUS
 10
96.5561846352
 20
148.2020156445
 11
96.7085229299
 21
148.2020156445
  0
LINE
  5
2AD
100
AcDbEntity
  8
0
100
AcDbLine
 62
7
  6
CONTINUOUS
 10
105.288024948
 20
148.2020156445
 11
105.388024948
 21
148.2020156445
  0
LINE
  5
2AE
100
AcDbEntity
  8
0
100
AcDbLine
 62
7
  6
CONTINUOUS
 10
109.388024948
 20
148.2020156445
 11
123.388024948
 21
148.2020156445
  0
LINE
  5
2AF
100
AcDbEntity
  8
0
100
AcDbLine
 62
7
  6
CONTINUOUS
 10
127.388024948
 20
148.2020156445
 11
127.488024948
 21
148.2020156445
  0
LINE
  5
2B0
100
AcDbEntity
  8
0
100
AcDbLine
 62
7
  6
CONTINUOUS
 10
136.0675269662
 20
148.2020156445
 11
136.2198652608
 21
148.2020156445
  0
LINE
  5
2B1
100
AcDbEntity
  8
BEZUGSACHSEN
100
AcDbLine
 62
7
  6
CONTINUOUS
 10
103.8390010185
 20
168.6240679455
 11
103.9459099202
 21
168.455540933
  0
LINE
  5
2B2
100
AcDbEntity
  8
BEZUGSACHSEN
100
AcDbLine
 62
7
  6
CONTINUOUS
 10
104.6194077605
 20
167.9799754973
 11
104.7263167305
 21
167.8114484284
  0
LINE
  5
2B3
100
AcDbEntity
  8
BEZUGSACHSEN
100
AcDbLine
 62
7
  6
CONTINUOUS
 10
105.0303117515
 20
167.8817185424
 11
104.8652689141
 21
168.1785162463
  0
LINE
  5
2B4
100
AcDbEntity
  8
0
100
AcDbLine
 62
7
  6
CONTINUOUS
 10
130.4797072486
 20
123.9598712209
 11
130.3146640626
 21
124.2566682937
  0
LINE
  5
2B5
100
AcDbEntity
  8
0
100
AcDbLine
 62
7
  6
CONTINUOUS
 10
123.4010795041
 20
120.1952308649
 11
123.3647376032
 21
120.3914707163
  0
LINE
  5
2B6
100
AcDbEntity
  8
0
100
AcDbLine
 62
7
  6
CONTINUOUS
 10
122.0424817771
 20
117.2575883821
 11
122.0903528853
 21
120.3903874647
  0
LINE
  5
2B7
100
AcDbEntity
  8
0
100
AcDbLine
 62
7
  6
CONTINUOUS
 10
121.7361178302
 20
120.2782929874
 11
121.6918454952
 21
117.5446306652
  0
LINE
  5
2B8
100
AcDbEntity
  8
BEZUGSACHSEN
100
AcDbLine
 62
7
  6
CONTINUOUS
 10
104.3661726759
 20
168.2692697769
 11
104.6194077605
 21
167.9799754973
  0
LINE
  5
2B9
100
AcDbEntity
  8
BEZUGSACHSEN
100
AcDbLine
 62
7
  6
CONTINUOUS
 10
107.1263640407
 20
171.9176268515
 11
107.277575687
 21
171.6399143106
  0
LINE
  5
2BA
100
AcDbEntity
  8
BEZUGSACHSEN
100
AcDbLine
 62
7
  6
CONTINUOUS
 10
107.5736456322
 20
171.8731305244
 11
107.4829186444
 21
172.0397580489
  0
LINE
  5
2BB
100
AcDbEntity
  8
BEZUGSACHSEN
100
AcDbLine
 62
7
  6
CONTINUOUS
 10
109.3144857334
 20
171.5248354405
 11
109.3749703919
 21
171.4137504241
  0
LINE
  5
2BC
100
AcDbEntity
  8
0
100
AcDbLine
 62
7
  6
CONTINUOUS
 10
128.0497331655
 20
123.7975328606
 11
127.9822408479
 21
124.0138183563
  0
LINE
  5
2BD
100
AcDbEntity
  8
0
100
AcDbLine
 62
7
  6
CONTINUOUS
 10
127.6688878278
 20
124.0315636494
 11
127.7457381446
 21
123.7272627466
  0
LINE
  5
2BE
100
AcDbEntity
  8
0
100
AcDbLine
 62
7
  6
CONTINUOUS
 10
125.6618848504
 20
119.4099600233
 11
125.6496858554
 21
119.6913544375
  0
LINE
  5
2BF
100
AcDbEntity
  8
BEZUGSACHSEN
100
AcDbLine
 62
7
  6
CONTINUOUS
 10
123.388024948
 20
138.5208934528
 11
123.388024948
 21
143.4069656445
  0
LINE
  5
2C0
100
AcDbEntity
  8
BEZUGSACHSEN
100
AcDbLine
 62
7
  6
CONTINUOUS
 10
123.388024948
 20
148.2020156445
 11
123.388024948
 21
155.3882259744
  0
LINE
  5
2C1
100
AcDbEntity
  8
0
100
AcDbLine
 62
7
  6
CONTINUOUS
 10
118.5726585004
 20
116.4776686147
 11
119.2368523715
 21
119.539623527
  0
LINE
  5
2C2
100
AcDbEntity
  8
0
100
AcDbLine
 62
7
  6
CONTINUOUS
 10
118.8674751708
 20
119.4995220347
 11
118.2854522884
 21
116.8281705724
  0
LINE
  5
2C3
100
AcDbEntity
  8
0
100
AcDbLine
 62
7
  6
CONTINUOUS
 10
135.1515389566
 20
152.4283708791
 11
128.4040129576
 21
152.4283708791
  0
LINE
  5
2C4
100
AcDbEntity
  8
BEZUGSACHSEN
100
AcDbLine
 62
7
  6
CONTINUOUS
 10
128.3040186548
 20
153.0592166157
 11
135.3038896956
 21
153.0592166157
  0
LINE
  5
2C5
100
AcDbEntity
  8
BEZUGSACHSEN
100
AcDbLine
 62
7
  6
CONTINUOUS
 10
108.4606190327
 20
154.0054852207
 11
106.3040129576
 21
154.0054852207
  0
LINE
  5
2C6
100
AcDbEntity
  8
BEZUGSACHSEN
100
AcDbLine
 62
7
  6
CONTINUOUS
 10
95.6401966256
 20
154.0054852207
 11
91.7572352562
 21
154.0054852207
  0
LINE
  5
2C7
100
AcDbEntity
  8
BEZUGSACHSEN
100
AcDbLine
 62
7
  6
CONTINUOUS
 10
102.4613858334
 20
167.3523129953
 11
102.7052629873
 21
167.1510340664
  0
LINE
  5
2C8
100
AcDbEntity
  8
BEZUGSACHSEN
100
AcDbLine
 62
7
  6
CONTINUOUS
 10
102.8535727872
 20
167.4300858743
 11
102.7072465359
 21
167.5508531978
  0
LINE
  5
2C9
100
AcDbEntity
  8
BEZUGSACHSEN
100
AcDbLine
 62
7
  6
CONTINUOUS
 10
104.8652689141
 20
168.1785162463
 11
104.5632579612
 21
168.5080657539
  0
LINE
  5
2CA
100
AcDbEntity
  8
BEZUGSACHSEN
100
AcDbLine
 62
7
  6
CONTINUOUS
 10
109.7315250803
 20
171.535881466
 11
109.6105556786
 21
171.7580516543
  0
LINE
  5
2CB
100
AcDbEntity
  8
0
100
AcDbLine
 62
7
  6
CONTINUOUS
 10
130.1757121935
 20
123.8896011351
 11
130.2432045452
 21
123.6733156112
  0
LINE
  5
2CC
100
AcDbEntity
  8
0
100
AcDbLine
 62
7
  6
CONTINUOUS
 10
130.5565575824
 20
123.655570304
 11
130.4797072486
 21
123.9598712209
  0
LINE
  5
2CD
100
AcDbEntity
  8
0
100
AcDbLine
 62
7
  6
CONTINUOUS
 10
128.8301399758
 20
123.153440356
 11
128.8114230753
 21
123.3294700771
  0
LINE
  5
2CE
100
AcDbEntity
  8
RUNDUNGEN
100
AcDbLine
 62
7
  6
CONTINUOUS
 10
127.388024948
 20
137.3292662507
 11
127.388024948
 21
134.3054852207
  0
LINE
  5
2CF
100
AcDbEntity
  8
BEZUGSACHSEN
100
AcDbLine
 62
7
  6
CONTINUOUS
 10
127.388024948
 20
138.5194840779
 11
127.388024948
 21
152.1432286061
  0
LINE
  5
2D0
100
AcDbEntity
  8
BEZUGSACHSEN
100
AcDbLine
 62
7
  6
CONTINUOUS
 10
127.488024948
 20
139.6281358436
 11
127.488024948
 21
142.3343673973
  0
LINE
  5
2D1
100
AcDbEntity
  8
0
100
AcDbLine
 62
7
  6
CONTINUOUS
 10
127.488024948
 20
142.3343673973
 11
127.488024948
 21
149.2007803623
  0
LINE
  5
2D2
100
AcDbEntity
  8
RUNDUNGEN
100
AcDbLine
 62
7
  6
CONTINUOUS
 10
127.488024948
 20
142.3343673973
 11
127.488024948
 21
151.5123622124
  0
LINE
  5
2D3
100
AcDbEntity
  8
0
100
AcDbLine
 62
7
  6
CONTINUOUS
 10
125.2931312517
 20
119.56922324
 11
125.2750878963
 21
119.3433713729
  0
LINE
  5
2D4
100
AcDbEntity
  8
BEZUGSACHSEN
100
AcDbLine
 62
7
  6
CONTINUOUS
 10
103.6926747672
 20
168.744835269
 11
103.8390010185
 21
168.6240679455
  0
LINE
  5
2D5
100
AcDbEntity
  8
BEZUGSACHSEN
100
AcDbLine
 62
7
  6
CONTINUOUS
 10
104.2686218416
 20
168.3497813259
 11
104.3661726759
 21
168.2692697769
  0
LINE
  5
2D6
100
AcDbEntity
  8
BEZUGSACHSEN
100
AcDbLine
 62
7
  6
CONTINUOUS
 10
104.5632579612
 20
168.5080657539
 11
104.2218300415
 21
168.7898561753
  0
LINE
  5
2D7
100
AcDbEntity
  8
BEZUGSACHSEN
100
AcDbLine
 62
7
  6
CONTINUOUS
 10
114.4905976077
 20
174.7808107165
 11
115.6323349366
 21
172.2965995455
  0
LINE
  5
2D8
100
AcDbEntity
  8
BEZUGSACHSEN
100
AcDbLine
 62
7
  6
CONTINUOUS
 10
116.0017121373
 20
172.3367010379
 11
114.6958943006
 21
175.1847813276
  0
LINE
  5
2D9
100
AcDbEntity
  8
0
100
AcDbLine
 62
7
  6
CONTINUOUS
 10
127.9822408479
 20
124.0138183563
 11
128.0029413654
 21
124.2376077101
  0
LINE
  5
2DA
100
AcDbEntity
  8
0
100
AcDbLine
 62
7
  6
CONTINUOUS
 10
128.5488290893
 20
123.7067786707
 11
128.5074280544
 21
123.2591999631
  0
LINE
  5
2DB
100
AcDbEntity
  8
0
100
AcDbLine
 62
7
  6
CONTINUOUS
 10
128.8114230753
 20
123.3294700771
 11
128.8321235928
 21
123.5532594309
  0
LINE
  5
2DC
100
AcDbEntity
  8
0
100
AcDbLine
 62
7
  6
CONTINUOUS
 10
127.7196468619
 20
124.3911269499
 11
127.6688878278
 21
124.0315636494
  0
LINE
  5
2DD
100
AcDbEntity
  8
0
100
AcDbLine
 62
7
  6
CONTINUOUS
 10
123.0745132844
 20
120.6655014227
 11
122.9779406702
 21
120.324882027
  0
LINE
  5
2DE
100
AcDbEntity
  8
BEZUGSACHSEN
100
AcDbLine
 62
7
  6
CONTINUOUS
 10
103.6620545655
 20
166.521948185
 11
103.8477982348
 21
166.4489404941
  0
LINE
  5
2DF
100
AcDbEntity
  8
BEZUGSACHSEN
100
AcDbLine
 62
7
  6
CONTINUOUS
 10
104.2218300415
 20
168.7898561753
 11
103.8409850866
 21
169.0238875671
  0
LINE
  5
2E0
100
AcDbEntity
  8
BEZUGSACHSEN
100
AcDbLine
 62
7
  6
CONTINUOUS
 10
108.0455785366
 20
170.6179007666
 11
108.190690696
 21
170.4808854134
  0
LINE
  5
2E1
100
AcDbEntity
  8
BEZUGSACHSEN
100
AcDbLine
 62
7
  6
CONTINUOUS
 10
109.169373574
 20
171.6618507937
 11
109.3144857334
 21
171.5248354405
  0
LINE
  5
2E2
100
AcDbEntity
  8
BEZUGSACHSEN
100
AcDbLine
 62
7
  6
CONTINUOUS
 10
108.7276830835
 20
172.8615378878
 11
108.8727952429
 21
172.7245225346
  0
LINE
  5
2E3
100
AcDbEntity
  8
BEZUGSACHSEN
100
AcDbLine
 62
7
  6
CONTINUOUS
 10
109.6105556786
 20
171.7580516543
 11
109.4352011899
 21
171.9506095157
  0
LINE
  5
2E4
100
AcDbEntity
  8
BEZUGSACHSEN
100
AcDbLine
 62
7
  6
CONTINUOUS
 10
109.1991075174
 20
172.9021962402
 11
109.0237530287
 21
173.0947541016
  0
LINE
  5
2E5
100
AcDbEntity
  8
BEZUGSACHSEN
100
AcDbLine
 62
7
  6
CONTINUOUS
 10
111.0842044008
 20
174.0643506237
 11
112.6930291023
 21
171.8537958977
  0
LINE
  5
2E6
100
AcDbEntity
  8
BEZUGSACHSEN
100
AcDbLine
 62
7
  6
CONTINUOUS
 10
113.0472641574
 20
171.965890375
 11
111.2058814131
 21
174.5008521743
  0
LINE
  5
2E7
100
AcDbEntity
  8
0
100
AcDbLine
 62
7
  6
CONTINUOUS
 10
130.2432045452
 20
123.6733156112
 11
130.2225040278
 21
123.4495262574
  0
LINE
  5
2E8
100
AcDbEntity
  8
0
100
AcDbLine
 62
7
  6
CONTINUOUS
 10
130.5057976589
 20
123.2960058998
 11
130.5565575824
 21
123.655570304
  0
LINE
  5
2E9
100
AcDbEntity
  8
0
100
AcDbLine
 62
7
  6
CONTINUOUS
 10
125.5653122468
 20
119.0693406081
 11
125.6618848504
 21
119.4099600233
  0
LINE
  5
2EA
100
AcDbEntity
  8
BEZUGSACHSEN
100
AcDbLine
 62
7
  6
CONTINUOUS
 10
102.7052629873
 20
167.1510340664
 11
103.0279740065
 21
167.0452733661
  0
LINE
  5
2EB
100
AcDbEntity
  8
BEZUGSACHSEN
100
AcDbLine
 62
7
  6
CONTINUOUS
 10
103.0393165248
 20
167.3570781271
 11
102.8535727872
 21
167.4300858743
  0
LINE
  5
2EC
100
AcDbEntity
  8
BEZUGSACHSEN
100
AcDbLine
 62
7
  6
CONTINUOUS
 10
103.506931098
 20
168.8178429598
 11
103.6926747672
 21
168.744835269
  0
LINE
  5
2ED
100
AcDbEntity
  8
BEZUGSACHSEN
100
AcDbLine
 62
7
  6
CONTINUOUS
 10
108.4867606412
 20
170.7141016272
 11
108.3718908111
 21
170.7955744722
  0
LINE
  5
2EE
100
AcDbEntity
  8
BEZUGSACHSEN
100
AcDbLine
 62
7
  6
CONTINUOUS
 10
107.277575687
 20
171.6399143106
 11
107.5073153897
 21
171.4769685428
  0
LINE
  5
2EF
100
AcDbEntity
  8
BEZUGSACHSEN
100
AcDbLine
 62
7
  6
CONTINUOUS
 10
136.0675269662
 20
142.6186786593
 11
136.0675269662
 21
141.9540056567
  0
LINE
  5
2F0
100
AcDbEntity
  8
RUNDUNGEN
100
AcDbLine
 62
7
  6
CONTINUOUS
 10
136.0675269662
 20
142.6186786593
 11
136.0675269662
 21
151.5123622044
  0
LINE
  5
2F1
100
AcDbEntity
  8
BEZUGSACHSEN
100
AcDbLine
 62
7
  6
CONTINUOUS
 10
136.2198652608
 20
152.1432286061
 11
136.2198652608
 21
138.5194840779
  0
LINE
  5
2F2
100
AcDbEntity
  8
0
100
AcDbLine
 62
7
  6
CONTINUOUS
 10
128.0029413654
 20
124.2376077101
 11
128.0724173
 21
124.4211412894
  0
LINE
  5
2F3
100
AcDbEntity
  8
0
100
AcDbLine
 62
7
  6
CONTINUOUS
 10
128.8321235928
 20
123.5532594309
 11
128.9015995274
 21
123.7367930102
  0
LINE
  5
2F4
100
AcDbEntity
  8
0
100
AcDbLine
 62
7
  6
CONTINUOUS
 10
123.3647376032
 20
120.3914707163
 11
123.4674090819
 21
120.5913925854
  0
LINE
  5
2F5
100
AcDbEntity
  8
0
100
AcDbLine
 62
7
  6
CONTINUOUS
 10
125.2750878963
 20
119.3433713729
 11
125.1724164388
 21
119.1434494648
  0
LINE
  5
2F6
100
AcDbEntity
  8
0
100
AcDbLine
 62
7
  6
CONTINUOUS
 10
127.8679576324
 20
124.6701797945
 11
127.7196468619
 21
124.3911269499
  0
LINE
  5
2F7
100
AcDbEntity
  8
0
100
AcDbLine
 62
7
  6
CONTINUOUS
 10
123.2315699347
 20
120.8950354632
 11
123.0745132844
 21
120.6655014227
  0
LINE
  5
2F8
100
AcDbEntity
  8
BEZUGSACHSEN
100
AcDbLine
 62
7
  6
CONTINUOUS
 10
103.8477982348
 20
166.4489404941
 11
104.1611512548
 21
166.431195201
  0
LINE
  5
2F9
100
AcDbEntity
  8
BEZUGSACHSEN
100
AcDbLine
 62
7
  6
CONTINUOUS
 10
104.0843009381
 20
166.7354961038
 11
103.8591407531
 21
166.7607452551
  0
LINE
  5
2FA
100
AcDbEntity
  8
BEZUGSACHSEN
100
AcDbLine
 62
7
  6
CONTINUOUS
 10
103.8409850866
 20
169.0238875671
 11
103.5182735821
 21
169.129647749
  0
LINE
  5
2FB
100
AcDbEntity
  8
BEZUGSACHSEN
100
AcDbLine
 62
7
  6
CONTINUOUS
 10
108.190690696
 20
170.4808854134
 11
108.4748161503
 21
170.3475522335
  0
LINE
  5
2FC
100
AcDbEntity
  8
BEZUGSACHSEN
100
AcDbLine
 62
7
  6
CONTINUOUS
 10
107.7731430056
 20
171.7657272647
 11
107.5736456322
 21
171.8731305244
  0
LINE
  5
2FD
100
AcDbEntity
  8
BEZUGSACHSEN
100
AcDbLine
 62
7
  6
CONTINUOUS
 10
109.0237530287
 20
173.0947541016
 11
108.7093852134
 21
173.283629848
  0
LINE
  5
2FE
100
AcDbEntity
  8
BEZUGSACHSEN
100
AcDbLine
 62
7
  6
CENTER
 10
139.7085229299
 20
145.8044906445
 11
139.7085229299
 21
141.5544906445
  0
LINE
  5
2FF
100
AcDbEntity
  8
BEZUGSACHSEN
100
AcDbLine
 62
7
  6
CENTER
 10
139.7085229299
 20
145.8044906445
 11
139.7085229299
 21
150.0544906445
  0
LINE
  5
300
100
AcDbEntity
  8
0
100
AcDbLine
 62
7
  6
CONTINUOUS
 10
130.2225040278
 20
123.4495262574
 11
130.1530280932
 21
123.2659926781
  0
LINE
  5
301
100
AcDbEntity
  8
0
100
AcDbLine
 62
7
  6
CONTINUOUS
 10
128.6971398598
 20
123.9858315154
 11
128.5488290893
 21
123.7067786707
  0
LINE
  5
302
100
AcDbEntity
  8
0
100
AcDbLine
 62
7
  6
CONTINUOUS
 10
130.3574877949
 20
123.0169541448
 11
130.5057976589
 21
123.2960058998
  0
LINE
  5
303
100
AcDbEntity
  8
0
100
AcDbLine
 62
7
  6
CONTINUOUS
 10
125.4082556045
 20
118.8398065531
 11
125.5653122468
 21
119.0693406081
  0
LINE
  5
304
100
AcDbEntity
  8
0
100
AcDbLine
 62
7
  6
CONTINUOUS
 10
128.0256254998
 20
124.8612161389
 11
127.8679576324
 21
124.6701797945
  0
LINE
  5
305
100
AcDbEntity
  8
0
100
AcDbLine
 62
7
  6
CONTINUOUS
 10
128.0724173
 20
124.4211412894
 11
128.3089200033
 21
124.707696899
  0
LINE
  5
306
100
AcDbEntity
  8
0
100
AcDbLine
 62
7
  6
CONTINUOUS
 10
128.916909143
 20
124.8482360339
 11
129.1139953305
 21
125.087033104
  0
LINE
  5
307
100
AcDbEntity
  8
0
100
AcDbLine
 62
7
  6
CONTINUOUS
 10
128.8942251452
 20
124.2246274923
 11
128.6971398598
 21
123.9858315154
  0
LINE
  5
308
100
AcDbEntity
  8
0
100
AcDbLine
 62
7
  6
CONTINUOUS
 10
123.4674090819
 20
120.5913925854
 11
123.6003228898
 21
120.7357719464
  0
LINE
  5
309
100
AcDbEntity
  8
0
100
AcDbLine
 62
7
  6
CONTINUOUS
 10
123.4188689142
 20
121.0690269955
 11
123.2315699347
 21
120.8950354632
  0
LINE
  5
30A
100
AcDbEntity
  8
0
100
AcDbLine
 62
7
  6
CONTINUOUS
 10
128.6148986412
 20
125.177786088
 11
128.2714871045
 21
125.0597574345
  0
LINE
  5
30B
100
AcDbEntity
  8
0
100
AcDbLine
 62
7
  6
CONTINUOUS
 10
128.4759467721
 20
124.8107189294
 11
128.6917489579
 21
124.8734851852
  0
LINE
  5
30C
100
AcDbEntity
  8
BEZUGSACHSEN
100
AcDbLine
 62
7
  6
CONTINUOUS
 10
103.0279740065
 20
167.0452733661
 11
103.2925516095
 21
167.0677838475
  0
LINE
  5
30D
100
AcDbEntity
  8
BEZUGSACHSEN
100
AcDbLine
 62
7
  6
CONTINUOUS
 10
103.2157012927
 20
167.3720847503
 11
103.0393165248
 21
167.3570781271
  0
LINE
  5
30E
100
AcDbEntity
  8
BEZUGSACHSEN
100
AcDbLine
 62
7
  6
CONTINUOUS
 10
103.5182735821
 20
169.129647749
 11
103.204920545
 21
169.1473930562
  0
LINE
  5
30F
100
AcDbEntity
  8
BEZUGSACHSEN
100
AcDbLine
 62
7
  6
CONTINUOUS
 10
103.2817708788
 20
168.8430921393
 11
103.506931098
 21
168.8178429598
  0
LINE
  5
310
100
AcDbEntity
  8
BEZUGSACHSEN
100
AcDbLine
 62
7
  6
CONTINUOUS
 10
108.4748161503
 20
170.3475522335
 11
108.7830844469
 21
170.2993737331
  0
LINE
  5
311
100
AcDbEntity
  8
BEZUGSACHSEN
100
AcDbLine
 62
7
  6
CONTINUOUS
 10
108.6560162653
 20
170.6622412923
 11
108.4867606412
 21
170.7141016272
  0
LINE
  5
312
100
AcDbEntity
  8
BEZUGSACHSEN
100
AcDbLine
 62
7
  6
CONTINUOUS
 10
107.5073153897
 20
171.4769685428
 11
107.8458266379
 21
171.3732478731
  0
LINE
  5
313
100
AcDbEntity
  8
BEZUGSACHSEN
100
AcDbLine
 62
7
  6
CONTINUOUS
 10
109.4352011899
 20
171.9506095157
 11
109.0966899416
 21
172.0543301853
  0
LINE
  5
314
100
AcDbEntity
  8
BEZUGSACHSEN
100
AcDbLine
 62
7
  6
CONTINUOUS
 10
141.7777634133
 20
137.9976023035
 11
143.9761572331
 21
141.1372340553
  0
LINE
  5
315
100
AcDbEntity
  8
0
100
AcDbLine
 62
7
  6
CONTINUOUS
 10
128.9015995274
 20
123.7367930102
 11
129.1775196487
 21
124.0711082525
  0
LINE
  5
316
100
AcDbEntity
  8
0
100
AcDbLine
 62
7
  6
CONTINUOUS
 10
130.1530280932
 20
123.2659926781
 11
129.8771079719
 21
122.9316774358
  0
LINE
  5
317
100
AcDbEntity
  8
0
100
AcDbLine
 62
7
  6
CONTINUOUS
 10
130.1604025095
 20
122.7781581678
 11
130.3574877949
 21
123.0169541448
  0
LINE
  5
318
100
AcDbEntity
  8
0
100
AcDbLine
 62
7
  6
CONTINUOUS
 10
125.1724164388
 20
119.1434494648
 11
124.9851168368
 21
118.9694575937
  0
LINE
  5
319
100
AcDbEntity
  8
0
100
AcDbLine
 62
7
  6
CONTINUOUS
 10
125.1665708336
 20
118.6362025057
 11
125.4082556045
 21
118.8398065531
  0
LINE
  5
31A
100
AcDbEntity
  8
0
100
AcDbLine
 62
7
  6
CONTINUOUS
 10
128.2714871045
 20
125.0597574345
 11
128.0256254998
 21
124.8612161389
  0
LINE
  5
31B
100
AcDbEntity
  8
0
100
AcDbLine
 62
7
  6
CONTINUOUS
 10
129.1400858477
 20
124.4231676949
 11
128.8942251452
 21
124.2246274923
  0
LINE
  5
31C
100
AcDbEntity
  8
0
100
AcDbLine
 62
7
  6
CONTINUOUS
 10
128.3089200033
 20
124.707696899
 11
128.4759467721
 21
124.8107189294
  0
LINE
  5
31D
100
AcDbEntity
  8
0
100
AcDbLine
 62
7
  6
CONTINUOUS
 10
129.1775196487
 20
124.0711082525
 11
129.3445464174
 21
124.1741302829
  0
LINE
  5
31E
100
AcDbEntity
  8
0
100
AcDbLine
 62
7
  6
CONTINUOUS
 10
123.690796017
 20
121.2170885298
 11
123.4188689142
 21
121.0690269955
  0
LINE
  5
31F
100
AcDbEntity
  8
0
100
AcDbLine
 62
7
  6
CONTINUOUS
 10
123.6003228898
 20
120.7357719464
 11
123.9266351642
 21
120.913445652
  0
LINE
  5
320
100
AcDbEntity
  8
0
100
AcDbLine
 62
7
  6
CONTINUOUS
 10
124.404159085
 20
120.8134068168
 11
124.7304713594
 21
120.9910805224
  0
LINE
  5
321
100
AcDbEntity
  8
0
100
AcDbLine
 62
7
  6
CONTINUOUS
 10
124.3500278587
 20
120.135850382
 11
124.0237155843
 21
119.9581766764
  0
LINE
  5
322
100
AcDbEntity
  8
0
100
AcDbLine
 62
7
  6
CONTINUOUS
 10
129.4834982866
 20
124.5411974415
 11
129.1400858477
 21
124.4231676949
  0
LINE
  5
323
100
AcDbEntity
  8
0
100
AcDbLine
 62
7
  6
CONTINUOUS
 10
129.5711293511
 20
122.4615882327
 11
129.9145409006
 21
122.5796168757
  0
LINE
  5
324
100
AcDbEntity
  8
0
100
AcDbLine
 62
7
  6
CONTINUOUS
 10
122.0903528853
 20
120.3903874647
 11
121.7361178302
 21
120.2782929874
  0
LINE
  5
325
100
AcDbEntity
  8
0
100
AcDbLine
 62
7
  6
CONTINUOUS
 10
120.0830207937
 20
119.7551853913
 11
119.7287857386
 21
119.643090914
  0
LINE
  5
326
100
AcDbEntity
  8
0
100
AcDbLine
 62
7
  6
CONTINUOUS
 10
123.9929654491
 20
121.3096075559
 11
123.690796017
 21
121.2170885298
  0
LINE
  5
327
100
AcDbEntity
  8
0
100
AcDbLine
 62
7
  6
CONTINUOUS
 10
129.3445464174
 20
124.1741302829
 11
129.5603486033
 21
124.2368965387
  0
LINE
  5
328
100
AcDbEntity
  8
0
100
AcDbLine
 62
7
  6
CONTINUOUS
 10
129.7100812031
 20
122.8286554055
 11
129.4942790173
 21
122.7658891496
  0
LINE
  5
329
100
AcDbEntity
  8
BEZUGSACHSEN
100
AcDbLine
 62
7
  6
CONTINUOUS
 10
108.8494147318
 20
170.6955356369
 11
108.6560162653
 21
170.6622412923
  0
LINE
  5
32A
100
AcDbEntity
  8
BEZUGSACHSEN
100
AcDbLine
 62
7
  6
CONTINUOUS
 10
113.5391975245
 20
172.0693577619
 11
113.9085747253
 21
172.1094592543
  0
LINE
  5
32B
100
AcDbEntity
  8
BEZUGSACHSEN
100
AcDbLine
 62
7
  6
CONTINUOUS
 10
115.6323349366
 20
172.2965995455
 11
116.0017121373
 21
172.3367010379
  0
LINE
  5
32C
100
AcDbEntity
  8
BEZUGSACHSEN
100
AcDbLine
 62
7
  6
CONTINUOUS
 10
107.8458266379
 20
171.3732478731
 11
108.1238526053
 21
171.3806118808
  0
LINE
  5
32D
100
AcDbEntity
  8
BEZUGSACHSEN
100
AcDbLine
 62
7
  6
CONTINUOUS
 10
109.0966899416
 20
172.0543301853
 11
108.8186639743
 21
172.0469661776
  0
LINE
  5
32E
100
AcDbEntity
  8
BEZUGSACHSEN
100
AcDbLine
 62
7
  6
CONTINUOUS
 10
107.9967838013
 20
171.7434791012
 11
107.7731430056
 21
171.7657272647
  0
LINE
  5
32F
100
AcDbEntity
  8
BEZUGSACHSEN
100
AcDbLine
 62
7
  6
CONTINUOUS
 10
108.9457327783
 20
171.6840989572
 11
109.169373574
 21
171.6618507937
  0
LINE
  5
330
100
AcDbEntity
  8
BEZUGSACHSEN
100
AcDbLine
 62
7
  6
CONTINUOUS
 10
108.4737999373
 20
172.9393285984
 11
108.7276830835
 21
172.8615378878
  0
LINE
  5
331
100
AcDbEntity
  8
BEZUGSACHSEN
100
AcDbLine
 62
7
  6
CONTINUOUS
 10
132.3573562065
 20
170.2242046699
 11
143.6984348878
 21
151.9685084728
  0
LINE
  5
332
100
AcDbEntity
  8
BEZUGSACHSEN
100
AcDbLine
 62
7
  6
CONTINUOUS
 10
144.388024948
 20
149.5516866309
 11
144.388024948
 21
148.5524546732
  0
LINE
  5
333
100
AcDbEntity
  8
BEZUGSACHSEN
100
AcDbLine
 62
7
  6
CONTINUOUS
 10
144.388024948
 20
143.0565266157
 11
144.388024948
 21
142.4435115593
  0
LINE
  5
334
100
AcDbEntity
  8
0
100
AcDbLine
 62
7
  6
CONTINUOUS
 10
129.9145409006
 20
122.5796168757
 11
130.1604025095
 21
122.7781581678
  0
LINE
  5
335
100
AcDbEntity
  8
0
100
AcDbLine
 62
7
  6
CONTINUOUS
 10
129.8771079719
 20
122.9316774358
 11
129.7100812031
 21
122.8286554055
  0
LINE
  5
336
100
AcDbEntity
  8
0
100
AcDbLine
 62
7
  6
CONTINUOUS
 10
124.2051695599
 20
119.6249216274
 11
124.5314818343
 21
119.802595333
  0
LINE
  5
337
100
AcDbEntity
  8
0
100
AcDbLine
 62
7
  6
CONTINUOUS
 10
123.9032546531
 20
118.8844587544
 11
123.5769423787
 21
118.7067850488
  0
LINE
  5
338
100
AcDbEntity
  8
0
100
AcDbLine
 62
7
  6
CONTINUOUS
 10
124.9851168368
 20
118.9694575937
 11
124.5500342192
 21
118.7325595454
  0
LINE
  5
339
100
AcDbEntity
  8
0
100
AcDbLine
 62
7
  6
CONTINUOUS
 10
124.731488216
 20
118.3993044575
 11
125.1665708336
 21
118.6362025057
  0
LINE
  5
33A
100
AcDbEntity
  8
0
100
AcDbLine
 62
7
  6
CONTINUOUS
 10
121.5701684829
 20
117.1081291147
 11
122.0424817771
 21
117.2575883821
  0
LINE
  5
33B
100
AcDbEntity
  8
0
100
AcDbLine
 62
7
  6
CONTINUOUS
 10
124.6521972908
 20
120.2283694081
 11
124.3500278587
 21
120.135850382
  0
LINE
  5
33C
100
AcDbEntity
  8
0
100
AcDbLine
 62
7
  6
CONTINUOUS
 10
124.4293187812
 20
118.3067854362
 11
124.731488216
 21
118.3993044575
  0
LINE
  5
33D
100
AcDbEntity
  8
BEZUGSACHSEN
100
AcDbLine
 62
7
  6
CONTINUOUS
 10
108.2445680618
 20
171.806385956
 11
107.9967838013
 21
171.7434791012
  0
LINE
  5
33E
100
AcDbEntity
  8
BEZUGSACHSEN
100
AcDbLine
 62
7
  6
CONTINUOUS
 10
108.8186639743
 20
172.0469661776
 11
108.5708803362
 21
171.9840596616
  0
LINE
  5
33F
100
AcDbEntity
  8
BEZUGSACHSEN
100
AcDbLine
 62
7
  6
CONTINUOUS
 10
108.2260156769
 20
172.8764217436
 11
108.4737999373
 21
172.9393285984
  0
LINE
  5
340
100
AcDbEntity
  8
BEZUGSACHSEN
100
AcDbLine
 62
7
  6
CONTINUOUS
 10
108.7523343118
 20
171.6508046126
 11
108.9457327783
 21
171.6840989572
  0
LINE
  5
341
100
AcDbEntity
  8
BEZUGSACHSEN
100
AcDbLine
 62
7
  6
CONTINUOUS
 10
114.6958943006
 20
175.1847813276
 11
114.2033913957
 21
175.1313126743
  0
LINE
  5
342
100
AcDbEntity
  8
BEZUGSACHSEN
100
AcDbLine
 62
7
  6
CONTINUOUS
 10
108.7093852134
 20
173.283629848
 11
108.3467311148
 21
173.3021958528
  0
LINE
  5
343
100
AcDbEntity
  8
AUSFORMSCHRAEGEN
100
AcDbLine
 62
7
  6
CONTINUOUS
 10
167.423405672
 20
112.5054852207
 11
169.6930438862
 21
112.7440338095
  0
LINE
  5
344
100
AcDbEntity
  8
BEZUGSACHSEN
100
AcDbLine
 62
7
  6
CONTINUOUS
 10
167.423405672
 20
112.5054852207
 11
169.6930438862
 21
112.7440338095
  0
LINE
  5
345
100
AcDbEntity
  8
BEZUGSACHSEN
100
AcDbLine
 62
7
  6
CONTINUOUS
 10
167.423405672
 20
112.5054852207
 11
165.1537674579
 21
112.7440338095
  0
LINE
  5
346
100
AcDbEntity
  8
BEZUGSACHSEN
100
AcDbLine
 62
8
  6
HIDDEN
 10
167.423405672
 20
123.3054852207
 11
166.7237480002
 21
123.1946703319
  0
LINE
  5
347
100
AcDbEntity
  8
BEZUGSACHSEN
100
AcDbLine
 62
8
  6
HIDDEN
 10
167.423405672
 20
123.3054852207
 11
168.1230633439
 21
123.1946703319
  0
LINE
  5
348
100
AcDbEntity
  8
BEZUGSACHSEN
100
AcDbLine
 62
7
  6
CONTINUOUS
 10
162.222568163
 20
155.4663058294
 11
161.4599790251
 21
154.7037166915
  0
LINE
  5
349
100
AcDbEntity
  8
BEZUGSACHSEN
100
AcDbLine
 62
7
  6
CONTINUOUS
 10
161.4599952337
 20
136.7986683888
 11
162.1159840885
 21
136.142679534
  0
LINE
  5
34A
100
AcDbEntity
  8
BEZUGSACHSEN
100
AcDbLine
 62
7
  6
CONTINUOUS
 10
160.923405672
 20
153.4083140254
 11
160.923405672
 21
150.4831796453
  0
LINE
  5
34B
100
AcDbEntity
  8
RUNDUNGEN
100
AcDbLine
 62
7
  6
CONTINUOUS
 10
160.923405672
 20
150.4831796453
 11
160.923405672
 21
149.5133489359
  0
LINE
  5
34C
100
AcDbEntity
  8
BEZUGSACHSEN
100
AcDbLine
 62
7
  6
CONTINUOUS
 10
160.923405672
 20
149.5133489359
 11
160.923405672
 21
138.0940872636
  0
LINE
  5
34D
100
AcDbEntity
  8
BEZUGSACHSEN
100
AcDbLine
 62
7
  6
CONTINUOUS
 10
163.985413979
 20
165.3589872732
 11
162.7413126922
 21
156.5067466458
  0
LINE
  5
34E
100
AcDbEntity
  8
BEZUGSACHSEN
100
AcDbLine
 62
7
  6
CONTINUOUS
 10
162.6347327781
 20
135.1022340324
 11
163.8788337996
 21
126.2499952921
  0
LINE
  5
34F
100
AcDbEntity
  8
BEZUGSACHSEN
100
AcDbLine
 62
7
  6
CONTINUOUS
 10
163.923405672
 20
125.6125880963
 11
163.923405672
 21
114.1104890066
  0
LINE
  5
350
100
AcDbEntity
  8
BEZUGSACHSEN
100
AcDbLine
 62
7
  6
CONTINUOUS
 10
164.029985672
 20
153.2695567155
 11
164.029985672
 21
177.5096942917
  0
LINE
  5
351
100
AcDbEntity
  8
T_STARTBEZUEGE
100
AcDbLine
 62
7
  6
CENTER
 10
167.423405672
 20
182.1034960683
 11
167.423405672
 21
109.5054852207
  0
LINE
  5
352
100
AcDbEntity
  8
BEZUGSACHSEN
100
AcDbLine
 62
7
  6
CONTINUOUS
 10
167.423405672
 20
179.1034960683
 11
167.423405672
 21
157.5717936119
  0
LINE
  5
353
100
AcDbEntity
  8
T_STARTBEZUEGE
100
AcDbLine
 62
7
  6
CENTER
 10
177.4363859105
 20
145.8044906445
 11
157.8196774887
 21
145.8044906445
  0
LINE
  5
354
100
AcDbEntity
  8
BEZUGSACHSEN
100
AcDbLine
 62
7
  6
CONTINUOUS
 10
170.816825672
 20
177.5096942917
 11
170.816825672
 21
153.2701718893
  0
LINE
  5
355
100
AcDbEntity
  8
RUNDUNGEN
100
AcDbLine
 62
7
  6
CONTINUOUS
 10
170.923405672
 20
125.6125880963
 11
170.923405672
 21
114.1104890066
  0
LINE
  5
356
100
AcDbEntity
  8
BEZUGSACHSEN
100
AcDbLine
 62
7
  6
CONTINUOUS
 10
173.923405672
 20
153.4083140254
 11
173.923405672
 21
150.4831796453
  0
LINE
  5
357
100
AcDbEntity
  8
RUNDUNGEN
100
AcDbLine
 62
7
  6
CONTINUOUS
 10
173.923405672
 20
150.4831796453
 11
173.923405672
 21
138.0940872636
  0
LINE
  5
358
100
AcDbEntity
  8
RUNDUNGEN
100
AcDbLine
 62
7
  6
CONTINUOUS
 10
172.212078566
 20
135.1022340324
 11
170.9679775445
 21
126.2499952921
  0
LINE
  5
359
100
AcDbEntity
  8
BEZUGSACHSEN
100
AcDbLine
 62
7
  6
CONTINUOUS
 10
170.8613973651
 20
165.3589872732
 11
172.1054986518
 21
156.5067466458
  0
LINE
  5
35A
100
AcDbEntity
  8
RUNDUNGEN
100
AcDbLine
 62
7
  6
CONTINUOUS
 10
173.3868161104
 20
136.7986683888
 11
172.7308272556
 21
136.142679534
  0
LINE
  5
35B
100
AcDbEntity
  8
BEZUGSACHSEN
100
AcDbLine
 62
7
  6
CONTINUOUS
 10
172.6242433554
 20
155.4663056551
 11
173.386832319
 21
154.7037166915
  0
LINE
  5
35C
100
AcDbEntity
  8
BEZUGSACHSEN
100
AcDbLine
 62
8
  6
HIDDEN
 10
167.423405672
 20
168.3034960683
 11
167.9192159896
 21
168.382024708
  0
LINE
  5
35D
100
AcDbEntity
  8
BEZUGSACHSEN
100
AcDbLine
 62
8
  6
HIDDEN
 10
167.423405672
 20
168.3034960683
 11
166.9275953545
 21
168.382024708
  0
LINE
  5
35E
100
AcDbEntity
  8
BEZUGSACHSEN
100
AcDbLine
 62
7
  6
CONTINUOUS
 10
167.423405672
 20
179.1034960683
 11
165.2603474579
 21
178.8761494889
  0
LINE
  5
35F
100
AcDbEntity
  8
BEZUGSACHSEN
100
AcDbLine
 62
7
  6
CONTINUOUS
 10
167.423405672
 20
179.1034960683
 11
169.5864638862
 21
178.8761494889
  0
ARC
  5
360
100
AcDbEntity
  8
BEZUGSACHSEN
100
AcDbCircle
 62
7
  6
CONTINUOUS
 10
104.8080849001
 20
136.2207553146
 40
4.5799400479
100
AcDbArc
 50
337.0005149599
 51
360.0
  0
ARC
  5
361
100
AcDbEntity
  8
BEZUGSACHSEN
100
AcDbCircle
 62
7
  6
CONTINUOUS
 10
92.9679649959
 20
142.0572946581
 40
4.5799400479
100
AcDbArc
 50
180.0
 51
211.85
  0
ARC
  5
362
100
AcDbEntity
  8
BEZUGSACHSEN
100
AcDbCircle
 62
7
  6
CONTINUOUS
 10
104.3720369384
 20
140.0965984195
 40
0.9159880096
100
AcDbArc
 50
270.0
 51
360.0
  0
ARC
  5
363
100
AcDbEntity
  8
BEZUGSACHSEN
100
AcDbCircle
 62
7
  6
CONTINUOUS
 10
97.6245109395
 20
140.0965984195
 40
0.9159880096
100
AcDbArc
 50
180.0
 51
270.0
  0
ARC
  5
364
100
AcDbEntity
  8
RUNDUNGEN
100
AcDbCircle
 62
7
  6
CONTINUOUS
 10
97.4721726448
 20
139.4657526828
 40
0.9159880096
100
AcDbArc
 50
180.0
 51
269.9991802294
  0
ARC
  5
365
100
AcDbEntity
  8
RUNDUNGEN
100
AcDbCircle
 62
7
  6
CONTINUOUS
 10
104.4720369384
 20
139.4657526828
 40
0.9159880096
100
AcDbArc
 50
269.9994379862
 51
360.0
  0
ARC
  5
366
100
AcDbEntity
  8
BEZUGSACHSEN
100
AcDbCircle
 62
7
  6
CONTINUOUS
 10
104.4720369384
 20
139.4657526828
 40
0.9159880096
100
AcDbArc
 50
269.9994379862
 51
295.6778110176
  0
ARC
  5
367
100
AcDbEntity
  8
BEZUGSACHSEN
100
AcDbCircle
 62
7
  6
CONTINUOUS
 10
94.4948091654
 20
152.8575684099
 40
3.8932157826
100
AcDbArc
 50
304.6532165268
 51
77.8060972633
  0
ARC
  5
368
100
AcDbEntity
  8
BEZUGSACHSEN
100
AcDbCircle
 62
7
  6
CONTINUOUS
 10
109.0812407306
 20
152.8575684099
 40
3.8932157826
100
AcDbArc
 50
161.5551407253
 51
193.0141976473
  0
ARC
  5
369
100
AcDbEntity
  8
BEZUGSACHSEN
100
AcDbCircle
 62
7
  6
CONTINUOUS
 10
90.6648995719
 20
149.1656433662
 40
2.2768746305
100
AcDbArc
 50
144.9956305717
 51
180.0043694283
  0
CIRCLE
  5
36A
100
AcDbEntity
  8
BEZUGSACHSEN
100
AcDbCircle
 62
7
  6
CONTINUOUS
 10
93.0675269662
 20
145.8044906445
 40
1.25
  0
ARC
  5
36B
100
AcDbEntity
  8
RUNDUNGEN
100
AcDbCircle
 62
7
  6
CONTINUOUS
 10
95.6401966256
 20
153.0894972111
 40
0.9159880096
100
AcDbArc
 50
0.0
 51
90.0
  0
ARC
  5
36C
100
AcDbEntity
  8
RUNDUNGEN
100
AcDbCircle
 62
7
  6
CONTINUOUS
 10
106.3040129576
 20
153.0894972111
 40
0.9159880096
100
AcDbArc
 50
90.0
 51
180.0
  0
ARC
  5
36D
100
AcDbEntity
  8
RUNDUNGEN
100
AcDbCircle
 62
7
  6
CONTINUOUS
 10
116.388024948
 20
134.3054852207
 40
21.8
100
AcDbArc
 50
270.0
 51
359.2948300459
  0
ARC
  5
36E
100
AcDbEntity
  8
BEZUGSACHSEN
100
AcDbCircle
 62
7
  6
CONTINUOUS
 10
116.388024948
 20
131.3054852207
 40
18.8
100
AcDbArc
 50
211.85
 51
270.0
  0
ARC
  5
36F
100
AcDbEntity
  8
BEZUGSACHSEN
100
AcDbCircle
 62
7
  6
CONTINUOUS
 10
116.388024948
 20
134.3054852207
 40
11.0
100
AcDbArc
 50
270.0
 51
360.0
  0
ARC
  5
370
100
AcDbEntity
  8
BEZUGSACHSEN
100
AcDbCircle
 62
7
  6
CONTINUOUS
 10
116.388024948
 20
131.3054852207
 40
8.0
100
AcDbArc
 50
157.0005149599
 51
270.0
  0
ARC
  5
371
100
AcDbEntity
  8
BEZUGSACHSEN
100
AcDbCircle
 62
7
  6
CONTINUOUS
 10
138.2812407306
 20
138.7514128791
 40
3.8932157826
100
AcDbArc
 50
124.6532165268
 51
257.8060972633
  0
ARC
  5
372
100
AcDbEntity
  8
BEZUGSACHSEN
100
AcDbCircle
 62
7
  6
CONTINUOUS
 10
123.6948091654
 20
138.7514128791
 40
3.8932157826
100
AcDbArc
 50
343.9016732661
 51
13.0141976473
  0
ARC
  5
373
100
AcDbEntity
  8
RUNDUNGEN
100
AcDbCircle
 62
7
  6
CONTINUOUS
 10
123.6948091654
 20
138.7514128791
 40
3.8932157826
100
AcDbArc
 50
343.9016732661
 51
13.0141976473
  0
ARC
  5
374
100
AcDbEntity
  8
BEZUGSACHSEN
100
AcDbCircle
 62
7
  6
CONTINUOUS
 10
142.1111503242
 20
142.4433379228
 40
2.2768746305
100
AcDbArc
 50
324.9956305717
 51
0.0043694283
  0
ARC
  5
375
100
AcDbEntity
  8
BEZUGSACHSEN
100
AcDbCircle
 62
7
  6
CONTINUOUS
 10
137.1358532704
 20
138.5194840779
 40
0.9159880096
100
AcDbArc
 50
180.0
 51
270.0
  0
ARC
  5
376
100
AcDbEntity
  8
BEZUGSACHSEN
100
AcDbCircle
 62
7
  6
CONTINUOUS
 10
126.4720369384
 20
138.5194840779
 40
0.9159880096
100
AcDbArc
 50
270.0
 51
360.0
  0
ARC
  5
377
100
AcDbEntity
  8
BEZUGSACHSEN
100
AcDbCircle
 62
7
  6
CONTINUOUS
 10
116.388024948
 20
157.3034960683
 40
21.8
100
AcDbArc
 50
90.0
 51
179.2948300459
  0
ARC
  5
378
100
AcDbEntity
  8
BEZUGSACHSEN
100
AcDbCircle
 62
7
  6
CONTINUOUS
 10
116.388024948
 20
160.3034960683
 40
18.8
100
AcDbArc
 50
31.85
 51
90.0
  0
ARC
  5
379
100
AcDbEntity
  8
BEZUGSACHSEN
100
AcDbCircle
 62
7
  6
CONTINUOUS
 10
116.388024948
 20
157.3034960683
 40
11.0
100
AcDbArc
 50
90.0
 51
180.0
  0
ARC
  5
37A
100
AcDbEntity
  8
BEZUGSACHSEN
100
AcDbCircle
 62
7
  6
CONTINUOUS
 10
116.388024948
 20
160.3034960683
 40
8.0
100
AcDbArc
 50
337.0005149599
 51
90.0
  0
ARC
  5
37B
100
AcDbEntity
  8
BEZUGSACHSEN
100
AcDbCircle
 62
7
  6
CONTINUOUS
 10
139.8080849001
 20
149.5516866309
 40
4.5799400479
100
AcDbArc
 50
0.0
 51
31.85
  0
ARC
  5
37C
100
AcDbEntity
  8
BEZUGSACHSEN
100
AcDbCircle
 62
7
  6
CONTINUOUS
 10
127.9679649959
 20
155.3882259744
 40
4.5799400479
100
AcDbArc
 50
157.0005149599
 51
180.0
  0
CIRCLE
  5
37D
100
AcDbEntity
  8
BEZUGSACHSEN
100
AcDbCircle
 62
7
  6
CONTINUOUS
 10
139.7085229299
 20
145.8044906445
 40
1.25
  0
ARC
  5
37E
100
AcDbEntity
  8
RUNDUNGEN
100
AcDbCircle
 62
7
  6
CONTINUOUS
 10
128.4040129576
 20
151.5123828695
 40
0.9159880096
100
AcDbArc
 50
90.0
 51
180.0
  0
ARC
  5
37F
100
AcDbEntity
  8
RUNDUNGEN
100
AcDbCircle
 62
7
  6
CONTINUOUS
 10
135.1515389566
 20
151.5123828695
 40
0.9159880096
100
AcDbArc
 50
0.0
 51
90.0
  0
ARC
  5
380
100
AcDbEntity
  8
BEZUGSACHSEN
100
AcDbCircle
 62
7
  6
CONTINUOUS
 10
128.3040129576
 20
152.1432286061
 40
0.9159880096
100
AcDbArc
 50
89.999643634
 51
180.0
  0
ARC
  5
381
100
AcDbEntity
  8
BEZUGSACHSEN
100
AcDbCircle
 62
7
  6
CONTINUOUS
 10
135.3038772512
 20
152.1432286061
 40
0.9159880096
100
AcDbArc
 50
0.0
 51
89.9992215964
  0
ARC
  5
382
100
AcDbEntity
  8
BEZUGSACHSEN
100
AcDbCircle
 62
7
  6
CONTINUOUS
 10
159.3434656241
 20
125.6125893342
 40
4.5799400479
100
AcDbArc
 50
359.9999845138
 51
8.0000189393
  0
ARC
  5
383
100
AcDbEntity
  8
BEZUGSACHSEN
100
AcDbCircle
 62
8
  6
HIDDEN
 10
167.243055672
 20
119.915890732
 40
3.31965
100
AcDbArc
 50
99.0
 51
180.0
  0
ARC
  5
384
100
AcDbEntity
  8
BEZUGSACHSEN
100
AcDbCircle
 62
7
  6
CONTINUOUS
 10
160.8205853226
 20
134.8472729677
 40
1.8319760192
100
AcDbArc
 50
7.9999772982
 51
45.0001725057
  0
ARC
  5
385
100
AcDbEntity
  8
BEZUGSACHSEN
100
AcDbCircle
 62
7
  6
CONTINUOUS
 10
162.7553816912
 20
138.0940872636
 40
1.8319760192
100
AcDbArc
 50
179.9992760679
 51
224.9996179208
  0
ARC
  5
386
100
AcDbEntity
  8
BEZUGSACHSEN
100
AcDbCircle
 62
7
  6
CONTINUOUS
 10
165.2973876864
 20
114.1104890066
 40
1.3739820144
100
AcDbArc
 50
180.0
 51
264.0
  0
ARC
  5
387
100
AcDbEntity
  8
BEZUGSACHSEN
100
AcDbCircle
 62
7
  6
CONTINUOUS
 10
159.4500456241
 20
165.9963919547
 40
4.5799400479
100
AcDbArc
 50
351.9999971842
 51
0.0000154867
  0
ARC
  5
388
100
AcDbEntity
  8
BEZUGSACHSEN
100
AcDbCircle
 62
8
  6
HIDDEN
 10
167.3818706361
 20
171.7746897474
 40
3.4349550359
100
AcDbArc
 50
279.0
 51
360.0
  0
ARC
  5
389
100
AcDbEntity
  8
BEZUGSACHSEN
100
AcDbCircle
 62
7
  6
CONTINUOUS
 10
162.7553816912
 20
153.4083140254
 40
1.8319760192
100
AcDbArc
 50
135.0
 51
180.0
  0
ARC
  5
38A
100
AcDbEntity
  8
BEZUGSACHSEN
100
AcDbCircle
 62
7
  6
CONTINUOUS
 10
160.9271653226
 20
156.7617083213
 40
1.8319760192
100
AcDbArc
 50
315.0000077094
 51
352.0000034096
  0
ARC
  5
38B
100
AcDbEntity
  8
BEZUGSACHSEN
100
AcDbCircle
 62
7
  6
CONTINUOUS
 10
165.4039676864
 20
177.5096942917
 40
1.3739820144
100
AcDbArc
 50
96.0
 51
180.0
  0
ARC
  5
38C
100
AcDbEntity
  8
RUNDUNGEN
100
AcDbCircle
 62
7
  6
CONTINUOUS
 10
161.8393936816
 20
150.4831796453
 40
0.9159880096
100
AcDbArc
 50
140.0412907549
 51
180.0
  0
ARC
  5
38D
100
AcDbEntity
  8
RUNDUNGEN
100
AcDbCircle
 62
8
  6
HIDDEN
 10
167.603755672
 20
119.915890732
 40
3.31965
100
AcDbArc
 50
0.0
 51
81.0
  0
ARC
  5
38E
100
AcDbEntity
  8
RUNDUNGEN
100
AcDbCircle
 62
7
  6
CONTINUOUS
 10
169.5494236577
 20
114.1104890066
 40
1.3739820144
100
AcDbArc
 50
276.0
 51
360.0
  0
ARC
  5
38F
100
AcDbEntity
  8
RUNDUNGEN
100
AcDbCircle
 62
7
  6
CONTINUOUS
 10
167.423405672
 20
145.8044906445
 40
8.2009945762
100
AcDbArc
 50
39.9587092451
 51
140.0412907549
  0
CIRCLE
  5
390
100
AcDbEntity
  8
0
100
AcDbCircle
 62
7
  6
CONTINUOUS
 10
167.423405672
 20
145.8044906445
 40
2.7479640288
  0
ARC
  5
391
100
AcDbEntity
  8
RUNDUNGEN
100
AcDbCircle
 62
7
  6
CONTINUOUS
 10
175.50334572
 20
125.6125893342
 40
4.5799400479
100
AcDbArc
 50
171.9999810607
 51
180.0000154862
  0
ARC
  5
392
100
AcDbEntity
  8
RUNDUNGEN
100
AcDbCircle
 62
7
  6
CONTINUOUS
 10
174.0262260215
 20
134.8472729677
 40
1.8319760192
100
AcDbArc
 50
134.9998274943
 51
172.0000227018
  0
ARC
  5
393
100
AcDbEntity
  8
RUNDUNGEN
100
AcDbCircle
 62
7
  6
CONTINUOUS
 10
172.0914296529
 20
138.0940872636
 40
1.8319760192
100
AcDbArc
 50
315.0003820792
 51
0.0007239321
  0
ARC
  5
394
100
AcDbEntity
  8
BEZUGSACHSEN
100
AcDbCircle
 62
7
  6
CONTINUOUS
 10
175.39676572
 20
165.9963919547
 40
4.5799400479
100
AcDbArc
 50
179.9999845133
 51
188.0000028158
  0
ARC
  5
395
100
AcDbEntity
  8
BEZUGSACHSEN
100
AcDbCircle
 62
8
  6
HIDDEN
 10
167.464940708
 20
171.7746897474
 40
3.4349550359
100
AcDbArc
 50
180.0
 51
261.0
  0
ARC
  5
396
100
AcDbEntity
  8
BEZUGSACHSEN
100
AcDbCircle
 62
7
  6
CONTINUOUS
 10
172.0914296529
 20
153.4083140254
 40
1.8319760192
100
AcDbArc
 50
0.0
 51
45.0
  0
ARC
  5
397
100
AcDbEntity
  8
BEZUGSACHSEN
100
AcDbCircle
 62
7
  6
CONTINUOUS
 10
173.9196460215
 20
156.7617083213
 40
1.8319760192
100
AcDbArc
 50
187.9999965904
 51
224.9999922906
  0
ARC
  5
398
100
AcDbEntity
  8
BEZUGSACHSEN
100
AcDbCircle
 62
7
  6
CONTINUOUS
 10
169.4428436577
 20
177.5096942917
 40
1.3739820144
100
AcDbArc
 50
0.0
 51
84.0
  0
ARC
  5
399
100
AcDbEntity
  8
RUNDUNGEN
100
AcDbCircle
 62
7
  6
CONTINUOUS
 10
173.0074176625
 20
150.4831796453
 40
0.9159880096
100
AcDbArc
 50
359.9999371173
 51
39.9587092451
  0
SPLINE
  5
39A
100
AcDbEntity
  8
BEZUGSACHSEN
100
AcDbSpline
 62
7
  6
CONTINUOUS
 70
0
 71
3
 72
11
 73
7
 74
0
 42
0.0000001
 43
0.0000001
 44
0.0000000001
 40
0.0
 40
0.0
 40
0.0
 40
0.0
 40
0.2500117066
 40
0.5000175241
 40
0.7500134384
 40
1.0
 40
1.0
 40
1.0
 40
1.0
 10
95.3171372447
 20
156.6629469274
 30
0.0
 10
95.2149694038
 20
156.6850244892
 30
0.0
 10
95.0165646608
 20
156.7647781428
 30
0.0
 10
94.7772354003
 20
156.9764666081
 30
0.0
 10
94.6224602785
 20
157.256054896
 30
0.0
 10
94.5883897141
 20
157.4672860318
 30
0.0
 10
94.5896760099
 20
157.5717936119
 30
0.0
  0
SPLINE
  5
39B
100
AcDbEntity
  8
BEZUGSACHSEN
100
AcDbSpline
 62
7
  6
CONTINUOUS
 70
0
 71
3
 72
11
 73
7
 74
0
 42
0.0000001
 43
0.0000001
 44
0.0000000001
 40
0.0
 40
0.0
 40
0.0
 40
0.0
 40
0.2500139658
 40
0.5000035069
 40
0.7499908109
 40
1.0
 40
1.0
 40
1.0
 40
1.0
 10
141.0188146398
 20
137.6034962516
 30
0.0
 10
141.0927142549
 20
137.6034962649
 30
0.0
 10
141.2411098716
 20
137.6212793894
 30
0.0
 10
141.4505860639
 20
137.6998752357
 30
0.0
 10
141.635509756
 20
137.8258328872
 30
0.0
 10
141.7353771065
 20
137.9370684665
 30
0.0
 10
141.7777634133
 20
137.9976023035
 30
0.0
  0
SPLINE
  5
39C
100
AcDbEntity
  8
BEZUGSACHSEN
100
AcDbSpline
 62
7
  6
CONTINUOUS
 70
0
 71
3
 72
15
 73
11
 74
0
 42
0.0000001
 43
0.0000001
 44
0.0000000001
 40
0.0
 40
0.0
 40
0.0
 40
0.0
 40
0.1250047632
 40
0.2500010337
 40
0.3750036572
 40
0.5000036904
 40
0.6250030324
 40
0.7500039506
 40
0.8749974338
 40
1.0
 40
1.0
 40
1.0
 40
1.0
 10
124.3154308634
 20
137.6034972729
 30
0.0
 10
124.2551598088
 20
137.6034972018
 30
0.0
 10
124.1342969246
 20
137.6152035339
 30
0.0
 10
123.9600196946
 20
137.6672749486
 30
0.0
 10
123.7989801985
 20
137.7519889192
 30
0.0
 10
123.6574151968
 20
137.8663079886
 30
0.0
 10
123.540816386
 20
138.0060184843
 30
0.0
 10
123.4538693565
 20
138.1659080689
 30
0.0
 10
123.4001462087
 20
138.339742463
 30
0.0
 10
123.3880249551
 20
138.4606234575
 30
0.0
 10
123.388024948
 20
138.5208934528
 30
0.0
  0
SPLINE
  5
39D
100
AcDbEntity
  8
RUNDUNGEN
100
AcDbSpline
 62
7
  6
CONTINUOUS
 70
0
 71
3
 72
15
 73
11
 74
0
 42
0.0000001
 43
0.0000001
 44
0.0000000001
 40
0.0
 40
0.0
 40
0.0
 40
0.0
 40
0.1250047631
 40
0.2500010337
 40
0.3750036571
 40
0.5000036903
 40
0.6250030324
 40
0.7500039506
 40
0.8749974338
 40
1.0
 40
1.0
 40
1.0
 40
1.0
 10
108.4606190327
 20
154.0054840396
 30
0.0
 10
108.5208900886
 20
154.0054841135
 30
0.0
 10
108.6417529765
 20
153.9937777878
 30
0.0
 10
108.8160302114
 20
153.9417063736
 30
0.0
 10
108.977069711
 20
153.8569924001
 30
0.0
 10
109.1186347132
 20
153.7426733244
 30
0.0
 10
109.235233522
 20
153.6029628215
 30
0.0
 10
109.3221805479
 20
153.4430732302
 30
0.0
 10
109.3759036917
 20
153.2692388305
 30
0.0
 10
109.3880249426
 20
153.1483578328
 30
0.0
 10
109.388024948
 20
153.0880878362
 30
0.0
  0
SPLINE
  5
39E
100
AcDbEntity
  8
RUNDUNGEN
100
AcDbSpline
 62
7
  6
CONTINUOUS
 70
0
 71
3
 72
11
 73
7
 74
0
 42
0.0000001
 43
0.0000001
 44
0.0000000001
 40
0.0
 40
0.0
 40
0.0
 40
0.0
 40
0.2500139658
 40
0.5000035069
 40
0.7499908109
 40
1.0
 40
1.0
 40
1.0
 40
1.0
 10
91.7572352562
 20
154.0054850375
 30
0.0
 10
91.6833356411
 20
154.0054850241
 30
0.0
 10
91.5349400245
 20
153.9877018995
 30
0.0
 10
91.3254638322
 20
153.9091060533
 30
0.0
 10
91.1405401401
 20
153.7831484018
 30
0.0
 10
91.0406727895
 20
153.6719128225
 30
0.0
 10
90.9982864828
 20
153.6113789854
 30
0.0
  0
SPLINE
  5
39F
100
AcDbEntity
  8
RUNDUNGEN
100
AcDbSpline
 62
7
  6
CONTINUOUS
 70
0
 71
3
 72
11
 73
7
 74
0
 42
0.0000001
 43
0.0000001
 44
0.0000000001
 40
0.0
 40
0.0
 40
0.0
 40
0.0
 40
0.2500117071
 40
0.5000175246
 40
0.7500134389
 40
1.0
 40
1.0
 40
1.0
 40
1.0
 10
137.4589126513
 20
134.9460343616
 30
0.0
 10
137.5610805048
 20
134.923956857
 30
0.0
 10
137.7594852299
 20
134.8442031194
 30
0.0
 10
137.9988144977
 20
134.6325146875
 30
0.0
 10
138.1535896172
 20
134.3529263905
 30
0.0
 10
138.1876601819
 20
134.1416952569
 30
0.0
 10
138.1863738862
 20
134.037187677
 30
0.0
  0
SPLINE
  5
3A0
100
AcDbEntity
  8
RUNDUNGEN
100
AcDbSpline
 62
7
  6
CONTINUOUS
 70
0
 71
3
 72
9
 73
5
 74
0
 42
0.0000001
 43
0.0000001
 44
0.0000000001
 40
0.0
 40
0.0
 40
0.0
 40
0.0
 40
0.2502909185
 40
1.0
 40
1.0
 40
1.0
 40
1.0
 10
127.435360784
 20
137.6718764721
 30
0.0
 10
127.4273248729
 20
137.6441054548
 30
0.0
 10
127.3995032795
 20
137.5319366244
 30
0.0
 10
127.3880249294
 20
137.4158627291
 30
0.0
 10
127.388024948
 20
137.3292662507
 30
0.0
  0
SPLINE
  5
3A1
100
AcDbEntity
  8
BEZUGSACHSEN
100
AcDbSpline
 62
7
  6
CONTINUOUS
 70
0
 71
3
 72
11
 73
7
 74
0
 42
0.0000001
 43
0.0000001
 44
0.0000000001
 40
0.0
 40
0.0
 40
0.0
 40
0.0
 40
0.1570259157
 40
0.3786694007
 40
0.663358305
 40
1.0
 40
1.0
 40
1.0
 40
1.0
 10
105.3094963084
 20
153.9492980775
 30
0.0
 10
105.317510299
 20
153.9523145667
 30
0.0
 10
105.3334919447
 20
153.966959123
 30
0.0
 10
105.3521354506
 20
153.9978612174
 30
0.0
 10
105.3708610055
 20
154.0400172579
 30
0.0
 10
105.3822167325
 20
154.0719355681
 30
0.0
 10
105.388024948
 20
154.0893501734
 30
0.0
  0
ELLIPSE
  5
3A2
100
AcDbEntity
  8
0
100
AcDbEllipse
 62
7
  6
CONTINUOUS
 10
88.388024948
 20
145.8044906445
 30
0.0
 11
0.0
 21
2.7479640288
 31
0.0
 40
0.1051042353
 41
-3.1415926536
 42
-0.0
  0
ELLIPSE
  5
3A3
100
AcDbEntity
  8
BEZUGSACHSEN
100
AcDbEllipse
 62
7
  6
CONTINUOUS
 10
144.388024948
 20
145.8044906445
 30
0.0
 11
-0.0
 21
2.7479640288
 31
0.0
 40
0.1051042353
 41
6.2831853072
 42
9.4247779608
  0
ELLIPSE
  5
3A4
100
AcDbEntity
  8
BEZUGSACHSEN
100
AcDbEllipse
 62
7
  6
CONTINUOUS
 10
123.388024948
 20
145.8044906445
 30
0.0
 11
-0.0
 21
2.397525
 31
0.0
 40
0.1583844403
 41
-3.1415926536
 42
-0.0
  0
ELLIPSE
  5
3A5
100
AcDbEntity
  8
0
100
AcDbEllipse
 62
7
  6
CONTINUOUS
 10
109.388024948
 20
145.8044906445
 30
0.0
 11
-0.0
 21
2.397525
 31
0.0
 40
0.1583844403
 41
-0.0
 42
3.1415926536
  0
ENDSEC
  0
SECTION
  2
OBJECTS
  0
DICTIONARY
  5
C
100
AcDbDictionary
280
0
281
1
  3
ACAD_GROUP
350
D
  3
ACAD_MLINESTYLE
350
17
  3
ACAD_LAYOUT
350
1A
  3
ACAD_PLOTSETTINGS
350
19
  3
ACAD_PLOTSTYLENAME
350
E
  0
DICTIONARY
  5
D
102
{ACAD_REACTORS
330
C
102
}
100
AcDbDictionary
280
0
281
1
  0
ACDBDICTIONARYWDFLT
  5
E
102
{ACAD_REACTORS
330
C
102
}
100
AcDbDictionary
281
1
  3
Normal
350
F
100
AcDbDictionaryWithDefault
340
F
  0
DICTIONARY
  5
17
102
{ACAD_REACTORS
330
C
102
}
100
AcDbDictionary
280
0
281
1
  3
Standard
350
18
  0
DICTIONARY
  5
19
102
{ACAD_REACTORS
330
C
102
}
100
AcDbDictionary
281
1
  0
DICTIONARY
  5
1A
102
{ACAD_REACTORS
330
C
102
}
100
AcDbDictionary
281
1
  3
Model
350
3A6
  3
Layout1
350
3A7
  0
ACDBPLACEHOLDER
  5
F
102
{ACAD_REACTORS
330
E
102
}
  0
MLINESTYLE
  5
18
102
{ACAD_REACTORS
330
17
102
}
100
AcDbMlineStyle
  2
STANDARD
 70
0
  3

 62
256
 51
90.0
 52
90.0
 71
2
 49
0.5
 62
256
  6
BYLAYER
 49
-0.5
 62
256
  6
BYLAYER
  0
LAYOUT
  5
3A6
102
{ACAD_REACTORS
330
1A
102
}
100
AcDbPlotSettings
  1

  2
none_device
  4
ISO_A3_(420.00_x_297.00_MM)
  6

 40
0.0
 41
0.0
 42
0.0
 43
0.0
 44
420.0
 45
297.0
 46
0.0
 47
0.0
 48
0.0
 49
0.0
140
0.0
141
0.0
142
1.0
143
1.0
 70
1024
 72
1
 73
0
 74
0
  7

 75
0
147
1.0
148
0.0
149
0.0
100
AcDbLayout
  1
Model
 70
0
 71
0
 10
0.0
 20
0.0
 11
420.0
 21
297.0
 12
0.0
 22
0.0
 32
0.0
 14
0.0
 24
0.0
 34
0.0
 15
0.0
 25
0.0
 35
0.0
146
0.0
 13
0.0
 23
0.0
 33
0.0
 16
1.0
 26
0.0
 36
0.0
 17
0.0
 27
1.0
 37
0.0
 76
0
330
207
345
0
346
0
  0
LAYOUT
  5
3A7
102
{ACAD_REACTORS
330
1A
102
}
100
AcDbPlotSettings
  1

  2
none_device
  4
ISO_A3_(420.00_x_297.00_MM)
  6

 40
0.0
 41
0.0
 42
0.0
 43
0.0
 44
420.0
 45
297.0
 46
0.0
 47
0.0
 48
0.0
 49
0.0
140
0.0
141
0.0
142
1.0
143
1.0
 70
0
 72
1
 73
0
 74
0
  7

 75
0
147
1.0
148
0.0
149
0.0
100
AcDbLayout
  1
Layout1
 70
0
 71
1
 10
0.0
 20
0.0
 11
420.0
 21
297.0
 12
0.0
 22
0.0
 32
0.0
 14
0.0
 24
0.0
 34
0.0
 15
0.0
 25
0.0
 35
0.0
146
0.0
 13
0.0
 23
0.0
 33
0.0
 16
1.0
 26
0.0
 36
0.0
 17
0.0
 27
1.0
 37
0.0
 76
0
330
208
345
0
346
0
  0
ENDSEC
  0
EOF
