999
DXF file: vvs-20-dxf.dxf
999
Pro/ENGINEER 2010140 by Parametric Technology Corporation
  0
SECTION
  2
HEADER
  9
$ACADVER
  1
AC1021
  9
$DWGCODEPAGE
  3
ANSI_1252
  9
$EXTMAX
 10
420.0
 20
297.0
 30
0.0
  9
$EXTMIN
 10
0.0
 20
0.0
 30
0.0
  9
$LIMMIN
 10
0.0
 20
0.0
  9
$LIMMAX
 10
420.0
 20
297.0
  9
$VIEWCTR
 10
210.0
 20
148.5
  9
$VIEWSIZE
 40
297.0
  9
$CLAYER
  8
0
  9
$LTSCALE
 40
23.1
  9
$CELTYPE
  6
BYLAYER
  9
$DIMSCALE
 40
1.0
  9
$DIMASZ
 40
3.5
  9
$DIMEXO
 40
2.625
  9
$DIMDLI
 40
15.96
  9
$DIMEXE
 40
7.56
  9
$DIMCEN
 40
3.78
  9
$DIMLFAC
 40
1.0
  9
$DIMBLK
  1
_FILLED
  9
$DIMTXT
 40
3.5
  9
$DIMTOL
 70
1
  9
$DIMLIM
 70
0
  9
$DIMTFAC
 40
1.0
  9
$DIMTP
 40
0.005
  9
$DIMTM
 40
0.005
  9
$PDMODE
 70
3
  9
$PDSIZE
 40
0.3125
  9
$HANDSEED
  5
3C3
  9
$TILEMODE
 70
1
  9
$MEASUREMENT
 70
1
  9
$INSUNITS
 70
4
  0
ENDSEC
  0
SECTION
  2
CLASSES
  0
CLASS
  1
ACDBDICTIONARYWDFLT
  2
AcDbDictionaryWithDefault
  3
AutoCAD 2000
 90
0
 91
1
280
0
281
0
  0
CLASS
  1
ACDBPLACEHOLDER
  2
AcDbPlaceHolder
  3
AutoCAD 2000
 90
0
 91
1
280
0
281
0
  0
CLASS
  1
LAYOUT
  2
AcDbLayout
  3
AutoCAD 2000
 90
0
 91
0
280
0
281
0
  0
ENDSEC
  0
SECTION
  2
TABLES
  0
TABLE
  2
VPORT
  5
8
100
AcDbSymbolTable
 70
2
  0
VPORT
  5
1F4
100
AcDbSymbolTableRecord
100
AcDbViewportTableRecord
  2
*ACTIVE
 70
0
 10
0.0
 20
0.0
 11
1.0
 21
1.0
 12
210.0
 22
148.5
 13
0.0
 23
0.0
 14
1.0
 24
1.0
 15
0.0
 25
0.0
 16
0.0
 26
0.0
 36
1.0
 17
0.0
 27
0.0
 37
0.0
 40
297.0
 41
1.4141414141
 42
50.0
 43
0.0
 44
0.0
 50
0.0
 51
0.0
 71
0
 72
100
 73
1
 74
1
 75
0
 76
0
 77
0
 78
0
  0
ENDTAB
  0
TABLE
  2
LTYPE
  5
5
100
AcDbSymbolTable
 70
6
  0
LTYPE
  5
14
100
AcDbSymbolTableRecord
100
AcDbLinetypeTableRecord
  2
BYBLOCK
 70
0
  3

 72
65
 73
0
 40
0.0
  0
LTYPE
  5
15
100
AcDbSymbolTableRecord
100
AcDbLinetypeTableRecord
  2
BYLAYER
 70
0
  3

 72
65
 73
0
 40
0.0
  0
LTYPE
  5
16
100
AcDbSymbolTableRecord
100
AcDbLinetypeTableRecord
  2
CONTINUOUS
 70
64
  3
Solid line
 72
65
 73
0
 40
0.0
  0
LTYPE
  5
1F5
100
AcDbSymbolTableRecord
100
AcDbLinetypeTableRecord
  2
CENTER
 70
64
  3
____ _ ____ _ ____ _ ____ _ ____ _ ____ _ ____
 72
65
 73
4
 40
0.6
 49
0.375
 74
0
 49
-0.075
 74
0
 49
0.075
 74
0
 49
-0.075
 74
0
  0
LTYPE
  5
1F6
100
AcDbSymbolTableRecord
100
AcDbLinetypeTableRecord
  2
HIDDEN
 70
64
  3
- - - - - - - - - - - - - - - - - - - -
 72
65
 73
2
 40
0.2
 49
0.1
 74
0
 49
-0.1
 74
0
  0
LTYPE
  5
1F7
100
AcDbSymbolTableRecord
100
AcDbLinetypeTableRecord
  2
PHANTOM
 70
64
  3
_____ _ _ _____ _ _ _____ _ _ _____
 72
65
 73
6
 40
0.8
 49
0.45
 74
0
 49
-0.05
 74
0
 49
0.1
 74
0
 49
-0.05
 74
0
 49
0.1
 74
0
 49
-0.05
 74
0
  0
LTYPE
  5
1F8
100
AcDbSymbolTableRecord
100
AcDbLinetypeTableRecord
  2
DOT
 70
64
  3
. . . . . . . . . . . . . . . . . . . .
 72
65
 73
2
 40
0.2
 49
0.1
 74
0
 49
-0.1
 74
0
  0
LTYPE
  5
1F9
100
AcDbSymbolTableRecord
100
AcDbLinetypeTableRecord
  2
DASHED
 70
64
  3
- - - - - - - - - - - - - - - - - - - -
 72
65
 73
2
 40
0.2
 49
0.1
 74
0
 49
-0.1
 74
0
  0
ENDTAB
  0
TABLE
  2
LAYER
  5
2
100
AcDbSymbolTable
 70
36
  0
LAYER
  5
10
100
AcDbSymbolTableRecord
100
AcDbLayerTableRecord
  2
0
 70
0
 62
7
  6
CONTINUOUS
370
-3
390
F
  0
LAYER
  5
1FA
100
AcDbSymbolTableRecord
100
AcDbLayerTableRecord
  2
DEFAULT_1
 70
0
 62
7
  6
CENTER
370
-3
390
F
  0
LAYER
  5
1FB
100
AcDbSymbolTableRecord
100
AcDbLayerTableRecord
  2
DEFAULT_2
 70
0
 62
8
  6
HIDDEN
370
-3
390
F
  0
LAYER
  5
1FC
100
AcDbSymbolTableRecord
100
AcDbLayerTableRecord
  2
DEFAULT_3
 70
0
 62
7
  6
PHANTOM
370
-3
390
F
  0
LAYER
  5
1FD
100
AcDbSymbolTableRecord
100
AcDbLayerTableRecord
  2
AUSFORMSCHRAEGEN
 70
0
 62
7
  6
CONTINUOUS
370
-3
390
F
  0
LAYER
  5
1FE
100
AcDbSymbolTableRecord
100
AcDbLayerTableRecord
  2
BEZUGSACHSEN
 70
0
 62
7
  6
CONTINUOUS
370
-3
390
F
  0
LAYER
  5
1FF
100
AcDbSymbolTableRecord
100
AcDbLayerTableRecord
  2
BEZUGSEBENEN
 70
0
 62
7
  6
CONTINUOUS
370
-3
390
F
  0
LAYER
  5
200
100
AcDbSymbolTableRecord
100
AcDbLayerTableRecord
  2
HILFEN
 70
0
 62
7
  6
CONTINUOUS
370
-3
390
F
  0
LAYER
  5
201
100
AcDbSymbolTableRecord
100
AcDbLayerTableRecord
  2
PLATZIERUNG
 70
0
 62
7
  6
CONTINUOUS
370
-3
390
F
  0
LAYER
  5
202
100
AcDbSymbolTableRecord
100
AcDbLayerTableRecord
  2
RUNDUNGEN
 70
0
 62
7
  6
CONTINUOUS
370
-3
390
F
  0
LAYER
  5
203
100
AcDbSymbolTableRecord
100
AcDbLayerTableRecord
  2
T_STARTBEZUEGE
 70
0
 62
7
  6
CONTINUOUS
370
-3
390
F
  0
LAYER
  5
204
100
AcDbSymbolTableRecord
100
AcDbLayerTableRecord
  2
ZEICHNUNGSBEMASSUNGEN
 70
0
 62
7
  6
CONTINUOUS
370
-3
390
F
  0
ENDTAB
  0
TABLE
  2
STYLE
  5
3
100
AcDbSymbolTable
 70
1
  0
STYLE
  5
11
100
AcDbSymbolTableRecord
100
AcDbTextStyleTableRecord
  2
STANDARD
 70
0
 40
0.0
 41
0.7
 50
0.0
 71
0
 42
0.2
  3
txt
  4

  0
STYLE
  5
205
100
AcDbSymbolTableRecord
100
AcDbTextStyleTableRecord
  2
TEXTSTYLE_1
 70
0
 40
0.0
 41
0.8
 50
0.0
 71
0
 42
0.2
  3
gdt
  4

  0
ENDTAB
  0
TABLE
  2
VIEW
  5
6
100
AcDbSymbolTable
 70
0
  0
ENDTAB
  0
TABLE
  2
UCS
  5
7
100
AcDbSymbolTable
 70
0
  0
ENDTAB
  0
TABLE
  2
APPID
  5
9
100
AcDbSymbolTable
 70
1
  0
APPID
  5
206
100
AcDbSymbolTableRecord
100
AcDbRegAppTableRecord
  2
ACAD
 70
0
  0
ENDTAB
  0
TABLE
  2
BLOCK_RECORD
  5
1
100
AcDbSymbolTable
 70
0
  0
BLOCK_RECORD
  5
207
100
AcDbSymbolTableRecord
100
AcDbBlockTableRecord
  2
*Model_Space
  0
BLOCK_RECORD
  5
208
100
AcDbSymbolTableRecord
100
AcDbBlockTableRecord
  2
*Paper_Space
  0
ENDTAB
  0
TABLE
  2
DIMSTYLE
  5
A
100
AcDbSymbolTable
 70
1
100
AcDbDimStyleTable
 71
0
  0
DIMSTYLE
105
209
100
AcDbSymbolTableRecord
100
AcDbDimStyleTableRecord
  2
STANDARD
 70
0
  3

  4

 40
1.0
 41
3.5
 42
0.0625
 43
0.38
 44
0.18
 45
0.0
 46
0.0
 47
0.005
 48
0.005
140
3.5
141
0.09
142
0.0
143
25.4
144
1.0
145
0.0
146
1.0
147
0.09
 71
1.0
 72
0.0
 73
0
 74
0
 75
0
 76
0
 77
1
 78
8
170
0
171
2
172
0
173
0
174
0
175
0
176
0
177
0
178
5
270
2
271
3
272
3
273
2
274
2
275
0
280
0
281
0
282
0
283
1
284
8
285
0
286
0
287
3
288
0
340
11
  0
ENDTAB
  0
ENDSEC
  0
SECTION
  2
BLOCKS
  0
BLOCK
  5
20
100
AcDbEntity
  8
0
100
AcDbBlockBegin
  2
*Model_Space
 70
0
 10
0.0
 20
0.0
 30
0.0
  3
*Model_Space
  1

  0
ENDBLK
  5
21
100
AcDbEntity
  8
0
100
AcDbBlockEnd
  0
BLOCK
  5
1C
100
AcDbEntity
  8
0
100
AcDbBlockBegin
  2
*Paper_Space
 70
0
 10
0.0
 20
0.0
 30
0.0
  3
*Paper_Space
  1

  0
ENDBLK
  5
1D
100
AcDbEntity
  8
0
100
AcDbBlockEnd
  0
ENDSEC
  0
SECTION
  2
ENTITIES
  0
LINE
  5
20A
100
AcDbEntity
  8
0
100
AcDbLine
 62
7
  6
CONTINUOUS
 10
0.0
 20
0.0
 11
0.0
 21
297.0
  0
LINE
  5
20B
100
AcDbEntity
  8
0
100
AcDbLine
 62
7
  6
CONTINUOUS
 10
0.0
 20
0.0
 11
420.0
 21
0.0
  0
LINE
  5
20C
100
AcDbEntity
  8
0
100
AcDbLine
 62
7
  6
CONTINUOUS
 10
0.0
 20
297.0
 11
420.0
 21
297.0
  0
LINE
  5
20D
100
AcDbEntity
  8
0
100
AcDbLine
 62
7
  6
CONTINUOUS
 10
420.0
 20
0.0
 11
420.0
 21
297.0
  0
LINE
  5
20E
100
AcDbEntity
  8
BEZUGSACHSEN
100
AcDbLine
 62
7
  6
CONTINUOUS
 10
101.4560234831
 20
228.6176262347
 11
100.0921593846
 21
228.1903489817
  0
LINE
  5
20F
100
AcDbEntity
  8
BEZUGSACHSEN
100
AcDbLine
 62
7
  6
CONTINUOUS
 10
93.2092205747
 20
225.1946172581
 11
92.3362127777
 21
224.9317962338
  0
LINE
  5
210
100
AcDbEntity
  8
0
100
AcDbLine
 62
7
  6
CONTINUOUS
 10
139.920861364
 20
67.6410796793
 11
139.2051552226
 21
67.4629522779
  0
LINE
  5
211
100
AcDbEntity
  8
0
100
AcDbLine
 62
7
  6
CONTINUOUS
 10
121.2632494406
 20
61.0395559141
 11
122.684279829
 21
61.1924104065
  0
LINE
  5
212
100
AcDbEntity
  8
0
100
AcDbLine
 62
7
  6
CONTINUOUS
 10
39.388024948
 20
126.5638818376
 11
39.388024948
 21
137.8765706445
  0
LINE
  5
213
100
AcDbEntity
  8
0
100
AcDbLine
 62
7
  6
CONTINUOUS
 10
39.388024948
 20
153.7324106445
 11
39.388024948
 21
155.5009688481
  0
LINE
  5
214
100
AcDbEntity
  8
BEZUGSACHSEN
100
AcDbLine
 62
7
  6
CONTINUOUS
 10
78.4529990616
 20
214.6067618987
 11
74.3179460198
 21
209.6807237895
  0
LINE
  5
215
100
AcDbEntity
  8
BEZUGSACHSEN
100
AcDbLine
 62
7
  6
CONTINUOUS
 10
91.0540575042
 20
222.790925003
 11
91.5967717476
 21
223.2903505749
  0
LINE
  5
216
100
AcDbEntity
  8
BEZUGSACHSEN
100
AcDbLine
 62
7
  6
CONTINUOUS
 10
91.0777959933
 20
224.254245199
 11
90.3777801094
 21
223.6701259759
  0
LINE
  5
217
100
AcDbEntity
  8
BEZUGSACHSEN
100
AcDbLine
 62
7
  6
CONTINUOUS
 10
72.6256103181
 20
205.781801945
 11
71.7076337089
 21
205.2769749791
  0
LINE
  5
218
100
AcDbEntity
  8
BEZUGSACHSEN
100
AcDbLine
 62
7
  6
CONTINUOUS
 10
92.3362127777
 20
224.9317962338
 11
91.0777959933
 21
224.254245199
  0
LINE
  5
219
100
AcDbEntity
  8
BEZUGSACHSEN
100
AcDbLine
 62
7
  6
CONTINUOUS
 10
91.5967717476
 20
223.2903505749
 11
92.8551885321
 21
223.9679016097
  0
LINE
  5
21A
100
AcDbEntity
  8
BEZUGSACHSEN
100
AcDbLine
 62
7
  6
CONTINUOUS
 10
94.71907882
 20
223.5209099044
 11
95.6628923084
 21
224.0290736651
  0
LINE
  5
21B
100
AcDbEntity
  8
BEZUGSACHSEN
100
AcDbLine
 62
7
  6
CONTINUOUS
 10
93.8380246522
 20
221.3887777191
 11
92.8942111638
 21
220.8806139584
  0
LINE
  5
21C
100
AcDbEntity
  8
BEZUGSACHSEN
100
AcDbLine
 62
7
  6
CONTINUOUS
 10
93.4131868576
 20
219.9167194468
 11
94.357000346
 21
220.4248832075
  0
LINE
  5
21D
100
AcDbEntity
  8
BEZUGSACHSEN
100
AcDbLine
 62
7
  6
CONTINUOUS
 10
93.2478371521
 20
217.9627134687
 11
92.3040236637
 21
217.4545497079
  0
LINE
  5
21E
100
AcDbEntity
  8
BEZUGSACHSEN
100
AcDbLine
 62
7
  6
CONTINUOUS
 10
95.5679438738
 20
218.1757955638
 11
94.6241303853
 21
217.6676318031
  0
LINE
  5
21F
100
AcDbEntity
  8
BEZUGSACHSEN
100
AcDbLine
 62
7
  6
CONTINUOUS
 10
99.9280943416
 20
219.1526076277
 11
100.9509926594
 21
219.4730656439
  0
LINE
  5
220
100
AcDbEntity
  8
BEZUGSACHSEN
100
AcDbLine
 62
7
  6
CONTINUOUS
 10
105.7245184675
 20
220.968536488
 11
106.7474167853
 21
221.2889945042
  0
LINE
  5
221
100
AcDbEntity
  8
BEZUGSACHSEN
100
AcDbLine
 62
7
  6
CONTINUOUS
 10
92.5401790682
 20
219.6538984084
 11
93.4131868576
 21
219.9167194468
  0
LINE
  5
222
100
AcDbEntity
  8
BEZUGSACHSEN
100
AcDbLine
 62
7
  6
CONTINUOUS
 10
94.4273999377
 20
216.5256098901
 11
95.3004077271
 21
216.7884309286
  0
LINE
  5
223
100
AcDbEntity
  8
0
100
AcDbLine
 62
7
  6
CONTINUOUS
 10
138.2223209027
 20
70.0420771377
 11
138.9380252438
 21
70.2202035699
  0
LINE
  5
224
100
AcDbEntity
  8
0
100
AcDbLine
 62
7
  6
CONTINUOUS
 10
139.8818387323
 20
70.7283673306
 11
140.5975448736
 21
70.906494732
  0
LINE
  5
225
100
AcDbEntity
  8
0
100
AcDbLine
 62
7
  6
CONTINUOUS
 10
138.4190495501
 20
71.1840980814
 11
137.8606468569
 21
71.0906652863
  0
LINE
  5
226
100
AcDbEntity
  8
0
100
AcDbLine
 62
7
  6
CONTINUOUS
 10
138.1519195107
 20
73.9413494859
 11
138.7103222039
 21
74.034782281
  0
LINE
  5
227
100
AcDbEntity
  8
0
100
AcDbLine
 62
7
  6
CONTINUOUS
 10
124.6092135967
 20
70.0243022304
 11
123.5434407418
 21
69.9096613542
  0
LINE
  5
228
100
AcDbEntity
  8
0
100
AcDbLine
 62
7
  6
CONTINUOUS
 10
118.5698342552
 20
69.374670617
 11
117.5040614003
 21
69.2600297409
  0
LINE
  5
229
100
AcDbEntity
  8
0
100
AcDbLine
 62
7
  6
CONTINUOUS
 10
137.4201206125
 20
70.0245997908
 11
138.2223209027
 21
70.0420771377
  0
LINE
  5
22A
100
AcDbEntity
  8
0
100
AcDbLine
 62
7
  6
CONTINUOUS
 10
141.038071118
 20
71.9725602275
 11
140.2358708279
 21
71.9550828806
  0
LINE
  5
22B
100
AcDbEntity
  8
0
100
AcDbLine
 62
7
  6
CONTINUOUS
 10
138.5208296114
 20
66.4728412051
 11
139.5668293214
 21
66.4143640308
  0
LINE
  5
22C
100
AcDbEntity
  8
BEZUGSACHSEN
100
AcDbLine
 62
7
  6
CONTINUOUS
 10
68.4630425224
 20
75.9918108944
 11
41.3775032574
 21
119.5913123219
  0
LINE
  5
22D
100
AcDbEntity
  8
BEZUGSACHSEN
100
AcDbLine
 62
7
  6
CONTINUOUS
 10
90.3777801094
 20
223.6701259759
 11
89.9215636378
 21
223.0100522458
  0
LINE
  5
22E
100
AcDbEntity
  8
RUNDUNGEN
100
AcDbLine
 62
7
  6
CONTINUOUS
 10
46.9186710591
 20
168.3274878775
 11
40.576269867
 21
159.2696002571
  0
LINE
  5
22F
100
AcDbEntity
  8
BEZUGSACHSEN
100
AcDbLine
 62
7
  6
CONTINUOUS
 10
71.7076337089
 20
205.2769749791
 11
71.0181507555
 21
204.4361912677
  0
LINE
  5
230
100
AcDbEntity
  8
BEZUGSACHSEN
100
AcDbLine
 62
7
  6
CONTINUOUS
 10
75.0166748442
 20
209.0941914309
 11
78.2328280864
 21
212.9255554486
  0
LINE
  5
231
100
AcDbEntity
  8
BEZUGSACHSEN
100
AcDbLine
 62
7
  6
CONTINUOUS
 10
83.3689845292
 20
210.2468949811
 11
82.7946711686
 21
209.5627224995
  0
LINE
  5
232
100
AcDbEntity
  8
BEZUGSACHSEN
100
AcDbLine
 62
7
  6
CONTINUOUS
 10
82.4845189191
 20
207.4905388046
 11
82.0250703338
 21
206.9432033248
  0
LINE
  5
233
100
AcDbEntity
  8
BEZUGSACHSEN
100
AcDbLine
 62
7
  6
CONTINUOUS
 10
71.8106311586
 20
203.9842875297
 11
72.4116156094
 21
204.6698759893
  0
LINE
  5
234
100
AcDbEntity
  8
BEZUGSACHSEN
100
AcDbLine
 62
7
  6
CONTINUOUS
 10
77.6749860973
 20
200.640199894
 11
77.0739996209
 21
199.9546078824
  0
LINE
  5
235
100
AcDbEntity
  8
BEZUGSACHSEN
100
AcDbLine
 62
7
  6
CONTINUOUS
 10
96.0869195675
 20
217.2119010522
 11
96.6296320108
 21
217.7113256549
  0
LINE
  5
236
100
AcDbEntity
  8
BEZUGSACHSEN
100
AcDbLine
 62
7
  6
CONTINUOUS
 10
81.7800143472
 20
205.5161357163
 11
82.6089355995
 21
206.2198356125
  0
LINE
  5
237
100
AcDbEntity
  8
BEZUGSACHSEN
100
AcDbLine
 62
7
  6
CONTINUOUS
 10
82.0250703338
 20
206.9432033248
 11
81.3110099133
 21
206.3763357326
  0
LINE
  5
238
100
AcDbEntity
  8
BEZUGSACHSEN
100
AcDbLine
 62
7
  6
CONTINUOUS
 10
76.8600048567
 20
198.8426819583
 11
77.7779834499
 21
199.3475125001
  0
LINE
  5
239
100
AcDbEntity
  8
BEZUGSACHSEN
100
AcDbLine
 62
7
  6
CONTINUOUS
 10
95.3004077271
 20
216.7884309286
 11
96.0869195675
 21
217.2119010522
  0
LINE
  5
23A
100
AcDbEntity
  8
BEZUGSACHSEN
100
AcDbLine
 62
7
  6
CONTINUOUS
 10
72.4116156094
 20
204.6698759893
 11
72.9941011668
 21
204.9546967465
  0
LINE
  5
23B
100
AcDbEntity
  8
BEZUGSACHSEN
100
AcDbLine
 62
7
  6
CONTINUOUS
 10
77.0739996209
 20
199.9546078824
 11
76.4915140636
 21
199.6697871251
  0
LINE
  5
23C
100
AcDbEntity
  8
BEZUGSACHSEN
100
AcDbLine
 62
7
  6
CONTINUOUS
 10
81.0410716423
 20
205.2034100152
 11
81.7800143472
 21
205.5161357163
  0
LINE
  5
23D
100
AcDbEntity
  8
0
100
AcDbLine
 62
7
  6
CONTINUOUS
 10
151.4650399827
 20
85.2326455564
 11
152.0891192268
 21
85.4085358216
  0
LINE
  5
23E
100
AcDbEntity
  8
0
100
AcDbLine
 62
7
  6
CONTINUOUS
 10
159.4094579067
 20
85.6327393533
 11
160.1504395779
 21
85.827179344
  0
LINE
  5
23F
100
AcDbEntity
  8
0
100
AcDbLine
 62
7
  6
CONTINUOUS
 10
137.8606468569
 20
71.0906652863
 11
137.2157482148
 21
71.1578815765
  0
LINE
  5
240
100
AcDbEntity
  8
0
100
AcDbLine
 62
7
  6
CONTINUOUS
 10
140.5975448736
 20
70.906494732
 11
141.2424435158
 21
70.8392784418
  0
LINE
  5
241
100
AcDbEntity
  8
0
100
AcDbLine
 62
7
  6
CONTINUOUS
 10
139.2373461974
 20
74.9401996605
 11
138.3486499583
 21
75.0833713989
  0
LINE
  5
242
100
AcDbEntity
  8
0
100
AcDbLine
 62
7
  6
CONTINUOUS
 10
139.2051552226
 20
67.4629522779
 11
138.4737605709
 21
67.6908177658
  0
LINE
  5
243
100
AcDbEntity
  8
0
100
AcDbLine
 62
7
  6
CONTINUOUS
 10
136.4449266242
 20
70.3284196452
 11
137.4201206125
 21
70.0245997908
  0
LINE
  5
244
100
AcDbEntity
  8
BEZUGSACHSEN
100
AcDbLine
 62
7
  6
CENTER
 10
52.820884948
 20
145.8044906445
 11
52.820884948
 21
139.8044906445
  0
LINE
  5
245
100
AcDbEntity
  8
BEZUGSACHSEN
100
AcDbLine
 62
7
  6
CENTER
 10
52.820884948
 20
145.8044906445
 11
52.820884948
 21
151.8044906445
  0
LINE
  5
246
100
AcDbEntity
  8
BEZUGSACHSEN
100
AcDbLine
 62
7
  6
CONTINUOUS
 10
71.5266367991
 20
203.1179340482
 11
71.8106311586
 21
203.9842875297
  0
LINE
  5
247
100
AcDbEntity
  8
BEZUGSACHSEN
100
AcDbLine
 62
7
  6
CONTINUOUS
 10
71.0181507555
 20
204.4361912677
 11
70.6456599468
 21
203.4146460706
  0
LINE
  5
248
100
AcDbEntity
  8
BEZUGSACHSEN
100
AcDbLine
 62
7
  6
CONTINUOUS
 10
90.7551427184
 20
222.2155448396
 11
91.0540575042
 21
222.790925003
  0
LINE
  5
249
100
AcDbEntity
  8
BEZUGSACHSEN
100
AcDbLine
 62
7
  6
CONTINUOUS
 10
82.9190878489
 20
208.2920193074
 11
82.4845189191
 21
207.4905388046
  0
LINE
  5
24A
100
AcDbEntity
  8
BEZUGSACHSEN
100
AcDbLine
 62
7
  6
CONTINUOUS
 10
83.0683868138
 20
206.7671742242
 11
83.7326774073
 21
207.842319335
  0
LINE
  5
24B
100
AcDbEntity
  8
BEZUGSACHSEN
100
AcDbLine
 62
7
  6
CONTINUOUS
 10
96.6296320108
 20
217.7113256549
 11
97.0858485051
 21
218.3713993428
  0
LINE
  5
24C
100
AcDbEntity
  8
BEZUGSACHSEN
100
AcDbLine
 62
7
  6
CONTINUOUS
 10
77.7779834499
 20
199.3475125001
 11
78.4674663894
 21
200.1882962193
  0
LINE
  5
24D
100
AcDbEntity
  8
BEZUGSACHSEN
100
AcDbLine
 62
7
  6
CONTINUOUS
 10
82.6089355995
 20
206.2198356125
 11
83.0683868138
 21
206.7671742242
  0
LINE
  5
24E
100
AcDbEntity
  8
BEZUGSACHSEN
100
AcDbLine
 62
7
  6
CONTINUOUS
 10
95.953354669
 20
218.5905265295
 11
95.5679438738
 21
218.1757955638
  0
LINE
  5
24F
100
AcDbEntity
  8
0
100
AcDbLine
 62
7
  6
CONTINUOUS
 10
156.6570266551
 20
92.960739353
 11
155.9160450393
 21
92.7662993307
  0
LINE
  5
250
100
AcDbEntity
  8
0
100
AcDbLine
 62
7
  6
CONTINUOUS
 10
152.7534098203
 20
86.4836809324
 11
151.7349782538
 21
86.4055712738
  0
LINE
  5
251
100
AcDbEntity
  8
0
100
AcDbLine
 62
7
  6
CONTINUOUS
 10
159.7819487293
 20
86.6542845425
 11
158.4769803385
 21
86.5757915285
  0
LINE
  5
252
100
AcDbEntity
  8
0
100
AcDbLine
 62
7
  6
CONTINUOUS
 10
158.5984786101
 20
85.683875389
 11
159.4094579067
 21
85.6327393533
  0
LINE
  5
253
100
AcDbEntity
  8
0
100
AcDbLine
 62
7
  6
CONTINUOUS
 10
142.0132651063
 20
71.6687403731
 11
141.038071118
 21
71.9725602275
  0
LINE
  5
254
100
AcDbEntity
  8
0
100
AcDbLine
 62
7
  6
CONTINUOUS
 10
138.7103222039
 20
74.034782281
 11
139.197919198
 21
73.8828723538
  0
LINE
  5
255
100
AcDbEntity
  8
RUNDUNGEN
100
AcDbLine
 62
7
  6
CONTINUOUS
 10
61.242024948
 20
127.5171306445
 11
61.242024948
 21
166.8218506445
  0
LINE
  5
256
100
AcDbEntity
  8
BEZUGSACHSEN
100
AcDbLine
 62
7
  6
CONTINUOUS
 10
61.697024948
 20
129.3371902637
 11
61.697024948
 21
159.8347003372
  0
LINE
  5
257
100
AcDbEntity
  8
BEZUGSACHSEN
100
AcDbLine
 62
7
  6
CONTINUOUS
 10
77.9589784312
 20
201.5065498235
 11
77.6749860973
 21
200.640199894
  0
LINE
  5
258
100
AcDbEntity
  8
BEZUGSACHSEN
100
AcDbLine
 62
7
  6
CONTINUOUS
 10
78.4674663894
 20
200.1882962193
 11
78.839957212
 21
201.2098414085
  0
LINE
  5
259
100
AcDbEntity
  8
BEZUGSACHSEN
100
AcDbLine
 62
7
  6
CONTINUOUS
 10
96.2522695153
 20
219.1659065803
 11
95.953354669
 21
218.5905265295
  0
LINE
  5
25A
100
AcDbEntity
  8
0
100
AcDbLine
 62
7
  6
CONTINUOUS
 10
156.2845358325
 20
91.9391941639
 11
157.5895025307
 21
92.0176834358
  0
LINE
  5
25B
100
AcDbEntity
  8
0
100
AcDbLine
 62
7
  6
CONTINUOUS
 10
157.4680058406
 20
92.9096033807
 11
156.6570266551
 21
92.960739353
  0
LINE
  5
25C
100
AcDbEntity
  8
0
100
AcDbLine
 62
7
  6
CONTINUOUS
 10
152.0891192268
 20
85.4085358216
 11
152.7380807554
 21
85.3302841956
  0
LINE
  5
25D
100
AcDbEntity
  8
0
100
AcDbLine
 62
7
  6
CONTINUOUS
 10
158.0344919462
 20
85.799822334
 11
158.5984786101
 21
85.683875389
  0
LINE
  5
25E
100
AcDbEntity
  8
0
100
AcDbLine
 62
7
  6
CONTINUOUS
 10
140.0552367375
 20
74.5516851998
 11
139.2373461974
 21
74.9401996605
  0
LINE
  5
25F
100
AcDbEntity
  8
0
100
AcDbLine
 62
7
  6
CONTINUOUS
 10
141.2424435158
 20
70.8392784418
 11
141.8165347798
 21
70.5267182351
  0
LINE
  5
260
100
AcDbEntity
  8
0
100
AcDbLine
 62
7
  6
CONTINUOUS
 10
137.6164430315
 20
67.0220049198
 11
138.5208296114
 21
66.4728412051
  0
LINE
  5
261
100
AcDbEntity
  8
BEZUGSACHSEN
100
AcDbLine
 62
7
  6
CONTINUOUS
 10
71.5781354755
 20
202.4715903512
 11
71.5266367991
 21
203.1179340482
  0
LINE
  5
262
100
AcDbEntity
  8
BEZUGSACHSEN
100
AcDbLine
 62
7
  6
CONTINUOUS
 10
70.6456599468
 20
203.4146460706
 11
70.6786577458
 21
202.3675310955
  0
LINE
  5
263
100
AcDbEntity
  8
BEZUGSACHSEN
100
AcDbLine
 62
7
  6
CONTINUOUS
 10
83.7326774073
 20
207.842319335
 11
83.912637131
 21
208.6242708572
  0
LINE
  5
264
100
AcDbEntity
  8
BEZUGSACHSEN
100
AcDbLine
 62
7
  6
CONTINUOUS
 10
89.9215636378
 20
223.0100522458
 11
89.6383372715
 21
222.0286793619
  0
LINE
  5
265
100
AcDbEntity
  8
0
100
AcDbLine
 62
7
  6
CONTINUOUS
 10
158.0319929486
 20
92.7936561824
 11
157.4680058406
 21
92.9096033807
  0
LINE
  5
266
100
AcDbEntity
  8
0
100
AcDbLine
 62
7
  6
CONTINUOUS
 10
157.1535129434
 20
86.0965308756
 11
158.0344919462
 21
85.799822334
  0
LINE
  5
267
100
AcDbEntity
  8
0
100
AcDbLine
 62
7
  6
CONTINUOUS
 10
158.4769803385
 20
86.5757915285
 11
157.4375073029
 21
86.9628843571
  0
LINE
  5
268
100
AcDbEntity
  8
0
100
AcDbLine
 62
7
  6
CONTINUOUS
 10
142.6738523193
 20
71.1955310811
 11
142.0132651063
 21
71.6687403731
  0
LINE
  5
269
100
AcDbEntity
  8
0
100
AcDbLine
 62
7
  6
CONTINUOUS
 10
139.197919198
 20
73.8828723538
 11
139.528212744
 21
73.6462678203
  0
LINE
  5
26A
100
AcDbEntity
  8
0
100
AcDbLine
 62
7
  6
CONTINUOUS
 10
138.4737605709
 20
67.6908177658
 11
138.056971076
 21
68.0880713846
  0
LINE
  5
26B
100
AcDbEntity
  8
BEZUGSACHSEN
100
AcDbLine
 62
7
  6
CONTINUOUS
 10
77.9074797549
 20
202.1528935204
 11
77.9589784312
 21
201.5065498235
  0
LINE
  5
26C
100
AcDbEntity
  8
BEZUGSACHSEN
100
AcDbLine
 62
7
  6
CONTINUOUS
 10
79.42921857
 20
207.2562038936
 11
79.151727886
 21
214.0202295401
  0
LINE
  5
26D
100
AcDbEntity
  8
BEZUGSACHSEN
100
AcDbLine
 62
7
  6
CONTINUOUS
 10
78.2328280864
 20
212.9255554486
 11
78.435669288
 21
206.9239523438
  0
LINE
  5
26E
100
AcDbEntity
  8
BEZUGSACHSEN
100
AcDbLine
 62
7
  6
CONTINUOUS
 10
78.839957212
 20
201.2098414085
 11
78.8069574291
 21
202.2569528078
  0
LINE
  5
26F
100
AcDbEntity
  8
BEZUGSACHSEN
100
AcDbLine
 62
7
  6
CONTINUOUS
 10
90.7000272693
 20
221.5642103097
 11
90.7551427184
 21
222.2155448396
  0
LINE
  5
270
100
AcDbEntity
  8
BEZUGSACHSEN
100
AcDbLine
 62
7
  6
CONTINUOUS
 10
82.9841841118
 20
208.9371353938
 11
82.9190878489
 21
208.2920193074
  0
LINE
  5
271
100
AcDbEntity
  8
BEZUGSACHSEN
100
AcDbLine
 62
7
  6
CONTINUOUS
 10
97.0858485051
 20
218.3713993428
 11
97.3690749017
 21
219.3527721706
  0
LINE
  5
272
100
AcDbEntity
  8
0
100
AcDbLine
 62
7
  6
CONTINUOUS
 10
158.9129697038
 20
92.4969442154
 11
158.0319929486
 21
92.7936561824
  0
LINE
  5
273
100
AcDbEntity
  8
0
100
AcDbLine
 62
7
  6
CONTINUOUS
 10
157.5895025307
 20
92.0176834358
 11
158.6289773699
 21
91.6305942859
  0
LINE
  5
274
100
AcDbEntity
  8
0
100
AcDbLine
 62
7
  6
CONTINUOUS
 10
153.4272562623
 20
86.1512905471
 11
152.7534098203
 21
86.4836809324
  0
LINE
  5
275
100
AcDbEntity
  8
0
100
AcDbLine
 62
7
  6
CONTINUOUS
 10
137.2157482148
 20
71.1578815765
 11
136.7989587199
 21
71.5551351952
  0
LINE
  5
276
100
AcDbEntity
  8
0
100
AcDbLine
 62
7
  6
CONTINUOUS
 10
140.4720262324
 20
74.154431581
 11
140.0552367375
 21
74.5516851998
  0
LINE
  5
277
100
AcDbEntity
  8
0
100
AcDbLine
 62
7
  6
CONTINUOUS
 10
137.1131575876
 20
67.5799076239
 11
137.6164430315
 21
67.0220049198
  0
LINE
  5
278
100
AcDbEntity
  8
0
100
AcDbLine
 62
7
  6
CONTINUOUS
 10
135.9416411804
 20
70.8863223492
 11
136.4449266242
 21
70.3284196452
  0
LINE
  5
279
100
AcDbEntity
  8
0
100
AcDbLine
 62
7
  6
CONTINUOUS
 10
131.6746817034
 20
64.2496556372
 11
127.0515314285
 21
70.6404448009
  0
LINE
  5
27A
100
AcDbEntity
  8
0
100
AcDbLine
 62
7
  6
CONTINUOUS
 10
126.0286331107
 20
70.3199867847
 11
131.3200264129
 21
62.9913550542
  0
LINE
  5
27B
100
AcDbEntity
  8
BEZUGSACHSEN
100
AcDbLine
 62
7
  6
CONTINUOUS
 10
83.912637131
 20
208.6242708572
 11
83.8131040496
 21
209.6408337241
  0
LINE
  5
27C
100
AcDbEntity
  8
BEZUGSACHSEN
100
AcDbLine
 62
7
  6
CONTINUOUS
 10
89.6383372715
 20
222.0286793619
 11
89.6697178319
 21
221.2166956342
  0
LINE
  5
27D
100
AcDbEntity
  8
BEZUGSACHSEN
100
AcDbLine
 62
7
  6
CONTINUOUS
 10
86.358024948
 20
170.9648534169
 11
86.358024948
 21
178.5644906445
  0
LINE
  5
27E
100
AcDbEntity
  8
BEZUGSACHSEN
100
AcDbLine
 62
7
  6
CONTINUOUS
 10
86.449024948
 20
164.4924094652
 11
86.449024948
 21
129.3371902404
  0
LINE
  5
27F
100
AcDbEntity
  8
RUNDUNGEN
100
AcDbLine
 62
7
  6
CONTINUOUS
 10
86.722024948
 20
127.5171306445
 11
86.722024948
 21
166.8218506445
  0
LINE
  5
280
100
AcDbEntity
  8
BEZUGSACHSEN
100
AcDbLine
 62
7
  6
CONTINUOUS
 10
110.091770067
 20
230.4165708824
 11
108.1668362994
 21
221.5846790586
  0
LINE
  5
281
100
AcDbEntity
  8
BEZUGSACHSEN
100
AcDbLine
 62
7
  6
CONTINUOUS
 10
133.168605788
 20
122.1444906445
 11
143.411384948
 21
122.1444906445
  0
LINE
  5
282
100
AcDbEntity
  8
BEZUGSACHSEN
100
AcDbLine
 62
7
  6
CONTINUOUS
 10
174.176664948
 20
122.1444906445
 11
183.667799535
 21
122.1444906445
  0
LINE
  5
283
100
AcDbEntity
  8
0
100
AcDbLine
 62
7
  6
CONTINUOUS
 10
155.7270484176
 20
86.90995749
 11
157.1535129434
 21
86.0965308756
  0
LINE
  5
284
100
AcDbEntity
  8
0
100
AcDbLine
 62
7
  6
CONTINUOUS
 10
157.4375073029
 20
86.9628843571
 11
156.3280348939
 21
87.5955495016
  0
LINE
  5
285
100
AcDbEntity
  8
0
100
AcDbLine
 62
7
  6
CONTINUOUS
 10
158.6289773699
 20
91.6305942859
 11
159.7384497789
 21
90.9979291414
  0
LINE
  5
286
100
AcDbEntity
  8
0
100
AcDbLine
 62
7
  6
CONTINUOUS
 10
160.3394342296
 20
91.6835176009
 11
158.9129697038
 21
92.4969442154
  0
LINE
  5
287
100
AcDbEntity
  8
0
100
AcDbLine
 62
7
  6
CONTINUOUS
 10
153.62432201
 20
77.5887517489
 11
154.3230508344
 21
77.0022193903
  0
LINE
  5
288
100
AcDbEntity
  8
0
100
AcDbLine
 62
7
  6
CONTINUOUS
 10
121.8566844643
 20
62.204432017
 11
118.5698342552
 21
69.374670617
  0
LINE
  5
289
100
AcDbEntity
  8
0
100
AcDbLine
 62
7
  6
CONTINUOUS
 10
117.5040614003
 20
69.2600297409
 11
121.2632494406
 21
61.0395559141
  0
LINE
  5
28A
100
AcDbEntity
  8
BEZUGSACHSEN
100
AcDbLine
 62
7
  6
CONTINUOUS
 10
70.6786577458
 20
202.3675310955
 11
70.888652536
 21
201.6308066319
  0
LINE
  5
28B
100
AcDbEntity
  8
BEZUGSACHSEN
100
AcDbLine
 62
7
  6
CONTINUOUS
 10
100.0921593846
 20
228.1903489817
 11
99.9280943416
 21
219.1526076277
  0
LINE
  5
28C
100
AcDbEntity
  8
BEZUGSACHSEN
100
AcDbLine
 62
7
  6
CONTINUOUS
 10
100.9509926594
 20
219.4730656439
 11
101.1013681926
 21
227.3593256518
  0
LINE
  5
28D
100
AcDbEntity
  8
BEZUGSACHSEN
100
AcDbLine
 62
7
  6
CONTINUOUS
 10
109.2326091542
 20
221.6993199348
 11
110.9193654317
 21
229.404549272
  0
LINE
  5
28E
100
AcDbEntity
  8
RUNDUNGEN
100
AcDbLine
 62
7
  6
CONTINUOUS
 10
84.079384948
 20
124.8744906445
 11
63.884664948
 21
124.8744906445
  0
LINE
  5
28F
100
AcDbEntity
  8
BEZUGSACHSEN
100
AcDbLine
 62
7
  6
CONTINUOUS
 10
64.339664948
 20
126.6944906445
 11
83.806384948
 21
126.6944906445
  0
LINE
  5
290
100
AcDbEntity
  8
0
100
AcDbLine
 62
7
  6
CONTINUOUS
 10
156.3280348939
 20
87.5955495016
 11
155.4655550065
 21
88.2930256189
  0
LINE
  5
291
100
AcDbEntity
  8
0
100
AcDbLine
 62
7
  6
CONTINUOUS
 10
159.7384497789
 20
90.9979291414
 11
160.6009278627
 21
90.3004493454
  0
LINE
  5
292
100
AcDbEntity
  8
0
100
AcDbLine
 62
7
  6
CONTINUOUS
 10
152.7380807554
 20
85.3302841956
 11
153.0175726375
 21
85.0956709564
  0
LINE
  5
293
100
AcDbEntity
  8
0
100
AcDbLine
 62
7
  6
CONTINUOUS
 10
158.4581038762
 20
81.9282574995
 11
157.7593750519
 21
82.5147898581
  0
LINE
  5
294
100
AcDbEntity
  8
0
100
AcDbLine
 62
7
  6
CONTINUOUS
 10
153.7067481444
 20
85.9166773079
 11
153.4272562623
 21
86.1512905471
  0
LINE
  5
295
100
AcDbEntity
  8
0
100
AcDbLine
 62
7
  6
CONTINUOUS
 10
155.0230666142
 20
87.5170564244
 11
155.7270484176
 21
86.90995749
  0
LINE
  5
296
100
AcDbEntity
  8
0
100
AcDbLine
 62
7
  6
CONTINUOUS
 10
135.5956571422
 20
71.5289191403
 11
135.9416411804
 21
70.8863223492
  0
LINE
  5
297
100
AcDbEntity
  8
0
100
AcDbLine
 62
7
  6
CONTINUOUS
 10
136.7989587199
 20
71.5551351952
 11
136.6259668219
 21
71.8764333658
  0
LINE
  5
298
100
AcDbEntity
  8
BEZUGSACHSEN
100
AcDbLine
 62
7
  6
CONTINUOUS
 10
78.435669288
 20
206.9239523438
 11
78.6251822312
 21
206.2983652381
  0
LINE
  5
299
100
AcDbEntity
  8
BEZUGSACHSEN
100
AcDbLine
 62
7
  6
CONTINUOUS
 10
78.8069574291
 20
202.2569528078
 11
78.5969626943
 21
202.9936772397
  0
LINE
  5
29A
100
AcDbEntity
  8
0
100
AcDbLine
 62
7
  6
CONTINUOUS
 10
102.283024948
 20
166.8177845755
 11
102.283024948
 21
154.0544906445
  0
LINE
  5
29B
100
AcDbEntity
  8
0
100
AcDbLine
 62
7
  6
CONTINUOUS
 10
102.283024948
 20
137.5544906445
 11
102.283024948
 21
129.1539691124
  0
LINE
  5
29C
100
AcDbEntity
  8
0
100
AcDbLine
 62
7
  6
CONTINUOUS
 10
61.242024948
 20
137.5544906445
 11
61.697024948
 21
137.5544906445
  0
LINE
  5
29D
100
AcDbEntity
  8
0
100
AcDbLine
 62
7
  6
CONTINUOUS
 10
86.449024948
 20
137.5544906445
 11
86.722024948
 21
137.5544906445
  0
LINE
  5
29E
100
AcDbEntity
  8
0
100
AcDbLine
 62
7
  6
CONTINUOUS
 10
102.283024948
 20
137.5544906445
 11
130.493024948
 21
137.5544906445
  0
LINE
  5
29F
100
AcDbEntity
  8
0
100
AcDbLine
 62
7
  6
CONTINUOUS
 10
146.054024948
 20
137.5544906445
 11
146.327024948
 21
137.5544906445
  0
LINE
  5
2A0
100
AcDbEntity
  8
0
100
AcDbLine
 62
7
  6
CONTINUOUS
 10
171.079024948
 20
137.5544906445
 11
171.534024948
 21
137.5544906445
  0
LINE
  5
2A1
100
AcDbEntity
  8
0
100
AcDbLine
 62
7
  6
CONTINUOUS
 10
161.0434182806
 20
91.076422092
 11
160.3394342296
 21
91.6835176009
  0
LINE
  5
2A2
100
AcDbEntity
  8
0
100
AcDbLine
 62
7
  6
CONTINUOUS
 10
154.6360764836
 20
87.9433941421
 11
155.0230666142
 21
87.5170564244
  0
LINE
  5
2A3
100
AcDbEntity
  8
0
100
AcDbLine
 62
7
  6
CONTINUOUS
 10
148.9629458464
 20
81.9681475649
 11
149.4070653668
 21
81.3620863079
  0
LINE
  5
2A4
100
AcDbEntity
  8
0
100
AcDbLine
 62
7
  6
CONTINUOUS
 10
141.8165347798
 20
70.5267182351
 11
142.0760226267
 21
70.0447709793
  0
LINE
  5
2A5
100
AcDbEntity
  8
0
100
AcDbLine
 62
7
  6
CONTINUOUS
 10
143.1063320641
 20
70.3922856548
 11
142.6738523193
 21
71.1955310811
  0
LINE
  5
2A6
100
AcDbEntity
  8
BEZUGSACHSEN
100
AcDbLine
 62
7
  6
CONTINUOUS
 10
72.1751220333
 20
201.3085319435
 11
71.5781354755
 21
202.4715903512
  0
LINE
  5
2A7
100
AcDbEntity
  8
BEZUGSACHSEN
100
AcDbLine
 62
7
  6
CONTINUOUS
 10
77.3104948895
 20
203.3159556701
 11
77.9074797549
 21
202.1528935204
  0
LINE
  5
2A8
100
AcDbEntity
  8
BEZUGSACHSEN
100
AcDbLine
 62
7
  6
CONTINUOUS
 10
79.7584772586
 20
206.5133103326
 11
79.42921857
 21
207.2562038936
  0
LINE
  5
2A9
100
AcDbEntity
  8
BEZUGSACHSEN
100
AcDbLine
 62
7
  6
CONTINUOUS
 10
82.7946711686
 20
209.5627224995
 11
82.9841841118
 21
208.9371353938
  0
LINE
  5
2AA
100
AcDbEntity
  8
T_STARTBEZUEGE
100
AcDbLine
 62
7
  6
CENTER
 10
116.388024948
 20
46.3444906445
 11
116.388024948
 21
245.2644906445
  0
LINE
  5
2AB
100
AcDbEntity
  8
BEZUGSACHSEN
100
AcDbLine
 62
7
  6
CENTER
 10
179.955164948
 20
145.8044906445
 11
173.6506345873
 21
145.8044906445
  0
LINE
  5
2AC
100
AcDbEntity
  8
BEZUGSACHSEN
100
AcDbLine
 62
7
  6
CENTER
 10
52.820884948
 20
145.8044906445
 11
46.820884948
 21
145.8044906445
  0
LINE
  5
2AD
100
AcDbEntity
  8
T_STARTBEZUEGE
100
AcDbLine
 62
7
  6
CENTER
 10
36.3845019712
 20
145.8044906445
 11
196.3915479248
 21
145.8044906445
  0
LINE
  5
2AE
100
AcDbEntity
  8
BEZUGSACHSEN
100
AcDbLine
 62
7
  6
CENTER
 10
52.820884948
 20
145.8044906445
 11
58.820884948
 21
145.8044906445
  0
LINE
  5
2AF
100
AcDbEntity
  8
BEZUGSACHSEN
100
AcDbLine
 62
7
  6
CENTER
 10
179.955164948
 20
145.8044906445
 11
186.2596953088
 21
145.8044906445
  0
LINE
  5
2B0
100
AcDbEntity
  8
0
100
AcDbLine
 62
7
  6
CONTINUOUS
 10
161.4304079672
 20
90.6500846275
 11
161.0434182806
 21
91.076422092
  0
LINE
  5
2B1
100
AcDbEntity
  8
0
100
AcDbLine
 62
7
  6
CONTINUOUS
 10
154.1508676648
 20
85.3106160509
 11
153.7067481444
 21
85.9166773079
  0
LINE
  5
2B2
100
AcDbEntity
  8
BEZUGSACHSEN
100
AcDbLine
 62
7
  6
CONTINUOUS
 10
70.888652536
 20
201.6308066319
 11
71.3456419289
 21
200.9588966615
  0
LINE
  5
2B3
100
AcDbEntity
  8
0
100
AcDbLine
 62
7
  6
CONTINUOUS
 10
154.1790872017
 20
88.6153040492
 11
154.6360764836
 21
87.9433941421
  0
LINE
  5
2B4
100
AcDbEntity
  8
BEZUGSACHSEN
100
AcDbLine
 62
7
  6
CONTINUOUS
 10
78.5969626943
 20
202.9936772397
 11
78.1399734125
 21
203.6655871468
  0
LINE
  5
2B5
100
AcDbEntity
  8
0
100
AcDbLine
 62
7
  6
CONTINUOUS
 10
135.4069749944
 20
72.2562091184
 11
135.5956571422
 21
71.5289191403
  0
LINE
  5
2B6
100
AcDbEntity
  8
BEZUGSACHSEN
100
AcDbLine
 62
7
  6
CONTINUOUS
 10
97.3690749017
 20
219.3527721706
 11
97.1803927538
 21
220.0800621486
  0
LINE
  5
2B7
100
AcDbEntity
  8
BEZUGSACHSEN
100
AcDbLine
 62
7
  6
CONTINUOUS
 10
96.1500830741
 20
219.7325479232
 11
96.2522695153
 21
219.1659065803
  0
LINE
  5
2B8
100
AcDbEntity
  8
0
100
AcDbLine
 62
7
  6
CONTINUOUS
 10
61.242024948
 20
154.0544906445
 11
61.697024948
 21
154.0544906445
  0
LINE
  5
2B9
100
AcDbEntity
  8
0
100
AcDbLine
 62
7
  6
CONTINUOUS
 10
86.449024948
 20
154.0544906445
 11
86.722024948
 21
154.0544906445
  0
LINE
  5
2BA
100
AcDbEntity
  8
0
100
AcDbLine
 62
7
  6
CONTINUOUS
 10
102.283024948
 20
154.0544906445
 11
130.493024948
 21
154.0544906445
  0
LINE
  5
2BB
100
AcDbEntity
  8
0
100
AcDbLine
 62
7
  6
CONTINUOUS
 10
146.054024948
 20
154.0544906445
 11
146.327024948
 21
154.0544906445
  0
LINE
  5
2BC
100
AcDbEntity
  8
0
100
AcDbLine
 62
7
  6
CONTINUOUS
 10
171.079024948
 20
154.0544906445
 11
171.534024948
 21
154.0544906445
  0
LINE
  5
2BD
100
AcDbEntity
  8
BEZUGSACHSEN
100
AcDbLine
 62
7
  6
CONTINUOUS
 10
71.3456419289
 20
200.9588966615
 11
71.7326316154
 21
200.5325591969
  0
LINE
  5
2BE
100
AcDbEntity
  8
BEZUGSACHSEN
100
AcDbLine
 62
7
  6
CONTINUOUS
 10
78.6251822312
 20
206.2983652381
 11
79.0693017516
 21
205.6923039811
  0
LINE
  5
2BF
100
AcDbEntity
  8
0
100
AcDbLine
 62
7
  6
CONTINUOUS
 10
161.88739736
 20
89.9781746571
 11
161.4304079672
 21
90.6500846275
  0
LINE
  5
2C0
100
AcDbEntity
  8
0
100
AcDbLine
 62
7
  6
CONTINUOUS
 10
155.4655550065
 20
88.2930256189
 11
154.8685701412
 21
89.4560877685
  0
LINE
  5
2C1
100
AcDbEntity
  8
0
100
AcDbLine
 62
7
  6
CONTINUOUS
 10
153.0175726375
 20
85.0956709564
 11
153.346831326
 21
84.3527773954
  0
LINE
  5
2C2
100
AcDbEntity
  8
0
100
AcDbLine
 62
7
  6
CONTINUOUS
 10
136.6259668219
 20
71.8764333658
 11
136.5237803807
 21
72.4430747086
  0
LINE
  5
2C3
100
AcDbEntity
  8
BEZUGSACHSEN
100
AcDbLine
 62
7
  6
CONTINUOUS
 10
130.493024948
 20
124.7911967135
 11
130.493024948
 21
137.5544906445
  0
LINE
  5
2C4
100
AcDbEntity
  8
BEZUGSACHSEN
100
AcDbLine
 62
7
  6
CONTINUOUS
 10
130.493024948
 20
154.0544906445
 11
130.493024948
 21
162.4550121766
  0
LINE
  5
2C5
100
AcDbEntity
  8
0
100
AcDbLine
 62
7
  6
CONTINUOUS
 10
131.8250572367
 20
72.1359156451
 11
131.6746817034
 21
64.2496556372
  0
LINE
  5
2C6
100
AcDbEntity
  8
BEZUGSACHSEN
100
AcDbLine
 62
7
  6
CONTINUOUS
 10
73.0376001172
 20
200.6110521476
 11
72.1751220333
 21
201.3085319435
  0
LINE
  5
2C7
100
AcDbEntity
  8
BEZUGSACHSEN
100
AcDbLine
 62
7
  6
CONTINUOUS
 10
71.7326316154
 20
200.5325591969
 11
72.4366156664
 21
199.925463688
  0
LINE
  5
2C8
100
AcDbEntity
  8
BEZUGSACHSEN
100
AcDbLine
 62
7
  6
CONTINUOUS
 10
78.1399734125
 20
203.6655871468
 11
77.7529832819
 21
204.0919248646
  0
LINE
  5
2C9
100
AcDbEntity
  8
BEZUGSACHSEN
100
AcDbLine
 62
7
  6
CONTINUOUS
 10
83.8131040496
 20
209.6408337241
 11
83.3689845292
 21
210.2468949811
  0
LINE
  5
2CA
100
AcDbEntity
  8
BEZUGSACHSEN
100
AcDbLine
 62
7
  6
CONTINUOUS
 10
89.6697178319
 20
221.2166956342
 11
90.1021975767
 21
220.4134502079
  0
LINE
  5
2CB
100
AcDbEntity
  8
BEZUGSACHSEN
100
AcDbLine
 62
7
  6
CONTINUOUS
 10
90.9595151162
 20
221.0822630539
 11
90.7000272693
 21
221.5642103097
  0
LINE
  5
2CC
100
AcDbEntity
  8
BEZUGSACHSEN
100
AcDbLine
 62
7
  6
CONTINUOUS
 10
95.9770911762
 20
220.0538460937
 11
96.1500830741
 21
219.7325479232
  0
LINE
  5
2CD
100
AcDbEntity
  8
0
100
AcDbLine
 62
7
  6
CONTINUOUS
 10
160.6009278627
 20
90.3004493454
 11
161.1979144206
 21
89.1373909378
  0
LINE
  5
2CE
100
AcDbEntity
  8
0
100
AcDbLine
 62
7
  6
CONTINUOUS
 10
149.9813787275
 20
82.0462587895
 11
149.7918657842
 21
82.6718458952
  0
LINE
  5
2CF
100
AcDbEntity
  8
0
100
AcDbLine
 62
7
  6
CONTINUOUS
 10
143.1377126245
 20
69.5803019271
 11
143.1063320641
 21
70.3922856548
  0
LINE
  5
2D0
100
AcDbEntity
  8
0
100
AcDbLine
 62
7
  6
CONTINUOUS
 10
132.6838905115
 20
63.4186323073
 11
132.8479555544
 21
72.4563736613
  0
LINE
  5
2D1
100
AcDbEntity
  8
0
100
AcDbLine
 62
7
  6
CONTINUOUS
 10
122.684279829
 20
61.1924104065
 11
124.6092135967
 21
70.0243022304
  0
LINE
  5
2D2
100
AcDbEntity
  8
0
100
AcDbLine
 62
7
  6
CONTINUOUS
 10
123.5434407418
 20
69.9096613542
 11
121.8566844643
 21
62.204432017
  0
LINE
  5
2D3
100
AcDbEntity
  8
0
100
AcDbLine
 62
7
  6
CONTINUOUS
 10
168.436384948
 20
164.9144906445
 11
148.969664948
 21
164.9144906445
  0
LINE
  5
2D4
100
AcDbEntity
  8
BEZUGSACHSEN
100
AcDbLine
 62
7
  6
CONTINUOUS
 10
148.696664948
 20
166.7344906445
 11
168.8913849481
 21
166.7344906445
  0
LINE
  5
2D5
100
AcDbEntity
  8
BEZUGSACHSEN
100
AcDbLine
 62
7
  6
CONTINUOUS
 10
99.607444108
 20
169.4644906445
 11
89.364664948
 21
169.4644906445
  0
LINE
  5
2D6
100
AcDbEntity
  8
BEZUGSACHSEN
100
AcDbLine
 62
7
  6
CONTINUOUS
 10
58.599384948
 20
169.4644906445
 11
49.1082503611
 21
169.4644906445
  0
LINE
  5
2D7
100
AcDbEntity
  8
BEZUGSACHSEN
100
AcDbLine
 62
7
  6
CONTINUOUS
 10
72.4366156664
 20
199.925463688
 11
73.8630801922
 21
199.1120370736
  0
LINE
  5
2D8
100
AcDbEntity
  8
BEZUGSACHSEN
100
AcDbLine
 62
7
  6
CONTINUOUS
 10
76.4480150021
 20
204.0134317873
 11
77.3104948895
 21
203.3159556701
  0
LINE
  5
2D9
100
AcDbEntity
  8
BEZUGSACHSEN
100
AcDbLine
 62
7
  6
CONTINUOUS
 10
74.3179460198
 20
209.6807237895
 11
75.0166748442
 21
209.0941914309
  0
LINE
  5
2DA
100
AcDbEntity
  8
BEZUGSACHSEN
100
AcDbLine
 62
7
  6
CONTINUOUS
 10
79.0693017516
 20
205.6923039811
 11
79.3487936337
 21
205.4576907419
  0
LINE
  5
2DB
100
AcDbEntity
  8
BEZUGSACHSEN
100
AcDbLine
 62
7
  6
CONTINUOUS
 10
80.0379691407
 20
206.2786970934
 11
79.7584772586
 21
206.5133103326
  0
LINE
  5
2DC
100
AcDbEntity
  8
BEZUGSACHSEN
100
AcDbLine
 62
7
  6
CONTINUOUS
 10
77.7529832819
 20
204.0919248646
 11
77.0490014785
 21
204.699023799
  0
LINE
  5
2DD
100
AcDbEntity
  8
BEZUGSACHSEN
100
AcDbLine
 62
7
  6
CONTINUOUS
 10
97.1803927538
 20
220.0800621486
 11
96.8344087157
 21
220.7226589397
  0
LINE
  5
2DE
100
AcDbEntity
  8
0
100
AcDbLine
 62
7
  6
CONTINUOUS
 10
154.3403806081
 20
84.6850289451
 11
154.1508676648
 21
85.3106160509
  0
LINE
  5
2DF
100
AcDbEntity
  8
0
100
AcDbLine
 62
7
  6
CONTINUOUS
 10
153.969092467
 20
89.3520284812
 11
154.1790872017
 21
88.6153040492
  0
LINE
  5
2E0
100
AcDbEntity
  8
0
100
AcDbLine
 62
7
  6
CONTINUOUS
 10
148.863412765
 20
82.9847104318
 11
148.9629458464
 21
81.9681475649
  0
LINE
  5
2E1
100
AcDbEntity
  8
0
100
AcDbLine
 62
7
  6
CONTINUOUS
 10
154.8685701412
 20
89.4560877685
 11
154.8170714649
 21
90.1024314655
  0
LINE
  5
2E2
100
AcDbEntity
  8
BEZUGSACHSEN
100
AcDbLine
 62
7
  6
CONTINUOUS
 10
146.054024948
 20
124.7871306445
 11
146.054024948
 21
164.0918506445
  0
LINE
  5
2E3
100
AcDbEntity
  8
BEZUGSACHSEN
100
AcDbLine
 62
7
  6
CONTINUOUS
 10
146.327024948
 20
127.1165718238
 11
146.327024948
 21
134.2207038036
  0
LINE
  5
2E4
100
AcDbEntity
  8
0
100
AcDbLine
 62
7
  6
CONTINUOUS
 10
146.327024948
 20
134.2207038036
 11
146.327024948
 21
155.6028405856
  0
LINE
  5
2E5
100
AcDbEntity
  8
RUNDUNGEN
100
AcDbLine
 62
7
  6
CONTINUOUS
 10
146.327024948
 20
134.2207038036
 11
146.327024948
 21
162.2717910485
  0
LINE
  5
2E6
100
AcDbEntity
  8
RUNDUNGEN
100
AcDbLine
 62
7
  6
CONTINUOUS
 10
146.418024948
 20
120.6441278721
 11
146.418024948
 21
113.0444906445
  0
LINE
  5
2E7
100
AcDbEntity
  8
0
100
AcDbLine
 62
7
  6
CONTINUOUS
 10
142.0760226267
 20
70.0447709793
 11
142.0209071776
 21
69.3934364494
  0
LINE
  5
2E8
100
AcDbEntity
  8
BEZUGSACHSEN
100
AcDbLine
 62
7
  6
CONTINUOUS
 10
74.1470725261
 20
199.978387003
 11
73.0376001172
 21
200.6110521476
  0
LINE
  5
2E9
100
AcDbEntity
  8
BEZUGSACHSEN
100
AcDbLine
 62
7
  6
CONTINUOUS
 10
75.3385425932
 20
204.6460969319
 11
76.4480150021
 21
204.0134317873
  0
LINE
  5
2EA
100
AcDbEntity
  8
BEZUGSACHSEN
100
AcDbLine
 62
7
  6
CONTINUOUS
 10
77.0490014785
 20
204.699023799
 11
75.6225369527
 21
205.5124504134
  0
LINE
  5
2EB
100
AcDbEntity
  8
BEZUGSACHSEN
100
AcDbLine
 62
7
  6
CONTINUOUS
 10
79.151727886
 20
214.0202295401
 11
78.4529990616
 21
214.6067618987
  0
LINE
  5
2EC
100
AcDbEntity
  8
BEZUGSACHSEN
100
AcDbLine
 62
7
  6
CONTINUOUS
 10
110.9193654317
 20
229.404549272
 11
114.2062156409
 21
222.2343106719
  0
LINE
  5
2ED
100
AcDbEntity
  8
BEZUGSACHSEN
100
AcDbLine
 62
7
  6
CONTINUOUS
 10
115.2719884958
 20
222.3489515481
 11
111.5128004555
 21
230.5694253749
  0
LINE
  5
2EE
100
AcDbEntity
  8
0
100
AcDbLine
 62
7
  6
CONTINUOUS
 10
162.0973921503
 20
89.2414501935
 11
161.88739736
 21
89.9781746571
  0
LINE
  5
2EF
100
AcDbEntity
  8
0
100
AcDbLine
 62
7
  6
CONTINUOUS
 10
161.1979144206
 20
89.1373909378
 11
161.2494130969
 21
88.4910472408
  0
LINE
  5
2F0
100
AcDbEntity
  8
0
100
AcDbLine
 62
7
  6
CONTINUOUS
 10
153.346831326
 20
84.3527773954
 11
153.62432201
 21
77.5887517489
  0
LINE
  5
2F1
100
AcDbEntity
  8
0
100
AcDbLine
 62
7
  6
CONTINUOUS
 10
154.5432218096
 20
78.6834258403
 11
154.3403806081
 21
84.6850289451
  0
LINE
  5
2F2
100
AcDbEntity
  8
0
100
AcDbLine
 62
7
  6
CONTINUOUS
 10
153.9360926841
 20
90.3991398805
 11
153.969092467
 21
89.3520284812
  0
LINE
  5
2F3
100
AcDbEntity
  8
0
100
AcDbLine
 62
7
  6
CONTINUOUS
 10
149.7918657842
 20
82.6718458952
 11
149.8569620471
 21
83.3169619816
  0
LINE
  5
2F4
100
AcDbEntity
  8
0
100
AcDbLine
 62
7
  6
CONTINUOUS
 10
135.6902013909
 20
73.2375819461
 11
135.4069749944
 21
72.2562091184
  0
LINE
  5
2F5
100
AcDbEntity
  8
BEZUGSACHSEN
100
AcDbLine
 62
7
  6
CONTINUOUS
 10
73.8630801922
 20
199.1120370736
 11
74.7440569475
 21
198.8153251066
  0
LINE
  5
2F6
100
AcDbEntity
  8
BEZUGSACHSEN
100
AcDbLine
 62
7
  6
CONTINUOUS
 10
75.1865473654
 20
199.5912978532
 11
74.1470725261
 21
199.978387003
  0
LINE
  5
2F7
100
AcDbEntity
  8
BEZUGSACHSEN
100
AcDbLine
 62
7
  6
CONTINUOUS
 10
74.2990695575
 20
205.0331897605
 11
75.3385425932
 21
204.6460969319
  0
LINE
  5
2F8
100
AcDbEntity
  8
BEZUGSACHSEN
100
AcDbLine
 62
7
  6
CONTINUOUS
 10
79.3487936337
 20
205.4576907419
 11
80.0226400758
 21
205.1253003566
  0
LINE
  5
2F9
100
AcDbEntity
  8
BEZUGSACHSEN
100
AcDbLine
 62
7
  6
CONTINUOUS
 10
92.3040236637
 20
217.4545497079
 11
92.7208131586
 21
217.0572960892
  0
LINE
  5
2FA
100
AcDbEntity
  8
BEZUGSACHSEN
100
AcDbLine
 62
7
  6
CONTINUOUS
 10
95.5603016813
 20
220.4510997125
 11
95.9770911762
 21
220.0538460937
  0
LINE
  5
2FB
100
AcDbEntity
  8
BEZUGSACHSEN
100
AcDbLine
 62
7
  6
CONTINUOUS
 10
94.3022893251
 20
223.9181635231
 11
94.71907882
 21
223.5209099044
  0
LINE
  5
2FC
100
AcDbEntity
  8
BEZUGSACHSEN
100
AcDbLine
 62
7
  6
CONTINUOUS
 10
96.8344087157
 20
220.7226589397
 11
96.3311232718
 21
221.2805616438
  0
LINE
  5
2FD
100
AcDbEntity
  8
BEZUGSACHSEN
100
AcDbLine
 62
7
  6
CONTINUOUS
 10
95.6628923084
 20
224.0290736651
 11
95.1596068646
 21
224.5869763691
  0
LINE
  5
2FE
100
AcDbEntity
  8
BEZUGSACHSEN
100
AcDbLine
 62
7
  6
CONTINUOUS
 10
101.1013681926
 20
227.3593256518
 11
105.7245184675
 21
220.968536488
  0
LINE
  5
2FF
100
AcDbEntity
  8
BEZUGSACHSEN
100
AcDbLine
 62
7
  6
CONTINUOUS
 10
106.7474167853
 20
221.2889945042
 11
101.4560234831
 21
228.6176262347
  0
LINE
  5
300
100
AcDbEntity
  8
0
100
AcDbLine
 62
7
  6
CONTINUOUS
 10
162.1303899493
 20
88.1943352184
 11
162.0973921503
 21
89.2414501935
  0
LINE
  5
301
100
AcDbEntity
  8
0
100
AcDbLine
 62
7
  6
CONTINUOUS
 10
149.0433724888
 20
83.766661954
 11
148.863412765
 21
82.9847104318
  0
LINE
  5
302
100
AcDbEntity
  8
0
100
AcDbLine
 62
7
  6
CONTINUOUS
 10
142.8544862583
 20
68.5989290432
 11
143.1377126245
 21
69.5803019271
  0
LINE
  5
303
100
AcDbEntity
  8
BEZUGSACHSEN
100
AcDbLine
 62
7
  6
CONTINUOUS
 10
75.3080440554
 20
198.6993779083
 11
76.1190232409
 21
198.6482419359
  0
LINE
  5
304
100
AcDbEntity
  8
BEZUGSACHSEN
100
AcDbLine
 62
7
  6
CONTINUOUS
 10
74.7440569475
 20
198.8153251066
 11
75.3080440554
 21
198.6993779083
  0
LINE
  5
305
100
AcDbEntity
  8
BEZUGSACHSEN
100
AcDbLine
 62
7
  6
CONTINUOUS
 10
74.7415579499
 20
205.809158955
 11
74.1775712859
 21
205.9251059
  0
LINE
  5
306
100
AcDbEntity
  8
BEZUGSACHSEN
100
AcDbLine
 62
7
  6
CONTINUOUS
 10
75.6225369527
 20
205.5124504134
 11
74.7415579499
 21
205.809158955
  0
LINE
  5
307
100
AcDbEntity
  8
BEZUGSACHSEN
100
AcDbLine
 62
7
  6
CONTINUOUS
 10
93.578130698
 20
217.7261089352
 11
93.2478371521
 21
217.9627134687
  0
LINE
  5
308
100
AcDbEntity
  8
BEZUGSACHSEN
100
AcDbLine
 62
7
  6
CONTINUOUS
 10
90.1021975767
 20
220.4134502079
 11
90.7627847898
 21
219.9402409159
  0
LINE
  5
309
100
AcDbEntity
  8
BEZUGSACHSEN
100
AcDbLine
 62
7
  6
CONTINUOUS
 10
171.079024948
 20
134.8591280219
 11
171.079024948
 21
131.7742809518
  0
LINE
  5
30A
100
AcDbEntity
  8
RUNDUNGEN
100
AcDbLine
 62
7
  6
CONTINUOUS
 10
171.079024948
 20
134.8591280219
 11
171.079024948
 21
162.2717910253
  0
LINE
  5
30B
100
AcDbEntity
  8
BEZUGSACHSEN
100
AcDbLine
 62
7
  6
CONTINUOUS
 10
171.534024948
 20
164.0918506445
 11
171.534024948
 21
124.7871306445
  0
LINE
  5
30C
100
AcDbEntity
  8
0
100
AcDbLine
 62
7
  6
CONTINUOUS
 10
154.8170714649
 20
90.1024314655
 11
155.1010637988
 21
90.968781395
  0
LINE
  5
30D
100
AcDbEntity
  8
0
100
AcDbLine
 62
7
  6
CONTINUOUS
 10
154.3085835067
 20
91.4206850696
 11
153.9360926841
 21
90.3991398805
  0
LINE
  5
30E
100
AcDbEntity
  8
0
100
AcDbLine
 62
7
  6
CONTINUOUS
 10
136.5237803807
 20
72.4430747086
 11
136.822695227
 21
73.0184547595
  0
LINE
  5
30F
100
AcDbEntity
  8
0
100
AcDbLine
 62
7
  6
CONTINUOUS
 10
142.0209071776
 20
69.3934364494
 11
141.7219923919
 21
68.818056286
  0
LINE
  5
310
100
AcDbEntity
  8
0
100
AcDbLine
 62
7
  6
CONTINUOUS
 10
136.1464178852
 20
73.8976556341
 11
135.6902013909
 21
73.2375819461
  0
LINE
  5
311
100
AcDbEntity
  8
BEZUGSACHSEN
100
AcDbLine
 62
7
  6
CONTINUOUS
 10
76.4915140636
 20
199.6697871251
 11
75.1865473654
 21
199.5912978532
  0
LINE
  5
312
100
AcDbEntity
  8
BEZUGSACHSEN
100
AcDbLine
 62
7
  6
CONTINUOUS
 10
74.1775712859
 20
205.9251059
 11
73.3665919894
 21
205.9762419357
  0
LINE
  5
313
100
AcDbEntity
  8
BEZUGSACHSEN
100
AcDbLine
 62
7
  6
CONTINUOUS
 10
80.6869306693
 20
206.2004454674
 11
80.0379691407
 21
206.2786970934
  0
LINE
  5
314
100
AcDbEntity
  8
BEZUGSACHSEN
100
AcDbLine
 62
7
  6
CONTINUOUS
 10
92.7208131586
 20
217.0572960892
 11
93.5387036986
 21
216.6687816285
  0
LINE
  5
315
100
AcDbEntity
  8
BEZUGSACHSEN
100
AcDbLine
 62
7
  6
CONTINUOUS
 10
91.5336063803
 20
220.7697028472
 11
90.9595151162
 21
221.0822630539
  0
LINE
  5
316
100
AcDbEntity
  8
BEZUGSACHSEN
100
AcDbLine
 62
7
  6
CONTINUOUS
 10
95.1596068646
 20
224.5869763691
 11
94.2552202847
 21
225.1361400838
  0
LINE
  5
317
100
AcDbEntity
  8
BEZUGSACHSEN
100
AcDbLine
 62
7
  6
CENTER
 10
179.955164948
 20
145.8044906445
 11
179.955164948
 21
139.4999602837
  0
LINE
  5
318
100
AcDbEntity
  8
BEZUGSACHSEN
100
AcDbLine
 62
7
  6
CENTER
 10
179.955164948
 20
145.8044906445
 11
179.955164948
 21
152.1090210053
  0
LINE
  5
319
100
AcDbEntity
  8
0
100
AcDbLine
 62
7
  6
CONTINUOUS
 10
161.2494130969
 20
88.4910472408
 11
160.9654187374
 21
87.6246937593
  0
LINE
  5
31A
100
AcDbEntity
  8
0
100
AcDbLine
 62
7
  6
CONTINUOUS
 10
161.7578991405
 20
87.1727900213
 11
162.1303899493
 21
88.1943352184
  0
LINE
  5
31B
100
AcDbEntity
  8
0
100
AcDbLine
 62
7
  6
CONTINUOUS
 10
149.8569620471
 20
83.3169619816
 11
150.2915309769
 21
84.1184424844
  0
LINE
  5
31C
100
AcDbEntity
  8
0
100
AcDbLine
 62
7
  6
CONTINUOUS
 10
149.7076630823
 20
84.8418070648
 11
149.0433724888
 21
83.766661954
  0
LINE
  5
31D
100
AcDbEntity
  8
0
100
AcDbLine
 62
7
  6
CONTINUOUS
 10
142.3982697867
 20
67.938855313
 11
142.8544862583
 21
68.5989290432
  0
LINE
  5
31E
100
AcDbEntity
  8
0
100
AcDbLine
 62
7
  6
CONTINUOUS
 10
154.9980664461
 20
92.2614687889
 11
154.3085835067
 21
91.4206850696
  0
LINE
  5
31F
100
AcDbEntity
  8
0
100
AcDbLine
 62
7
  6
CONTINUOUS
 10
150.1671142966
 20
85.3891456765
 11
149.7076630823
 21
84.8418070648
  0
LINE
  5
320
100
AcDbEntity
  8
0
100
AcDbLine
 62
7
  6
CONTINUOUS
 10
150.2915309769
 20
84.1184424844
 11
150.7509795623
 21
84.6657779641
  0
LINE
  5
321
100
AcDbEntity
  8
0
100
AcDbLine
 62
7
  6
CONTINUOUS
 10
149.4070653668
 20
81.3620863079
 11
149.9813787275
 21
82.0462587895
  0
LINE
  5
322
100
AcDbEntity
  8
0
100
AcDbLine
 62
7
  6
CONTINUOUS
 10
155.1010637988
 20
90.968781395
 11
155.7020502751
 21
91.6543734066
  0
LINE
  5
323
100
AcDbEntity
  8
0
100
AcDbLine
 62
7
  6
CONTINUOUS
 10
136.822695227
 20
73.0184547595
 11
137.2081060223
 21
73.4331857252
  0
LINE
  5
324
100
AcDbEntity
  8
0
100
AcDbLine
 62
7
  6
CONTINUOUS
 10
136.6891303285
 20
74.3970802367
 11
136.1464178852
 21
73.8976556341
  0
LINE
  5
325
100
AcDbEntity
  8
0
100
AcDbLine
 62
7
  6
CONTINUOUS
 10
155.9160450393
 20
92.7662993307
 11
154.9980664461
 21
92.2614687889
  0
LINE
  5
326
100
AcDbEntity
  8
0
100
AcDbLine
 62
7
  6
CONTINUOUS
 10
155.7020502751
 20
91.6543734066
 11
156.2845358325
 21
91.9391941639
  0
LINE
  5
327
100
AcDbEntity
  8
BEZUGSACHSEN
100
AcDbLine
 62
7
  6
CONTINUOUS
 10
76.1190232409
 20
198.6482419359
 11
76.8600048567
 21
198.8426819583
  0
LINE
  5
328
100
AcDbEntity
  8
BEZUGSACHSEN
100
AcDbLine
 62
7
  6
CONTINUOUS
 10
80.0226400758
 20
205.1253003566
 11
81.0410716423
 21
205.2034100152
  0
LINE
  5
329
100
AcDbEntity
  8
BEZUGSACHSEN
100
AcDbLine
 62
7
  6
CONTINUOUS
 10
72.9941011668
 20
204.9546967465
 11
74.2990695575
 21
205.0331897605
  0
LINE
  5
32A
100
AcDbEntity
  8
BEZUGSACHSEN
100
AcDbLine
 62
7
  6
CONTINUOUS
 10
93.5387036986
 20
216.6687816285
 11
94.4273999377
 21
216.5256098901
  0
LINE
  5
32B
100
AcDbEntity
  8
BEZUGSACHSEN
100
AcDbLine
 62
7
  6
CONTINUOUS
 10
94.0657276922
 20
217.574199008
 11
93.578130698
 21
217.7261089352
  0
LINE
  5
32C
100
AcDbEntity
  8
BEZUGSACHSEN
100
AcDbLine
 62
7
  6
CONTINUOUS
 10
90.7627847898
 20
219.9402409159
 11
91.737978778
 21
219.6364210615
  0
LINE
  5
32D
100
AcDbEntity
  8
BEZUGSACHSEN
100
AcDbLine
 62
7
  6
CONTINUOUS
 10
96.3311232718
 20
221.2805616438
 11
95.3559292835
 21
221.5843814982
  0
LINE
  5
32E
100
AcDbEntity
  8
BEZUGSACHSEN
100
AcDbLine
 62
7
  6
CONTINUOUS
 10
185.857378837
 20
123.2814934115
 11
192.199780029
 21
132.3393810319
  0
LINE
  5
32F
100
AcDbEntity
  8
0
100
AcDbLine
 62
7
  6
CONTINUOUS
 10
161.0684161872
 20
86.3320063099
 11
161.7578991405
 21
87.1727900213
  0
LINE
  5
330
100
AcDbEntity
  8
0
100
AcDbLine
 62
7
  6
CONTINUOUS
 10
157.7593750519
 20
82.5147898581
 11
154.5432218096
 21
78.6834258403
  0
LINE
  5
331
100
AcDbEntity
  8
0
100
AcDbLine
 62
7
  6
CONTINUOUS
 10
154.3230508344
 20
77.0022193903
 11
158.4581038762
 21
81.9282574995
  0
LINE
  5
332
100
AcDbEntity
  8
0
100
AcDbLine
 62
7
  6
CONTINUOUS
 10
160.9654187374
 20
87.6246937593
 11
160.3644342866
 21
86.9391052997
  0
LINE
  5
333
100
AcDbEntity
  8
0
100
AcDbLine
 62
7
  6
CONTINUOUS
 10
141.7219923919
 20
68.818056286
 11
141.1792781484
 21
68.3186307141
  0
LINE
  5
334
100
AcDbEntity
  8
0
100
AcDbLine
 62
7
  6
CONTINUOUS
 10
150.9960355488
 20
86.0928455727
 11
150.1671142966
 21
85.3891456765
  0
LINE
  5
335
100
AcDbEntity
  8
0
100
AcDbLine
 62
7
  6
CONTINUOUS
 10
150.7509795623
 20
84.6657779641
 11
151.4650399827
 21
85.2326455564
  0
LINE
  5
336
100
AcDbEntity
  8
0
100
AcDbLine
 62
7
  6
CONTINUOUS
 10
160.1504395779
 20
85.827179344
 11
161.0684161872
 21
86.3320063099
  0
LINE
  5
337
100
AcDbEntity
  8
0
100
AcDbLine
 62
7
  6
CONTINUOUS
 10
137.4756421689
 20
74.8205503604
 11
136.6891303285
 21
74.3970802367
  0
LINE
  5
338
100
AcDbEntity
  8
0
100
AcDbLine
 62
7
  6
CONTINUOUS
 10
137.2081060223
 20
73.4331857252
 11
138.1519195107
 21
73.9413494859
  0
LINE
  5
339
100
AcDbEntity
  8
0
100
AcDbLine
 62
7
  6
CONTINUOUS
 10
139.528212744
 20
73.6462678203
 11
140.4720262324
 21
74.154431581
  0
LINE
  5
33A
100
AcDbEntity
  8
0
100
AcDbLine
 62
7
  6
CONTINUOUS
 10
160.3644342866
 20
86.9391052997
 11
159.7819487293
 21
86.6542845425
  0
LINE
  5
33B
100
AcDbEntity
  8
0
100
AcDbLine
 62
7
  6
CONTINUOUS
 10
151.7349782538
 20
86.4055712738
 11
150.9960355488
 21
86.0928455727
  0
LINE
  5
33C
100
AcDbEntity
  8
0
100
AcDbLine
 62
7
  6
CONTINUOUS
 10
132.8479555544
 20
72.4563736613
 11
131.8250572367
 21
72.1359156451
  0
LINE
  5
33D
100
AcDbEntity
  8
0
100
AcDbLine
 62
7
  6
CONTINUOUS
 10
127.0515314285
 20
70.6404448009
 11
126.0286331107
 21
70.3199867847
  0
LINE
  5
33E
100
AcDbEntity
  8
0
100
AcDbLine
 62
7
  6
CONTINUOUS
 10
138.3486499583
 20
75.0833713989
 11
137.4756421689
 21
74.8205503604
  0
LINE
  5
33F
100
AcDbEntity
  8
BEZUGSACHSEN
100
AcDbLine
 62
7
  6
CONTINUOUS
 10
81.3110099133
 20
206.3763357326
 11
80.6869306693
 21
206.2004454674
  0
LINE
  5
340
100
AcDbEntity
  8
BEZUGSACHSEN
100
AcDbLine
 62
7
  6
CONTINUOUS
 10
73.3665919894
 20
205.9762419357
 11
72.6256103181
 21
205.781801945
  0
LINE
  5
341
100
AcDbEntity
  8
BEZUGSACHSEN
100
AcDbLine
 62
7
  6
CONTINUOUS
 10
94.6241303853
 20
217.6676318031
 11
94.0657276922
 21
217.574199008
  0
LINE
  5
342
100
AcDbEntity
  8
BEZUGSACHSEN
100
AcDbLine
 62
7
  6
CONTINUOUS
 10
91.737978778
 20
219.6364210615
 11
92.5401790682
 21
219.6538984084
  0
LINE
  5
343
100
AcDbEntity
  8
BEZUGSACHSEN
100
AcDbLine
 62
7
  6
CONTINUOUS
 10
92.1785050224
 20
220.702486557
 11
91.5336063803
 21
220.7697028472
  0
LINE
  5
344
100
AcDbEntity
  8
BEZUGSACHSEN
100
AcDbLine
 62
7
  6
CONTINUOUS
 10
94.9154030392
 20
220.5183160027
 11
95.5603016813
 21
220.4510997125
  0
LINE
  5
345
100
AcDbEntity
  8
BEZUGSACHSEN
100
AcDbLine
 62
7
  6
CONTINUOUS
 10
93.5708946734
 20
224.1460290111
 11
94.3022893251
 21
223.9181635231
  0
LINE
  5
346
100
AcDbEntity
  8
BEZUGSACHSEN
100
AcDbLine
 62
7
  6
CONTINUOUS
 10
193.388024948
 20
165.0450994514
 11
193.388024948
 21
153.7324106445
  0
LINE
  5
347
100
AcDbEntity
  8
BEZUGSACHSEN
100
AcDbLine
 62
7
  6
CONTINUOUS
 10
193.388024948
 20
137.8765706445
 11
193.388024948
 21
136.1080124409
  0
LINE
  5
348
100
AcDbEntity
  8
0
100
AcDbLine
 62
7
  6
CONTINUOUS
 10
141.6982539028
 20
67.35473609
 11
142.3982697867
 21
67.938855313
  0
LINE
  5
349
100
AcDbEntity
  8
0
100
AcDbLine
 62
7
  6
CONTINUOUS
 10
139.3628630385
 20
71.6922618422
 11
138.4190495501
 21
71.1840980814
  0
LINE
  5
34A
100
AcDbEntity
  8
0
100
AcDbLine
 62
7
  6
CONTINUOUS
 10
138.9380252438
 20
70.2202035699
 11
139.8818387323
 21
70.7283673306
  0
LINE
  5
34B
100
AcDbEntity
  8
0
100
AcDbLine
 62
7
  6
CONTINUOUS
 10
138.056971076
 20
68.0880713846
 11
137.1131575876
 21
67.5799076239
  0
LINE
  5
34C
100
AcDbEntity
  8
0
100
AcDbLine
 62
7
  6
CONTINUOUS
 10
141.1792781484
 20
68.3186307141
 11
139.920861364
 21
67.6410796793
  0
LINE
  5
34D
100
AcDbEntity
  8
0
100
AcDbLine
 62
7
  6
CONTINUOUS
 10
140.4398371183
 20
66.6771850552
 11
141.6982539028
 21
67.35473609
  0
LINE
  5
34E
100
AcDbEntity
  8
0
100
AcDbLine
 62
7
  6
CONTINUOUS
 10
140.2358708279
 20
71.9550828806
 11
139.3628630385
 21
71.6922618422
  0
LINE
  5
34F
100
AcDbEntity
  8
0
100
AcDbLine
 62
7
  6
CONTINUOUS
 10
139.5668293214
 20
66.4143640308
 11
140.4398371183
 21
66.6771850552
  0
LINE
  5
350
100
AcDbEntity
  8
BEZUGSACHSEN
100
AcDbLine
 62
7
  6
CONTINUOUS
 10
92.8942111638
 20
220.8806139584
 11
92.1785050224
 21
220.702486557
  0
LINE
  5
351
100
AcDbEntity
  8
BEZUGSACHSEN
100
AcDbLine
 62
7
  6
CONTINUOUS
 10
94.5537289934
 20
221.5669041513
 11
93.8380246522
 21
221.3887777191
  0
LINE
  5
352
100
AcDbEntity
  8
BEZUGSACHSEN
100
AcDbLine
 62
7
  6
CONTINUOUS
 10
92.8551885321
 20
223.9679016097
 11
93.5708946734
 21
224.1460290111
  0
LINE
  5
353
100
AcDbEntity
  8
BEZUGSACHSEN
100
AcDbLine
 62
7
  6
CONTINUOUS
 10
94.357000346
 20
220.4248832075
 11
94.9154030392
 21
220.5183160027
  0
LINE
  5
354
100
AcDbEntity
  8
BEZUGSACHSEN
100
AcDbLine
 62
7
  6
CONTINUOUS
 10
108.1668362994
 20
221.5846790586
 11
109.2326091542
 21
221.6993199348
  0
LINE
  5
355
100
AcDbEntity
  8
BEZUGSACHSEN
100
AcDbLine
 62
7
  6
CONTINUOUS
 10
114.2062156409
 20
222.2343106719
 11
115.2719884958
 21
222.3489515481
  0
LINE
  5
356
100
AcDbEntity
  8
BEZUGSACHSEN
100
AcDbLine
 62
7
  6
CONTINUOUS
 10
95.3559292835
 20
221.5843814982
 11
94.5537289934
 21
221.5669041513
  0
LINE
  5
357
100
AcDbEntity
  8
BEZUGSACHSEN
100
AcDbLine
 62
7
  6
CONTINUOUS
 10
94.2552202847
 20
225.1361400838
 11
93.2092205747
 21
225.1946172581
  0
LINE
  5
358
100
AcDbEntity
  8
BEZUGSACHSEN
100
AcDbLine
 62
7
  6
CONTINUOUS
 10
164.3130073737
 20
215.6171703946
 11
191.3985466387
 21
172.017668967
  0
LINE
  5
359
100
AcDbEntity
  8
0
100
AcDbLine
 62
7
  6
CONTINUOUS
 10
131.3200264129
 20
62.9913550542
 11
132.6838905115
 21
63.4186323073
  0
LINE
  5
35A
100
AcDbEntity
  8
BEZUGSACHSEN
100
AcDbLine
 62
7
  6
CONTINUOUS
 10
111.5128004555
 20
230.5694253749
 11
110.091770067
 21
230.4165708824
  0
LINE
  5
35B
100
AcDbEntity
  8
AUSFORMSCHRAEGEN
100
AcDbLine
 62
7
  6
CONTINUOUS
 10
262.4636865435
 20
49.3444906445
 11
270.9715731907
 21
50.2387055643
  0
LINE
  5
35C
100
AcDbEntity
  8
BEZUGSACHSEN
100
AcDbLine
 62
7
  6
CONTINUOUS
 10
262.4636865435
 20
49.3444906445
 11
270.9715731907
 21
50.2387055643
  0
LINE
  5
35D
100
AcDbEntity
  8
BEZUGSACHSEN
100
AcDbLine
 62
7
  6
CONTINUOUS
 10
262.4636865435
 20
49.3444906445
 11
253.9557998962
 21
50.2387055643
  0
LINE
  5
35E
100
AcDbEntity
  8
BEZUGSACHSEN
100
AcDbLine
 62
8
  6
HIDDEN
 10
262.4636865435
 20
83.0144906445
 11
258.7658366384
 21
82.4288087569
  0
LINE
  5
35F
100
AcDbEntity
  8
BEZUGSACHSEN
100
AcDbLine
 62
8
  6
HIDDEN
 10
262.4636865435
 20
83.0144906445
 11
266.1615364486
 21
82.4288087569
  0
LINE
  5
360
100
AcDbEntity
  8
BEZUGSACHSEN
100
AcDbLine
 62
7
  6
CONTINUOUS
 10
245.1917574692
 20
173.6789806055
 11
243.7617092112
 21
172.2489323475
  0
LINE
  5
361
100
AcDbEntity
  8
BEZUGSACHSEN
100
AcDbLine
 62
7
  6
CONTINUOUS
 10
245.1917577336
 20
117.9300004191
 11
243.761709215
 21
119.3600489377
  0
LINE
  5
362
100
AcDbEntity
  8
BEZUGSACHSEN
100
AcDbLine
 62
7
  6
CONTINUOUS
 10
242.2136865435
 20
168.5116745414
 11
242.2136865435
 21
157.2810012292
  0
LINE
  5
363
100
AcDbEntity
  8
BEZUGSACHSEN
100
AcDbLine
 62
7
  6
CONTINUOUS
 10
242.2136865435
 20
156.4549833224
 11
242.2136865435
 21
123.0973204542
  0
LINE
  5
364
100
AcDbEntity
  8
RUNDUNGEN
100
AcDbLine
 62
7
  6
CONTINUOUS
 10
242.2136865435
 20
154.9475307588
 11
242.2136865435
 21
157.2810012292
  0
LINE
  5
365
100
AcDbEntity
  8
BEZUGSACHSEN
100
AcDbLine
 62
7
  6
CONTINUOUS
 10
250.277596501
 20
202.2195249494
 11
246.6883446106
 21
176.6806707226
  0
LINE
  5
366
100
AcDbEntity
  8
BEZUGSACHSEN
100
AcDbLine
 62
7
  6
CONTINUOUS
 10
246.6883447149
 20
114.9283098242
 11
250.2775959815
 21
89.3894600357
  0
LWPOLYLINE
  5
367
100
AcDbEntity
  8
BEZUGSACHSEN
100
AcDbPolyline
 62
7
  6
CONTINUOUS
 90
6
 70
0
 10
250.4061865435
 20
173.8935318317
 10
250.4141459546
 20
173.688582549
 10
250.4379762476
 20
173.4848678092
 10
250.4775338817
 20
173.2836147556
 10
250.5325805751
 20
173.0860357113
 10
250.6027847413
 20
172.8933208669
  0
LINE
  5
368
100
AcDbEntity
  8
BEZUGSACHSEN
100
AcDbLine
 62
7
  6
CONTINUOUS
 10
250.4061865435
 20
87.5505301214
 11
250.4061865435
 21
54.1809505766
  0
LINE
  5
369
100
AcDbEntity
  8
BEZUGSACHSEN
100
AcDbLine
 62
7
  6
CONTINUOUS
 10
250.4061865435
 20
173.8937698821
 11
250.4061865435
 21
237.4280307123
  0
LINE
  5
36A
100
AcDbEntity
  8
T_STARTBEZUEGE
100
AcDbLine
 62
7
  6
CENTER
 10
262.4636865435
 20
245.2644906445
 11
262.4636865435
 21
46.3444906445
  0
LWPOLYLINE
  5
36B
100
AcDbEntity
  8
BEZUGSACHSEN
100
AcDbPolyline
 62
7
  6
CONTINUOUS
 90
7
 70
0
 10
274.2379770981
 20
172.7033214407
 10
274.324589352
 20
172.8933339337
 10
274.3947932203
 20
173.0860475128
 10
274.4498396423
 20
173.2836251543
 10
274.4893970516
 20
173.4848766646
 10
274.5132271897
 20
173.6885897157
 10
274.5211865435
 20
173.8935371842
  0
LINE
  5
36C
100
AcDbEntity
  8
T_STARTBEZUEGE
100
AcDbLine
 62
7
  6
CENTER
 10
286.3659778606
 20
145.8044906445
 11
238.5613952253
 21
145.8044906445
  0
LINE
  5
36D
100
AcDbEntity
  8
BEZUGSACHSEN
100
AcDbLine
 62
7
  6
CONTINUOUS
 10
250.6027847413
 20
172.8933208669
 11
250.6893971277
 21
172.7033075799
  0
LINE
  5
36E
100
AcDbEntity
  8
BEZUGSACHSEN
100
AcDbLine
 62
7
  6
CONTINUOUS
 10
274.5211865435
 20
237.4280307123
 11
274.5211865435
 21
173.8935343782
  0
LINE
  5
36F
100
AcDbEntity
  8
RUNDUNGEN
100
AcDbLine
 62
7
  6
CONTINUOUS
 10
274.5211865435
 20
87.5505301214
 11
274.5211865435
 21
54.1809505766
  0
LINE
  5
370
100
AcDbEntity
  8
BEZUGSACHSEN
100
AcDbLine
 62
7
  6
CONTINUOUS
 10
282.7136865435
 20
168.5116745414
 11
282.7136865435
 21
157.2810012292
  0
LINE
  5
371
100
AcDbEntity
  8
RUNDUNGEN
100
AcDbLine
 62
7
  6
CONTINUOUS
 10
282.7136865435
 20
157.2810012292
 11
282.7136865435
 21
123.0973204542
  0
LINE
  5
372
100
AcDbEntity
  8
RUNDUNGEN
100
AcDbLine
 62
7
  6
CONTINUOUS
 10
278.2390283721
 20
114.9283098242
 11
274.6497771055
 21
89.3894600357
  0
LINE
  5
373
100
AcDbEntity
  8
BEZUGSACHSEN
100
AcDbLine
 62
7
  6
CONTINUOUS
 10
274.649776586
 20
202.2195249494
 11
278.2390284764
 21
176.6806707226
  0
LINE
  5
374
100
AcDbEntity
  8
RUNDUNGEN
100
AcDbLine
 62
7
  6
CONTINUOUS
 10
281.1656227874
 20
119.3600078531
 11
279.7356266036
 21
117.9300116693
  0
LINE
  5
375
100
AcDbEntity
  8
BEZUGSACHSEN
100
AcDbLine
 62
7
  6
CONTINUOUS
 10
279.7356156178
 20
173.6789806055
 11
281.1656638758
 21
172.2489323475
  0
LINE
  5
376
100
AcDbEntity
  8
BEZUGSACHSEN
100
AcDbLine
 62
8
  6
HIDDEN
 10
262.4636865435
 20
208.5944906445
 11
266.1615364486
 21
209.1801725321
  0
LINE
  5
377
100
AcDbEntity
  8
BEZUGSACHSEN
100
AcDbLine
 62
8
  6
HIDDEN
 10
262.4636865435
 20
208.5944906445
 11
258.7658366384
 21
209.1801725321
  0
LINE
  5
378
100
AcDbEntity
  8
BEZUGSACHSEN
100
AcDbLine
 62
7
  6
CONTINUOUS
 10
262.4636865435
 20
242.2644906445
 11
253.9557998962
 21
241.3702757247
  0
LINE
  5
379
100
AcDbEntity
  8
BEZUGSACHSEN
100
AcDbLine
 62
7
  6
CONTINUOUS
 10
262.4636865435
 20
242.2644906445
 11
270.9715731907
 21
241.3702757247
  0
ARC
  5
37A
100
AcDbEntity
  8
BEZUGSACHSEN
100
AcDbCircle
 62
7
  6
CONTINUOUS
 10
89.069824948
 20
129.1539691124
 40
13.2132
100
AcDbArc
 50
319.4303027696
 51
360.0
  0
ARC
  5
37B
100
AcDbEntity
  8
BEZUGSACHSEN
100
AcDbCircle
 62
7
  6
CONTINUOUS
 10
52.601224948
 20
126.5638818376
 40
13.2132
100
AcDbArc
 50
180.0
 51
211.85
  0
ARC
  5
37C
100
AcDbEntity
  8
BEZUGSACHSEN
100
AcDbCircle
 62
7
  6
CONTINUOUS
 10
83.806384948
 20
129.3371306445
 40
2.64264
100
AcDbArc
 50
270.0
 51
360.0
  0
ARC
  5
37D
100
AcDbEntity
  8
BEZUGSACHSEN
100
AcDbCircle
 62
7
  6
CONTINUOUS
 10
64.339664948
 20
129.3371306445
 40
2.64264
100
AcDbArc
 50
180.0
 51
270.0
  0
ARC
  5
37E
100
AcDbEntity
  8
RUNDUNGEN
100
AcDbCircle
 62
7
  6
CONTINUOUS
 10
63.884664948
 20
127.5171306445
 40
2.64264
100
AcDbArc
 50
180.0
 51
269.9992258746
  0
ARC
  5
37F
100
AcDbEntity
  8
RUNDUNGEN
100
AcDbCircle
 62
7
  6
CONTINUOUS
 10
84.079384948
 20
127.5171306445
 40
2.64264
100
AcDbArc
 50
270.0001983625
 51
360.0
  0
ARC
  5
380
100
AcDbEntity
  8
BEZUGSACHSEN
100
AcDbCircle
 62
7
  6
CONTINUOUS
 10
53.6245553935
 20
167.6444906445
 40
11.2319895545
100
AcDbArc
 50
315.9475377101
 51
82.6011077975
  0
ARC
  5
381
100
AcDbEntity
  8
BEZUGSACHSEN
100
AcDbCircle
 62
7
  6
CONTINUOUS
 10
97.2296545026
 20
167.6444906445
 40
11.2319895545
100
AcDbArc
 50
167.5279813677
 51
196.2980635084
  0
ARC
  5
382
100
AcDbEntity
  8
BEZUGSACHSEN
100
AcDbCircle
 62
7
  6
CONTINUOUS
 10
45.9568445101
 20
155.5014697922
 40
6.5688195811
100
AcDbArc
 50
144.9956305717
 51
180.0043694283
  0
CIRCLE
  5
383
100
AcDbEntity
  8
BEZUGSACHSEN
100
AcDbCircle
 62
7
  6
CONTINUOUS
 10
52.820884948
 20
145.8044906445
 40
3.0
  0
ARC
  5
384
100
AcDbEntity
  8
RUNDUNGEN
100
AcDbCircle
 62
7
  6
CONTINUOUS
 10
58.599384948
 20
166.8218506445
 40
2.64264
100
AcDbArc
 50
0.0
 51
90.0
  0
ARC
  5
385
100
AcDbEntity
  8
RUNDUNGEN
100
AcDbCircle
 62
7
  6
CONTINUOUS
 10
89.364664948
 20
166.8218506445
 40
2.64264
100
AcDbArc
 50
90.0
 51
180.0
  0
ARC
  5
386
100
AcDbEntity
  8
RUNDUNGEN
100
AcDbCircle
 62
7
  6
CONTINUOUS
 10
116.388024948
 20
113.0444906445
 40
63.7
100
AcDbArc
 50
270.0
 51
357.3317548133
  0
ARC
  5
387
100
AcDbEntity
  8
BEZUGSACHSEN
100
AcDbCircle
 62
7
  6
CONTINUOUS
 10
116.388024948
 20
105.7644906445
 40
56.42
100
AcDbArc
 50
211.85
 51
270.0
  0
ARC
  5
388
100
AcDbEntity
  8
BEZUGSACHSEN
100
AcDbCircle
 62
7
  6
CONTINUOUS
 10
116.388024948
 20
113.0444906445
 40
30.03
100
AcDbArc
 50
270.0
 51
360.0
  0
ARC
  5
389
100
AcDbEntity
  8
BEZUGSACHSEN
100
AcDbCircle
 62
7
  6
CONTINUOUS
 10
116.388024948
 20
105.7644906445
 40
22.75
100
AcDbArc
 50
139.4303027696
 51
270.0
  0
ARC
  5
38A
100
AcDbEntity
  8
BEZUGSACHSEN
100
AcDbCircle
 62
7
  6
CONTINUOUS
 10
179.1514945026
 20
123.9644906445
 40
11.2319895545
100
AcDbArc
 50
135.9475377101
 51
262.6011077975
  0
ARC
  5
38B
100
AcDbEntity
  8
BEZUGSACHSEN
100
AcDbCircle
 62
7
  6
CONTINUOUS
 10
135.5463953935
 20
123.9644906445
 40
11.2319895545
100
AcDbArc
 50
347.5279813677
 51
16.2980635084
  0
ARC
  5
38C
100
AcDbEntity
  8
RUNDUNGEN
100
AcDbCircle
 62
7
  6
CONTINUOUS
 10
135.5463953935
 20
123.9644906445
 40
11.2319895545
100
AcDbArc
 50
347.5279813677
 51
16.2980635084
  0
ARC
  5
38D
100
AcDbEntity
  8
BEZUGSACHSEN
100
AcDbCircle
 62
7
  6
CONTINUOUS
 10
186.819205386
 20
136.1075114968
 40
6.5688195811
100
AcDbArc
 50
324.9956305717
 51
0.0043694283
  0
ARC
  5
38E
100
AcDbEntity
  8
BEZUGSACHSEN
100
AcDbCircle
 62
7
  6
CONTINUOUS
 10
174.176664948
 20
124.7871306445
 40
2.64264
100
AcDbArc
 50
180.0
 51
270.0
  0
ARC
  5
38F
100
AcDbEntity
  8
BEZUGSACHSEN
100
AcDbCircle
 62
7
  6
CONTINUOUS
 10
143.411384948
 20
124.7871306445
 40
2.64264
100
AcDbArc
 50
270.0
 51
360.0
  0
ARC
  5
390
100
AcDbEntity
  8
BEZUGSACHSEN
100
AcDbCircle
 62
7
  6
CONTINUOUS
 10
116.388024948
 20
178.5644906445
 40
63.7
100
AcDbArc
 50
90.0
 51
177.3317548133
  0
ARC
  5
391
100
AcDbEntity
  8
BEZUGSACHSEN
100
AcDbCircle
 62
7
  6
CONTINUOUS
 10
116.388024948
 20
185.8444906445
 40
56.42
100
AcDbArc
 50
31.85
 51
90.0
  0
ARC
  5
392
100
AcDbEntity
  8
BEZUGSACHSEN
100
AcDbCircle
 62
7
  6
CONTINUOUS
 10
116.388024948
 20
178.5644906445
 40
30.03
100
AcDbArc
 50
90.0
 51
180.0
  0
ARC
  5
393
100
AcDbEntity
  8
BEZUGSACHSEN
100
AcDbCircle
 62
7
  6
CONTINUOUS
 10
116.388024948
 20
185.8444906445
 40
22.75
100
AcDbArc
 50
319.4303027696
 51
90.0
  0
ARC
  5
394
100
AcDbEntity
  8
BEZUGSACHSEN
100
AcDbCircle
 62
7
  6
CONTINUOUS
 10
180.174824948
 20
165.0450994514
 40
13.2132
100
AcDbArc
 50
0.0
 51
31.85
  0
ARC
  5
395
100
AcDbEntity
  8
BEZUGSACHSEN
100
AcDbCircle
 62
7
  6
CONTINUOUS
 10
143.706224948
 20
162.4550121766
 40
13.2132
100
AcDbArc
 50
139.4303027696
 51
180.0
  0
CIRCLE
  5
396
100
AcDbEntity
  8
BEZUGSACHSEN
100
AcDbCircle
 62
7
  6
CONTINUOUS
 10
179.955164948
 20
145.8044906445
 40
3.3045303608
  0
ARC
  5
397
100
AcDbEntity
  8
RUNDUNGEN
100
AcDbCircle
 62
7
  6
CONTINUOUS
 10
148.969664948
 20
162.2718506445
 40
2.64264
100
AcDbArc
 50
90.0
 51
180.0
  0
ARC
  5
398
100
AcDbEntity
  8
RUNDUNGEN
100
AcDbCircle
 62
7
  6
CONTINUOUS
 10
168.436384948
 20
162.2718506445
 40
2.64264
100
AcDbArc
 50
0.0
 51
90.0
  0
ARC
  5
399
100
AcDbEntity
  8
BEZUGSACHSEN
100
AcDbCircle
 62
7
  6
CONTINUOUS
 10
148.696664948
 20
164.0918506445
 40
2.64264
100
AcDbArc
 50
90.0001983625
 51
180.0
  0
ARC
  5
39A
100
AcDbEntity
  8
BEZUGSACHSEN
100
AcDbCircle
 62
7
  6
CONTINUOUS
 10
168.891384948
 20
164.0918506445
 40
2.64264
100
AcDbArc
 50
0.0
 51
89.9992258746
  0
ARC
  5
39B
100
AcDbEntity
  8
BEZUGSACHSEN
100
AcDbCircle
 62
7
  6
CONTINUOUS
 10
237.1929865435
 20
87.5505336929
 40
13.2132
100
AcDbArc
 50
359.999984513
 51
8.0000189395
  0
ARC
  5
39C
100
AcDbEntity
  8
BEZUGSACHSEN
100
AcDbCircle
 62
8
  6
HIDDEN
 10
260.3160865435
 20
72.6409160704
 40
9.9099
100
AcDbArc
 50
99.0
 51
180.0
  0
ARC
  5
39D
100
AcDbEntity
  8
BEZUGSACHSEN
100
AcDbCircle
 62
7
  6
CONTINUOUS
 10
241.4545004051
 20
114.1927430906
 40
5.28528
100
AcDbArc
 50
7.9999773008
 51
45.0001724764
  0
ARC
  5
39E
100
AcDbEntity
  8
BEZUGSACHSEN
100
AcDbCircle
 62
7
  6
CONTINUOUS
 10
247.4989665435
 20
123.0973062662
 40
5.28528
100
AcDbArc
 50
179.9998461922
 51
225.0
  0
ARC
  5
39F
100
AcDbEntity
  8
BEZUGSACHSEN
100
AcDbCircle
 62
7
  6
CONTINUOUS
 10
254.3701465435
 20
54.1809505766
 40
3.96396
100
AcDbArc
 50
180.0
 51
264.0
  0
ARC
  5
3A0
100
AcDbEntity
  8
BEZUGSACHSEN
100
AcDbCircle
 62
7
  6
CONTINUOUS
 10
237.1929865435
 20
204.0584475961
 40
13.2132
100
AcDbArc
 50
351.9999972455
 51
0.000015487
  0
ARC
  5
3A1
100
AcDbEntity
  8
BEZUGSACHSEN
100
AcDbCircle
 62
7
  6
CONTINUOUS
 10
240.6611369889
 20
167.6444906445
 40
11.2319895545
100
AcDbArc
 50
356.4793898029
 51
26.8198457324
  0
ARC
  5
3A2
100
AcDbEntity
  8
BEZUGSACHSEN
100
AcDbCircle
 62
8
  6
HIDDEN
 10
260.3160865435
 20
218.9680652186
 40
9.9099
100
AcDbArc
 50
180.0
 51
261.0
  0
ARC
  5
3A3
100
AcDbEntity
  8
BEZUGSACHSEN
100
AcDbCircle
 62
7
  6
CONTINUOUS
 10
247.4989665435
 20
168.5116750228
 40
5.28528
100
AcDbArc
 50
135.0
 51
180.0005069143
  0
ARC
  5
3A4
100
AcDbEntity
  8
BEZUGSACHSEN
100
AcDbCircle
 62
7
  6
CONTINUOUS
 10
241.4545004051
 20
177.4162381983
 40
5.28528
100
AcDbArc
 50
314.9999959467
 51
352.0000145739
  0
ARC
  5
3A5
100
AcDbEntity
  8
BEZUGSACHSEN
100
AcDbCircle
 62
7
  6
CONTINUOUS
 10
254.3701465435
 20
237.4280307123
 40
3.96396
100
AcDbArc
 50
96.0
 51
180.0
  0
ARC
  5
3A6
100
AcDbEntity
  8
RUNDUNGEN
100
AcDbCircle
 62
7
  6
CONTINUOUS
 10
244.8563265435
 20
157.2810012292
 40
2.64264
100
AcDbArc
 50
146.90361512
 51
180.0
  0
ARC
  5
3A7
100
AcDbEntity
  8
RUNDUNGEN
100
AcDbCircle
 62
7
  6
CONTINUOUS
 10
287.7343865435
 20
87.5505336929
 40
13.2132
100
AcDbArc
 50
171.9999810605
 51
180.000015487
  0
ARC
  5
3A8
100
AcDbEntity
  8
RUNDUNGEN
100
AcDbCircle
 62
8
  6
HIDDEN
 10
264.6112865435
 20
72.6409160704
 40
9.9099
100
AcDbArc
 50
0.0
 51
81.0
  0
ARC
  5
3A9
100
AcDbEntity
  8
RUNDUNGEN
100
AcDbCircle
 62
7
  6
CONTINUOUS
 10
283.4728726818
 20
114.1927430906
 40
5.28528
100
AcDbArc
 50
134.9998275236
 51
172.0000226992
  0
ARC
  5
3AA
100
AcDbEntity
  8
RUNDUNGEN
100
AcDbCircle
 62
7
  6
CONTINUOUS
 10
277.4284065435
 20
123.0973062662
 40
5.28528
100
AcDbArc
 50
315.0
 51
0.0005108285
  0
ARC
  5
3AB
100
AcDbEntity
  8
RUNDUNGEN
100
AcDbCircle
 62
7
  6
CONTINUOUS
 10
270.5572265435
 20
54.1809505766
 40
3.96396
100
AcDbArc
 50
276.0
 51
360.0
  0
ARC
  5
3AC
100
AcDbEntity
  8
RUNDUNGEN
100
AcDbCircle
 62
7
  6
CONTINUOUS
 10
262.4636865435
 20
145.8044906445
 40
23.66
100
AcDbArc
 50
33.09638488
 51
146.90361512
  0
CIRCLE
  5
3AD
100
AcDbEntity
  8
0
100
AcDbCircle
 62
7
  6
CONTINUOUS
 10
262.4636865435
 20
145.8044906445
 40
7.92792
  0
ARC
  5
3AE
100
AcDbEntity
  8
BEZUGSACHSEN
100
AcDbCircle
 62
8
  6
HIDDEN
 10
264.6112865435
 20
218.9680652186
 40
9.9099
100
AcDbArc
 50
279.0
 51
360.0
  0
ARC
  5
3AF
100
AcDbEntity
  8
BEZUGSACHSEN
100
AcDbCircle
 62
7
  6
CONTINUOUS
 10
270.5572265435
 20
237.4280307123
 40
3.96396
100
AcDbArc
 50
0.0
 51
84.0
  0
ARC
  5
3B0
100
AcDbEntity
  8
BEZUGSACHSEN
100
AcDbCircle
 62
7
  6
CONTINUOUS
 10
284.266236098
 20
167.6444906445
 40
11.2319895545
100
AcDbArc
 50
153.226655599
 51
183.5198377384
  0
ARC
  5
3B1
100
AcDbEntity
  8
BEZUGSACHSEN
100
AcDbCircle
 62
7
  6
CONTINUOUS
 10
277.4284065435
 20
168.5116750228
 40
5.28528
100
AcDbArc
 50
359.9999947813
 51
45.0
  0
ARC
  5
3B2
100
AcDbEntity
  8
BEZUGSACHSEN
100
AcDbCircle
 62
7
  6
CONTINUOUS
 10
283.4728726818
 20
177.4162381983
 40
5.28528
100
AcDbArc
 50
187.9999854261
 51
225.0000040533
  0
ARC
  5
3B3
100
AcDbEntity
  8
RUNDUNGEN
100
AcDbCircle
 62
7
  6
CONTINUOUS
 10
280.0710442115
 20
157.2810053028
 40
2.642640034
100
AcDbArc
 50
359.9999116784
 51
33.0962832799
  0
ARC
  5
3B4
100
AcDbEntity
  8
BEZUGSACHSEN
100
AcDbCircle
 62
7
  6
CONTINUOUS
 10
287.7343865435
 20
204.0584475961
 40
13.2132
100
AcDbArc
 50
181.5080360456
 51
188.0000027545
  0
SPLINE
  5
3B5
100
AcDbEntity
  8
BEZUGSACHSEN
100
AcDbSpline
 62
7
  6
CONTINUOUS
 70
0
 71
3
 72
13
 73
9
 74
0
 42
0.0000001
 43
0.0000001
 44
0.0000000001
 40
0.0
 40
0.0
 40
0.0
 40
0.0
 40
0.1252752166
 40
0.2505420777
 40
0.5000088244
 40
0.7494615049
 40
0.8747265241
 40
1.0
 40
1.0
 40
1.0
 40
1.0
 10
55.0709708302
 20
178.7829587506
 30
0.0
 10
54.9081636635
 20
178.8041002803
 30
0.0
 10
54.5856055174
 20
178.8767515802
 30
0.0
 10
53.9808362248
 20
179.1365632272
 30
0.0
 10
53.3302178157
 20
179.6650915998
 30
0.0
 10
52.9179573588
 20
180.3952769963
 30
0.0
 10
52.7651042032
 20
181.035579061
 30
0.0
 10
52.7494439665
 20
181.365912252
 30
0.0
 10
52.7570866299
 20
181.5299060886
 30
0.0
  0
SPLINE
  5
3B6
100
AcDbEntity
  8
BEZUGSACHSEN
100
AcDbSpline
 62
7
  6
CONTINUOUS
 70
0
 71
3
 72
8
 73
4
 74
0
 42
0.0000001
 43
0.0000001
 44
0.0000000001
 40
0.0
 40
0.0
 40
0.0
 40
0.0
 40
1.0
 40
1.0
 40
1.0
 40
1.0
 10
86.2627243902
 20
170.0701820069
 30
0.0
 10
86.3276962311
 20
170.3629707186
 30
0.0
 10
86.3580250472
 20
170.6649424805
 30
0.0
 10
86.358024948
 20
170.9648534169
 30
0.0
  0
SPLINE
  5
3B7
100
AcDbEntity
  8
BEZUGSACHSEN
100
AcDbSpline
 62
7
  6
CONTINUOUS
 70
0
 71
3
 72
11
 73
7
 74
0
 42
0.0000001
 43
0.0000001
 44
0.0000000001
 40
0.0
 40
0.0
 40
0.0
 40
0.0
 40
0.2500139914
 40
0.5000034895
 40
0.7499908135
 40
1.0
 40
1.0
 40
1.0
 40
1.0
 10
183.667799535
 20
122.1444915463
 30
0.0
 10
183.8810010522
 20
122.144491181
 30
0.0
 10
184.3091241364
 20
122.1957994577
 30
0.0
 10
184.9134669186
 20
122.4225463583
 30
0.0
 10
185.4469746318
 20
122.7859364101
 30
0.0
 10
185.7350936508
 20
123.1068524283
 30
0.0
 10
185.857378837
 20
123.2814934115
 30
0.0
  0
SPLINE
  5
3B8
100
AcDbEntity
  8
BEZUGSACHSEN
100
AcDbSpline
 62
7
  6
CONTINUOUS
 70
0
 71
3
 72
15
 73
11
 74
0
 42
0.0000001
 43
0.0000001
 44
0.0000000001
 40
0.0
 40
0.0
 40
0.0
 40
0.0
 40
0.1250047632
 40
0.2500010337
 40
0.3750036571
 40
0.5000036903
 40
0.6250030324
 40
0.7500039506
 40
0.8749974338
 40
1.0
 40
1.0
 40
1.0
 40
1.0
 10
133.168605788
 20
122.1444940864
 30
0.0
 10
132.9947228332
 20
122.1444938754
 30
0.0
 10
132.6460314808
 20
122.1782668206
 30
0.0
 10
132.1432388867
 20
122.3284936761
 30
0.0
 10
131.6786373684
 20
122.5728948345
 30
0.0
 10
131.2702200819
 20
122.9027071808
 30
0.0
 10
130.9338306588
 20
123.3057741986
 30
0.0
 10
130.6829871001
 20
123.7670582088
 30
0.0
 10
130.5279949702
 20
124.2685732147
 30
0.0
 10
130.4930249655
 20
124.6173168147
 30
0.0
 10
130.493024948
 20
124.7911967135
 30
0.0
  0
SPLINE
  5
3B9
100
AcDbEntity
  8
RUNDUNGEN
100
AcDbSpline
 62
7
  6
CONTINUOUS
 70
0
 71
3
 72
15
 73
11
 74
0
 42
0.0000001
 43
0.0000001
 44
0.0000000001
 40
0.0
 40
0.0
 40
0.0
 40
0.0
 40
0.1250047632
 40
0.2500010337
 40
0.3750036571
 40
0.5000036903
 40
0.6250030324
 40
0.7500039506
 40
0.8749974338
 40
1.0
 40
1.0
 40
1.0
 40
1.0
 10
99.607444108
 20
169.4644872026
 30
0.0
 10
99.7813270628
 20
169.4644874136
 30
0.0
 10
100.1300184152
 20
169.4307144684
 30
0.0
 10
100.6328110094
 20
169.2804876129
 30
0.0
 10
101.0974125277
 20
169.0360864545
 30
0.0
 10
101.5058298142
 20
168.7062741082
 30
0.0
 10
101.8422192373
 20
168.3032070904
 30
0.0
 10
102.093062796
 20
167.8419230802
 30
0.0
 10
102.2480549259
 20
167.3404080743
 30
0.0
 10
102.2830249306
 20
166.9916644742
 30
0.0
 10
102.283024948
 20
166.8177845755
 30
0.0
  0
SPLINE
  5
3BA
100
AcDbEntity
  8
RUNDUNGEN
100
AcDbSpline
 62
7
  6
CONTINUOUS
 70
0
 71
3
 72
11
 73
7
 74
0
 42
0.0000001
 43
0.0000001
 44
0.0000000001
 40
0.0
 40
0.0
 40
0.0
 40
0.0
 40
0.2500139914
 40
0.5000034895
 40
0.7499908135
 40
1.0
 40
1.0
 40
1.0
 40
1.0
 10
49.1082503611
 20
169.4644897427
 30
0.0
 10
48.8950488439
 20
169.464490108
 30
0.0
 10
48.4669257596
 20
169.4131818313
 30
0.0
 10
47.8625829774
 20
169.1864349307
 30
0.0
 10
47.3290752642
 20
168.8230448789
 30
0.0
 10
47.0409562452
 20
168.5021288607
 30
0.0
 10
46.9186710591
 20
168.3274878775
 30
0.0
  0
SPLINE
  5
3BB
100
AcDbEntity
  8
RUNDUNGEN
100
AcDbSpline
 62
7
  6
CONTINUOUS
 70
0
 71
3
 72
8
 73
4
 74
0
 42
0.0000001
 43
0.0000001
 44
0.0000000001
 40
0.0
 40
0.0
 40
0.0
 40
0.0
 40
1.0
 40
1.0
 40
1.0
 40
1.0
 10
146.5133255058
 20
121.5387992821
 30
0.0
 10
146.4483536649
 20
121.2460105704
 30
0.0
 10
146.4180248488
 20
120.9440388085
 30
0.0
 10
146.418024948
 20
120.6441278721
 30
0.0
  0
SPLINE
  5
3BC
100
AcDbEntity
  8
RUNDUNGEN
100
AcDbSpline
 62
7
  6
CONTINUOUS
 70
0
 71
3
 72
13
 73
9
 74
0
 42
0.0000001
 43
0.0000001
 44
0.0000000001
 40
0.0
 40
0.0
 40
0.0
 40
0.0
 40
0.1252752166
 40
0.2505420777
 40
0.5000088244
 40
0.7494615049
 40
0.8747265241
 40
1.0
 40
1.0
 40
1.0
 40
1.0
 10
177.7050790659
 20
112.8260225383
 30
0.0
 10
177.8678862326
 20
112.8048810087
 30
0.0
 10
178.1904443787
 20
112.7322297087
 30
0.0
 10
178.7952136713
 20
112.4724180618
 30
0.0
 10
179.4458320804
 20
111.9438896892
 30
0.0
 10
179.8580925373
 20
111.2137042927
 30
0.0
 10
180.0109456929
 20
110.573402228
 30
0.0
 10
180.0266059296
 20
110.243069037
 30
0.0
 10
180.0189632661
 20
110.0790752003
 30
0.0
  0
ELLIPSE
  5
3BD
100
AcDbEntity
  8
0
100
AcDbEllipse
 62
7
  6
CONTINUOUS
 10
39.388024948
 20
145.8044906445
 30
0.0
 11
0.0
 21
7.92792
 31
0.0
 40
0.1051042353
 41
3.1415926536
 42
6.2831853072
  0
ELLIPSE
  5
3BE
100
AcDbEntity
  8
BEZUGSACHSEN
100
AcDbEllipse
 62
7
  6
CONTINUOUS
 10
193.388024948
 20
145.8044906445
 30
0.0
 11
-0.0
 21
7.92792
 31
0.0
 40
0.1051042353
 41
-0.0
 42
3.1415926536
  0
ELLIPSE
  5
3BF
100
AcDbEntity
  8
BEZUGSACHSEN
100
AcDbEllipse
 62
7
  6
CONTINUOUS
 10
130.493024948
 20
145.8044906445
 30
0.0
 11
0.0
 21
8.25
 31
0.0
 40
0.1583844403
 41
-3.1415926536
 42
0.0
  0
ELLIPSE
  5
3C0
100
AcDbEntity
  8
0
100
AcDbEllipse
 62
7
  6
CONTINUOUS
 10
102.283024948
 20
145.8044906445
 30
0.0
 11
0.0
 21
8.25
 31
0.0
 40
0.1583844403
 41
0.0
 42
3.1415926536
  0
ENDSEC
  0
SECTION
  2
OBJECTS
  0
DICTIONARY
  5
C
100
AcDbDictionary
280
0
281
1
  3
ACAD_GROUP
350
D
  3
ACAD_MLINESTYLE
350
17
  3
ACAD_LAYOUT
350
1A
  3
ACAD_PLOTSETTINGS
350
19
  3
ACAD_PLOTSTYLENAME
350
E
  0
DICTIONARY
  5
D
102
{ACAD_REACTORS
330
C
102
}
100
AcDbDictionary
280
0
281
1
  0
ACDBDICTIONARYWDFLT
  5
E
102
{ACAD_REACTORS
330
C
102
}
100
AcDbDictionary
281
1
  3
Normal
350
F
100
AcDbDictionaryWithDefault
340
F
  0
DICTIONARY
  5
17
102
{ACAD_REACTORS
330
C
102
}
100
AcDbDictionary
280
0
281
1
  3
Standard
350
18
  0
DICTIONARY
  5
19
102
{ACAD_REACTORS
330
C
102
}
100
AcDbDictionary
281
1
  0
DICTIONARY
  5
1A
102
{ACAD_REACTORS
330
C
102
}
100
AcDbDictionary
281
1
  3
Model
350
3C1
  3
Layout1
350
3C2
  0
ACDBPLACEHOLDER
  5
F
102
{ACAD_REACTORS
330
E
102
}
  0
MLINESTYLE
  5
18
102
{ACAD_REACTORS
330
17
102
}
100
AcDbMlineStyle
  2
STANDARD
 70
0
  3

 62
256
 51
90.0
 52
90.0
 71
2
 49
0.5
 62
256
  6
BYLAYER
 49
-0.5
 62
256
  6
BYLAYER
  0
LAYOUT
  5
3C1
102
{ACAD_REACTORS
330
1A
102
}
100
AcDbPlotSettings
  1

  2
none_device
  4
ISO_A3_(420.00_x_297.00_MM)
  6

 40
0.0
 41
0.0
 42
0.0
 43
0.0
 44
420.0
 45
297.0
 46
0.0
 47
0.0
 48
0.0
 49
0.0
140
0.0
141
0.0
142
1.0
143
1.0
 70
1024
 72
1
 73
0
 74
0
  7

 75
0
147
1.0
148
0.0
149
0.0
100
AcDbLayout
  1
Model
 70
0
 71
0
 10
0.0
 20
0.0
 11
420.0
 21
297.0
 12
0.0
 22
0.0
 32
0.0
 14
0.0
 24
0.0
 34
0.0
 15
0.0
 25
0.0
 35
0.0
146
0.0
 13
0.0
 23
0.0
 33
0.0
 16
1.0
 26
0.0
 36
0.0
 17
0.0
 27
1.0
 37
0.0
 76
0
330
207
345
0
346
0
  0
LAYOUT
  5
3C2
102
{ACAD_REACTORS
330
1A
102
}
100
AcDbPlotSettings
  1

  2
none_device
  4
ISO_A3_(420.00_x_297.00_MM)
  6

 40
0.0
 41
0.0
 42
0.0
 43
0.0
 44
420.0
 45
297.0
 46
0.0
 47
0.0
 48
0.0
 49
0.0
140
0.0
141
0.0
142
1.0
143
1.0
 70
0
 72
1
 73
0
 74
0
  7

 75
0
147
1.0
148
0.0
149
0.0
100
AcDbLayout
  1
Layout1
 70
0
 71
1
 10
0.0
 20
0.0
 11
420.0
 21
297.0
 12
0.0
 22
0.0
 32
0.0
 14
0.0
 24
0.0
 34
0.0
 15
0.0
 25
0.0
 35
0.0
146
0.0
 13
0.0
 23
0.0
 33
0.0
 16
1.0
 26
0.0
 36
0.0
 17
0.0
 27
1.0
 37
0.0
 76
0
330
208
345
0
346
0
  0
ENDSEC
  0
EOF
